  0
SECTION
  2
HEADER
  9
$ACADVER
  1
AC1006
  9
$INSBASE
 10
0.000000
 20
0.000000
 30
0.0
  9
$EXTMIN
 10
0.000000
 20
0.000000
  9
$EXTMAX
 10
1189.000000
 20
841.000000
  9
$LIMMIN
 10
0.000000
 20
0.000000
  9
$LIMMAX
 10
1189.000000
 20
841.000000
  9
$VIEWCTR
 10
594.500000
 20
420.500000
  9
$VIEWSIZE
 40
841.000000
  9
$SNAPMODE
 70
     0
  9
$SNAPUNIT
 10
1.0
 20
1.0
  9
$SNAPBASE
 10
0.0
 20
0.0
  9
$SNAPANG
 50
0.0
  9
$SNAPSTYLE
 70
     0
  9
$SNAPISOPAIR
 70
     0
  9
$GRIDMODE
 70
     0
  9
$GRIDUNIT
 10
0.0
 20
0.0
  9
$ORTHOMODE
 70
     0
  9
$REGENMODE
 70
     1
  9
$FILLMODE
 70
     1
  9
$QTEXTMODE
 70
     0
  9
$DRAGMODE
 70
     2
  9
$LTSCALE
 40
15.000000
  9
$OSMODE
 70
     0
  9
$ATTMODE
 70
     1
  9
$TEXTSIZE
 40
0.2
  9
$TRACEWID
 40
0.05
  9
$TEXTSTYLE
  7
STANDARD
  9
$CLAYER
  8
CSLAYER1
  9
$CELTYPE
  6
BYLAYER
  9
$CECOLOR
 62
   256
  9
$DIMSCALE
 40
1.0
  9
$DIMASZ
 40
0.18
  9
$DIMEXO
 40
0.0625
  9
$DIMDLI
 40
0.38
  9
$DIMRND
 40
0.0
  9
$DIMDLE
 40
0.0
  9
$DIMEXE
 40
0.18
  9
$DIMTP
 40
0.0
  9
$DIMTM
 40
0.0
  9
$DIMTXT
 40
0.18
  9
$DIMCEN
 40
0.09
  9
$DIMTSZ
 40
0.0
  9
$DIMTOL
 70
     0
  9
$DIMLIM
 70
     0
  9
$DIMTIH
 70
     1
  9
$DIMTOH
 70
     1
  9
$DIMSE1
 70
     0
  9
$DIMSE2
 70
     0
  9
$DIMTAD
 70
     0
  9
$DIMZIN
 70
     0
  9
$DIMBLK
  1

  9
$LUNITS
 70
     2
  9
$LUPREC
 70
     4
  9
$AXISMODE
 70
     0
  9
$AXISUNIT
 10
0.0
 20
0.0
  9
$SKETCHINC
 40
0.1
  9
$FILLETRAD
 40
0.0
  9
$AUNITS
 70
     0
  9
$AUPREC
 70
     0
  9
$MENU
  1
ACAD
  9
$ELEVATION
 40
0.0
  9
$THICKNESS
 40
0.0
  9
$VIEWDIR
 10
0.0
 20
0.0
 30
1.0
  9
$LIMCHECK
 70
     0
  9
$BLIPMODE
 70
     1
  9
$CHAMFERA
 40
0.0
  9
$CHAMFERB
 40
0.0
  9
$FASTZOOM
 70
     1
  9
$SKPOLY
 70
     0
  9
$TDCREATE
 40
0.000000
  9
$TDUPDATE
 40
0.000000
  9
$TDINDWG
 40
0.0
  9
$TDUSRTIMER
 40
0.0
  9
$USRTIMER
 70
     1
  9
$ANGBASE
 50
0.0
  9
$ANGDIR
 70
     0
  9
$PDMODE
 70
     0
  9
$PDSIZE
 40
0.0
  9
$PLINEWID
 40
0.0
  9
$COORDS
 70
     0
  9
$USERI1
 70
     0
  9
$USERI2
 70
     0
  9
$USERI3
 70
     0
  9
$USERI4
 70
     0
  9
$USERI5
 70
     0
  9
$USERR1
 40
0.0
  9
$USERR2
 40
0.0
  9
$USERR3
 40
0.0
  9
$USERR4
 40
0.0
  9
$USERR5
 40
0.0
  0
ENDSEC
  0
SECTION
  2
TABLES
  0
TABLE
  2
LTYPE
 70
     9
  0
LTYPE
  2
CONTINUOUS
 70
    64
  3
Solid line
 72
    65
 73
     0
 40
0.0
  0
LTYPE
  2
DASHED
 70
    64
  3
__ __ __ __ __ __ __ __ __ __ __ __ __ __ __
 72
    65
 73
     2
 40
0.75
 49
0.5
 49
-0.25
  0
LTYPE
  2
HIDDEN
 70
    64
  3
_ _ _ _ _ _ _ _ _ _ _ _ _ _ _ _ _ _ _ _ _ _ _
 72
    65
 73
     2
 40
0.375
 49
0.25
 49
-0.125
  0
LTYPE
  2
DOT
 70
    64
  3
...............................................
 72
    65
 73
     2
 40
0.25
 49
0.0
 49
-0.25
  0
LTYPE
  2
DASHDOT
 70
    64
  3
__ . __ . __ . __ . __ . __ . __ . __ . __ . __
 72
    65
 73
     4
 40
1.0
 49
0.5
 49
-0.25
 49
0.0
 49
-0.25
  0
LTYPE
  2
DIVIDE
 70
    64
  3
__ . . __ . . __ . . __ . . __ . . __ . . __
 72
    65
 73
     6
 40
1.25
 49
0.5
 49
-0.25
 49
0.0
 49
-0.25
 49
0.0
 49
-0.25
  0
LTYPE
  2
CENTER
 70
    64
  3
____ _ ____ _ ____ _ ____ _ ____ _ ____ _ ____ 
 72
    65
 73
     4
 40
2.0
 49
1.25
 49
-0.25
 49
0.25
 49
-0.25
  0
LTYPE
  2
PHANTOM
 70
    64
  3
______  __  __  ______  __  __  ______  __  __ 
 72
    65
 73
     6
 40
2.5
 49
1.25
 49
-0.25
 49
0.25
 49
-0.25
 49
0.25
 49
-0.25
  0
LTYPE
  2
BORDER
 70
    64
  3
__ __ . __ __ . __ __ . __ __ . __ __ . __ __ .
 72
    65
 73
     6
 40
1.75
 49
0.5
 49
-0.25
 49
0.5
 49
-0.25
 49
0.0
 49
-0.25
  0
ENDTAB
  0
TABLE
  2
LAYER
 70
    16
  0
LAYER
  2
CSLAYER1
 70
    64
 62
     7
  6
CONTINUOUS
  0
LAYER
  2
CSLAYER2
 70
    64
 62
     7
  6
CONTINUOUS
  0
LAYER
  2
CSLAYER3
 70
    64
 62
     7
  6
CONTINUOUS
  0
LAYER
  2
CSLAYER4
 70
    64
 62
     7
  6
CONTINUOUS
  0
LAYER
  2
CSLAYER5
 70
    64
 62
     7
  6
CONTINUOUS
  0
LAYER
  2
CSLAYER6
 70
    64
 62
     7
  6
CONTINUOUS
  0
LAYER
  2
CSLAYER7
 70
    64
 62
     7
  6
CONTINUOUS
  0
LAYER
  2
CSLAYER8
 70
    64
 62
     7
  6
CONTINUOUS
  0
LAYER
  2
CSLAYER9
 70
    64
 62
     7
  6
CONTINUOUS
  0
LAYER
  2
CSLAYER10
 70
    64
 62
     7
  6
CONTINUOUS
  0
LAYER
  2
CSLAYER11
 70
    64
 62
     7
  6
CONTINUOUS
  0
LAYER
  2
CSLAYER12
 70
    64
 62
     7
  6
CONTINUOUS
  0
LAYER
  2
CSLAYER13
 70
    64
 62
     7
  6
CONTINUOUS
  0
LAYER
  2
CSLAYER14
 70
    64
 62
     7
  6
CONTINUOUS
  0
LAYER
  2
CSLAYER15
 70
    64
 62
     7
  6
CONTINUOUS
  0
LAYER
  2
CSLAYER16
 70
    64
 62
     7
  6
CONTINUOUS
  0
ENDTAB
  0
TABLE
  2
STYLE
 70
     1
  0
STYLE
  2
JX_FONT
 70
     0
 40
1.0
 41
1.0
 50
0.0
 71
     0
 42
1.0
  3
monotxt
  4
bigfont
  0
ENDTAB
  0
TABLE
  2
VIEW
 70
     0
  0
ENDTAB
  0
ENDSEC
  0
SECTION
  2
BLOCKS
  0
ENDSEC
  0
SECTION
  2
ENTITIES
  0
LINE
  8
CSLAYER1
  6
CENTER
 62
     3
 10
177.473511
 20
265.106791
 11
196.821735
 21
284.455015
  0
ARC
  8
CSLAYER1
  6
CENTER
 62
     3
 10
233.109564
 20
320.742844
 40
65.000000
 50
212.917958
 51
237.082042
  0
LINE
  8
CSLAYER1
  6
CENTER
 62
     3
 10
132.049698
 20
320.743042
 11
334.170557
 21
320.743042
  0
LINE
  8
CSLAYER1
  6
CENTER
 62
     3
 10
385.773923
 20
320.743042
 11
770.699831
 21
320.743042
  0
LINE
  8
CSLAYER1
  6
CENTER
 62
     3
 10
288.745220
 20
376.379294
 11
269.396996
 21
357.031070
  0
ARC
  8
CSLAYER1
  6
CENTER
 62
     3
 10
233.109167
 20
320.743241
 40
65.000000
 50
32.917958
 51
57.082042
  0
ARC
  8
CSLAYER1
  6
CENTER
 62
     3
 10
233.109167
 20
320.742844
 40
65.000000
 50
302.917958
 51
327.082042
  0
LINE
  8
CSLAYER1
  6
CENTER
 62
     3
 10
269.396996
 20
284.455015
 11
289.677709
 21
264.174301
  0
LINE
  8
CSLAYER1
  6
CENTER
 62
     3
 10
233.109365
 20
213.243042
 11
233.109365
 21
423.243073
  0
ARC
  8
CSLAYER1
  6
CENTER
 62
     3
 10
233.109564
 20
320.743241
 40
65.000000
 50
122.917958
 51
147.082042
  0
LINE
  8
CSLAYER1
  6
CENTER
 62
     3
 10
196.821735
 20
357.031070
 11
177.473511
 21
376.379294
  0
LINE
  8
CSLAYER1
  6
CENTER
 62
     3
 10
423.773892
 20
352.743042
 11
423.773892
 21
288.743042
  0
LINE
  8
CSLAYER1
  6
CENTER
 62
     3
 10
418.773892
 20
283.743042
 11
418.773892
 21
273.043030
  0
LINE
  8
CSLAYER1
  6
CONTINUOUS
 62
     6
 10
180.647623
 20
271.028126
 11
187.147623
 21
267.275349
  0
LINE
  8
CSLAYER1
  6
CONTINUOUS
 62
     6
 10
187.147623
 20
267.275349
 11
193.647623
 21
271.028126
  0
LINE
  8
CSLAYER1
  6
CONTINUOUS
 62
     6
 10
193.647623
 20
271.028126
 11
193.647623
 21
278.533680
  0
LINE
  8
CSLAYER1
  6
CONTINUOUS
 62
     6
 10
193.647623
 20
278.533680
 11
187.147623
 21
282.286456
  0
LINE
  8
CSLAYER1
  6
CONTINUOUS
 62
     6
 10
187.147623
 20
282.286456
 11
180.647623
 21
278.533680
  0
LINE
  8
CSLAYER1
  6
CONTINUOUS
 62
     6
 10
180.647623
 20
278.533680
 11
180.647623
 21
271.028126
  0
CIRCLE
  8
CSLAYER1
  6
CONTINUOUS
 62
     6
 10
187.147623
 20
274.780903
 40
7.700000
  0
CIRCLE
  8
CSLAYER1
  6
CONTINUOUS
 62
     6
 10
187.147623
 20
274.780903
 40
6.305000
  0
LINE
  8
CSLAYER1
  6
CONTINUOUS
 62
     6
 10
189.109365
 20
294.743042
 11
197.957214
 21
294.279364
  0
ARC
  8
CSLAYER1
  6
CONTINUOUS
 62
     6
 10
233.109365
 20
320.743042
 40
45.000000
 50
215.914393
 51
266.815239
  0
LINE
  8
CSLAYER1
  6
CONTINUOUS
 62
     6
 10
268.261518
 20
294.279365
 11
277.109365
 21
294.743042
  0
ARC
  8
CSLAYER1
  6
CONTINUOUS
 62
     6
 10
277.109365
 20
295.743042
 40
1.000000
 50
270.000019
 51
360.000000
  0
LINE
  8
CSLAYER1
  6
CONTINUOUS
 62
     6
 10
278.109365
 20
295.743042
 11
278.109365
 21
296.743042
  0
ARC
  8
CSLAYER1
  6
CONTINUOUS
 62
     6
 10
277.124410
 20
296.743042
 40
1.000000
 50
0.000018
 51
89.999999
  0
LINE
  8
CSLAYER1
  6
CONTINUOUS
 62
     6
 10
277.124410
 20
297.743042
 11
273.550090
 21
297.930401
  0
ARC
  8
CSLAYER1
  6
CONTINUOUS
 62
     6
 10
273.639083
 20
299.628145
 40
1.700075
 50
92.999690
 51
266.999412
  0
LINE
  8
CSLAYER1
  6
CONTINUOUS
 62
     6
 10
273.550117
 20
301.325891
 11
281.129781
 21
301.723083
  0
ARC
  8
CSLAYER1
  6
CONTINUOUS
 62
     6
 10
281.109365
 20
302.722839
 40
1.000000
 50
271.169236
 51
359.999982
  0
LINE
  8
CSLAYER1
  6
CONTINUOUS
 62
     6
 10
282.109365
 20
302.722839
 11
282.109365
 21
338.763245
  0
ARC
  8
CSLAYER1
  6
CONTINUOUS
 62
     6
 10
281.109365
 20
338.763245
 40
1.000000
 50
0.000000
 51
88.830746
  0
LINE
  8
CSLAYER1
  6
CONTINUOUS
 62
     6
 10
281.129781
 20
339.763001
 11
273.550117
 21
340.160193
  0
ARC
  8
CSLAYER1
  6
CONTINUOUS
 62
     6
 10
273.639083
 20
341.857939
 40
1.700075
 50
93.000588
 51
267.000310
  0
LINE
  8
CSLAYER1
  6
CONTINUOUS
 62
     6
 10
273.550090
 20
343.555683
 11
277.124410
 21
343.743042
  0
ARC
  8
CSLAYER1
  6
CONTINUOUS
 62
     6
 10
277.124410
 20
344.743042
 40
1.000000
 50
270.000001
 51
359.999982
  0
LINE
  8
CSLAYER1
  6
CONTINUOUS
 62
     6
 10
278.109365
 20
344.743042
 11
278.109365
 21
345.743042
  0
ARC
  8
CSLAYER1
  6
CONTINUOUS
 62
     6
 10
277.109365
 20
345.743042
 40
1.000000
 50
0.000000
 51
89.999981
  0
LINE
  8
CSLAYER1
  6
CONTINUOUS
 62
     6
 10
277.109365
 20
346.743042
 11
268.261518
 21
347.206719
  0
ARC
  8
CSLAYER1
  6
CONTINUOUS
 62
     6
 10
233.109365
 20
320.743042
 40
45.000000
 50
35.914392
 51
144.085607
  0
LINE
  8
CSLAYER1
  6
CONTINUOUS
 62
     6
 10
197.957214
 20
347.206720
 11
189.109365
 21
346.743042
  0
ARC
  8
CSLAYER1
  6
CONTINUOUS
 62
     6
 10
189.109365
 20
345.743042
 40
1.000000
 50
90.000039
 51
180.000020
  0
LINE
  8
CSLAYER1
  6
CONTINUOUS
 62
     6
 10
188.109365
 20
345.743042
 11
188.109365
 21
344.743042
  0
ARC
  8
CSLAYER1
  6
CONTINUOUS
 62
     6
 10
189.094320
 20
344.743042
 40
1.000000
 50
180.000020
 51
270.000001
  0
LINE
  8
CSLAYER1
  6
CONTINUOUS
 62
     6
 10
189.094320
 20
343.743042
 11
192.668641
 21
343.555683
  0
ARC
  8
CSLAYER1
  6
CONTINUOUS
 62
     6
 10
192.579648
 20
341.857939
 40
1.700075
 50
-87.000310
 51
86.999412
  0
LINE
  8
CSLAYER1
  6
CONTINUOUS
 62
     6
 10
192.668614
 20
340.160193
 11
185.088949
 21
339.763001
  0
ARC
  8
CSLAYER1
  6
CONTINUOUS
 62
     6
 10
185.109365
 20
338.763245
 40
1.000000
 50
91.169216
 51
180.000020
  0
LINE
  8
CSLAYER1
  6
CONTINUOUS
 62
     6
 10
184.109365
 20
338.763245
 11
184.109365
 21
302.722839
  0
ARC
  8
CSLAYER1
  6
CONTINUOUS
 62
     6
 10
185.109365
 20
302.722839
 40
1.000000
 50
180.000020
 51
268.830766
  0
LINE
  8
CSLAYER1
  6
CONTINUOUS
 62
     6
 10
185.088949
 20
301.723083
 11
192.668614
 21
301.325891
  0
ARC
  8
CSLAYER1
  6
CONTINUOUS
 62
     6
 10
192.579648
 20
299.628145
 40
1.700075
 50
-86.999412
 51
87.000310
  0
LINE
  8
CSLAYER1
  6
CONTINUOUS
 62
     6
 10
192.668641
 20
297.930401
 11
189.094320
 21
297.743042
  0
ARC
  8
CSLAYER1
  6
CONTINUOUS
 62
     6
 10
189.094320
 20
296.743042
 40
1.000000
 50
90.000039
 51
180.000020
  0
LINE
  8
CSLAYER1
  6
CONTINUOUS
 62
     6
 10
188.109365
 20
296.743042
 11
188.109365
 21
295.743042
  0
ARC
  8
CSLAYER1
  6
CONTINUOUS
 62
     6
 10
189.109365
 20
295.743042
 40
1.000000
 50
180.000020
 51
270.000001
  0
ARC
  8
CSLAYER1
  6
CONTINUOUS
 62
     6
 10
233.109365
 20
320.743042
 40
45.000000
 50
205.543092
 51
209.475790
  0
ARC
  8
CSLAYER1
  6
CONTINUOUS
 62
     6
 10
233.109365
 20
320.743042
 40
37.000000
 50
210.132722
 51
228.917667
  0
ARC
  8
CSLAYER1
  6
CONTINUOUS
 62
     6
 10
210.109365
 20
294.361230
 40
2.000000
 50
228.917667
 51
360.000000
  0
LINE
  8
CSLAYER1
  6
CONTINUOUS
 62
     6
 10
212.109365
 20
294.361230
 11
212.109365
 21
307.743042
  0
ARC
  8
CSLAYER1
  6
CONTINUOUS
 62
     6
 10
209.109365
 20
307.743042
 40
3.000000
 50
0.000000
 51
90.000000
  0
LINE
  8
CSLAYER1
  6
CONTINUOUS
 62
     6
 10
209.109365
 20
310.743042
 11
203.109365
 21
310.743042
  0
ARC
  8
CSLAYER1
  6
CONTINUOUS
 62
     6
 10
203.109365
 20
308.743042
 40
2.000000
 50
90.000000
 51
180.000000
  0
LINE
  8
CSLAYER1
  6
CONTINUOUS
 62
     6
 10
201.109365
 20
308.743042
 11
201.109365
 21
302.168867
  0
LINE
  8
CSLAYER1
  6
CONTINUOUS
 62
     6
 10
219.109365
 20
301.121625
 11
219.109365
 21
290.743042
  0
ARC
  8
CSLAYER1
  6
CONTINUOUS
 62
     6
 10
221.109365
 20
290.743042
 40
2.000000
 50
180.000000
 51
270.000000
  0
LINE
  8
CSLAYER1
  6
CONTINUOUS
 62
     6
 10
221.109365
 20
288.743042
 11
226.109365
 21
288.743042
  0
ARC
  8
CSLAYER1
  6
CONTINUOUS
 62
     6
 10
226.109365
 20
290.743042
 40
2.000000
 50
270.000000
 51
360.000000
  0
LINE
  8
CSLAYER1
  6
CONTINUOUS
 62
     6
 10
228.109365
 20
290.743042
 11
228.109365
 21
298.834140
  0
ARC
  8
CSLAYER1
  6
CONTINUOUS
 62
     6
 10
226.109365
 20
298.834140
 40
2.000000
 50
0.000000
 51
72.281068
  0
ARC
  8
CSLAYER1
  6
CONTINUOUS
 62
     6
 10
233.109365
 20
320.743042
 40
21.000000
 50
238.551019
 51
252.281068
  0
ARC
  8
CSLAYER1
  6
CONTINUOUS
 62
     6
 10
221.109365
 20
301.121625
 40
2.000000
 50
58.551019
 51
180.000000
  0
LINE
  8
CSLAYER1
  6
CONTINUOUS
 62
     6
 10
228.715337
 20
306.401077
 11
229.297682
 21
308.301847
  0
ARC
  8
CSLAYER1
  6
CONTINUOUS
 62
     6
 10
226.617236
 20
309.466306
 40
2.922462
 50
-23.481547
 51
129.764151
  0
ARC
  8
CSLAYER1
  6
CONTINUOUS
 62
     6
 10
223.875734
 20
312.760969
 40
1.363635
 50
217.903413
 51
309.763730
  0
ARC
  8
CSLAYER1
  6
CONTINUOUS
 62
     6
 10
233.109365
 20
319.949920
 40
13.065822
 50
-37.903067
 51
217.903051
  0
ARC
  8
CSLAYER1
  6
CONTINUOUS
 62
     6
 10
242.342984
 20
312.760969
 40
1.363635
 50
230.236329
 51
322.096590
  0
ARC
  8
CSLAYER1
  6
CONTINUOUS
 62
     6
 10
239.601485
 20
309.466306
 40
2.922462
 50
50.235851
 51
203.481549
  0
LINE
  8
CSLAYER1
  6
CONTINUOUS
 62
     6
 10
236.921036
 20
308.301847
 11
237.503381
 21
306.401077
  0
CIRCLE
  8
CSLAYER1
  6
CONTINUOUS
 62
     6
 10
239.601485
 20
309.466306
 40
1.363635
  0
ARC
  8
CSLAYER1
  6
CONTINUOUS
 62
     6
 10
233.109365
 20
320.743042
 40
21.000000
 50
287.718932
 51
301.448981
  0
ARC
  8
CSLAYER1
  6
CONTINUOUS
 62
     6
 10
240.109365
 20
298.834140
 40
2.000000
 50
107.718932
 51
180.000000
  0
LINE
  8
CSLAYER1
  6
CONTINUOUS
 62
     6
 10
238.109365
 20
298.834140
 11
238.109365
 21
290.743042
  0
ARC
  8
CSLAYER1
  6
CONTINUOUS
 62
     6
 10
240.109365
 20
290.743042
 40
2.000000
 50
180.000000
 51
270.000000
  0
LINE
  8
CSLAYER1
  6
CONTINUOUS
 62
     6
 10
240.109365
 20
288.743042
 11
245.109365
 21
288.743042
  0
ARC
  8
CSLAYER1
  6
CONTINUOUS
 62
     6
 10
245.109365
 20
290.743042
 40
2.000000
 50
270.000000
 51
360.000000
  0
LINE
  8
CSLAYER1
  6
CONTINUOUS
 62
     6
 10
247.109365
 20
290.743042
 11
247.109365
 21
301.121625
  0
ARC
  8
CSLAYER1
  6
CONTINUOUS
 62
     6
 10
245.109365
 20
301.121625
 40
2.000000
 50
0.000000
 51
121.448981
  0
LINE
  8
CSLAYER1
  6
CONTINUOUS
 62
     6
 10
254.109365
 20
307.743042
 11
254.109365
 21
294.361230
  0
ARC
  8
CSLAYER1
  6
CONTINUOUS
 62
     6
 10
256.109365
 20
294.361230
 40
2.000000
 50
180.000000
 51
311.082333
  0
ARC
  8
CSLAYER1
  6
CONTINUOUS
 62
     6
 10
233.109365
 20
320.743042
 40
37.000000
 50
311.082333
 51
329.867278
  0
LINE
  8
CSLAYER1
  6
CONTINUOUS
 62
     6
 10
265.109365
 20
302.168867
 11
265.109365
 21
308.743042
  0
ARC
  8
CSLAYER1
  6
CONTINUOUS
 62
     6
 10
263.109365
 20
308.743042
 40
2.000000
 50
0.000000
 51
90.000000
  0
LINE
  8
CSLAYER1
  6
CONTINUOUS
 62
     6
 10
263.109365
 20
310.743042
 11
257.109365
 21
310.743042
  0
ARC
  8
CSLAYER1
  6
CONTINUOUS
 62
     6
 10
257.109365
 20
307.743042
 40
3.000000
 50
90.000000
 51
180.000000
  0
ARC
  8
CSLAYER1
  6
CONTINUOUS
 62
     6
 10
233.109365
 20
320.743042
 40
45.000000
 50
330.524210
 51
334.456908
  0
LINE
  8
CSLAYER1
  6
CONTINUOUS
 62
     6
 10
279.071108
 20
282.286456
 11
272.571108
 21
278.533680
  0
LINE
  8
CSLAYER1
  6
CONTINUOUS
 62
     6
 10
272.571108
 20
278.533680
 11
272.571108
 21
271.028126
  0
LINE
  8
CSLAYER1
  6
CONTINUOUS
 62
     6
 10
272.571108
 20
271.028126
 11
279.071108
 21
267.275349
  0
LINE
  8
CSLAYER1
  6
CONTINUOUS
 62
     6
 10
279.071108
 20
267.275349
 11
285.571108
 21
271.028126
  0
LINE
  8
CSLAYER1
  6
CONTINUOUS
 62
     6
 10
285.571108
 20
271.028126
 11
285.571108
 21
278.533680
  0
LINE
  8
CSLAYER1
  6
CONTINUOUS
 62
     6
 10
285.571108
 20
278.533680
 11
279.071108
 21
282.286456
  0
CIRCLE
  8
CSLAYER1
  6
CONTINUOUS
 62
     6
 10
279.071108
 20
274.780903
 40
7.700000
  0
CIRCLE
  8
CSLAYER1
  6
CONTINUOUS
 62
     6
 10
279.071108
 20
274.780903
 40
6.305000
  0
LINE
  8
CSLAYER1
  6
CONTINUOUS
 62
     6
 10
237.345856
 20
257.140821
 11
235.127579
 21
255.987867
  0
ARC
  8
CSLAYER1
  6
CONTINUOUS
 62
     6
 10
251.017264
 20
264.246806
 40
17.907879
 50
180.000020
 51
207.463892
  0
LINE
  8
CSLAYER1
  6
CONTINUOUS
 62
     6
 10
233.109336
 20
264.228835
 11
233.109367
 21
265.693612
  0
ARC
  8
CSLAYER1
  6
CONTINUOUS
 62
     6
 10
233.734364
 20
266.776155
 40
1.250008
 50
240.000345
 51
300.000345
  0
ARC
  8
CSLAYER1
  6
CONTINUOUS
 62
     6
 10
233.734377
 20
264.611077
 40
1.250008
 50
60.000345
 51
120.000345
  0
ARC
  8
CSLAYER1
  6
CONTINUOUS
 62
     6
 10
232.484349
 20
264.611085
 40
1.250008
 50
60.000345
 51
120.000345
  0
ARC
  8
CSLAYER1
  6
CONTINUOUS
 62
     6
 10
231.234341
 20
264.611077
 40
1.250008
 50
60.000345
 51
120.000345
  0
ARC
  8
CSLAYER1
  6
CONTINUOUS
 62
     6
 10
231.234328
 20
266.776155
 40
1.250008
 50
240.000345
 51
300.000345
  0
LINE
  8
CSLAYER1
  6
CONTINUOUS
 62
     6
 10
230.609339
 20
265.693620
 11
230.609339
 21
264.246806
  0
ARC
  8
CSLAYER1
  6
CONTINUOUS
 62
     6
 10
215.201467
 20
264.246748
 40
15.407880
 50
332.536225
 51
359.942687
  0
LINE
  8
CSLAYER1
  6
CONTINUOUS
 62
     6
 10
228.872895
 20
257.140860
 11
231.091172
 21
255.987867
  0
ARC
  8
CSLAYER1
  6
CONTINUOUS
 62
     6
 10
215.201467
 20
264.246748
 40
17.907879
 50
332.536225
 51
359.942687
  0
ARC
  8
CSLAYER1
  6
CONTINUOUS
 62
     6
 10
234.984385
 20
264.611085
 40
1.250008
 50
60.000345
 51
120.000345
  0
LINE
  8
CSLAYER1
  6
CONTINUOUS
 62
     6
 10
235.609393
 20
265.693620
 11
235.609393
 21
264.246806
  0
ARC
  8
CSLAYER1
  6
CONTINUOUS
 62
     6
 10
251.017264
 20
264.246748
 40
15.407880
 50
179.999963
 51
207.463892
  0
LINE
  8
CSLAYER1
  6
CONTINUOUS
 62
     6
 10
236.809092
 20
256.861837
 11
238.623288
 21
253.869629
  0
LINE
  8
CSLAYER1
  6
CONTINUOUS
 62
     6
 10
237.886519
 20
253.357637
 11
236.236717
 21
256.564344
  0
LINE
  8
CSLAYER1
  6
CONTINUOUS
 62
     6
 10
235.661890
 20
256.271619
 11
237.041593
 21
253.055871
  0
LINE
  8
CSLAYER1
  6
CONTINUOUS
 62
     6
 10
230.574620
 20
256.256355
 11
229.007831
 21
252.845645
  0
LINE
  8
CSLAYER1
  6
CONTINUOUS
 62
     6
 10
228.221112
 20
253.132860
 11
229.982034
 21
256.564363
  0
LINE
  8
CSLAYER1
  6
CONTINUOUS
 62
     6
 10
229.386267
 20
256.866174
 11
227.529037
 21
253.604508
  0
ARC
  8
CSLAYER1
  6
CONTINUOUS
 62
     6
 10
234.984420
 20
266.473562
 40
1.250017
 50
59.999981
 51
119.999981
  0
ARC
  8
CSLAYER1
  6
CONTINUOUS
 62
     6
 10
234.984421
 20
268.638655
 40
1.250017
 50
239.999981
 51
299.999981
  0
LINE
  8
CSLAYER1
  6
CONTINUOUS
 62
     6
 10
235.609393
 20
267.556109
 11
235.609382
 21
276.814123
  0
LINE
  8
CSLAYER1
  6
CONTINUOUS
 62
     6
 10
233.109365
 20
275.743042
 11
233.109393
 21
267.556109
  0
ARC
  8
CSLAYER1
  6
CONTINUOUS
 62
     6
 10
232.484385
 20
268.638655
 40
1.250017
 50
239.999981
 51
299.999981
  0
ARC
  8
CSLAYER1
  6
CONTINUOUS
 62
     6
 10
232.484384
 20
266.473562
 40
1.250017
 50
59.999981
 51
119.999981
  0
ARC
  8
CSLAYER1
  6
CONTINUOUS
 62
     6
 10
233.734404
 20
268.638655
 40
1.250017
 50
239.999981
 51
299.999981
  0
ARC
  8
CSLAYER1
  6
CONTINUOUS
 62
     6
 10
231.234368
 20
268.638655
 40
1.250017
 50
239.999981
 51
299.999981
  0
LINE
  8
CSLAYER1
  6
CONTINUOUS
 62
     6
 10
230.609358
 20
267.556109
 11
230.609347
 21
276.814123
  0
CIRCLE
  8
CSLAYER1
  6
CONTINUOUS
 62
     6
 10
226.617236
 20
309.466306
 40
1.363635
  0
CIRCLE
  8
CSLAYER1
  6
CONTINUOUS
 62
     6
 10
233.109365
 20
320.743042
 40
44.000000
  0
CIRCLE
  8
CSLAYER1
  6
CONTINUOUS
 62
     6
 10
233.109365
 20
320.743042
 40
15.000000
  0
ARC
  8
CSLAYER1
  6
CONTINUOUS
 62
     6
 10
233.109365
 20
320.743042
 40
21.000000
 50
107.718932
 51
121.448981
  0
ARC
  8
CSLAYER1
  6
CONTINUOUS
 62
     6
 10
221.109365
 20
340.364459
 40
2.000000
 50
180.000000
 51
301.448981
  0
LINE
  8
CSLAYER1
  6
CONTINUOUS
 62
     6
 10
219.109365
 20
340.364459
 11
219.109365
 21
350.743042
  0
ARC
  8
CSLAYER1
  6
CONTINUOUS
 62
     6
 10
221.109365
 20
350.743042
 40
2.000000
 50
90.000000
 51
180.000000
  0
LINE
  8
CSLAYER1
  6
CONTINUOUS
 62
     6
 10
221.109365
 20
352.743042
 11
226.109365
 21
352.743042
  0
ARC
  8
CSLAYER1
  6
CONTINUOUS
 62
     6
 10
226.109365
 20
350.743042
 40
2.000000
 50
0.000000
 51
90.000000
  0
LINE
  8
CSLAYER1
  6
CONTINUOUS
 62
     6
 10
228.109365
 20
350.743042
 11
228.109365
 21
342.651945
  0
ARC
  8
CSLAYER1
  6
CONTINUOUS
 62
     6
 10
226.109365
 20
342.651945
 40
2.000000
 50
287.718932
 51
360.000000
  0
LINE
  8
CSLAYER1
  6
CONTINUOUS
 62
     6
 10
238.109365
 20
342.651945
 11
238.109365
 21
350.743042
  0
ARC
  8
CSLAYER1
  6
CONTINUOUS
 62
     6
 10
240.109365
 20
350.743042
 40
2.000000
 50
90.000000
 51
180.000000
  0
LINE
  8
CSLAYER1
  6
CONTINUOUS
 62
     6
 10
240.109365
 20
352.743042
 11
245.109365
 21
352.743042
  0
ARC
  8
CSLAYER1
  6
CONTINUOUS
 62
     6
 10
245.109365
 20
350.743042
 40
2.000000
 50
0.000000
 51
90.000000
  0
LINE
  8
CSLAYER1
  6
CONTINUOUS
 62
     6
 10
247.109365
 20
350.743042
 11
247.109365
 21
340.364459
  0
ARC
  8
CSLAYER1
  6
CONTINUOUS
 62
     6
 10
245.109365
 20
340.364459
 40
2.000000
 50
238.551019
 51
360.000000
  0
ARC
  8
CSLAYER1
  6
CONTINUOUS
 62
     6
 10
233.109365
 20
320.743042
 40
21.000000
 50
58.551019
 51
72.281068
  0
ARC
  8
CSLAYER1
  6
CONTINUOUS
 62
     6
 10
240.109365
 20
342.651945
 40
2.000000
 50
180.000000
 51
252.281068
  0
LINE
  8
CSLAYER1
  6
CONTINUOUS
 62
     6
 10
254.109365
 20
347.124854
 11
254.109365
 21
333.743042
  0
ARC
  8
CSLAYER1
  6
CONTINUOUS
 62
     6
 10
257.109365
 20
333.743042
 40
3.000000
 50
180.000000
 51
270.000000
  0
LINE
  8
CSLAYER1
  6
CONTINUOUS
 62
     6
 10
257.109365
 20
330.743042
 11
263.109365
 21
330.743042
  0
ARC
  8
CSLAYER1
  6
CONTINUOUS
 62
     6
 10
263.109365
 20
332.743042
 40
2.000000
 50
270.000000
 51
360.000000
  0
LINE
  8
CSLAYER1
  6
CONTINUOUS
 62
     6
 10
265.109365
 20
332.743042
 11
265.109365
 21
339.317218
  0
ARC
  8
CSLAYER1
  6
CONTINUOUS
 62
     6
 10
233.109365
 20
320.743042
 40
37.000000
 50
30.132722
 51
48.917667
  0
ARC
  8
CSLAYER1
  6
CONTINUOUS
 62
     6
 10
256.109365
 20
347.124854
 40
2.000000
 50
48.917667
 51
180.000000
  0
ARC
  8
CSLAYER1
  6
CONTINUOUS
 62
     6
 10
233.109365
 20
320.743042
 40
45.000000
 50
25.550580
 51
29.475790
  0
LINE
  8
CSLAYER1
  6
CONTINUOUS
 62
     6
 10
279.071108
 20
359.199628
 11
272.571108
 21
362.952405
  0
LINE
  8
CSLAYER1
  6
CONTINUOUS
 62
     6
 10
272.571108
 20
362.952405
 11
272.571108
 21
370.457958
  0
LINE
  8
CSLAYER1
  6
CONTINUOUS
 62
     6
 10
272.571108
 20
370.457958
 11
279.071108
 21
374.210735
  0
LINE
  8
CSLAYER1
  6
CONTINUOUS
 62
     6
 10
279.071108
 20
374.210735
 11
285.571108
 21
370.457958
  0
LINE
  8
CSLAYER1
  6
CONTINUOUS
 62
     6
 10
285.571108
 20
370.457958
 11
285.571108
 21
362.952405
  0
LINE
  8
CSLAYER1
  6
CONTINUOUS
 62
     6
 10
285.571108
 20
362.952405
 11
279.071108
 21
359.199628
  0
CIRCLE
  8
CSLAYER1
  6
CONTINUOUS
 62
     6
 10
279.071108
 20
366.705182
 40
7.700000
  0
CIRCLE
  8
CSLAYER1
  6
CONTINUOUS
 62
     6
 10
279.071108
 20
366.705182
 40
6.305000
  0
LINE
  8
CSLAYER1
  6
CONTINUOUS
 62
     6
 10
212.109365
 20
347.124854
 11
212.109365
 21
333.743042
  0
ARC
  8
CSLAYER1
  6
CONTINUOUS
 62
     6
 10
209.109365
 20
333.743042
 40
3.000000
 50
270.000000
 51
360.000000
  0
LINE
  8
CSLAYER1
  6
CONTINUOUS
 62
     6
 10
209.109365
 20
330.743042
 11
203.109365
 21
330.743042
  0
ARC
  8
CSLAYER1
  6
CONTINUOUS
 62
     6
 10
203.109365
 20
332.743042
 40
2.000000
 50
180.000000
 51
270.000000
  0
LINE
  8
CSLAYER1
  6
CONTINUOUS
 62
     6
 10
201.109365
 20
332.743042
 11
201.109365
 21
339.317218
  0
ARC
  8
CSLAYER1
  6
CONTINUOUS
 62
     6
 10
233.109365
 20
320.743042
 40
37.000000
 50
131.082333
 51
149.867278
  0
ARC
  8
CSLAYER1
  6
CONTINUOUS
 62
     6
 10
210.109365
 20
347.124854
 40
2.000000
 50
0.000000
 51
131.082333
  0
ARC
  8
CSLAYER1
  6
CONTINUOUS
 62
     6
 10
233.109365
 20
320.743042
 40
45.000000
 50
150.524210
 51
154.449420
  0
LINE
  8
CSLAYER1
  6
CONTINUOUS
 62
     6
 10
187.147623
 20
359.199628
 11
193.647623
 21
362.952405
  0
LINE
  8
CSLAYER1
  6
CONTINUOUS
 62
     6
 10
193.647623
 20
362.952405
 11
193.647623
 21
370.457958
  0
LINE
  8
CSLAYER1
  6
CONTINUOUS
 62
     6
 10
193.647623
 20
370.457958
 11
187.147623
 21
374.210735
  0
LINE
  8
CSLAYER1
  6
CONTINUOUS
 62
     6
 10
187.147623
 20
374.210735
 11
180.647623
 21
370.457958
  0
LINE
  8
CSLAYER1
  6
CONTINUOUS
 62
     6
 10
180.647623
 20
370.457958
 11
180.647623
 21
362.952405
  0
LINE
  8
CSLAYER1
  6
CONTINUOUS
 62
     6
 10
180.647623
 20
362.952405
 11
187.147623
 21
359.199628
  0
CIRCLE
  8
CSLAYER1
  6
CONTINUOUS
 62
     6
 10
187.147623
 20
366.705182
 40
7.700000
  0
CIRCLE
  8
CSLAYER1
  6
CONTINUOUS
 62
     6
 10
187.147623
 20
366.705182
 40
6.305000
  0
LINE
  8
CSLAYER1
  6
CONTINUOUS
 62
     6
 10
391.773892
 20
363.631500
 11
392.773892
 21
364.631500
  0
LINE
  8
CSLAYER1
  6
CONTINUOUS
 62
     6
 10
392.773892
 20
364.631500
 11
444.773892
 21
364.631500
  0
LINE
  8
CSLAYER1
  6
CONTINUOUS
 62
     6
 10
444.773892
 20
365.743042
 11
572.473928
 21
365.743042
  0
LINE
  8
CSLAYER1
  6
CONTINUOUS
 62
     6
 10
572.473963
 20
275.743042
 11
444.773892
 21
275.743042
  0
LINE
  8
CSLAYER1
  6
CONTINUOUS
 62
     6
 10
444.773892
 20
275.743042
 11
444.773892
 21
365.743042
  0
LINE
  8
CSLAYER1
  6
CONTINUOUS
 62
     6
 10
441.773892
 20
346.743042
 11
405.773892
 21
346.743042
  0
ARC
  8
CSLAYER1
  6
CONTINUOUS
 62
     6
 10
405.773892
 20
345.743042
 40
1.000000
 50
90.000016
 51
180.000005
  0
LINE
  8
CSLAYER1
  6
CONTINUOUS
 62
     6
 10
404.773892
 20
345.743042
 11
404.773892
 21
344.743042
  0
ARC
  8
CSLAYER1
  6
CONTINUOUS
 62
     6
 10
405.773892
 20
344.743042
 40
1.000000
 50
180.000019
 51
270.000001
  0
LINE
  8
CSLAYER1
  6
CONTINUOUS
 62
     6
 10
405.773892
 20
343.743042
 11
441.773892
 21
343.743042
  0
ARC
  8
CSLAYER1
  6
CONTINUOUS
 62
     6
 10
441.773892
 20
344.743042
 40
1.000000
 50
270.000001
 51
359.942691
  0
LINE
  8
CSLAYER1
  6
CONTINUOUS
 62
     6
 10
442.773892
 20
344.743042
 11
442.773892
 21
345.743042
  0
ARC
  8
CSLAYER1
  6
CONTINUOUS
 62
     6
 10
441.773892
 20
345.743042
 40
1.000000
 50
0.000000
 51
90.000003
  0
ARC
  8
CSLAYER1
  6
CONTINUOUS
 62
     6
 10
441.773892
 20
338.743042
 40
1.000000
 50
0.000000
 51
90.000003
  0
LINE
  8
CSLAYER1
  6
CONTINUOUS
 62
     6
 10
442.773892
 20
338.743042
 11
442.773892
 21
337.743042
  0
ARC
  8
CSLAYER1
  6
CONTINUOUS
 62
     6
 10
441.773892
 20
337.743042
 40
1.000000
 50
270.000001
 51
359.942691
  0
LINE
  8
CSLAYER1
  6
CONTINUOUS
 62
     6
 10
441.773892
 20
336.743042
 11
437.002652
 21
336.743042
  0
ARC
  8
CSLAYER1
  6
CONTINUOUS
 62
     6
 10
437.002652
 20
335.743042
 40
1.000000
 50
90.000003
 51
228.590367
  0
ARC
  8
CSLAYER1
  6
CONTINUOUS
 62
     6
 10
423.773892
 20
320.743042
 40
19.000000
 50
-48.590366
 51
48.590386
  0
ARC
  8
CSLAYER1
  6
CONTINUOUS
 62
     6
 10
437.002652
 20
305.743042
 40
1.000000
 50
131.409643
 51
270.000001
  0
LINE
  8
CSLAYER1
  6
CONTINUOUS
 62
     6
 10
437.002652
 20
304.743042
 11
441.773892
 21
304.743042
  0
ARC
  8
CSLAYER1
  6
CONTINUOUS
 62
     6
 10
441.773892
 20
303.743042
 40
1.000000
 50
0.057309
 51
89.999999
  0
LINE
  8
CSLAYER1
  6
CONTINUOUS
 62
     6
 10
442.773892
 20
303.743042
 11
442.773892
 21
302.743042
  0
ARC
  8
CSLAYER1
  6
CONTINUOUS
 62
     6
 10
441.773892
 20
302.743042
 40
1.000000
 50
269.999997
 51
360.000000
  0
LINE
  8
CSLAYER1
  6
CONTINUOUS
 62
     6
 10
441.773892
 20
301.743042
 11
405.773892
 21
301.743042
  0
ARC
  8
CSLAYER1
  6
CONTINUOUS
 62
     6
 10
405.773892
 20
302.743042
 40
1.000000
 50
179.999995
 51
269.999984
  0
LINE
  8
CSLAYER1
  6
CONTINUOUS
 62
     6
 10
404.773892
 20
302.743042
 11
404.773892
 21
303.743042
  0
ARC
  8
CSLAYER1
  6
CONTINUOUS
 62
     6
 10
405.773892
 20
303.743042
 40
1.000000
 50
89.999999
 51
179.999981
  0
LINE
  8
CSLAYER1
  6
CONTINUOUS
 62
     6
 10
405.773892
 20
304.743042
 11
410.545133
 21
304.743042
  0
ARC
  8
CSLAYER1
  6
CONTINUOUS
 62
     6
 10
410.545133
 20
305.743042
 40
1.000000
 50
-89.999999
 51
48.590386
  0
ARC
  8
CSLAYER1
  6
CONTINUOUS
 62
     6
 10
423.773892
 20
320.743042
 40
19.000000
 50
131.409657
 51
228.590367
  0
ARC
  8
CSLAYER1
  6
CONTINUOUS
 62
     6
 10
410.545133
 20
335.743042
 40
1.000000
 50
-48.590366
 51
90.000019
  0
LINE
  8
CSLAYER1
  6
CONTINUOUS
 62
     6
 10
410.545133
 20
336.743042
 11
405.773892
 21
336.743042
  0
ARC
  8
CSLAYER1
  6
CONTINUOUS
 62
     6
 10
405.773892
 20
337.743042
 40
1.000000
 50
180.000019
 51
270.000001
  0
LINE
  8
CSLAYER1
  6
CONTINUOUS
 62
     6
 10
404.773892
 20
337.743042
 11
404.773892
 21
338.743042
  0
ARC
  8
CSLAYER1
  6
CONTINUOUS
 62
     6
 10
405.773892
 20
338.743042
 40
1.000000
 50
90.000016
 51
180.000005
  0
LINE
  8
CSLAYER1
  6
CONTINUOUS
 62
     6
 10
405.773892
 20
339.743042
 11
441.773892
 21
339.743042
  0
LINE
  8
CSLAYER1
  6
CONTINUOUS
 62
     6
 10
429.773892
 20
321.643036
 11
417.773892
 21
321.643036
  0
LINE
  8
CSLAYER1
  6
CONTINUOUS
 62
     6
 10
417.773892
 20
321.643036
 11
417.773892
 21
319.843048
  0
LINE
  8
CSLAYER1
  6
CONTINUOUS
 62
     6
 10
417.773892
 20
319.843048
 11
429.773892
 21
319.843048
  0
LINE
  8
CSLAYER1
  6
CONTINUOUS
 62
     6
 10
429.773892
 20
319.843048
 11
429.773892
 21
321.643036
  0
CIRCLE
  8
CSLAYER1
  6
CONTINUOUS
 62
     6
 10
423.773892
 20
320.743042
 40
12.000000
  0
CIRCLE
  8
CSLAYER1
  6
CONTINUOUS
 62
     6
 10
423.773892
 20
320.743042
 40
15.000000
  0
CIRCLE
  8
CSLAYER1
  6
CONTINUOUS
 62
     6
 10
423.773892
 20
320.743042
 40
16.000000
  0
ARC
  8
CSLAYER1
  6
CONTINUOUS
 62
     6
 10
405.773892
 20
296.743042
 40
1.000000
 50
89.999999
 51
179.999981
  0
LINE
  8
CSLAYER1
  6
CONTINUOUS
 62
     6
 10
404.773892
 20
296.743042
 11
404.773892
 21
295.743042
  0
ARC
  8
CSLAYER1
  6
CONTINUOUS
 62
     6
 10
405.773892
 20
295.743042
 40
1.000000
 50
179.999995
 51
269.999984
  0
LINE
  8
CSLAYER1
  6
CONTINUOUS
 62
     6
 10
405.773892
 20
294.743042
 11
441.773892
 21
294.743042
  0
ARC
  8
CSLAYER1
  6
CONTINUOUS
 62
     6
 10
441.773892
 20
295.743042
 40
1.000000
 50
269.999997
 51
360.000000
  0
LINE
  8
CSLAYER1
  6
CONTINUOUS
 62
     6
 10
442.773892
 20
295.743042
 11
442.773892
 21
296.743042
  0
ARC
  8
CSLAYER1
  6
CONTINUOUS
 62
     6
 10
441.773892
 20
296.743042
 40
1.000000
 50
0.057309
 51
89.999999
  0
LINE
  8
CSLAYER1
  6
CONTINUOUS
 62
     6
 10
441.773892
 20
297.743042
 11
405.773892
 21
297.743042
  0
LINE
  8
CSLAYER1
  6
CONTINUOUS
 62
     6
 10
405.773892
 20
280.743042
 11
405.773892
 21
276.743042
  0
LINE
  8
CSLAYER1
  6
CONTINUOUS
 62
     6
 10
405.773892
 20
276.743042
 11
392.773892
 21
276.743042
  0
LINE
  8
CSLAYER1
  6
CONTINUOUS
 62
     6
 10
392.773892
 20
276.743042
 11
392.773892
 21
364.631500
  0
LINE
  8
CSLAYER1
  6
CONTINUOUS
 62
     6
 10
391.773892
 20
363.631500
 11
391.773892
 21
277.743042
  0
LINE
  8
CSLAYER1
  6
CONTINUOUS
 62
     6
 10
391.773892
 20
277.743042
 11
392.773892
 21
276.743042
  0
LINE
  8
CSLAYER1
  6
CONTINUOUS
 62
     6
 10
401.657731
 20
267.739225
 11
401.486836
 21
267.572214
  0
LINE
  8
CSLAYER1
  6
CONTINUOUS
 62
     6
 10
401.486836
 20
267.572214
 11
401.313833
 21
267.404099
  0
LINE
  8
CSLAYER1
  6
CONTINUOUS
 62
     6
 10
401.313833
 20
267.404099
 11
401.140498
 21
267.237204
  0
LINE
  8
CSLAYER1
  6
CONTINUOUS
 62
     6
 10
401.140498
 20
267.237204
 11
400.968606
 21
267.073854
  0
LINE
  8
CSLAYER1
  6
CONTINUOUS
 62
     6
 10
400.968606
 20
267.073854
 11
400.799934
 21
266.916375
  0
LINE
  8
CSLAYER1
  6
CONTINUOUS
 62
     6
 10
400.799934
 20
266.916375
 11
400.636256
 21
266.767091
  0
LINE
  8
CSLAYER1
  6
CONTINUOUS
 62
     6
 10
400.636256
 20
266.767091
 11
400.479350
 21
266.628326
  0
LINE
  8
CSLAYER1
  6
CONTINUOUS
 62
     6
 10
400.479350
 20
266.628326
 11
400.338120
 21
266.505529
  0
LINE
  8
CSLAYER1
  6
CONTINUOUS
 62
     6
 10
400.338120
 20
266.505529
 11
400.191936
 21
266.377643
  0
LINE
  8
CSLAYER1
  6
CONTINUOUS
 62
     6
 10
400.191936
 20
266.377643
 11
400.041943
 21
266.245136
  0
LINE
  8
CSLAYER1
  6
CONTINUOUS
 62
     6
 10
400.041943
 20
266.245136
 11
399.889282
 21
266.108477
  0
LINE
  8
CSLAYER1
  6
CONTINUOUS
 62
     6
 10
399.889282
 20
266.108477
 11
399.735095
 21
265.968132
  0
LINE
  8
CSLAYER1
  6
CONTINUOUS
 62
     6
 10
399.735095
 20
265.968132
 11
399.580524
 21
265.824569
  0
LINE
  8
CSLAYER1
  6
CONTINUOUS
 62
     6
 10
399.580524
 20
265.824569
 11
399.426713
 21
265.678257
  0
LINE
  8
CSLAYER1
  6
CONTINUOUS
 62
     6
 10
399.426713
 20
265.678257
 11
399.274802
 21
265.529662
  0
LINE
  8
CSLAYER1
  6
CONTINUOUS
 62
     6
 10
399.274802
 20
265.529662
 11
399.125935
 21
265.379253
  0
LINE
  8
CSLAYER1
  6
CONTINUOUS
 62
     6
 10
399.125935
 20
265.379253
 11
398.981253
 21
265.227496
  0
LINE
  8
CSLAYER1
  6
CONTINUOUS
 62
     6
 10
398.981253
 20
265.227496
 11
398.841899
 21
265.074860
  0
LINE
  8
CSLAYER1
  6
CONTINUOUS
 62
     6
 10
398.841899
 20
265.074860
 11
398.786375
 21
265.011916
  0
LINE
  8
CSLAYER1
  6
CONTINUOUS
 62
     6
 10
398.786375
 20
265.011916
 11
398.731447
 21
264.948416
  0
LINE
  8
CSLAYER1
  6
CONTINUOUS
 62
     6
 10
398.731447
 20
264.948416
 11
398.677057
 21
264.884415
  0
LINE
  8
CSLAYER1
  6
CONTINUOUS
 62
     6
 10
398.677057
 20
264.884415
 11
398.623143
 21
264.819968
  0
LINE
  8
CSLAYER1
  6
CONTINUOUS
 62
     6
 10
398.623143
 20
264.819968
 11
398.569647
 21
264.755132
  0
LINE
  8
CSLAYER1
  6
CONTINUOUS
 62
     6
 10
398.569647
 20
264.755132
 11
398.516509
 21
264.689963
  0
LINE
  8
CSLAYER1
  6
CONTINUOUS
 62
     6
 10
398.516509
 20
264.689963
 11
398.463670
 21
264.624515
  0
LINE
  8
CSLAYER1
  6
CONTINUOUS
 62
     6
 10
398.463670
 20
264.624515
 11
398.411068
 21
264.558844
  0
LINE
  8
CSLAYER1
  6
CONTINUOUS
 62
     6
 10
398.411068
 20
264.558844
 11
398.358646
 21
264.493007
  0
LINE
  8
CSLAYER1
  6
CONTINUOUS
 62
     6
 10
398.358646
 20
264.493007
 11
398.306344
 21
264.427058
  0
LINE
  8
CSLAYER1
  6
CONTINUOUS
 62
     6
 10
398.306344
 20
264.427058
 11
398.177789
 21
264.264640
  0
LINE
  8
CSLAYER1
  6
CONTINUOUS
 62
     6
 10
398.177789
 20
264.264640
 11
398.206526
 21
264.217786
  0
LINE
  8
CSLAYER1
  6
CONTINUOUS
 62
     6
 10
398.206526
 20
264.217786
 11
398.247118
 21
264.157904
  0
LINE
  8
CSLAYER1
  6
CONTINUOUS
 62
     6
 10
398.247118
 20
264.157904
 11
398.291400
 21
264.098036
  0
LINE
  8
CSLAYER1
  6
CONTINUOUS
 62
     6
 10
398.291400
 20
264.098036
 11
398.338852
 21
264.038763
  0
LINE
  8
CSLAYER1
  6
CONTINUOUS
 62
     6
 10
398.338852
 20
264.038763
 11
398.388950
 21
263.980666
  0
LINE
  8
CSLAYER1
  6
CONTINUOUS
 62
     6
 10
398.388950
 20
263.980666
 11
398.441175
 21
263.924325
  0
LINE
  8
CSLAYER1
  6
CONTINUOUS
 62
     6
 10
398.441175
 20
263.924325
 11
398.495003
 21
263.870321
  0
LINE
  8
CSLAYER1
  6
CONTINUOUS
 62
     6
 10
398.495003
 20
263.870321
 11
398.549913
 21
263.819236
  0
LINE
  8
CSLAYER1
  6
CONTINUOUS
 62
     6
 10
398.549913
 20
263.819236
 11
398.605385
 21
263.771651
  0
LINE
  8
CSLAYER1
  6
CONTINUOUS
 62
     6
 10
398.605385
 20
263.771651
 11
398.660895
 21
263.728145
  0
LINE
  8
CSLAYER1
  6
CONTINUOUS
 62
     6
 10
398.660895
 20
263.728145
 11
398.715922
 21
263.689300
  0
LINE
  8
CSLAYER1
  6
CONTINUOUS
 62
     6
 10
398.715922
 20
263.689300
 11
398.772409
 21
263.655006
  0
LINE
  8
CSLAYER1
  6
CONTINUOUS
 62
     6
 10
398.772409
 20
263.655006
 11
398.833010
 21
263.624039
  0
LINE
  8
CSLAYER1
  6
CONTINUOUS
 62
     6
 10
398.833010
 20
263.624039
 11
398.897171
 21
263.596051
  0
LINE
  8
CSLAYER1
  6
CONTINUOUS
 62
     6
 10
398.897171
 20
263.596051
 11
398.964333
 21
263.570690
  0
LINE
  8
CSLAYER1
  6
CONTINUOUS
 62
     6
 10
398.964333
 20
263.570690
 11
399.033939
 21
263.547607
  0
LINE
  8
CSLAYER1
  6
CONTINUOUS
 62
     6
 10
399.033939
 20
263.547607
 11
399.105434
 21
263.526454
  0
LINE
  8
CSLAYER1
  6
CONTINUOUS
 62
     6
 10
399.105434
 20
263.526454
 11
399.178258
 21
263.506879
  0
LINE
  8
CSLAYER1
  6
CONTINUOUS
 62
     6
 10
399.178258
 20
263.506879
 11
399.251857
 21
263.488534
  0
LINE
  8
CSLAYER1
  6
CONTINUOUS
 62
     6
 10
399.251857
 20
263.488534
 11
399.325671
 21
263.471069
  0
LINE
  8
CSLAYER1
  6
CONTINUOUS
 62
     6
 10
399.325671
 20
263.471069
 11
399.399145
 21
263.454133
  0
LINE
  8
CSLAYER1
  6
CONTINUOUS
 62
     6
 10
399.399145
 20
263.454133
 11
399.471721
 21
263.437378
  0
LINE
  8
CSLAYER1
  6
CONTINUOUS
 62
     6
 10
399.471721
 20
263.437378
 11
399.545945
 21
263.419778
  0
LINE
  8
CSLAYER1
  6
CONTINUOUS
 62
     6
 10
399.545945
 20
263.419778
 11
399.619681
 21
263.401753
  0
LINE
  8
CSLAYER1
  6
CONTINUOUS
 62
     6
 10
399.619681
 20
263.401753
 11
399.692977
 21
263.383347
  0
LINE
  8
CSLAYER1
  6
CONTINUOUS
 62
     6
 10
399.692977
 20
263.383347
 11
399.765883
 21
263.364602
  0
LINE
  8
CSLAYER1
  6
CONTINUOUS
 62
     6
 10
399.765883
 20
263.364602
 11
399.838447
 21
263.345560
  0
LINE
  8
CSLAYER1
  6
CONTINUOUS
 62
     6
 10
399.838447
 20
263.345560
 11
399.910718
 21
263.326263
  0
LINE
  8
CSLAYER1
  6
CONTINUOUS
 62
     6
 10
399.910718
 20
263.326263
 11
399.982745
 21
263.306754
  0
LINE
  8
CSLAYER1
  6
CONTINUOUS
 62
     6
 10
399.982745
 20
263.306754
 11
400.054577
 21
263.287076
  0
LINE
  8
CSLAYER1
  6
CONTINUOUS
 62
     6
 10
400.054577
 20
263.287076
 11
400.126263
 21
263.267270
  0
LINE
  8
CSLAYER1
  6
CONTINUOUS
 62
     6
 10
400.126263
 20
263.267270
 11
400.197850
 21
263.247380
  0
LINE
  8
CSLAYER1
  6
CONTINUOUS
 62
     6
 10
400.197850
 20
263.247380
 11
400.278470
 21
263.224917
  0
LINE
  8
CSLAYER1
  6
CONTINUOUS
 62
     6
 10
400.278470
 20
263.224917
 11
400.405725
 21
263.397068
  0
LINE
  8
CSLAYER1
  6
CONTINUOUS
 62
     6
 10
400.405725
 20
263.397068
 11
400.500505
 21
263.524230
  0
LINE
  8
CSLAYER1
  6
CONTINUOUS
 62
     6
 10
400.500505
 20
263.524230
 11
400.596156
 21
263.650461
  0
LINE
  8
CSLAYER1
  6
CONTINUOUS
 62
     6
 10
400.596156
 20
263.650461
 11
400.693115
 21
263.775297
  0
LINE
  8
CSLAYER1
  6
CONTINUOUS
 62
     6
 10
400.693115
 20
263.775297
 11
400.791817
 21
263.898272
  0
LINE
  8
CSLAYER1
  6
CONTINUOUS
 62
     6
 10
400.791817
 20
263.898272
 11
400.892698
 21
264.018920
  0
LINE
  8
CSLAYER1
  6
CONTINUOUS
 62
     6
 10
400.892698
 20
264.018920
 11
400.996195
 21
264.136777
  0
LINE
  8
CSLAYER1
  6
CONTINUOUS
 62
     6
 10
400.996195
 20
264.136777
 11
401.102742
 21
264.251377
  0
LINE
  8
CSLAYER1
  6
CONTINUOUS
 62
     6
 10
401.102742
 20
264.251377
 11
401.212776
 21
264.362256
  0
LINE
  8
CSLAYER1
  6
CONTINUOUS
 62
     6
 10
401.212776
 20
264.362256
 11
401.326733
 21
264.468946
  0
LINE
  8
CSLAYER1
  6
CONTINUOUS
 62
     6
 10
401.326733
 20
264.468946
 11
401.445048
 21
264.570984
  0
LINE
  8
CSLAYER1
  6
CONTINUOUS
 62
     6
 10
401.445048
 20
264.570984
 11
401.596473
 21
264.690022
  0
LINE
  8
CSLAYER1
  6
CONTINUOUS
 62
     6
 10
401.596473
 20
264.690022
 11
401.754713
 21
264.804535
  0
LINE
  8
CSLAYER1
  6
CONTINUOUS
 62
     6
 10
401.754713
 20
264.804535
 11
401.917834
 21
264.915474
  0
LINE
  8
CSLAYER1
  6
CONTINUOUS
 62
     6
 10
401.917834
 20
264.915474
 11
402.083902
 21
265.023793
  0
LINE
  8
CSLAYER1
  6
CONTINUOUS
 62
     6
 10
402.083902
 20
265.023793
 11
402.250983
 21
265.130442
  0
LINE
  8
CSLAYER1
  6
CONTINUOUS
 62
     6
 10
402.250983
 20
265.130442
 11
402.417144
 21
265.236375
  0
LINE
  8
CSLAYER1
  6
CONTINUOUS
 62
     6
 10
402.417144
 20
265.236375
 11
402.580451
 21
265.342543
  0
LINE
  8
CSLAYER1
  6
CONTINUOUS
 62
     6
 10
402.580451
 20
265.342543
 11
402.738969
 21
265.449898
  0
LINE
  8
CSLAYER1
  6
CONTINUOUS
 62
     6
 10
402.738969
 20
265.449898
 11
402.890765
 21
265.559392
  0
LINE
  8
CSLAYER1
  6
CONTINUOUS
 62
     6
 10
402.890765
 20
265.559392
 11
403.033904
 21
265.671977
  0
LINE
  8
CSLAYER1
  6
CONTINUOUS
 62
     6
 10
403.033904
 20
265.671977
 11
403.166453
 21
265.788605
  0
LINE
  8
CSLAYER1
  6
CONTINUOUS
 62
     6
 10
403.166453
 20
265.788605
 11
403.269459
 21
265.891620
  0
LINE
  8
CSLAYER1
  6
CONTINUOUS
 62
     6
 10
403.269459
 20
265.891620
 11
403.371122
 21
266.005056
  0
LINE
  8
CSLAYER1
  6
CONTINUOUS
 62
     6
 10
403.371122
 20
266.005056
 11
403.470877
 21
266.127223
  0
LINE
  8
CSLAYER1
  6
CONTINUOUS
 62
     6
 10
403.470877
 20
266.127223
 11
403.568155
 21
266.256432
  0
LINE
  8
CSLAYER1
  6
CONTINUOUS
 62
     6
 10
403.568155
 20
266.256432
 11
403.662390
 21
266.390992
  0
LINE
  8
CSLAYER1
  6
CONTINUOUS
 62
     6
 10
403.662390
 20
266.390992
 11
403.753014
 21
266.529214
  0
LINE
  8
CSLAYER1
  6
CONTINUOUS
 62
     6
 10
403.753014
 20
266.529214
 11
403.839460
 21
266.669407
  0
LINE
  8
CSLAYER1
  6
CONTINUOUS
 62
     6
 10
403.839460
 20
266.669407
 11
403.921161
 21
266.809882
  0
LINE
  8
CSLAYER1
  6
CONTINUOUS
 62
     6
 10
403.921161
 20
266.809882
 11
403.997550
 21
266.948948
  0
LINE
  8
CSLAYER1
  6
CONTINUOUS
 62
     6
 10
403.997550
 20
266.948948
 11
404.068059
 21
267.084916
  0
LINE
  8
CSLAYER1
  6
CONTINUOUS
 62
     6
 10
404.068059
 20
267.084916
 11
404.173320
 21
267.300456
  0
ARC
  8
CSLAYER1
  6
CONTINUOUS
 62
     6
 10
403.247209
 20
266.744378
 40
1.080690
 50
30.945197
 51
90.945197
  0
ARC
  8
CSLAYER1
  6
CONTINUOUS
 62
     6
 10
402.302517
 20
267.269211
 40
1.080690
 50
30.945197
 51
90.945197
  0
ARC
  8
CSLAYER1
  6
CONTINUOUS
 62
     6
 10
403.211554
 20
268.905464
 40
1.080690
 50
210.945197
 51
270.945197
  0
LINE
  8
CSLAYER1
  6
CONTINUOUS
 62
     6
 10
402.284709
 20
268.349731
 11
402.140007
 21
268.210385
  0
LINE
  8
CSLAYER1
  6
CONTINUOUS
 62
     6
 10
402.140007
 20
268.210385
 11
401.986092
 21
268.060636
  0
LINE
  8
CSLAYER1
  6
CONTINUOUS
 62
     6
 10
401.986092
 20
268.060636
 11
401.824742
 21
267.902807
  0
LINE
  8
CSLAYER1
  6
CONTINUOUS
 62
     6
 10
401.824742
 20
267.902807
 11
401.657731
 21
267.739225
  0
ARC
  8
CSLAYER1
  6
CONTINUOUS
 62
     6
 10
404.758650
 20
269.753580
 40
1.095863
 50
203.568976
 51
263.568976
  0
ARC
  8
CSLAYER1
  6
CONTINUOUS
 62
     6
 10
405.640351
 20
269.102796
 40
1.095863
 50
203.568976
 51
263.568976
  0
ARC
  8
CSLAYER1
  6
CONTINUOUS
 62
     6
 10
404.513161
 20
267.575645
 40
1.095863
 50
23.568976
 51
83.568976
  0
LINE
  8
CSLAYER1
  6
CONTINUOUS
 62
     6
 10
404.007334
 20
269.495367
 11
403.754222
 21
269.315399
  0
LINE
  8
CSLAYER1
  6
CONTINUOUS
 62
     6
 10
404.007334
 20
269.495367
 11
404.260195
 21
269.675687
  0
LINE
  8
CSLAYER1
  6
CONTINUOUS
 62
     6
 10
404.260195
 20
269.675687
 11
404.512555
 21
269.856712
  0
LINE
  8
CSLAYER1
  6
CONTINUOUS
 62
     6
 10
404.512555
 20
269.856712
 11
404.764163
 21
270.038796
  0
LINE
  8
CSLAYER1
  6
CONTINUOUS
 62
     6
 10
404.764163
 20
270.038796
 11
405.014769
 21
270.222291
  0
LINE
  8
CSLAYER1
  6
CONTINUOUS
 62
     6
 10
405.014769
 20
270.222291
 11
405.264121
 21
270.407550
  0
LINE
  8
CSLAYER1
  6
CONTINUOUS
 62
     6
 10
405.264121
 20
270.407550
 11
405.511970
 21
270.594926
  0
LINE
  8
CSLAYER1
  6
CONTINUOUS
 62
     6
 10
405.511970
 20
270.594926
 11
405.758065
 21
270.784771
  0
LINE
  8
CSLAYER1
  6
CONTINUOUS
 62
     6
 10
405.758065
 20
270.784771
 11
406.002155
 21
270.977438
  0
LINE
  8
CSLAYER1
  6
CONTINUOUS
 62
     6
 10
406.002155
 20
270.977438
 11
406.243989
 21
271.173280
  0
LINE
  8
CSLAYER1
  6
CONTINUOUS
 62
     6
 10
406.243989
 20
271.173280
 11
406.483317
 21
271.372650
  0
LINE
  8
CSLAYER1
  6
CONTINUOUS
 62
     6
 10
406.483317
 20
271.372650
 11
406.640582
 21
271.506947
  0
LINE
  8
CSLAYER1
  6
CONTINUOUS
 62
     6
 10
406.640582
 20
271.506947
 11
406.797632
 21
271.643972
  0
LINE
  8
CSLAYER1
  6
CONTINUOUS
 62
     6
 10
406.797632
 20
271.643972
 11
406.953723
 21
271.783531
  0
LINE
  8
CSLAYER1
  6
CONTINUOUS
 62
     6
 10
406.953723
 20
271.783531
 11
407.108112
 21
271.925434
  0
LINE
  8
CSLAYER1
  6
CONTINUOUS
 62
     6
 10
407.108112
 20
271.925434
 11
407.260056
 21
272.069486
  0
LINE
  8
CSLAYER1
  6
CONTINUOUS
 62
     6
 10
407.260056
 20
272.069486
 11
407.408813
 21
272.215496
  0
LINE
  8
CSLAYER1
  6
CONTINUOUS
 62
     6
 10
407.408813
 20
272.215496
 11
407.553640
 21
272.363271
  0
LINE
  8
CSLAYER1
  6
CONTINUOUS
 62
     6
 10
407.553640
 20
272.363271
 11
407.693792
 21
272.512619
  0
LINE
  8
CSLAYER1
  6
CONTINUOUS
 62
     6
 10
407.693792
 20
272.512619
 11
407.828528
 21
272.663346
  0
LINE
  8
CSLAYER1
  6
CONTINUOUS
 62
     6
 10
407.828528
 20
272.663346
 11
407.957104
 21
272.815261
  0
LINE
  8
CSLAYER1
  6
CONTINUOUS
 62
     6
 10
407.957104
 20
272.815261
 11
408.078776
 21
272.968170
  0
LINE
  8
CSLAYER1
  6
CONTINUOUS
 62
     6
 10
408.078776
 20
272.968170
 11
408.193231
 21
273.119497
  0
LINE
  8
CSLAYER1
  6
CONTINUOUS
 62
     6
 10
408.193231
 20
273.119497
 11
408.308532
 21
273.276750
  0
LINE
  8
CSLAYER1
  6
CONTINUOUS
 62
     6
 10
408.308532
 20
273.276750
 11
408.424145
 21
273.438808
  0
LINE
  8
CSLAYER1
  6
CONTINUOUS
 62
     6
 10
408.424145
 20
273.438808
 11
408.539538
 21
273.604548
  0
LINE
  8
CSLAYER1
  6
CONTINUOUS
 62
     6
 10
408.539538
 20
273.604548
 11
408.654178
 21
273.772847
  0
LINE
  8
CSLAYER1
  6
CONTINUOUS
 62
     6
 10
408.654178
 20
273.772847
 11
408.767532
 21
273.942584
  0
LINE
  8
CSLAYER1
  6
CONTINUOUS
 62
     6
 10
408.767532
 20
273.942584
 11
408.879068
 21
274.112634
  0
LINE
  8
CSLAYER1
  6
CONTINUOUS
 62
     6
 10
408.879068
 20
274.112634
 11
408.988252
 21
274.281877
  0
LINE
  8
CSLAYER1
  6
CONTINUOUS
 62
     6
 10
408.988252
 20
274.281877
 11
409.094552
 21
274.449188
  0
LINE
  8
CSLAYER1
  6
CONTINUOUS
 62
     6
 10
409.094552
 20
274.449188
 11
409.197435
 21
274.613447
  0
LINE
  8
CSLAYER1
  6
CONTINUOUS
 62
     6
 10
409.197435
 20
274.613447
 11
409.296367
 21
274.773529
  0
LINE
  8
CSLAYER1
  6
CONTINUOUS
 62
     6
 10
409.296367
 20
274.773529
 11
409.382841
 21
274.911755
  0
LINE
  8
CSLAYER1
  6
CONTINUOUS
 62
     6
 10
409.382841
 20
274.911755
 11
409.474793
 21
275.054213
  0
LINE
  8
CSLAYER1
  6
CONTINUOUS
 62
     6
 10
409.474793
 20
275.054213
 11
409.570993
 21
275.199693
  0
LINE
  8
CSLAYER1
  6
CONTINUOUS
 62
     6
 10
409.570993
 20
275.199693
 11
409.670212
 21
275.346983
  0
LINE
  8
CSLAYER1
  6
CONTINUOUS
 62
     6
 10
409.670212
 20
275.346983
 11
409.771220
 21
275.494873
  0
LINE
  8
CSLAYER1
  6
CONTINUOUS
 62
     6
 10
409.771220
 20
275.494873
 11
409.872788
 21
275.642152
  0
LINE
  8
CSLAYER1
  6
CONTINUOUS
 62
     6
 10
409.872788
 20
275.642152
 11
409.973686
 21
275.787609
  0
LINE
  8
CSLAYER1
  6
CONTINUOUS
 62
     6
 10
409.973686
 20
275.787609
 11
410.072685
 21
275.930032
  0
LINE
  8
CSLAYER1
  6
CONTINUOUS
 62
     6
 10
410.072685
 20
275.930032
 11
410.168555
 21
276.068212
  0
LINE
  8
CSLAYER1
  6
CONTINUOUS
 62
     6
 10
410.168555
 20
276.068212
 11
410.289096
 21
276.243042
  0
ARC
  8
CSLAYER1
  6
CONTINUOUS
 62
     6
 10
408.023892
 20
278.243042
 40
2.000000
 50
180.000000
 51
270.000000
  0
LINE
  8
CSLAYER1
  6
CONTINUOUS
 62
     6
 10
406.023892
 20
278.243042
 11
406.023892
 21
278.743042
  0
LINE
  8
CSLAYER1
  6
CONTINUOUS
 62
     6
 10
405.773892
 20
278.743042
 11
431.773892
 21
278.743042
  0
LINE
  8
CSLAYER1
  6
CONTINUOUS
 62
     6
 10
431.773892
 20
280.743042
 11
405.773892
 21
280.743042
  0
LINE
  8
CSLAYER1
  6
CONTINUOUS
 62
     6
 10
408.023892
 20
276.243042
 11
417.112518
 21
276.243042
  0
ARC
  8
CSLAYER1
  6
CONTINUOUS
 62
     6
 10
418.773892
 20
283.043030
 40
7.000000
 50
253.743003
 51
286.257026
  0
ARC
  8
CSLAYER1
  6
CONTINUOUS
 62
     6
 10
420.453549
 20
277.282959
 40
1.000000
 50
286.257408
 51
354.999902
  0
LINE
  8
CSLAYER1
  6
CONTINUOUS
 62
     6
 10
421.449735
 20
277.195801
 11
421.504849
 21
277.825623
  0
ARC
  8
CSLAYER1
  6
CONTINUOUS
 62
     6
 10
421.305631
 20
277.843048
 40
0.200000
 50
-5.000126
 51
90.000019
  0
LINE
  8
CSLAYER1
  6
CONTINUOUS
 62
     6
 10
421.573880
 20
278.043061
 11
418.773892
 21
278.043030
  0
LINE
  8
CSLAYER1
  6
CONTINUOUS
 62
     6
 10
418.773892
 20
278.043030
 11
415.973905
 21
278.043030
  0
ARC
  8
CSLAYER1
  6
CONTINUOUS
 62
     6
 10
415.973905
 20
278.143036
 40
0.100000
 50
180.000005
 51
270.000001
  0
LINE
  8
CSLAYER1
  6
CONTINUOUS
 62
     6
 10
415.873868
 20
278.143036
 11
415.873868
 21
278.643036
  0
ARC
  8
CSLAYER1
  6
CONTINUOUS
 62
     6
 10
415.973905
 20
278.643036
 40
0.100000
 50
90.000003
 51
180.000005
  0
ARC
  8
CSLAYER1
  6
CONTINUOUS
 62
     6
 10
416.242154
 20
277.843048
 40
0.200000
 50
90.000003
 51
185.000154
  0
LINE
  8
CSLAYER1
  6
CONTINUOUS
 62
     6
 10
416.042905
 20
277.825623
 11
416.097989
 21
277.195801
  0
ARC
  8
CSLAYER1
  6
CONTINUOUS
 62
     6
 10
417.094205
 20
277.282959
 40
1.000000
 50
185.000113
 51
253.742620
  0
LINE
  8
CSLAYER1
  6
CONTINUOUS
 62
     6
 10
415.202515
 20
276.243042
 11
415.037397
 21
275.224998
  0
LINE
  8
CSLAYER1
  6
CONTINUOUS
 62
     6
 10
415.037397
 20
275.224998
 11
414.979262
 21
274.902571
  0
LINE
  8
CSLAYER1
  6
CONTINUOUS
 62
     6
 10
414.979262
 20
274.902571
 11
414.914409
 21
274.570762
  0
LINE
  8
CSLAYER1
  6
CONTINUOUS
 62
     6
 10
414.914409
 20
274.570762
 11
414.844034
 21
274.232966
  0
LINE
  8
CSLAYER1
  6
CONTINUOUS
 62
     6
 10
414.844034
 20
274.232966
 11
414.769330
 21
273.892578
  0
LINE
  8
CSLAYER1
  6
CONTINUOUS
 62
     6
 10
414.769330
 20
273.892578
 11
414.691494
 21
273.552994
  0
LINE
  8
CSLAYER1
  6
CONTINUOUS
 62
     6
 10
414.691494
 20
273.552994
 11
414.611721
 21
273.217609
  0
LINE
  8
CSLAYER1
  6
CONTINUOUS
 62
     6
 10
414.611721
 20
273.217609
 11
414.531204
 21
272.889818
  0
LINE
  8
CSLAYER1
  6
CONTINUOUS
 62
     6
 10
414.531204
 20
272.889818
 11
414.451140
 21
272.573016
  0
LINE
  8
CSLAYER1
  6
CONTINUOUS
 62
     6
 10
414.451140
 20
272.573016
 11
414.372722
 21
272.270599
  0
LINE
  8
CSLAYER1
  6
CONTINUOUS
 62
     6
 10
414.372722
 20
272.270599
 11
414.289350
 21
271.970850
  0
LINE
  8
CSLAYER1
  6
CONTINUOUS
 62
     6
 10
414.289350
 20
271.970850
 11
414.195437
 21
271.665325
  0
LINE
  8
CSLAYER1
  6
CONTINUOUS
 62
     6
 10
414.195437
 20
271.665325
 11
414.091852
 21
271.355286
  0
LINE
  8
CSLAYER1
  6
CONTINUOUS
 62
     6
 10
414.091852
 20
271.355286
 11
413.979463
 21
271.041991
  0
LINE
  8
CSLAYER1
  6
CONTINUOUS
 62
     6
 10
413.979463
 20
271.041991
 11
413.859141
 21
270.726699
  0
LINE
  8
CSLAYER1
  6
CONTINUOUS
 62
     6
 10
413.859141
 20
270.726699
 11
413.731754
 21
270.410671
  0
LINE
  8
CSLAYER1
  6
CONTINUOUS
 62
     6
 10
413.731754
 20
270.410671
 11
413.598172
 21
270.095165
  0
LINE
  8
CSLAYER1
  6
CONTINUOUS
 62
     6
 10
413.598172
 20
270.095165
 11
413.459263
 21
269.781441
  0
LINE
  8
CSLAYER1
  6
CONTINUOUS
 62
     6
 10
413.459263
 20
269.781441
 11
413.315897
 21
269.470759
  0
LINE
  8
CSLAYER1
  6
CONTINUOUS
 62
     6
 10
413.315897
 20
269.470759
 11
413.168942
 21
269.164378
  0
LINE
  8
CSLAYER1
  6
CONTINUOUS
 62
     6
 10
413.168942
 20
269.164378
 11
413.019267
 21
268.863556
  0
LINE
  8
CSLAYER1
  6
CONTINUOUS
 62
     6
 10
413.019267
 20
268.863556
 11
412.891923
 21
268.615936
  0
LINE
  8
CSLAYER1
  6
CONTINUOUS
 62
     6
 10
412.891923
 20
268.615936
 11
412.761771
 21
268.369903
  0
LINE
  8
CSLAYER1
  6
CONTINUOUS
 62
     6
 10
412.761771
 20
268.369903
 11
412.629092
 21
268.125296
  0
LINE
  8
CSLAYER1
  6
CONTINUOUS
 62
     6
 10
412.629092
 20
268.125296
 11
412.494167
 21
267.881959
  0
LINE
  8
CSLAYER1
  6
CONTINUOUS
 62
     6
 10
412.494167
 20
267.881959
 11
412.357277
 21
267.639732
  0
LINE
  8
CSLAYER1
  6
CONTINUOUS
 62
     6
 10
412.357277
 20
267.639732
 11
412.218702
 21
267.398457
  0
LINE
  8
CSLAYER1
  6
CONTINUOUS
 62
     6
 10
412.218702
 20
267.398457
 11
412.078724
 21
267.157975
  0
LINE
  8
CSLAYER1
  6
CONTINUOUS
 62
     6
 10
412.078724
 20
267.157975
 11
411.937622
 21
266.918128
  0
LINE
  8
CSLAYER1
  6
CONTINUOUS
 62
     6
 10
411.937622
 20
266.918128
 11
411.795679
 21
266.678756
  0
LINE
  8
CSLAYER1
  6
CONTINUOUS
 62
     6
 10
411.795679
 20
266.678756
 11
411.653173
 21
266.439702
  0
LINE
  8
CSLAYER1
  6
CONTINUOUS
 62
     6
 10
411.653173
 20
266.439702
 11
411.510387
 21
266.200806
  0
ARC
  8
CSLAYER1
  6
CONTINUOUS
 62
     6
 10
411.500722
 20
267.400774
 40
1.200008
 50
210.461486
 51
270.461486
  0
ARC
  8
CSLAYER1
  6
CONTINUOUS
 62
     6
 10
410.456685
 20
267.992388
 40
1.200008
 50
210.461486
 51
270.461486
  0
LINE
  8
CSLAYER1
  6
CONTINUOUS
 62
     6
 10
409.422282
 20
267.384033
 11
409.557564
 21
267.609955
  0
LINE
  8
CSLAYER1
  6
CONTINUOUS
 62
     6
 10
409.557564
 20
267.609955
 11
409.692571
 21
267.836032
  0
LINE
  8
CSLAYER1
  6
CONTINUOUS
 62
     6
 10
409.692571
 20
267.836032
 11
409.827027
 21
268.062418
  0
LINE
  8
CSLAYER1
  6
CONTINUOUS
 62
     6
 10
409.827027
 20
268.062418
 11
409.960657
 21
268.289267
  0
LINE
  8
CSLAYER1
  6
CONTINUOUS
 62
     6
 10
409.960657
 20
268.289267
 11
410.093187
 21
268.516736
  0
LINE
  8
CSLAYER1
  6
CONTINUOUS
 62
     6
 10
410.093187
 20
268.516736
 11
410.224340
 21
268.744977
  0
LINE
  8
CSLAYER1
  6
CONTINUOUS
 62
     6
 10
410.224340
 20
268.744977
 11
410.353843
 21
268.974147
  0
LINE
  8
CSLAYER1
  6
CONTINUOUS
 62
     6
 10
410.353843
 20
268.974147
 11
410.481418
 21
269.204399
  0
LINE
  8
CSLAYER1
  6
CONTINUOUS
 62
     6
 10
410.481418
 20
269.204399
 11
410.606792
 21
269.435889
  0
LINE
  8
CSLAYER1
  6
CONTINUOUS
 62
     6
 10
410.606792
 20
269.435889
 11
410.729689
 21
269.668770
  0
LINE
  8
CSLAYER1
  6
CONTINUOUS
 62
     6
 10
410.729689
 20
269.668770
 11
410.849834
 21
269.903198
  0
LINE
  8
CSLAYER1
  6
CONTINUOUS
 62
     6
 10
410.849834
 20
269.903198
 11
410.984076
 21
270.174004
  0
LINE
  8
CSLAYER1
  6
CONTINUOUS
 62
     6
 10
410.984076
 20
270.174004
 11
411.115939
 21
270.449769
  0
LINE
  8
CSLAYER1
  6
CONTINUOUS
 62
     6
 10
411.115939
 20
270.449769
 11
411.244646
 21
270.729362
  0
LINE
  8
CSLAYER1
  6
CONTINUOUS
 62
     6
 10
411.244646
 20
270.729362
 11
411.369420
 21
271.011652
  0
LINE
  8
CSLAYER1
  6
CONTINUOUS
 62
     6
 10
411.369420
 20
271.011652
 11
411.489483
 21
271.295508
  0
LINE
  8
CSLAYER1
  6
CONTINUOUS
 62
     6
 10
411.489483
 20
271.295508
 11
411.604058
 21
271.579798
  0
LINE
  8
CSLAYER1
  6
CONTINUOUS
 62
     6
 10
411.604058
 20
271.579798
 11
411.712367
 21
271.863392
  0
LINE
  8
CSLAYER1
  6
CONTINUOUS
 62
     6
 10
411.712367
 20
271.863392
 11
411.813633
 21
272.145157
  0
LINE
  8
CSLAYER1
  6
CONTINUOUS
 62
     6
 10
411.813633
 20
272.145157
 11
411.907077
 21
272.423962
  0
LINE
  8
CSLAYER1
  6
CONTINUOUS
 62
     6
 10
411.907077
 20
272.423962
 11
411.991923
 21
272.698677
  0
LINE
  8
CSLAYER1
  6
CONTINUOUS
 62
     6
 10
411.991923
 20
272.698677
 11
412.067393
 21
272.968170
  0
LINE
  8
CSLAYER1
  6
CONTINUOUS
 62
     6
 10
412.067393
 20
272.968170
 11
412.141934
 21
273.253609
  0
LINE
  8
CSLAYER1
  6
CONTINUOUS
 62
     6
 10
412.141934
 20
273.253609
 11
412.217942
 21
273.552788
  0
LINE
  8
CSLAYER1
  6
CONTINUOUS
 62
     6
 10
412.217942
 20
273.552788
 11
412.294285
 21
273.862454
  0
LINE
  8
CSLAYER1
  6
CONTINUOUS
 62
     6
 10
412.294285
 20
273.862454
 11
412.369831
 21
274.179354
  0
LINE
  8
CSLAYER1
  6
CONTINUOUS
 62
     6
 10
412.369831
 20
274.179354
 11
412.443447
 21
274.500236
  0
LINE
  8
CSLAYER1
  6
CONTINUOUS
 62
     6
 10
412.443447
 20
274.500236
 11
412.514000
 21
274.821847
  0
LINE
  8
CSLAYER1
  6
CONTINUOUS
 62
     6
 10
412.514000
 20
274.821847
 11
412.580357
 21
275.140934
  0
LINE
  8
CSLAYER1
  6
CONTINUOUS
 62
     6
 10
412.580357
 20
275.140934
 11
412.641385
 21
275.454246
  0
LINE
  8
CSLAYER1
  6
CONTINUOUS
 62
     6
 10
412.641385
 20
275.454246
 11
412.695952
 21
275.758528
  0
LINE
  8
CSLAYER1
  6
CONTINUOUS
 62
     6
 10
412.695952
 20
275.758528
 11
412.773892
 21
276.243042
  0
LINE
  8
CSLAYER1
  6
CONTINUOUS
 62
     6
 10
412.645492
 20
275.477148
 11
412.597246
 21
275.389314
  0
LINE
  8
CSLAYER1
  6
CONTINUOUS
 62
     6
 10
412.597246
 20
275.389314
 11
412.487358
 21
275.197505
  0
LINE
  8
CSLAYER1
  6
CONTINUOUS
 62
     6
 10
412.487358
 20
275.197505
 11
412.369104
 21
274.998018
  0
LINE
  8
CSLAYER1
  6
CONTINUOUS
 62
     6
 10
412.369104
 20
274.998018
 11
412.244066
 21
274.793039
  0
LINE
  8
CSLAYER1
  6
CONTINUOUS
 62
     6
 10
412.244066
 20
274.793039
 11
412.113825
 21
274.584753
  0
LINE
  8
CSLAYER1
  6
CONTINUOUS
 62
     6
 10
412.113825
 20
274.584753
 11
411.979962
 21
274.375347
  0
LINE
  8
CSLAYER1
  6
CONTINUOUS
 62
     6
 10
411.979962
 20
274.375347
 11
411.844060
 21
274.167007
  0
LINE
  8
CSLAYER1
  6
CONTINUOUS
 62
     6
 10
411.844060
 20
274.167007
 11
411.707700
 21
273.961920
  0
LINE
  8
CSLAYER1
  6
CONTINUOUS
 62
     6
 10
411.707700
 20
273.961920
 11
411.572463
 21
273.762271
  0
LINE
  8
CSLAYER1
  6
CONTINUOUS
 62
     6
 10
411.572463
 20
273.762271
 11
411.439932
 21
273.570246
  0
LINE
  8
CSLAYER1
  6
CONTINUOUS
 62
     6
 10
411.439932
 20
273.570246
 11
411.311687
 21
273.388031
  0
LINE
  8
CSLAYER1
  6
CONTINUOUS
 62
     6
 10
411.311687
 20
273.388031
 11
411.206607
 21
273.243852
  0
LINE
  8
CSLAYER1
  6
CONTINUOUS
 62
     6
 10
411.206607
 20
273.243852
 11
411.094716
 21
273.096802
  0
LINE
  8
CSLAYER1
  6
CONTINUOUS
 62
     6
 10
411.094716
 20
273.096802
 11
410.977148
 21
272.947781
  0
LINE
  8
CSLAYER1
  6
CONTINUOUS
 62
     6
 10
410.977148
 20
272.947781
 11
410.855035
 21
272.797686
  0
LINE
  8
CSLAYER1
  6
CONTINUOUS
 62
     6
 10
410.855035
 20
272.797686
 11
410.729509
 21
272.647418
  0
LINE
  8
CSLAYER1
  6
CONTINUOUS
 62
     6
 10
410.729509
 20
272.647418
 11
410.601703
 21
272.497875
  0
LINE
  8
CSLAYER1
  6
CONTINUOUS
 62
     6
 10
410.601703
 20
272.497875
 11
410.472750
 21
272.349957
  0
LINE
  8
CSLAYER1
  6
CONTINUOUS
 62
     6
 10
410.472750
 20
272.349957
 11
410.343783
 21
272.204562
  0
LINE
  8
CSLAYER1
  6
CONTINUOUS
 62
     6
 10
410.343783
 20
272.204562
 11
410.215934
 21
272.062591
  0
LINE
  8
CSLAYER1
  6
CONTINUOUS
 62
     6
 10
410.215934
 20
272.062591
 11
410.090336
 21
271.924941
  0
LINE
  8
CSLAYER1
  6
CONTINUOUS
 62
     6
 10
410.090336
 20
271.924941
 11
409.968120
 21
271.792511
  0
LINE
  8
CSLAYER1
  6
CONTINUOUS
 62
     6
 10
409.968120
 20
271.792511
 11
409.823144
 21
271.640352
  0
LINE
  8
CSLAYER1
  6
CONTINUOUS
 62
     6
 10
409.823144
 20
271.640352
 11
409.669969
 21
271.486401
  0
LINE
  8
CSLAYER1
  6
CONTINUOUS
 62
     6
 10
409.669969
 20
271.486401
 11
409.510560
 21
271.330967
  0
LINE
  8
CSLAYER1
  6
CONTINUOUS
 62
     6
 10
409.510560
 20
271.330967
 11
409.346883
 21
271.174359
  0
LINE
  8
CSLAYER1
  6
CONTINUOUS
 62
     6
 10
409.346883
 20
271.174359
 11
409.180903
 21
271.016885
  0
LINE
  8
CSLAYER1
  6
CONTINUOUS
 62
     6
 10
409.180903
 20
271.016885
 11
409.014586
 21
270.858854
  0
LINE
  8
CSLAYER1
  6
CONTINUOUS
 62
     6
 10
409.014586
 20
270.858854
 11
408.849896
 21
270.700574
  0
LINE
  8
CSLAYER1
  6
CONTINUOUS
 62
     6
 10
408.849896
 20
270.700574
 11
408.688798
 21
270.542354
  0
LINE
  8
CSLAYER1
  6
CONTINUOUS
 62
     6
 10
408.688798
 20
270.542354
 11
408.533259
 21
270.384502
  0
LINE
  8
CSLAYER1
  6
CONTINUOUS
 62
     6
 10
408.533259
 20
270.384502
 11
408.385243
 21
270.227327
  0
LINE
  8
CSLAYER1
  6
CONTINUOUS
 62
     6
 10
408.385243
 20
270.227327
 11
408.246715
 21
270.071136
  0
LINE
  8
CSLAYER1
  6
CONTINUOUS
 62
     6
 10
408.246715
 20
270.071136
 11
408.120800
 21
269.924555
  0
LINE
  8
CSLAYER1
  6
CONTINUOUS
 62
     6
 10
408.120800
 20
269.924555
 11
407.989991
 21
269.774376
  0
LINE
  8
CSLAYER1
  6
CONTINUOUS
 62
     6
 10
407.989991
 20
269.774376
 11
407.854388
 21
269.622156
  0
LINE
  8
CSLAYER1
  6
CONTINUOUS
 62
     6
 10
407.854388
 20
269.622156
 11
407.714095
 21
269.469452
  0
LINE
  8
CSLAYER1
  6
CONTINUOUS
 62
     6
 10
407.714095
 20
269.469452
 11
407.569212
 21
269.317818
  0
LINE
  8
CSLAYER1
  6
CONTINUOUS
 62
     6
 10
407.569212
 20
269.317818
 11
407.419841
 21
269.168811
  0
LINE
  8
CSLAYER1
  6
CONTINUOUS
 62
     6
 10
407.419841
 20
269.168811
 11
407.266085
 21
269.023988
  0
LINE
  8
CSLAYER1
  6
CONTINUOUS
 62
     6
 10
407.266085
 20
269.023988
 11
407.108044
 21
268.884903
  0
LINE
  8
CSLAYER1
  6
CONTINUOUS
 62
     6
 10
407.108044
 20
268.884903
 11
406.945821
 21
268.753112
  0
LINE
  8
CSLAYER1
  6
CONTINUOUS
 62
     6
 10
406.945821
 20
268.753112
 11
406.779517
 21
268.630173
  0
LINE
  8
CSLAYER1
  6
CONTINUOUS
 62
     6
 10
406.779517
 20
268.630173
 11
406.609233
 21
268.517639
  0
LINE
  8
CSLAYER1
  6
CONTINUOUS
 62
     6
 10
406.609233
 20
268.517639
 11
406.516499
 21
268.462213
  0
LINE
  8
CSLAYER1
  6
CONTINUOUS
 62
     6
 10
406.516499
 20
268.462213
 11
406.421907
 21
268.409537
  0
LINE
  8
CSLAYER1
  6
CONTINUOUS
 62
     6
 10
406.421907
 20
268.409537
 11
406.325643
 21
268.359335
  0
LINE
  8
CSLAYER1
  6
CONTINUOUS
 62
     6
 10
406.325643
 20
268.359335
 11
406.227891
 21
268.311334
  0
LINE
  8
CSLAYER1
  6
CONTINUOUS
 62
     6
 10
406.227891
 20
268.311334
 11
406.128840
 21
268.265258
  0
LINE
  8
CSLAYER1
  6
CONTINUOUS
 62
     6
 10
406.128840
 20
268.265258
 11
406.028673
 21
268.220831
  0
LINE
  8
CSLAYER1
  6
CONTINUOUS
 62
     6
 10
406.028673
 20
268.220831
 11
405.927577
 21
268.177780
  0
LINE
  8
CSLAYER1
  6
CONTINUOUS
 62
     6
 10
405.927577
 20
268.177780
 11
405.825738
 21
268.135828
  0
LINE
  8
CSLAYER1
  6
CONTINUOUS
 62
     6
 10
405.825738
 20
268.135828
 11
405.723342
 21
268.094702
  0
LINE
  8
CSLAYER1
  6
CONTINUOUS
 62
     6
 10
405.723342
 20
268.094702
 11
405.620573
 21
268.054126
  0
LINE
  8
CSLAYER1
  6
CONTINUOUS
 62
     6
 10
405.620573
 20
268.054126
 11
405.517619
 21
268.013824
  0
LINE
  8
CSLAYER1
  6
CONTINUOUS
 62
     6
 10
408.416384
 20
265.693192
 11
408.281583
 21
265.527880
  0
LINE
  8
CSLAYER1
  6
CONTINUOUS
 62
     6
 10
408.281583
 20
265.527880
 11
408.143025
 21
265.356228
  0
LINE
  8
CSLAYER1
  6
CONTINUOUS
 62
     6
 10
408.143025
 20
265.356228
 11
408.002750
 21
265.179806
  0
LINE
  8
CSLAYER1
  6
CONTINUOUS
 62
     6
 10
408.002750
 20
265.179806
 11
407.862792
 21
265.000188
  0
LINE
  8
CSLAYER1
  6
CONTINUOUS
 62
     6
 10
407.862792
 20
265.000188
 11
407.725189
 21
264.818945
  0
LINE
  8
CSLAYER1
  6
CONTINUOUS
 62
     6
 10
407.725189
 20
264.818945
 11
407.591977
 21
264.637649
  0
LINE
  8
CSLAYER1
  6
CONTINUOUS
 62
     6
 10
407.591977
 20
264.637649
 11
407.465193
 21
264.457871
  0
LINE
  8
CSLAYER1
  6
CONTINUOUS
 62
     6
 10
407.465193
 20
264.457871
 11
407.346874
 21
264.281185
  0
LINE
  8
CSLAYER1
  6
CONTINUOUS
 62
     6
 10
407.346874
 20
264.281185
 11
407.239055
 21
264.109161
  0
LINE
  8
CSLAYER1
  6
CONTINUOUS
 62
     6
 10
407.239055
 20
264.109161
 11
407.141417
 21
263.945401
  0
LINE
  8
CSLAYER1
  6
CONTINUOUS
 62
     6
 10
407.141417
 20
263.945401
 11
407.041787
 21
263.776133
  0
LINE
  8
CSLAYER1
  6
CONTINUOUS
 62
     6
 10
407.041787
 20
263.776133
 11
406.939961
 21
263.602662
  0
LINE
  8
CSLAYER1
  6
CONTINUOUS
 62
     6
 10
406.939961
 20
263.602662
 11
406.835731
 21
263.426289
  0
LINE
  8
CSLAYER1
  6
CONTINUOUS
 62
     6
 10
406.835731
 20
263.426289
 11
406.728891
 21
263.248317
  0
LINE
  8
CSLAYER1
  6
CONTINUOUS
 62
     6
 10
406.728891
 20
263.248317
 11
406.619234
 21
263.070047
  0
LINE
  8
CSLAYER1
  6
CONTINUOUS
 62
     6
 10
406.619234
 20
263.070047
 11
406.506553
 21
262.892782
  0
LINE
  8
CSLAYER1
  6
CONTINUOUS
 62
     6
 10
406.506553
 20
262.892782
 11
406.390643
 21
262.717825
  0
LINE
  8
CSLAYER1
  6
CONTINUOUS
 62
     6
 10
406.390643
 20
262.717825
 11
406.271295
 21
262.546477
  0
LINE
  8
CSLAYER1
  6
CONTINUOUS
 62
     6
 10
406.271295
 20
262.546477
 11
406.148305
 21
262.380041
  0
LINE
  8
CSLAYER1
  6
CONTINUOUS
 62
     6
 10
406.148305
 20
262.380041
 11
406.021464
 21
262.219818
  0
LINE
  8
CSLAYER1
  6
CONTINUOUS
 62
     6
 10
406.021464
 20
262.219818
 11
405.922643
 21
262.103306
  0
LINE
  8
CSLAYER1
  6
CONTINUOUS
 62
     6
 10
405.922643
 20
262.103306
 11
405.820431
 21
261.989547
  0
LINE
  8
CSLAYER1
  6
CONTINUOUS
 62
     6
 10
405.820431
 20
261.989547
 11
405.715167
 21
261.878266
  0
LINE
  8
CSLAYER1
  6
CONTINUOUS
 62
     6
 10
405.715167
 20
261.878266
 11
405.607190
 21
261.769187
  0
LINE
  8
CSLAYER1
  6
CONTINUOUS
 62
     6
 10
405.607190
 20
261.769187
 11
405.496839
 21
261.662037
  0
LINE
  8
CSLAYER1
  6
CONTINUOUS
 62
     6
 10
405.496839
 20
261.662037
 11
405.384454
 21
261.556538
  0
LINE
  8
CSLAYER1
  6
CONTINUOUS
 62
     6
 10
405.384454
 20
261.556538
 11
405.270372
 21
261.452416
  0
LINE
  8
CSLAYER1
  6
CONTINUOUS
 62
     6
 10
405.270372
 20
261.452416
 11
405.154935
 21
261.349396
  0
LINE
  8
CSLAYER1
  6
CONTINUOUS
 62
     6
 10
405.154935
 20
261.349396
 11
405.038480
 21
261.247201
  0
LINE
  8
CSLAYER1
  6
CONTINUOUS
 62
     6
 10
405.038480
 20
261.247201
 11
404.942454
 21
261.163874
  0
LINE
  8
CSLAYER1
  6
CONTINUOUS
 62
     6
 10
404.942454
 20
261.163874
 11
405.011601
 21
261.129345
  0
LINE
  8
CSLAYER1
  6
CONTINUOUS
 62
     6
 10
405.011601
 20
261.129345
 11
405.096077
 21
261.081729
  0
LINE
  8
CSLAYER1
  6
CONTINUOUS
 62
     6
 10
405.096077
 20
261.081729
 11
405.182010
 21
261.027978
  0
LINE
  8
CSLAYER1
  6
CONTINUOUS
 62
     6
 10
405.182010
 20
261.027978
 11
405.268129
 21
260.968754
  0
LINE
  8
CSLAYER1
  6
CONTINUOUS
 62
     6
 10
405.268129
 20
260.968754
 11
405.353165
 21
260.904716
  0
LINE
  8
CSLAYER1
  6
CONTINUOUS
 62
     6
 10
405.353165
 20
260.904716
 11
405.435847
 21
260.836525
  0
LINE
  8
CSLAYER1
  6
CONTINUOUS
 62
     6
 10
405.435847
 20
260.836525
 11
405.514906
 21
260.764842
  0
LINE
  8
CSLAYER1
  6
CONTINUOUS
 62
     6
 10
405.514906
 20
260.764842
 11
405.589072
 21
260.690326
  0
LINE
  8
CSLAYER1
  6
CONTINUOUS
 62
     6
 10
405.589072
 20
260.690326
 11
405.657075
 21
260.613639
  0
LINE
  8
CSLAYER1
  6
CONTINUOUS
 62
     6
 10
405.657075
 20
260.613639
 11
405.717645
 21
260.535440
  0
LINE
  8
CSLAYER1
  6
CONTINUOUS
 62
     6
 10
405.717645
 20
260.535440
 11
405.769511
 21
260.456390
  0
LINE
  8
CSLAYER1
  6
CONTINUOUS
 62
     6
 10
405.769511
 20
260.456390
 11
405.785418
 21
260.428784
  0
LINE
  8
CSLAYER1
  6
CONTINUOUS
 62
     6
 10
405.785418
 20
260.428784
 11
405.801071
 21
260.400090
  0
LINE
  8
CSLAYER1
  6
CONTINUOUS
 62
     6
 10
405.801071
 20
260.400090
 11
405.816514
 21
260.370477
  0
LINE
  8
CSLAYER1
  6
CONTINUOUS
 62
     6
 10
405.816514
 20
260.370477
 11
405.831786
 21
260.340111
  0
LINE
  8
CSLAYER1
  6
CONTINUOUS
 62
     6
 10
405.831786
 20
260.340111
 11
405.846932
 21
260.309159
  0
LINE
  8
CSLAYER1
  6
CONTINUOUS
 62
     6
 10
405.846932
 20
260.309159
 11
405.861992
 21
260.277789
  0
LINE
  8
CSLAYER1
  6
CONTINUOUS
 62
     6
 10
405.861992
 20
260.277789
 11
405.877009
 21
260.246168
  0
LINE
  8
CSLAYER1
  6
CONTINUOUS
 62
     6
 10
405.877009
 20
260.246168
 11
405.892024
 21
260.214462
  0
LINE
  8
CSLAYER1
  6
CONTINUOUS
 62
     6
 10
405.892024
 20
260.214462
 11
405.907080
 21
260.182840
  0
LINE
  8
CSLAYER1
  6
CONTINUOUS
 62
     6
 10
405.907080
 20
260.182840
 11
405.922218
 21
260.151469
  0
LINE
  8
CSLAYER1
  6
CONTINUOUS
 62
     6
 10
405.922218
 20
260.151469
 11
405.937480
 21
260.120514
  0
LINE
  8
CSLAYER1
  6
CONTINUOUS
 62
     6
 10
405.937480
 20
260.120514
 11
405.978302
 21
260.042377
  0
LINE
  8
CSLAYER1
  6
CONTINUOUS
 62
     6
 10
405.978302
 20
260.042377
 11
406.021637
 21
259.965845
  0
LINE
  8
CSLAYER1
  6
CONTINUOUS
 62
     6
 10
406.021637
 20
259.965845
 11
406.067235
 21
259.890756
  0
LINE
  8
CSLAYER1
  6
CONTINUOUS
 62
     6
 10
406.067235
 20
259.890756
 11
406.114845
 21
259.816952
  0
LINE
  8
CSLAYER1
  6
CONTINUOUS
 62
     6
 10
406.114845
 20
259.816952
 11
406.164216
 21
259.744270
  0
LINE
  8
CSLAYER1
  6
CONTINUOUS
 62
     6
 10
406.164216
 20
259.744270
 11
406.215094
 21
259.672552
  0
LINE
  8
CSLAYER1
  6
CONTINUOUS
 62
     6
 10
406.215094
 20
259.672552
 11
406.267230
 21
259.601636
  0
LINE
  8
CSLAYER1
  6
CONTINUOUS
 62
     6
 10
406.267230
 20
259.601636
 11
406.320372
 21
259.531361
  0
LINE
  8
CSLAYER1
  6
CONTINUOUS
 62
     6
 10
406.320372
 20
259.531361
 11
406.374268
 21
259.461568
  0
LINE
  8
CSLAYER1
  6
CONTINUOUS
 62
     6
 10
406.374268
 20
259.461568
 11
406.428667
 21
259.392096
  0
LINE
  8
CSLAYER1
  6
CONTINUOUS
 62
     6
 10
406.428667
 20
259.392096
 11
406.480740
 21
259.326053
  0
LINE
  8
CSLAYER1
  6
CONTINUOUS
 62
     6
 10
406.480740
 20
259.326053
 11
406.608087
 21
259.435354
  0
LINE
  8
CSLAYER1
  6
CONTINUOUS
 62
     6
 10
406.608087
 20
259.435354
 11
406.744803
 21
259.553387
  0
LINE
  8
CSLAYER1
  6
CONTINUOUS
 62
     6
 10
406.744803
 20
259.553387
 11
406.880690
 21
259.672091
  0
LINE
  8
CSLAYER1
  6
CONTINUOUS
 62
     6
 10
406.880690
 20
259.672091
 11
407.015336
 21
259.791803
  0
LINE
  8
CSLAYER1
  6
CONTINUOUS
 62
     6
 10
407.015336
 20
259.791803
 11
407.148328
 21
259.912857
  0
LINE
  8
CSLAYER1
  6
CONTINUOUS
 62
     6
 10
407.148328
 20
259.912857
 11
407.279250
 21
260.035590
  0
LINE
  8
CSLAYER1
  6
CONTINUOUS
 62
     6
 10
407.279250
 20
260.035590
 11
407.407690
 21
260.160338
  0
LINE
  8
CSLAYER1
  6
CONTINUOUS
 62
     6
 10
407.407690
 20
260.160338
 11
407.533233
 21
260.287436
  0
LINE
  8
CSLAYER1
  6
CONTINUOUS
 62
     6
 10
407.533233
 20
260.287436
 11
407.655466
 21
260.417220
  0
LINE
  8
CSLAYER1
  6
CONTINUOUS
 62
     6
 10
407.655466
 20
260.417220
 11
407.773976
 21
260.550025
  0
LINE
  8
CSLAYER1
  6
CONTINUOUS
 62
     6
 10
407.773976
 20
260.550025
 11
407.888347
 21
260.686188
  0
LINE
  8
CSLAYER1
  6
CONTINUOUS
 62
     6
 10
407.888347
 20
260.686188
 11
408.024844
 21
260.860414
  0
LINE
  8
CSLAYER1
  6
CONTINUOUS
 62
     6
 10
408.024844
 20
260.860414
 11
408.157187
 21
261.041090
  0
LINE
  8
CSLAYER1
  6
CONTINUOUS
 62
     6
 10
408.157187
 20
261.041090
 11
408.285658
 21
261.226861
  0
LINE
  8
CSLAYER1
  6
CONTINUOUS
 62
     6
 10
408.285658
 20
261.226861
 11
408.410540
 21
261.416368
  0
LINE
  8
CSLAYER1
  6
CONTINUOUS
 62
     6
 10
408.410540
 20
261.416368
 11
408.532112
 21
261.608257
  0
LINE
  8
CSLAYER1
  6
CONTINUOUS
 62
     6
 10
408.532112
 20
261.608257
 11
408.650656
 21
261.801169
  0
LINE
  8
CSLAYER1
  6
CONTINUOUS
 62
     6
 10
408.650656
 20
261.801169
 11
408.766454
 21
261.993749
  0
LINE
  8
CSLAYER1
  6
CONTINUOUS
 62
     6
 10
408.766454
 20
261.993749
 11
408.879787
 21
262.184640
  0
LINE
  8
CSLAYER1
  6
CONTINUOUS
 62
     6
 10
408.879787
 20
262.184640
 11
408.990935
 21
262.372485
  0
LINE
  8
CSLAYER1
  6
CONTINUOUS
 62
     6
 10
408.990935
 20
262.372485
 11
409.100181
 21
262.555928
  0
LINE
  8
CSLAYER1
  6
CONTINUOUS
 62
     6
 10
409.100181
 20
262.555928
 11
409.207805
 21
262.733612
  0
LINE
  8
CSLAYER1
  6
CONTINUOUS
 62
     6
 10
409.207805
 20
262.733612
 11
409.313131
 21
262.899299
  0
LINE
  8
CSLAYER1
  6
CONTINUOUS
 62
     6
 10
409.313131
 20
262.899299
 11
409.427860
 21
263.069188
  0
LINE
  8
CSLAYER1
  6
CONTINUOUS
 62
     6
 10
409.427860
 20
263.069188
 11
409.550160
 21
263.241852
  0
LINE
  8
CSLAYER1
  6
CONTINUOUS
 62
     6
 10
409.550160
 20
263.241852
 11
409.678202
 21
263.415862
  0
LINE
  8
CSLAYER1
  6
CONTINUOUS
 62
     6
 10
409.678202
 20
263.415862
 11
409.810154
 21
263.589791
  0
LINE
  8
CSLAYER1
  6
CONTINUOUS
 62
     6
 10
409.810154
 20
263.589791
 11
409.944186
 21
263.762212
  0
LINE
  8
CSLAYER1
  6
CONTINUOUS
 62
     6
 10
409.944186
 20
263.762212
 11
410.078467
 21
263.931697
  0
LINE
  8
CSLAYER1
  6
CONTINUOUS
 62
     6
 10
410.078467
 20
263.931697
 11
410.211166
 21
264.096819
  0
LINE
  8
CSLAYER1
  6
CONTINUOUS
 62
     6
 10
410.211166
 20
264.096819
 11
410.340452
 21
264.256149
  0
LINE
  8
CSLAYER1
  6
CONTINUOUS
 62
     6
 10
410.340452
 20
264.256149
 11
410.464494
 21
264.408262
  0
LINE
  8
CSLAYER1
  6
CONTINUOUS
 62
     6
 10
410.464494
 20
264.408262
 11
410.633752
 21
264.615862
  0
ARC
  8
CSLAYER1
  6
CONTINUOUS
 62
     6
 10
409.551501
 20
264.186090
 40
1.164461
 50
21.658505
 51
86.024005
  0
ARC
  8
CSLAYER1
  6
CONTINUOUS
 62
     6
 10
408.585847
 20
264.836844
 40
1.164461
 50
26.024005
 51
86.024005
  0
ARC
  8
CSLAYER1
  6
CONTINUOUS
 62
     6
 10
409.712986
 20
266.509407
 40
1.164461
 50
206.024005
 51
266.024005
  0
LINE
  8
CSLAYER1
  6
CONTINUOUS
 62
     6
 10
408.666575
 20
265.998505
 11
408.545394
 21
265.850591
  0
LINE
  8
CSLAYER1
  6
CONTINUOUS
 62
     6
 10
408.545394
 20
265.850591
 11
408.416384
 21
265.693192
  0
ARC
  8
CSLAYER1
  6
CONTINUOUS
 62
     6
 10
410.476016
 20
265.592450
 40
1.200008
 50
30.461486
 51
90.461486
  0
LINE
  8
CSLAYER1
  6
CONTINUOUS
 62
     6
 10
418.869809
 20
278.043061
 11
418.425931
 21
278.743042
  0
LINE
  8
CSLAYER1
  6
CONTINUOUS
 62
     6
 10
418.925931
 20
278.743042
 11
419.369809
 21
278.043061
  0
ARC
  8
CSLAYER1
  6
CONTINUOUS
 62
     6
 10
421.573880
 20
278.143036
 40
0.100000
 50
270.000001
 51
359.942691
  0
LINE
  8
CSLAYER1
  6
CONTINUOUS
 62
     6
 10
421.673856
 20
278.143036
 11
421.673856
 21
278.643036
  0
ARC
  8
CSLAYER1
  6
CONTINUOUS
 62
     6
 10
421.573880
 20
278.643036
 40
0.100000
 50
0.000010
 51
90.000016
  0
LINE
  8
CSLAYER1
  6
CONTINUOUS
 62
     6
 10
431.773892
 20
276.743042
 11
431.773892
 21
280.743042
  0
LINE
  8
CSLAYER1
  6
CONTINUOUS
 62
     6
 10
431.773892
 20
276.743042
 11
444.773892
 21
276.743042
  0
LINE
  8
CSLAYER1
  6
CONTINUOUS
 62
     6
 10
405.987972
 20
260.025298
 11
403.737041
 21
257.586792
  0
LINE
  8
CSLAYER1
  6
CONTINUOUS
 62
     6
 10
403.264506
 20
258.153900
 11
405.707502
 21
260.548535
  0
LINE
  8
CSLAYER1
  6
CONTINUOUS
 62
     6
 10
405.396004
 20
260.869385
 11
402.650157
 21
258.366547
  0
LINE
  8
CSLAYER1
  6
CONTINUOUS
 62
     6
 10
397.310161
 20
260.445831
 11
399.536284
 21
263.422069
  0
LINE
  8
CSLAYER1
  6
CONTINUOUS
 62
     6
 10
398.970450
 20
263.568661
 11
396.624919
 21
260.894775
  0
LINE
  8
CSLAYER1
  6
CONTINUOUS
 62
     6
 10
396.081462
 20
261.414581
 11
398.553232
 21
263.816389
  0
CIRCLE
  8
CSLAYER1
  6
CONTINUOUS
 62
     6
 10
233.109365
 20
320.743042
 40
80.000000
  0
LINE
  8
CSLAYER1
  6
CENTER
 62
     3
 10
827.607774
 20
620.722780
 11
385.773973
 21
620.722780
  0
LINE
  8
CSLAYER1
  6
CENTER
 62
     3
 10
423.773942
 20
589.329576
 11
423.773942
 21
566.722764
  0
ARC
  8
CSLAYER1
  6
CONTINUOUS
 62
     3
 10
503.773862
 20
597.222780
 40
2.000000
 50
180.000000
 51
270.000000
  0
LINE
  8
CSLAYER1
  6
CONTINUOUS
 62
     3
 10
503.773862
 20
595.222780
 11
531.773862
 21
595.222780
  0
ARC
  8
CSLAYER1
  6
CONTINUOUS
 62
     3
 10
531.773862
 20
597.222780
 40
2.000000
 50
270.000000
 51
360.000000
  0
LINE
  8
CSLAYER1
  6
CONTINUOUS
 62
     3
 10
533.773862
 20
597.222780
 11
533.773862
 21
644.222780
  0
ARC
  8
CSLAYER1
  6
CONTINUOUS
 62
     3
 10
531.773862
 20
644.222780
 40
2.000000
 50
0.000000
 51
90.000000
  0
LINE
  8
CSLAYER1
  6
CONTINUOUS
 62
     3
 10
531.773862
 20
646.222780
 11
503.773862
 21
646.222780
  0
ARC
  8
CSLAYER1
  6
CONTINUOUS
 62
     3
 10
503.773862
 20
644.222780
 40
2.000000
 50
90.000000
 51
180.000000
  0
LINE
  8
CSLAYER1
  6
CONTINUOUS
 62
     3
 10
501.773862
 20
644.222780
 11
501.773862
 21
597.222780
  0
LINE
  8
CSLAYER1
  6
CENTER
 62
     3
 10
566.473993
 20
574.760744
 11
609.773993
 21
574.760744
  0
LINE
  8
CSLAYER1
  6
CENTER
 62
     3
 10
609.773942
 20
666.684755
 11
566.697444
 21
666.684755
  0
LINE
  8
CSLAYER1
  6
CENTER
 62
     3
 10
423.773942
 20
674.722764
 11
423.773942
 21
652.115953
  0
TEXT
  8
CSLAYER1
 62
     3
 10
515.830566
 20
625.972778
 40
3.500000
 41
1.125000
  1
N P
 50
-90.000000
 51
10.000000
  7
JX_FONT
 72
     5
 11
515.830566
 21
615.472778
  0
LINE
  8
CSLAYER1
  6
CONTINUOUS
 62
     6
 10
592.773942
 20
540.722780
 11
592.773942
 21
700.722780
  0
LINE
  8
CSLAYER1
  6
CONTINUOUS
 62
     6
 10
600.773942
 20
697.736196
 11
600.773942
 21
543.854738
  0
LINE
  8
CSLAYER1
  6
CONTINUOUS
 62
     6
 10
579.773942
 20
540.722780
 11
579.773942
 21
700.722780
  0
LINE
  8
CSLAYER1
  6
CONTINUOUS
 62
     6
 10
579.773993
 20
658.984755
 11
577.773993
 21
658.984755
  0
LINE
  8
CSLAYER1
  6
CONTINUOUS
 62
     6
 10
577.773993
 20
658.984755
 11
577.773993
 21
674.384755
  0
LINE
  8
CSLAYER1
  6
CONTINUOUS
 62
     6
 10
577.773993
 20
674.384755
 11
579.773993
 21
674.384755
  0
LINE
  8
CSLAYER1
  6
CONTINUOUS
 62
     6
 10
577.773993
 20
673.184755
 11
572.473993
 21
673.184755
  0
LINE
  8
CSLAYER1
  6
CONTINUOUS
 62
     6
 10
572.473993
 20
673.184755
 11
572.473993
 21
660.184755
  0
LINE
  8
CSLAYER1
  6
CONTINUOUS
 62
     6
 10
572.473993
 20
660.184755
 11
577.773993
 21
660.184755
  0
ARC
  8
CSLAYER1
  6
CONTINUOUS
 62
     6
 10
583.229546
 20
663.434755
 40
10.755553
 50
162.412046
 51
197.587954
  0
ARC
  8
CSLAYER1
  6
CONTINUOUS
 62
     6
 10
583.229546
 20
669.934755
 40
10.755553
 50
162.412046
 51
197.587954
  0
LINE
  8
CSLAYER1
  6
CONTINUOUS
 62
     6
 10
572.976770
 20
666.684755
 11
577.773993
 21
666.684755
  0
LINE
  8
CSLAYER1
  6
CONTINUOUS
 62
     6
 10
577.773993
 20
667.300755
 11
579.773993
 21
667.916755
  0
LINE
  8
CSLAYER1
  6
CONTINUOUS
 62
     6
 10
579.773993
 20
666.068755
 11
577.773993
 21
665.452755
  0
LINE
  8
CSLAYER1
  6
CONTINUOUS
 62
     6
 10
572.473958
 20
665.722780
 11
444.773942
 21
665.722780
  0
LINE
  8
CSLAYER1
  6
CONTINUOUS
 62
     6
 10
444.773942
 20
665.722780
 11
444.773942
 21
575.722780
  0
LINE
  8
CSLAYER1
  6
CONTINUOUS
 62
     6
 10
444.773942
 20
575.722780
 11
572.473993
 21
575.722780
  0
ARC
  8
CSLAYER1
  6
CONTINUOUS
 62
     6
 10
583.229546
 20
578.010744
 40
10.755553
 50
162.412046
 51
197.587954
  0
LINE
  8
CSLAYER1
  6
CONTINUOUS
 62
     6
 10
572.473993
 20
581.260744
 11
577.773993
 21
581.260744
  0
LINE
  8
CSLAYER1
  6
CONTINUOUS
 62
     6
 10
577.773993
 20
582.460744
 11
577.773993
 21
567.060744
  0
LINE
  8
CSLAYER1
  6
CONTINUOUS
 62
     6
 10
577.773993
 20
567.060744
 11
579.773993
 21
567.060744
  0
LINE
  8
CSLAYER1
  6
CONTINUOUS
 62
     6
 10
577.773993
 20
568.260744
 11
572.473993
 21
568.260744
  0
LINE
  8
CSLAYER1
  6
CONTINUOUS
 62
     6
 10
572.473993
 20
568.260744
 11
572.473993
 21
581.260744
  0
LINE
  8
CSLAYER1
  6
CONTINUOUS
 62
     6
 10
577.773993
 20
582.460744
 11
579.773993
 21
582.460744
  0
LINE
  8
CSLAYER1
  6
CONTINUOUS
 62
     6
 10
579.773993
 20
575.992744
 11
577.773993
 21
575.376744
  0
LINE
  8
CSLAYER1
  6
CONTINUOUS
 62
     6
 10
577.773993
 20
574.760744
 11
572.976770
 21
574.760744
  0
ARC
  8
CSLAYER1
  6
CONTINUOUS
 62
     6
 10
583.229546
 20
571.510744
 40
10.755553
 50
162.412046
 51
197.587954
  0
LINE
  8
CSLAYER1
  6
CONTINUOUS
 62
     6
 10
577.773993
 20
573.528744
 11
579.773993
 21
574.144744
  0
LINE
  8
CSLAYER1
  6
CONTINUOUS
 62
     6
 10
444.773942
 20
576.722764
 11
443.298906
 21
576.722764
  0
LINE
  8
CSLAYER1
  6
CONTINUOUS
 62
     6
 10
442.868059
 20
576.618211
 11
443.565690
 21
583.255723
  0
ARC
  8
CSLAYER1
  6
CONTINUOUS
 62
     6
 10
444.560197
 20
583.151170
 40
1.000000
 50
90.000009
 51
173.999984
  0
ARC
  8
CSLAYER1
  6
CONTINUOUS
 62
     6
 10
444.510576
 20
578.678941
 40
1.000000
 50
90.000009
 51
173.999984
  0
LINE
  8
CSLAYER1
  6
CONTINUOUS
 62
     6
 10
443.516008
 20
578.783494
 11
442.868059
 21
572.618211
  0
ARC
  8
CSLAYER1
  6
CONTINUOUS
 62
     6
 10
441.873491
 20
572.722764
 40
1.000000
 50
270.000001
 51
354.000017
  0
LINE
  8
CSLAYER1
  6
CONTINUOUS
 62
     6
 10
441.873491
 20
571.722764
 11
405.674333
 21
571.722764
  0
ARC
  8
CSLAYER1
  6
CONTINUOUS
 62
     6
 10
405.674333
 20
572.722764
 40
1.000000
 50
186.000012
 51
270.000001
  0
LINE
  8
CSLAYER1
  6
CONTINUOUS
 62
     6
 10
404.679826
 20
572.618211
 11
404.031816
 21
578.783494
  0
ARC
  8
CSLAYER1
  6
CONTINUOUS
 62
     6
 10
403.037309
 20
578.678941
 40
1.000000
 50
6.000021
 51
90.000009
  0
LINE
  8
CSLAYER1
  6
CONTINUOUS
 62
     6
 10
404.248369
 20
576.722764
 11
392.773912
 21
576.722764
  0
LINE
  8
CSLAYER1
  6
CONTINUOUS
 62
     6
 10
392.773912
 20
576.722764
 11
391.773912
 21
577.722764
  0
LINE
  8
CSLAYER1
  6
CONTINUOUS
 62
     6
 10
391.773942
 20
577.722780
 11
391.773942
 21
663.722780
  0
LINE
  8
CSLAYER1
  6
CONTINUOUS
 62
     6
 10
391.773942
 20
663.722780
 11
392.773942
 21
664.722780
  0
LINE
  8
CSLAYER1
  6
CONTINUOUS
 62
     6
 10
392.773942
 20
664.722780
 11
392.773942
 21
576.722780
  0
LINE
  8
CSLAYER1
  6
CONTINUOUS
 62
     6
 10
392.773942
 20
576.722780
 11
391.773942
 21
577.722780
  0
ARC
  8
CSLAYER1
  6
CONTINUOUS
 62
     6
 10
402.987627
 20
583.151170
 40
1.000000
 50
6.000021
 51
90.000009
  0
LINE
  8
CSLAYER1
  6
CONTINUOUS
 62
     6
 10
403.982194
 20
583.255723
 11
404.679826
 21
576.618211
  0
ARC
  8
CSLAYER1
  6
CONTINUOUS
 62
     6
 10
405.674333
 20
576.722764
 40
1.000000
 50
186.000012
 51
270.000001
  0
LINE
  8
CSLAYER1
  6
CONTINUOUS
 62
     6
 10
405.674333
 20
575.722764
 11
441.873491
 21
575.722764
  0
ARC
  8
CSLAYER1
  6
CONTINUOUS
 62
     6
 10
441.873491
 20
576.722764
 40
1.000000
 50
270.000001
 51
354.000017
  0
LINE
  8
CSLAYER1
  6
CONTINUOUS
 62
     6
 10
439.417009
 20
584.329576
 11
407.459917
 21
584.329576
  0
LINE
  8
CSLAYER1
  6
CONTINUOUS
 62
     6
 10
407.459917
 20
657.115953
 11
439.417009
 21
657.115953
  0
ARC
  8
CSLAYER1
  6
CONTINUOUS
 62
     6
 10
444.560197
 20
658.294298
 40
1.000000
 50
186.000026
 51
270.000001
  0
LINE
  8
CSLAYER1
  6
CONTINUOUS
 62
     6
 10
443.565690
 20
658.189805
 11
442.868059
 21
664.827257
  0
ARC
  8
CSLAYER1
  6
CONTINUOUS
 62
     6
 10
441.873491
 20
664.722764
 40
1.000000
 50
6.000003
 51
90.000016
  0
LINE
  8
CSLAYER1
  6
CONTINUOUS
 62
     6
 10
441.873491
 20
665.722764
 11
405.674333
 21
665.722764
  0
ARC
  8
CSLAYER1
  6
CONTINUOUS
 62
     6
 10
405.674333
 20
664.722764
 40
1.000000
 50
90.000003
 51
173.999998
  0
LINE
  8
CSLAYER1
  6
CONTINUOUS
 62
     6
 10
404.679826
 20
664.827257
 11
403.982194
 21
658.189805
  0
ARC
  8
CSLAYER1
  6
CONTINUOUS
 62
     6
 10
402.987627
 20
658.294298
 40
1.000000
 50
270.000001
 51
353.999989
  0
ARC
  8
CSLAYER1
  6
CONTINUOUS
 62
     6
 10
403.037309
 20
662.766588
 40
1.000000
 50
270.000001
 51
353.999989
  0
LINE
  8
CSLAYER1
  6
CONTINUOUS
 62
     6
 10
404.031816
 20
662.662034
 11
404.679826
 21
668.827257
  0
ARC
  8
CSLAYER1
  6
CONTINUOUS
 62
     6
 10
405.674333
 20
668.722764
 40
1.000000
 50
90.000003
 51
173.999998
  0
LINE
  8
CSLAYER1
  6
CONTINUOUS
 62
     6
 10
405.674333
 20
669.722764
 11
441.873491
 21
669.722764
  0
ARC
  8
CSLAYER1
  6
CONTINUOUS
 62
     6
 10
441.873491
 20
668.722764
 40
1.000000
 50
6.000003
 51
90.000016
  0
LINE
  8
CSLAYER1
  6
CONTINUOUS
 62
     6
 10
442.868059
 20
668.827257
 11
443.516008
 21
662.662034
  0
ARC
  8
CSLAYER1
  6
CONTINUOUS
 62
     6
 10
444.510576
 20
662.766588
 40
1.000000
 50
186.000026
 51
270.000001
  0
LINE
  8
CSLAYER1
  6
CONTINUOUS
 62
     6
 10
444.773942
 20
664.722764
 11
443.298906
 21
664.722764
  0
LINE
  8
CSLAYER1
  6
CONTINUOUS
 62
     6
 10
404.248369
 20
664.722764
 11
392.773912
 21
664.722764
  0
LINE
  8
CSLAYER1
  6
CONTINUOUS
 62
     6
 10
392.773912
 20
664.722764
 11
391.773912
 21
663.722764
  0
LINE
  8
CSLAYER1
  6
CONTINUOUS
 62
     6
 10
579.773909
 20
700.722780
 11
597.773972
 21
700.722780
  0
ARC
  8
CSLAYER1
  6
CONTINUOUS
 62
     6
 10
597.773972
 20
697.722780
 40
3.000000
 50
0.000000
 51
90.000000
  0
LINE
  8
CSLAYER1
  6
CONTINUOUS
 62
     6
 10
579.773909
 20
540.722780
 11
597.773972
 21
540.722780
  0
ARC
  8
CSLAYER1
  6
CONTINUOUS
 62
     6
 10
597.773972
 20
543.722780
 40
3.000000
 50
270.000000
 51
360.000000
  0
LINE
  8
CSLAYER1
  6
CONTINUOUS
 62
     3
 10
533.773862
 20
365.743042
 11
533.773862
 21
359.148776
  0
ARC
  8
CSLAYER1
  6
CONTINUOUS
 62
     3
 10
531.773862
 20
359.148776
 40
2.000000
 50
270.000001
 51
359.942691
  0
LINE
  8
CSLAYER1
  6
CONTINUOUS
 62
     3
 10
531.773862
 20
357.148776
 11
503.773862
 21
357.148807
  0
ARC
  8
CSLAYER1
  6
CONTINUOUS
 62
     3
 10
503.773862
 20
359.148807
 40
2.000000
 50
180.000005
 51
270.000001
  0
LINE
  8
CSLAYER1
  6
CONTINUOUS
 62
     3
 10
501.773862
 20
359.148807
 11
501.773862
 21
365.743042
  0
LINE
  8
CSLAYER1
  6
CONTINUOUS
 62
     6
 10
579.773943
 20
240.743073
 11
579.773882
 21
400.743012
  0
LINE
  8
CSLAYER1
  6
CONTINUOUS
 62
     6
 10
592.773882
 20
240.743073
 11
592.773882
 21
400.743073
  0
LINE
  8
CSLAYER1
  6
CONTINUOUS
 62
     6
 10
579.773912
 20
400.743012
 11
592.773882
 21
400.743012
  0
LINE
  8
CSLAYER1
  6
CENTER
 62
     3
 10
568.845507
 20
274.781006
 11
606.773882
 21
274.781006
  0
LINE
  8
CSLAYER1
  6
CENTER
 62
     3
 10
568.845507
 20
366.705017
 11
606.773882
 21
366.705017
  0
LINE
  8
CSLAYER1
  6
CONTINUOUS
 62
     6
 10
579.773912
 20
240.743073
 11
592.773882
 21
240.743073
  0
LINE
  8
CSLAYER1
  6
CONTINUOUS
 62
     6
 10
598.773882
 20
219.243073
 11
766.773912
 21
219.243073
  0
LINE
  8
CSLAYER1
  6
CONTINUOUS
 62
     6
 10
598.773882
 20
219.243073
 11
599.873858
 21
231.903107
  0
LINE
  8
CSLAYER1
  6
CONTINUOUS
 62
     6
 10
766.773912
 20
219.243073
 11
765.673876
 21
231.903107
  0
LINE
  8
CSLAYER1
  6
CONTINUOUS
 62
     6
 10
759.793871
 20
237.363068
 11
730.213854
 21
237.883087
  0
LINE
  8
CSLAYER1
  6
CONTINUOUS
 62
     6
 10
605.753862
 20
237.363068
 11
633.833879
 21
237.863068
  0
ARC
  8
CSLAYER1
  6
CONTINUOUS
 62
     6
 10
605.853869
 20
231.363068
 40
6.000000
 50
90.999997
 51
174.990007
  0
ARC
  8
CSLAYER1
  6
CONTINUOUS
 62
     6
 10
759.693865
 20
231.363068
 40
6.000000
 50
5.000000
 51
89.000001
  0
LINE
  8
CSLAYER1
  6
CONTINUOUS
 62
     6
 10
659.773882
 20
417.243073
 11
659.773882
 21
274.923065
  0
LINE
  8
CSLAYER1
  6
CONTINUOUS
 62
     6
 10
661.773882
 20
322.503083
 11
661.773882
 21
291.523072
  0
ARC
  8
CSLAYER1
  6
CONTINUOUS
 62
     6
 10
651.773882
 20
322.503083
 40
10.000000
 50
0.000000
 51
36.870000
  0
ARC
  8
CSLAYER1
  6
CONTINUOUS
 62
     6
 10
591.773882
 20
291.523072
 40
70.000000
 50
312.549976
 51
359.989983
  0
ARC
  8
CSLAYER1
  6
CONTINUOUS
 62
     6
 10
633.693865
 20
245.863068
 40
8.000000
 50
270.999995
 51
312.549976
  0
LINE
  8
CSLAYER1
  6
CONTINUOUS
 62
     6
 10
759.773882
 20
379.743073
 11
759.773882
 21
318.743073
  0
LINE
  8
CSLAYER1
  6
CONTINUOUS
 62
     6
 10
755.713854
 20
383.243073
 11
756.273882
 21
383.243073
  0
ARC
  8
CSLAYER1
  6
CONTINUOUS
 62
     6
 10
756.273882
 20
379.743073
 40
3.500000
 50
0.000000
 51
99.120006
  0
ARC
  8
CSLAYER1
  6
CONTINUOUS
 62
     6
 10
756.273882
 20
318.743073
 40
3.500000
 50
-64.880012
 51
0.000010
  0
ARC
  8
CSLAYER1
  6
CONTINUOUS
 62
     6
 10
659.780870
 20
-352.741943
 40
770.000000
 50
84.169999
 51
89.989996
  0
ARC
  8
CSLAYER1
  6
CONTINUOUS
 62
     6
 10
911.773912
 20
308.743073
 40
200.000000
 50
149.490001
 51
199.110000
  0
ARC
  8
CSLAYER1
  6
CONTINUOUS
 62
     6
 10
737.733873
 20
411.283081
 40
2.000000
 50
-30.510008
 51
84.170016
  0
ARC
  8
CSLAYER1
  6
CONTINUOUS
 62
     6
 10
730.393877
 20
386.963074
 40
25.000000
 50
4.100000
 51
68.769999
  0
ARC
  8
CSLAYER1
  6
CONTINUOUS
 62
     6
 10
730.353869
 20
245.883087
 40
8.000000
 50
199.110000
 51
269.000006
  0
ARC
  8
CSLAYER1
  6
CONTINUOUS
 62
     6
 10
865.133898
 20
288.963074
 40
120.000000
 50
189.449995
 51
205.429988
  0
ARC
  8
CSLAYER1
  6
CONTINUOUS
 62
     6
 10
-192.219130
 20
320.758087
 40
950.000000
 50
-3.280011
 51
4.100009
  0
ARC
  8
CSLAYER1
  6
CONTINUOUS
 62
     6
 10
731.253862
 20
267.923065
 40
25.000000
 50
321.570005
 51
356.719989
  0
ARC
  8
CSLAYER1
  6
CONTINUOUS
 62
     6
 10
724.933855
 20
316.703064
 40
50.000000
 50
267.920017
 51
290.920023
  0
LINE
  8
CSLAYER1
  6
CONTINUOUS
 62
     6
 10
762.773912
 20
366.243073
 11
762.773912
 21
332.243073
  0
LINE
  8
CSLAYER1
  6
CONTINUOUS
 62
     6
 10
759.773882
 20
366.243073
 11
762.773912
 21
366.243073
  0
LINE
  8
CSLAYER1
  6
CONTINUOUS
 62
     6
 10
759.773882
 20
332.243073
 11
762.773912
 21
332.243073
  0
LINE
  8
CSLAYER1
  6
CONTINUOUS
 62
     6
 10
762.773912
 20
365.243073
 11
817.773912
 21
365.243073
  0
LINE
  8
CSLAYER1
  6
CONTINUOUS
 62
     6
 10
762.773912
 20
333.243073
 11
817.773912
 21
333.243073
  0
LINE
  8
CSLAYER1
  6
CONTINUOUS
 62
     6
 10
817.773912
 20
365.243073
 11
817.773912
 21
333.243073
  0
LINE
  8
CSLAYER1
  6
CONTINUOUS
 62
     6
 10
772.773912
 20
354.243073
 11
817.773912
 21
354.243073
  0
LINE
  8
CSLAYER1
  6
CONTINUOUS
 62
     6
 10
772.773912
 20
344.243073
 11
817.773912
 21
344.243073
  0
ARC
  8
CSLAYER1
  6
CONTINUOUS
 62
     6
 10
772.773912
 20
349.243073
 40
5.000000
 50
90.000003
 51
270.000001
  0
ARC
  8
CSLAYER1
  6
CONTINUOUS
 62
     6
 10
655.773882
 20
414.103089
 40
3.000000
 50
91.999998
 51
180.000005
  0
LINE
  8
CSLAYER1
  6
CONTINUOUS
 62
     6
 10
649.273882
 20
384.743073
 11
649.273882
 21
256.743073
  0
LINE
  8
CSLAYER1
  6
CONTINUOUS
 62
     6
 10
649.273882
 20
384.743073
 11
649.773882
 21
384.743073
  0
LINE
  8
CSLAYER1
  6
CONTINUOUS
 62
     6
 10
649.273882
 20
256.743073
 11
649.773882
 21
256.743073
  0
ARC
  8
CSLAYER1
  6
CONTINUOUS
 62
     6
 10
649.773882
 20
387.743073
 40
3.000000
 50
-89.999999
 51
0.000010
  0
LINE
  8
CSLAYER1
  6
CONTINUOUS
 62
     6
 10
652.773882
 20
257.223114
 11
652.773882
 21
414.103089
  0
LINE
  8
CSLAYER1
  6
CONTINUOUS
 62
     6
 10
655.673876
 20
417.103089
 11
659.773882
 21
417.243073
  0
LINE
  8
CSLAYER1
  6
CONTINUOUS
 62
     6
 10
656.113878
 20
264.063080
 11
653.933855
 21
264.063080
  0
ARC
  8
CSLAYER1
  6
CONTINUOUS
 62
     6
 10
649.773882
 20
253.743073
 40
3.000000
 50
44.120000
 51
90.000003
  0
LINE
  8
CSLAYER1
  6
CONTINUOUS
 62
     6
 10
597.853869
 20
400.623078
 11
592.773882
 21
400.743073
  0
LINE
  8
CSLAYER1
  6
CONTINUOUS
 62
     6
 10
597.856537
 20
240.883161
 11
592.773882
 21
240.743073
  0
LINE
  8
CSLAYER1
  6
CONTINUOUS
 62
     6
 10
600.773882
 20
243.882022
 11
600.773882
 21
397.623078
  0
ARC
  8
CSLAYER1
  6
CONTINUOUS
 62
     6
 10
597.773882
 20
397.623078
 40
3.000000
 50
0.000000
 51
88.489998
  0
LINE
  8
CSLAYER1
  6
CONTINUOUS
 62
     6
 10
608.813860
 20
387.803070
 11
605.633867
 21
387.883087
  0
ARC
  8
CSLAYER1
  6
CONTINUOUS
 62
     6
 10
605.773882
 20
392.883087
 40
5.000000
 50
180.000005
 51
268.500009
  0
ARC
  8
CSLAYER1
  6
CONTINUOUS
 62
     6
 10
608.773882
 20
385.803070
 40
2.000000
 50
28.420000
 51
88.499997
  0
LINE
  8
CSLAYER1
  6
CONTINUOUS
 62
     6
 10
608.813860
 20
253.703095
 11
605.633867
 21
253.623078
  0
ARC
  8
CSLAYER1
  6
CONTINUOUS
 62
     6
 10
605.773882
 20
248.623078
 40
5.000000
 50
91.489995
 51
180.000005
  0
ARC
  8
CSLAYER1
  6
CONTINUOUS
 62
     6
 10
608.773882
 20
255.703095
 40
2.000000
 50
271.489993
 51
331.570003
  0
LINE
  8
CSLAYER1
  6
CONTINUOUS
 62
     6
 10
610.773882
 20
314.743073
 11
610.773882
 21
326.743073
  0
LINE
  8
CSLAYER1
  6
CONTINUOUS
 62
     6
 10
625.273882
 20
279.923065
 11
625.273882
 21
269.663117
  0
LINE
  8
CSLAYER1
  6
CONTINUOUS
 62
     6
 10
625.273882
 20
371.843079
 11
625.273882
 21
361.583069
  0
LINE
  8
CSLAYER1
  6
CONTINUOUS
 62
     6
 10
608.773882
 20
328.743073
 11
600.773882
 21
328.743073
  0
LINE
  8
CSLAYER1
  6
CONTINUOUS
 62
     6
 10
608.773882
 20
312.743073
 11
600.773882
 21
312.743073
  0
LINE
  8
CSLAYER1
  6
CONTINUOUS
 62
     6
 10
620.393877
 20
376.843079
 11
600.773882
 21
377.343079
  0
LINE
  8
CSLAYER1
  6
CONTINUOUS
 62
     6
 10
620.393877
 20
356.583069
 11
600.773882
 21
356.063080
  0
LINE
  8
CSLAYER1
  6
CONTINUOUS
 62
     6
 10
620.393877
 20
284.923065
 11
600.773882
 21
285.423065
  0
LINE
  8
CSLAYER1
  6
CONTINUOUS
 62
     6
 10
620.393877
 20
264.663117
 11
600.773882
 21
264.143097
  0
ARC
  8
CSLAYER1
  6
CONTINUOUS
 62
     6
 10
620.273882
 20
279.923065
 40
5.000000
 50
0.000000
 51
88.499997
  0
ARC
  8
CSLAYER1
  6
CONTINUOUS
 62
     6
 10
620.273882
 20
269.663117
 40
5.000000
 50
-88.500008
 51
0.000010
  0
ARC
  8
CSLAYER1
  6
CONTINUOUS
 62
     6
 10
620.273882
 20
371.843079
 40
5.000000
 50
0.000000
 51
88.489998
  0
ARC
  8
CSLAYER1
  6
CONTINUOUS
 62
     6
 10
620.273882
 20
361.583069
 40
5.000000
 50
-88.500008
 51
0.000010
  0
ARC
  8
CSLAYER1
  6
CONTINUOUS
 62
     6
 10
608.773882
 20
326.743073
 40
2.000000
 50
0.000000
 51
90.000003
  0
ARC
  8
CSLAYER1
  6
CONTINUOUS
 62
     6
 10
608.773882
 20
314.743073
 40
2.000000
 50
-89.999999
 51
0.000010
  0
ARC
  8
CSLAYER1
  6
CONTINUOUS
 62
     6
 10
603.773882
 20
388.923065
 40
3.000000
 50
180.000005
 51
268.500009
  0
ARC
  8
CSLAYER1
  6
CONTINUOUS
 62
     6
 10
603.773882
 20
252.563080
 40
3.000000
 50
91.489995
 51
180.000005
  0
ARC
  8
CSLAYER1
  6
CONTINUOUS
 62
     6
 10
612.293871
 20
387.703064
 40
2.000000
 50
208.419999
 51
268.500009
  0
ARC
  8
CSLAYER1
  6
CONTINUOUS
 62
     6
 10
612.293871
 20
253.783112
 40
2.000000
 50
91.489995
 51
151.570012
  0
LINE
  8
CSLAYER1
  6
CENTER
 62
     3
 10
617.773882
 20
243.243073
 11
617.773882
 21
213.243073
  0
LINE
  8
CSLAYER1
  6
CENTER
 62
     3
 10
747.773882
 20
243.243073
 11
747.773882
 21
213.243073
  0
LINE
  8
CSLAYER1
  6
CENTER
 62
     3
 10
747.181752
 20
349.243073
 11
827.607774
 21
349.243073
  0
LINE
  8
CSLAYER1
  6
DASHED
 62
     6
 10
611.273882
 20
237.463104
 11
611.273882
 21
219.243073
  0
LINE
  8
CSLAYER1
  6
DASHED
 62
     6
 10
624.273882
 20
237.703095
 11
624.273882
 21
219.243073
  0
LINE
  8
CSLAYER1
  6
DASHED
 62
     6
 10
741.273882
 20
237.683075
 11
741.273882
 21
219.243073
  0
LINE
  8
CSLAYER1
  6
DASHED
 62
     6
 10
754.273882
 20
237.463104
 11
754.273882
 21
219.243073
  0
LINE
  8
CSLAYER1
  6
CONTINUOUS
 62
     6
 10
866.858141
 20
219.243073
 11
925.898119
 21
219.243073
  0
LINE
  8
CSLAYER1
  6
CONTINUOUS
 62
     6
 10
918.818102
 20
237.243073
 11
873.978136
 21
237.243073
  0
ARC
  8
CSLAYER1
  6
CONTINUOUS
 62
     6
 10
970.898119
 20
418.243073
 40
175.000000
 50
254.709994
 51
285.280008
  0
ARC
  8
CSLAYER1
  6
CONTINUOUS
 62
     6
 10
900.698107
 20
243.243073
 40
6.000000
 50
270.000001
 51
339.989987
  0
LINE
  8
CSLAYER1
  6
CONTINUOUS
 62
     6
 10
915.958117
 20
267.643067
 11
906.338121
 21
241.203064
  0
LINE
  8
CSLAYER1
  6
CONTINUOUS
 62
     6
 10
922.798143
 20
260.103089
 11
915.938097
 21
241.283081
  0
ARC
  8
CSLAYER1
  6
CONTINUOUS
 62
     6
 10
918.758104
 20
240.243073
 40
3.000000
 50
159.999995
 51
270.000001
  0
CIRCLE
  8
CSLAYER1
  6
CONTINUOUS
 62
     6
 10
970.898119
 20
349.243073
 40
34.000000
  0
ARC
  8
CSLAYER1
  6
CONTINUOUS
 62
     6
 10
970.898119
 20
267.243073
 40
150.000000
 50
70.269997
 51
109.720002
  0
ARC
  8
CSLAYER1
  6
CONTINUOUS
 62
     6
 10
1050.898119
 20
313.743073
 40
175.000000
 50
159.029999
 51
174.960008
  0
ARC
  8
CSLAYER1
  6
CONTINUOUS
 62
     6
 10
938.838121
 20
356.683075
 40
55.000000
 50
109.720002
 51
159.029999
  0
ARC
  8
CSLAYER1
  6
CONTINUOUS
 62
     6
 10
970.898119
 20
267.243073
 40
143.000000
 50
70.480005
 51
109.510001
  0
ARC
  8
CSLAYER1
  6
CONTINUOUS
 62
     6
 10
1005.898119
 20
329.743073
 40
120.000000
 50
157.929997
 51
182.139999
  0
ARC
  8
CSLAYER1
  6
CONTINUOUS
 62
     6
 10
939.178148
 20
356.803070
 40
48.000000
 50
109.510001
 51
157.929997
  0
ARC
  8
CSLAYER1
  6
CONTINUOUS
 62
     6
 10
873.978136
 20
231.243073
 40
6.000000
 50
90.000003
 51
174.960008
  0
LINE
  8
CSLAYER1
  6
CONTINUOUS
 62
     6
 10
1074.958117
 20
219.243073
 11
1015.918139
 21
219.243073
  0
LINE
  8
CSLAYER1
  6
CONTINUOUS
 62
     6
 10
1022.978136
 20
237.243073
 11
1067.818102
 21
237.243073
  0
ARC
  8
CSLAYER1
  6
CONTINUOUS
 62
     6
 10
1041.098131
 20
243.243073
 40
6.000000
 50
199.990002
 51
270.000001
  0
LINE
  8
CSLAYER1
  6
CONTINUOUS
 62
     6
 10
1025.838121
 20
267.643067
 11
1035.458117
 21
241.203064
  0
LINE
  8
CSLAYER1
  6
CONTINUOUS
 62
     6
 10
1018.998095
 20
260.103089
 11
1025.858141
 21
241.283081
  0
ARC
  8
CSLAYER1
  6
CONTINUOUS
 62
     6
 10
1023.038134
 20
240.243073
 40
3.000000
 50
-89.999999
 51
19.990007
  0
ARC
  8
CSLAYER1
  6
CONTINUOUS
 62
     6
 10
890.898119
 20
313.743073
 40
175.000000
 50
5.030000
 51
20.960000
  0
ARC
  8
CSLAYER1
  6
CONTINUOUS
 62
     6
 10
1002.958117
 20
356.683075
 40
55.000000
 50
20.960000
 51
70.269997
  0
ARC
  8
CSLAYER1
  6
CONTINUOUS
 62
     6
 10
935.898119
 20
329.743073
 40
120.000000
 50
-2.149997
 51
22.060018
  0
ARC
  8
CSLAYER1
  6
CONTINUOUS
 62
     6
 10
1002.618090
 20
356.803070
 40
48.000000
 50
22.060000
 51
70.480005
  0
ARC
  8
CSLAYER1
  6
CONTINUOUS
 62
     6
 10
1067.818102
 20
231.243073
 40
6.000000
 50
5.030000
 51
90.000003
  0
ARC
  8
CSLAYER1
  6
CONTINUOUS
 62
     6
 10
937.518114
 20
287.443085
 40
27.760000
 50
212.740011
 51
217.600005
  0
ARC
  8
CSLAYER1
  6
CONTINUOUS
 62
     6
 10
913.138109
 20
268.663086
 40
3.000000
 50
-20.000013
 51
37.600010
  0
ARC
  8
CSLAYER1
  6
CONTINUOUS
 62
     6
 10
925.618090
 20
259.083069
 40
3.000000
 50
67.239995
 51
159.999995
  0
ARC
  8
CSLAYER1
  6
CONTINUOUS
 62
     6
 10
937.518114
 20
287.443085
 40
27.760000
 50
247.240007
 51
249.990005
  0
ARC
  8
CSLAYER1
  6
CONTINUOUS
 62
     6
 10
1004.278124
 20
287.443085
 40
27.760000
 50
322.390010
 51
327.249991
  0
ARC
  8
CSLAYER1
  6
CONTINUOUS
 62
     6
 10
1028.658129
 20
268.663086
 40
3.000000
 50
142.390005
 51
199.990002
  0
ARC
  8
CSLAYER1
  6
CONTINUOUS
 62
     6
 10
1016.178148
 20
259.083069
 40
3.000000
 50
19.990000
 51
112.749997
  0
ARC
  8
CSLAYER1
  6
CONTINUOUS
 62
     6
 10
1004.278124
 20
287.443085
 40
27.760000
 50
289.999997
 51
292.749995
  0
LINE
  8
CSLAYER1
  6
CONTINUOUS
 62
     6
 10
1016.998095
 20
231.763092
 11
1015.918139
 21
219.243073
  0
ARC
  8
CSLAYER1
  6
CONTINUOUS
 62
     6
 10
1022.978136
 20
231.243073
 40
6.000000
 50
90.000003
 51
175.000006
  0
LINE
  8
CSLAYER1
  6
CONTINUOUS
 62
     6
 10
924.798143
 20
231.763092
 11
925.898119
 21
219.243073
  0
ARC
  8
CSLAYER1
  6
CONTINUOUS
 62
     6
 10
918.818102
 20
231.243073
 40
6.000000
 50
5.000000
 51
90.000003
  0
ARC
  8
CSLAYER1
  6
CONTINUOUS
 62
     6
 10
876.398119
 20
339.743073
 40
180.000000
 50
336.420011
 51
355.380015
  0
ARC
  8
CSLAYER1
  6
CONTINUOUS
 62
     6
 10
1013.878099
 20
279.763092
 40
30.000000
 50
311.309996
 51
336.420011
  0
ARC
  8
CSLAYER1
  6
CONTINUOUS
 62
     6
 10
1037.658129
 20
252.723084
 40
6.000000
 50
131.310004
 51
199.990002
  0
ARC
  8
CSLAYER1
  6
CONTINUOUS
 62
     6
 10
1018.618090
 20
243.643067
 40
6.000000
 50
19.990000
 51
105.279996
  0
ARC
  8
CSLAYER1
  6
CONTINUOUS
 62
     6
 10
1065.398119
 20
339.743073
 40
180.000000
 50
184.610000
 51
203.570004
  0
ARC
  8
CSLAYER1
  6
CONTINUOUS
 62
     6
 10
927.918139
 20
279.763092
 40
30.000000
 50
203.570004
 51
228.679993
  0
ARC
  8
CSLAYER1
  6
CONTINUOUS
 62
     6
 10
904.158129
 20
252.723084
 40
6.000000
 50
-20.000013
 51
48.679998
  0
ARC
  8
CSLAYER1
  6
CONTINUOUS
 62
     6
 10
923.198107
 20
243.643067
 40
6.000000
 50
74.709996
 51
159.999995
  0
ARC
  8
CSLAYER1
  6
CONTINUOUS
 62
     6
 10
970.910143
 20
-24.741913
 40
250.000000
 50
79.769998
 51
100.220001
  0
ARC
  8
CSLAYER1
  6
CONTINUOUS
 62
     6
 10
926.718126
 20
220.303070
 40
1.000000
 50
100.220001
 51
160.759990
  0
ARC
  8
CSLAYER1
  6
CONTINUOUS
 62
     6
 10
1015.078112
 20
220.303070
 40
1.000000
 50
19.080000
 51
79.769998
  0
ARC
  8
CSLAYER1
  6
CONTINUOUS
 62
     6
 10
970.898119
 20
349.243073
 40
16.000000
 50
-161.789987
 51
161.780007
  0
LINE
  8
CSLAYER1
  6
CONTINUOUS
 62
     6
 10
951.898119
 20
354.243073
 11
959.898119
 21
354.243073
  0
LINE
  8
CSLAYER1
  6
CONTINUOUS
 62
     6
 10
951.898119
 20
344.243073
 11
959.898119
 21
344.243073
  0
LINE
  8
CSLAYER1
  6
CONTINUOUS
 62
     6
 10
959.898119
 20
354.243073
 11
959.898119
 21
344.243073
  0
LINE
  8
CSLAYER1
  6
CONTINUOUS
 62
     6
 10
951.898119
 20
354.243073
 11
951.898119
 21
344.243073
  0
LINE
  8
CSLAYER1
  6
CONTINUOUS
 62
     6
 10
1065.218126
 20
329.103089
 11
1074.958117
 21
219.243073
  0
LINE
  8
CSLAYER1
  6
CONTINUOUS
 62
     6
 10
876.578112
 20
329.103089
 11
866.858141
 21
219.243073
  0
LINE
  8
CSLAYER1
  6
CENTER
 62
     3
 10
1010.398119
 20
349.243073
 11
930.898119
 21
349.243073
  0
LINE
  8
CSLAYER1
  6
CENTER
 62
     3
 10
970.898119
 20
423.243073
 11
970.898119
 21
219.258087
  0
LINE
  8
CSLAYER1
  6
CENTER
 62
     3
 10
1071.959310
 20
320.743073
 11
869.838451
 21
320.743073
  0
LINE
  8
CSLAYER1
  6
CENTER
 62
     3
 10
885.898119
 20
243.243073
 11
885.898119
 21
213.243073
  0
LINE
  8
CSLAYER1
  6
CENTER
 62
     3
 10
1055.898119
 20
243.243073
 11
1055.898119
 21
213.243073
  0
LINE
  8
CSLAYER1
  6
DASHED
 62
     6
 10
892.398119
 20
237.243073
 11
892.398119
 21
219.243073
  0
LINE
  8
CSLAYER1
  6
DASHED
 62
     6
 10
879.398119
 20
237.243073
 11
879.398119
 21
219.243073
  0
LINE
  8
CSLAYER1
  6
DASHED
 62
     6
 10
1049.398119
 20
237.243073
 11
1049.398119
 21
219.243073
  0
LINE
  8
CSLAYER1
  6
DASHED
 62
     6
 10
1062.398119
 20
237.243073
 11
1062.398119
 21
219.243073
  0
LINE
  8
CSLAYER1
  6
CONTINUOUS
 62
     6
 10
603.695875
 20
255.562066
 11
649.273882
 21
256.743073
  0
LINE
  8
CSLAYER1
  6
CONTINUOUS
 62
     6
 10
603.695352
 20
385.924093
 11
649.273882
 21
384.743073
  0
ARC
  8
CSLAYER1
  6
CONTINUOUS
 62
     6
 10
597.773882
 20
243.882022
 40
3.000000
 50
271.578787
 51
360.000000
  0
ARC
  8
CSLAYER1
  6
CONTINUOUS
 62
     6
 10
576.226672
 20
372.334182
 40
3.752777
 50
164.553352
 51
210.000000
  0
ARC
  8
CSLAYER1
  6
CONTINUOUS
 62
     6
 10
586.730837
 20
366.705017
 40
14.256942
 50
164.738520
 51
195.261480
  0
ARC
  8
CSLAYER1
  6
CONTINUOUS
 62
     6
 10
576.226672
 20
361.075852
 40
3.752777
 50
150.000000
 51
195.446648
  0
LINE
  8
CSLAYER1
  6
CONTINUOUS
 62
     6
 10
572.976672
 20
374.210571
 11
577.773895
 21
374.210571
  0
LINE
  8
CSLAYER1
  6
CONTINUOUS
 62
     6
 10
572.976672
 20
370.457794
 11
577.773895
 21
370.457794
  0
LINE
  8
CSLAYER1
  6
CONTINUOUS
 62
     6
 10
572.976672
 20
362.952241
 11
577.773895
 21
362.952241
  0
LINE
  8
CSLAYER1
  6
CONTINUOUS
 62
     6
 10
572.976672
 20
359.199464
 11
577.773895
 21
359.199464
  0
LINE
  8
CSLAYER1
  6
CONTINUOUS
 62
     6
 10
572.473895
 20
373.010017
 11
572.473895
 21
360.400017
  0
LINE
  8
CSLAYER1
  6
CONTINUOUS
 62
     6
 10
577.773895
 20
359.005017
 11
577.773895
 21
374.405017
  0
LINE
  8
CSLAYER1
  6
CONTINUOUS
 62
     6
 10
572.473895
 20
373.010017
 11
572.976672
 21
374.210571
  0
LINE
  8
CSLAYER1
  6
CONTINUOUS
 62
     6
 10
572.473895
 20
360.400017
 11
572.976672
 21
359.199464
  0
LINE
  8
CSLAYER1
  6
CONTINUOUS
 62
     6
 10
577.773895
 20
374.405017
 11
579.773895
 21
374.405017
  0
LINE
  8
CSLAYER1
  6
CONTINUOUS
 62
     6
 10
579.773895
 20
359.005017
 11
577.773895
 21
359.005017
  0
LINE
  8
CSLAYER1
  6
CONTINUOUS
 62
     6
 10
579.773895
 20
374.405017
 11
579.773895
 21
359.005017
  0
LINE
  8
CSLAYER1
  6
CONTINUOUS
 62
     6
 10
577.773895
 20
365.473017
 11
579.773895
 21
366.089017
  0
LINE
  8
CSLAYER1
  6
CONTINUOUS
 62
     6
 10
577.773895
 20
367.321017
 11
579.773895
 21
367.937017
  0
ARC
  8
CSLAYER1
  6
CONTINUOUS
 62
     6
 10
576.226707
 20
280.410171
 40
3.752777
 50
164.553352
 51
210.000000
  0
ARC
  8
CSLAYER1
  6
CONTINUOUS
 62
     6
 10
586.730872
 20
274.781006
 40
14.256942
 50
164.738520
 51
195.261480
  0
ARC
  8
CSLAYER1
  6
CONTINUOUS
 62
     6
 10
576.226707
 20
269.151841
 40
3.752777
 50
150.000000
 51
195.446648
  0
LINE
  8
CSLAYER1
  6
CONTINUOUS
 62
     6
 10
572.976707
 20
282.286560
 11
577.773930
 21
282.286560
  0
LINE
  8
CSLAYER1
  6
CONTINUOUS
 62
     6
 10
572.976707
 20
278.533783
 11
577.773930
 21
278.533783
  0
LINE
  8
CSLAYER1
  6
CONTINUOUS
 62
     6
 10
572.976707
 20
271.028229
 11
577.773930
 21
271.028229
  0
LINE
  8
CSLAYER1
  6
CONTINUOUS
 62
     6
 10
572.976707
 20
267.275453
 11
577.773930
 21
267.275453
  0
LINE
  8
CSLAYER1
  6
CONTINUOUS
 62
     6
 10
572.473930
 20
281.086006
 11
572.473930
 21
268.476006
  0
LINE
  8
CSLAYER1
  6
CONTINUOUS
 62
     6
 10
577.773930
 20
267.081006
 11
577.773930
 21
282.481006
  0
LINE
  8
CSLAYER1
  6
CONTINUOUS
 62
     6
 10
572.473930
 20
281.086006
 11
572.976707
 21
282.286560
  0
LINE
  8
CSLAYER1
  6
CONTINUOUS
 62
     6
 10
572.473930
 20
268.476006
 11
572.976707
 21
267.275453
  0
LINE
  8
CSLAYER1
  6
CONTINUOUS
 62
     6
 10
577.773930
 20
282.481006
 11
579.773930
 21
282.481006
  0
LINE
  8
CSLAYER1
  6
CONTINUOUS
 62
     6
 10
579.773930
 20
267.081006
 11
577.773930
 21
267.081006
  0
LINE
  8
CSLAYER1
  6
CONTINUOUS
 62
     6
 10
579.773930
 20
282.481006
 11
579.773930
 21
267.081006
  0
LINE
  8
CSLAYER1
  6
CONTINUOUS
 62
     6
 10
577.773930
 20
273.549006
 11
579.773930
 21
274.165006
  0
LINE
  8
CSLAYER1
  6
CONTINUOUS
 62
     6
 10
577.773930
 20
275.397006
 11
579.773930
 21
276.013006
  0
LINE
  8
CSLAYER1
  6
CONTINUOUS
 62
     6
 10
649.273882
 20
684.722810
 11
649.273882
 21
556.722810
  0
LINE
  8
CSLAYER1
  6
CONTINUOUS
 62
     6
 10
608.813860
 20
687.782808
 11
605.633867
 21
687.862825
  0
ARC
  8
CSLAYER1
  6
CONTINUOUS
 62
     6
 10
605.773882
 20
692.862825
 40
5.000000
 50
180.000005
 51
268.500009
  0
ARC
  8
CSLAYER1
  6
CONTINUOUS
 62
     6
 10
608.773882
 20
685.782808
 40
2.000000
 50
28.420000
 51
88.499997
  0
LINE
  8
CSLAYER1
  6
CONTINUOUS
 62
     6
 10
608.813860
 20
553.682832
 11
605.633867
 21
553.602815
  0
ARC
  8
CSLAYER1
  6
CONTINUOUS
 62
     6
 10
605.773882
 20
548.602815
 40
5.000000
 50
91.489995
 51
180.000005
  0
ARC
  8
CSLAYER1
  6
CONTINUOUS
 62
     6
 10
608.773882
 20
555.682832
 40
2.000000
 50
271.489993
 51
331.570003
  0
LINE
  8
CSLAYER1
  6
CONTINUOUS
 62
     6
 10
610.773882
 20
614.722810
 11
610.773882
 21
626.722810
  0
LINE
  8
CSLAYER1
  6
CONTINUOUS
 62
     6
 10
625.273882
 20
579.902803
 11
625.273882
 21
569.642854
  0
LINE
  8
CSLAYER1
  6
CONTINUOUS
 62
     6
 10
625.273882
 20
671.822816
 11
625.273882
 21
661.562807
  0
LINE
  8
CSLAYER1
  6
CONTINUOUS
 62
     6
 10
608.773882
 20
628.722810
 11
600.773882
 21
628.722810
  0
LINE
  8
CSLAYER1
  6
CONTINUOUS
 62
     6
 10
608.773882
 20
612.722810
 11
600.773882
 21
612.722810
  0
LINE
  8
CSLAYER1
  6
CONTINUOUS
 62
     6
 10
620.393877
 20
676.822816
 11
600.773882
 21
677.322816
  0
LINE
  8
CSLAYER1
  6
CONTINUOUS
 62
     6
 10
620.393877
 20
656.562807
 11
600.773882
 21
656.042818
  0
LINE
  8
CSLAYER1
  6
CONTINUOUS
 62
     6
 10
620.393877
 20
584.902803
 11
600.773882
 21
585.402803
  0
LINE
  8
CSLAYER1
  6
CONTINUOUS
 62
     6
 10
620.393877
 20
564.642854
 11
600.773882
 21
564.122835
  0
ARC
  8
CSLAYER1
  6
CONTINUOUS
 62
     6
 10
620.273882
 20
579.902803
 40
5.000000
 50
0.000000
 51
88.499997
  0
ARC
  8
CSLAYER1
  6
CONTINUOUS
 62
     6
 10
620.273882
 20
569.642854
 40
5.000000
 50
-88.500008
 51
0.000010
  0
ARC
  8
CSLAYER1
  6
CONTINUOUS
 62
     6
 10
620.273882
 20
671.822816
 40
5.000000
 50
0.000000
 51
88.489998
  0
ARC
  8
CSLAYER1
  6
CONTINUOUS
 62
     6
 10
620.273882
 20
661.562807
 40
5.000000
 50
-88.500008
 51
0.000010
  0
ARC
  8
CSLAYER1
  6
CONTINUOUS
 62
     6
 10
608.773882
 20
626.722810
 40
2.000000
 50
0.000000
 51
90.000003
  0
ARC
  8
CSLAYER1
  6
CONTINUOUS
 62
     6
 10
608.773882
 20
614.722810
 40
2.000000
 50
-89.999999
 51
0.000010
  0
ARC
  8
CSLAYER1
  6
CONTINUOUS
 62
     6
 10
603.773882
 20
688.902803
 40
3.000000
 50
180.000005
 51
268.500009
  0
ARC
  8
CSLAYER1
  6
CONTINUOUS
 62
     6
 10
603.773882
 20
552.542818
 40
3.000000
 50
91.489995
 51
180.000005
  0
ARC
  8
CSLAYER1
  6
CONTINUOUS
 62
     6
 10
612.293871
 20
687.682802
 40
2.000000
 50
208.419999
 51
268.500009
  0
ARC
  8
CSLAYER1
  6
CONTINUOUS
 62
     6
 10
612.293871
 20
553.762849
 40
2.000000
 50
91.489995
 51
151.570012
  0
LINE
  8
CSLAYER1
  6
CENTER
 62
     3
 10
617.773882
 20
547.222810
 11
617.773882
 21
524.222810
  0
LINE
  8
CSLAYER1
  6
CENTER
 62
     3
 10
747.773882
 20
547.222810
 11
747.773882
 21
524.222810
  0
LINE
  8
CSLAYER1
  6
CONTINUOUS
 62
     6
 10
603.695875
 20
555.541803
 11
649.273882
 21
556.722810
  0
LINE
  8
CSLAYER1
  6
CENTER
 62
     3
 10
606.273882
 20
535.722810
 11
629.273882
 21
535.722810
  0
CIRCLE
  8
CSLAYER1
  6
CONTINUOUS
 62
     6
 10
747.773882
 20
535.722810
 40
6.500000
  0
CIRCLE
  8
CSLAYER1
  6
CONTINUOUS
 62
     6
 10
617.773882
 20
535.722810
 40
6.500000
  0
LINE
  8
CSLAYER1
  6
CENTER
 62
     3
 10
736.273882
 20
535.722810
 11
759.273882
 21
535.722810
  0
LINE
  8
CSLAYER1
  6
CONTINUOUS
 62
     6
 10
766.773912
 20
526.682832
 11
766.773912
 21
565.722810
  0
LINE
  8
CSLAYER1
  6
CONTINUOUS
 62
     6
 10
598.773882
 20
526.682832
 11
598.773882
 21
540.894321
  0
LINE
  8
CSLAYER1
  6
CONTINUOUS
 62
     6
 10
756.773912
 20
516.682832
 11
608.773882
 21
516.682832
  0
LINE
  8
CSLAYER1
  6
CONTINUOUS
 62
     6
 10
759.773882
 20
651.222780
 11
759.773882
 21
590.222780
  0
ARC
  8
CSLAYER1
  6
CONTINUOUS
 62
     6
 10
756.273882
 20
651.222780
 40
3.500000
 50
0.000000
 51
75.046090
  0
ARC
  8
CSLAYER1
  6
CONTINUOUS
 62
     6
 10
756.273882
 20
590.222780
 40
3.500000
 50
-75.064459
 51
0.000010
  0
ARC
  8
CSLAYER1
  6
CONTINUOUS
 62
     6
 10
-192.219130
 20
620.737825
 40
950.000000
 50
-3.584985
 51
3.583096
  0
LINE
  8
CSLAYER1
  6
CONTINUOUS
 62
     6
 10
762.773912
 20
637.722780
 11
762.773912
 21
603.722780
  0
LINE
  8
CSLAYER1
  6
CONTINUOUS
 62
     6
 10
759.773882
 20
637.722780
 11
762.773912
 21
637.722780
  0
LINE
  8
CSLAYER1
  6
CONTINUOUS
 62
     6
 10
759.773882
 20
603.722780
 11
762.773912
 21
603.722780
  0
LINE
  8
CSLAYER1
  6
CONTINUOUS
 62
     6
 10
762.773912
 20
636.722780
 11
817.773912
 21
636.722780
  0
LINE
  8
CSLAYER1
  6
CONTINUOUS
 62
     6
 10
762.773912
 20
604.722780
 11
817.773912
 21
604.722780
  0
LINE
  8
CSLAYER1
  6
CONTINUOUS
 62
     6
 10
817.773912
 20
636.722780
 11
817.773912
 21
601.722810
  0
ARC
  8
CSLAYER1
  6
CONTINUOUS
 62
     6
 10
608.773882
 20
526.682832
 40
10.000000
 50
180.000000
 51
270.000000
  0
ARC
  8
CSLAYER1
  6
CONTINUOUS
 62
     6
 10
756.773912
 20
565.722810
 40
10.000000
 50
0.000000
 51
90.344640
  0
ARC
  8
CSLAYER1
  6
CONTINUOUS
 62
     6
 10
756.773912
 20
526.682832
 40
10.000000
 50
270.000000
 51
360.000000
  0
LINE
  8
CSLAYER1
  6
CENTER
 62
     3
 10
617.773882
 20
694.222749
 11
617.773882
 21
717.222749
  0
LINE
  8
CSLAYER1
  6
CENTER
 62
     3
 10
747.773882
 20
694.222749
 11
747.773882
 21
717.222749
  0
LINE
  8
CSLAYER1
  6
CENTER
 62
     3
 10
606.273882
 20
705.722749
 11
629.273882
 21
705.722749
  0
CIRCLE
  8
CSLAYER1
  6
CONTINUOUS
 62
     6
 10
747.773882
 20
705.722749
 40
6.500000
  0
CIRCLE
  8
CSLAYER1
  6
CONTINUOUS
 62
     6
 10
617.773882
 20
705.722749
 40
6.500000
  0
LINE
  8
CSLAYER1
  6
CENTER
 62
     3
 10
736.273882
 20
705.722749
 11
759.273882
 21
705.722749
  0
LINE
  8
CSLAYER1
  6
CONTINUOUS
 62
     6
 10
766.773912
 20
714.762727
 11
766.773912
 21
675.722749
  0
LINE
  8
CSLAYER1
  6
CONTINUOUS
 62
     6
 10
598.773882
 20
714.762727
 11
598.773882
 21
700.551239
  0
LINE
  8
CSLAYER1
  6
CONTINUOUS
 62
     6
 10
756.773912
 20
724.762727
 11
608.773882
 21
724.762727
  0
ARC
  8
CSLAYER1
  6
CONTINUOUS
 62
     6
 10
608.773882
 20
714.762727
 40
10.000000
 50
90.000000
 51
180.000000
  0
ARC
  8
CSLAYER1
  6
CONTINUOUS
 62
     6
 10
756.773912
 20
675.722749
 40
10.000000
 50
270.000000
 51
360.000000
  0
ARC
  8
CSLAYER1
  6
CONTINUOUS
 62
     6
 10
756.773912
 20
714.762727
 40
10.000000
 50
0.000000
 51
90.000000
  0
LINE
  8
CSLAYER1
  6
CONTINUOUS
 62
     6
 10
817.773912
 20
601.722810
 11
767.773912
 21
601.722810
  0
LINE
  8
CSLAYER1
  6
CONTINUOUS
 62
     6
 10
767.773912
 20
601.722810
 11
767.773912
 21
604.722780
  0
LINE
  8
CSLAYER1
  6
DASHED
 62
     6
 10
767.773912
 20
604.722780
 11
767.773912
 21
609.722810
  0
LINE
  8
CSLAYER1
  6
DASHED
 62
     6
 10
767.773912
 20
609.722810
 11
817.773912
 21
609.722810
  0
LINE
  8
CSLAYER1
  6
CONTINUOUS
 62
     6
 10
659.773882
 20
521.362733
 11
659.773882
 21
720.082826
  0
LINE
  8
CSLAYER1
  6
CONTINUOUS
 62
     6
 10
652.773882
 20
526.362733
 11
652.773882
 21
715.082826
  0
LINE
  8
CSLAYER1
  6
CONTINUOUS
 62
     6
 10
659.773882
 20
717.082826
 11
654.773882
 21
717.082826
  0
ARC
  8
CSLAYER1
  6
CONTINUOUS
 62
     6
 10
654.773882
 20
715.082826
 40
2.000000
 50
90.000000
 51
180.000000
  0
LINE
  8
CSLAYER1
  6
CONTINUOUS
 62
     6
 10
659.773882
 20
524.362733
 11
654.773882
 21
524.362733
  0
ARC
  8
CSLAYER1
  6
CONTINUOUS
 62
     6
 10
654.773882
 20
526.362733
 40
2.000000
 50
180.000000
 51
270.000000
  0
LINE
  8
CSLAYER1
  6
CONTINUOUS
 62
     6
 10
648.773882
 20
684.722810
 11
649.773882
 21
684.722810
  0
ARC
  8
CSLAYER1
  6
CONTINUOUS
 62
     6
 10
649.773882
 20
687.722810
 40
3.000000
 50
-89.999999
 51
0.000010
  0
LINE
  8
CSLAYER1
  6
CONTINUOUS
 62
     6
 10
603.695352
 20
685.903831
 11
649.273882
 21
684.722810
  0
LINE
  8
CSLAYER1
  6
CONTINUOUS
 62
     6
 10
648.773882
 20
556.722749
 11
649.773882
 21
556.722749
  0
ARC
  8
CSLAYER1
  6
CONTINUOUS
 62
     6
 10
649.773882
 20
553.722749
 40
3.000000
 50
-0.000010
 51
89.999999
  0
LINE
  8
CSLAYER1
  6
CONTINUOUS
 62
     6
 10
730.213854
 20
522.682832
 11
730.213854
 21
532.682832
  0
ARC
  8
CSLAYER1
  6
CONTINUOUS
 62
     6
 10
439.614948
 20
620.722780
 40
300.118925
 50
-14.469869
 51
14.469869
  0
ARC
  8
CSLAYER1
  6
CONTINUOUS
 62
     6
 10
722.134235
 20
525.663142
 40
10.000000
 50
104.717014
 51
216.729010
  0
ARC
  8
CSLAYER1
  6
CONTINUOUS
 62
     6
 10
715.783106
 20
549.842951
 40
15.000000
 50
284.717014
 51
345.605470
  0
ARC
  8
CSLAYER1
  6
CONTINUOUS
 62
     6
 10
722.134235
 20
715.782417
 40
10.000000
 50
143.270990
 51
255.282986
  0
ARC
  8
CSLAYER1
  6
CONTINUOUS
 62
     6
 10
715.783106
 20
691.602608
 40
15.000000
 50
14.394530
 51
75.282986
  0
LINE
  8
CSLAYER1
  6
CONTINUOUS
 62
     6
 10
720.869926
 20
705.713748
 11
735.313894
 21
703.166886
  0
ARC
  8
CSLAYER1
  6
CONTINUOUS
 62
     6
 10
730.972690
 20
678.546693
 40
25.000000
 50
3.583096
 51
80.000000
  0
LINE
  8
CSLAYER1
  6
CONTINUOUS
 62
     6
 10
720.869926
 20
535.731812
 11
735.311988
 21
538.278337
  0
ARC
  8
CSLAYER1
  6
CONTINUOUS
 62
     6
 10
730.970784
 20
562.898531
 40
25.000000
 50
280.000000
 51
356.415015
  0
LINE
  8
CSLAYER1
  6
CONTINUOUS
 62
     6
 10
730.213854
 20
718.762727
 11
730.213854
 21
708.762727
  0
LINE
  8
CSLAYER1
  6
CONTINUOUS
 62
     6
 10
129.069387
 20
219.243042
 11
188.109365
 21
219.243042
  0
LINE
  8
CSLAYER1
  6
CONTINUOUS
 62
     6
 10
181.029348
 20
237.243042
 11
136.189383
 21
237.243042
  0
ARC
  8
CSLAYER1
  6
CONTINUOUS
 62
     6
 10
233.109365
 20
267.243042
 40
150.000000
 50
70.269997
 51
109.720002
  0
ARC
  8
CSLAYER1
  6
CONTINUOUS
 62
     6
 10
313.109365
 20
313.743042
 40
175.000000
 50
159.029999
 51
174.960008
  0
ARC
  8
CSLAYER1
  6
CONTINUOUS
 62
     6
 10
201.049368
 20
356.683045
 40
55.000000
 50
109.720002
 51
159.029999
  0
ARC
  8
CSLAYER1
  6
CONTINUOUS
 62
     6
 10
136.189383
 20
231.243042
 40
6.000000
 50
90.000003
 51
174.960008
  0
LINE
  8
CSLAYER1
  6
CONTINUOUS
 62
     6
 10
337.169363
 20
219.243042
 11
278.129385
 21
219.243042
  0
LINE
  8
CSLAYER1
  6
CONTINUOUS
 62
     6
 10
285.189383
 20
237.243042
 11
330.029348
 21
237.243042
  0
ARC
  8
CSLAYER1
  6
CONTINUOUS
 62
     6
 10
153.109365
 20
313.743042
 40
175.000000
 50
5.030000
 51
20.960000
  0
ARC
  8
CSLAYER1
  6
CONTINUOUS
 62
     6
 10
265.169363
 20
356.683045
 40
55.000000
 50
20.960000
 51
70.269997
  0
ARC
  8
CSLAYER1
  6
CONTINUOUS
 62
     6
 10
330.029348
 20
231.243042
 40
6.000000
 50
5.030000
 51
90.000003
  0
LINE
  8
CSLAYER1
  6
CONTINUOUS
 62
     6
 10
279.209341
 20
231.763062
 11
278.129385
 21
219.243042
  0
ARC
  8
CSLAYER1
  6
CONTINUOUS
 62
     6
 10
285.189383
 20
231.243042
 40
6.000000
 50
90.000003
 51
175.000006
  0
LINE
  8
CSLAYER1
  6
CONTINUOUS
 62
     6
 10
187.009390
 20
231.763062
 11
188.109365
 21
219.243042
  0
ARC
  8
CSLAYER1
  6
CONTINUOUS
 62
     6
 10
181.029348
 20
231.243042
 40
6.000000
 50
5.000000
 51
90.000003
  0
ARC
  8
CSLAYER1
  6
CONTINUOUS
 62
     6
 10
233.121389
 20
-24.741943
 40
250.000000
 50
79.769998
 51
100.220001
  0
ARC
  8
CSLAYER1
  6
CONTINUOUS
 62
     6
 10
188.929373
 20
220.303040
 40
1.000000
 50
100.220001
 51
160.759990
  0
ARC
  8
CSLAYER1
  6
CONTINUOUS
 62
     6
 10
277.289358
 20
220.303040
 40
1.000000
 50
19.080000
 51
79.769998
  0
LINE
  8
CSLAYER1
  6
CONTINUOUS
 62
     6
 10
327.429373
 20
329.103058
 11
337.169363
 21
219.243042
  0
LINE
  8
CSLAYER1
  6
CONTINUOUS
 62
     6
 10
138.789358
 20
329.103058
 11
129.069387
 21
219.243042
  0
LINE
  8
CSLAYER1
  6
CENTER
 62
     3
 10
148.109365
 20
243.243042
 11
148.109365
 21
213.243042
  0
LINE
  8
CSLAYER1
  6
CENTER
 62
     3
 10
318.109365
 20
243.243042
 11
318.109365
 21
213.243042
  0
LINE
  8
CSLAYER1
  6
DASHED
 62
     6
 10
154.609365
 20
237.243042
 11
154.609365
 21
219.243042
  0
LINE
  8
CSLAYER1
  6
DASHED
 62
     6
 10
141.609365
 20
237.243042
 11
141.609365
 21
219.243042
  0
LINE
  8
CSLAYER1
  6
DASHED
 62
     6
 10
311.609365
 20
237.243042
 11
311.609365
 21
219.243042
  0
LINE
  8
CSLAYER1
  6
DASHED
 62
     6
 10
324.609365
 20
237.243042
 11
324.609365
 21
219.243042
  0
ARC
  8
CSLAYER1
  6
CONTINUOUS
 62
     6
 10
233.109365
 20
320.743042
 40
45.000000
 50
273.184761
 51
324.085608
  0
ENDSEC
  0
EOF
