  0
SECTION
  2
HEADER
  9
$ACADVER
  1
AC1006
  9
$INSBASE
 10
0.000000
 20
0.000000
 30
0.0
  9
$EXTMIN
 10
0.000000
 20
0.000000
  9
$EXTMAX
 10
841.000000
 20
594.000000
  9
$LIMMIN
 10
0.000000
 20
0.000000
  9
$LIMMAX
 10
841.000000
 20
594.000000
  9
$VIEWCTR
 10
420.500000
 20
297.000000
  9
$VIEWSIZE
 40
594.000000
  9
$SNAPMODE
 70
     0
  9
$SNAPUNIT
 10
1.0
 20
1.0
  9
$SNAPBASE
 10
0.0
 20
0.0
  9
$SNAPANG
 50
0.0
  9
$SNAPSTYLE
 70
     0
  9
$SNAPISOPAIR
 70
     0
  9
$GRIDMODE
 70
     0
  9
$GRIDUNIT
 10
0.0
 20
0.0
  9
$ORTHOMODE
 70
     0
  9
$REGENMODE
 70
     1
  9
$FILLMODE
 70
     1
  9
$QTEXTMODE
 70
     0
  9
$DRAGMODE
 70
     2
  9
$LTSCALE
 40
15.000000
  9
$OSMODE
 70
     0
  9
$ATTMODE
 70
     1
  9
$TEXTSIZE
 40
0.2
  9
$TRACEWID
 40
0.05
  9
$TEXTSTYLE
  7
STANDARD
  9
$CLAYER
  8
CSLAYER17
  9
$CELTYPE
  6
BYLAYER
  9
$CECOLOR
 62
   256
  9
$DIMSCALE
 40
1.0
  9
$DIMASZ
 40
0.18
  9
$DIMEXO
 40
0.0625
  9
$DIMDLI
 40
0.38
  9
$DIMRND
 40
0.0
  9
$DIMDLE
 40
0.0
  9
$DIMEXE
 40
0.18
  9
$DIMTP
 40
0.0
  9
$DIMTM
 40
0.0
  9
$DIMTXT
 40
0.18
  9
$DIMCEN
 40
0.09
  9
$DIMTSZ
 40
0.0
  9
$DIMTOL
 70
     0
  9
$DIMLIM
 70
     0
  9
$DIMTIH
 70
     1
  9
$DIMTOH
 70
     1
  9
$DIMSE1
 70
     0
  9
$DIMSE2
 70
     0
  9
$DIMTAD
 70
     0
  9
$DIMZIN
 70
     0
  9
$DIMBLK
  1

  9
$LUNITS
 70
     2
  9
$LUPREC
 70
     4
  9
$AXISMODE
 70
     0
  9
$AXISUNIT
 10
0.0
 20
0.0
  9
$SKETCHINC
 40
0.1
  9
$FILLETRAD
 40
0.0
  9
$AUNITS
 70
     0
  9
$AUPREC
 70
     0
  9
$MENU
  1
ACAD
  9
$ELEVATION
 40
0.0
  9
$THICKNESS
 40
0.0
  9
$VIEWDIR
 10
0.0
 20
0.0
 30
1.0
  9
$LIMCHECK
 70
     0
  9
$BLIPMODE
 70
     1
  9
$CHAMFERA
 40
0.0
  9
$CHAMFERB
 40
0.0
  9
$FASTZOOM
 70
     1
  9
$SKPOLY
 70
     0
  9
$TDCREATE
 40
2453098.000000
  9
$TDUPDATE
 40
2453098.000000
  9
$TDINDWG
 40
0.0
  9
$TDUSRTIMER
 40
0.0
  9
$USRTIMER
 70
     1
  9
$ANGBASE
 50
0.0
  9
$ANGDIR
 70
     0
  9
$PDMODE
 70
     0
  9
$PDSIZE
 40
0.0
  9
$PLINEWID
 40
0.0
  9
$COORDS
 70
     0
  9
$USERI1
 70
     0
  9
$USERI2
 70
     0
  9
$USERI3
 70
     0
  9
$USERI4
 70
     0
  9
$USERI5
 70
     0
  9
$USERR1
 40
0.0
  9
$USERR2
 40
0.0
  9
$USERR3
 40
0.0
  9
$USERR4
 40
0.0
  9
$USERR5
 40
0.0
  0
ENDSEC
  0
SECTION
  2
TABLES
  0
TABLE
  2
LTYPE
 70
     9
  0
LTYPE
  2
CONTINUOUS
 70
    64
  3
Solid line
 72
    65
 73
     0
 40
0.0
  0
LTYPE
  2
DASHED
 70
    64
  3
__ __ __ __ __ __ __ __ __ __ __ __ __ __ __
 72
    65
 73
     2
 40
0.75
 49
0.5
 49
-0.25
  0
LTYPE
  2
HIDDEN
 70
    64
  3
_ _ _ _ _ _ _ _ _ _ _ _ _ _ _ _ _ _ _ _ _ _ _
 72
    65
 73
     2
 40
0.375
 49
0.25
 49
-0.125
  0
LTYPE
  2
DOT
 70
    64
  3
...............................................
 72
    65
 73
     2
 40
0.25
 49
0.0
 49
-0.25
  0
LTYPE
  2
DASHDOT
 70
    64
  3
__ . __ . __ . __ . __ . __ . __ . __ . __ . __
 72
    65
 73
     4
 40
1.0
 49
0.5
 49
-0.25
 49
0.0
 49
-0.25
  0
LTYPE
  2
DIVIDE
 70
    64
  3
__ . . __ . . __ . . __ . . __ . . __ . . __
 72
    65
 73
     6
 40
1.25
 49
0.5
 49
-0.25
 49
0.0
 49
-0.25
 49
0.0
 49
-0.25
  0
LTYPE
  2
CENTER
 70
    64
  3
____ _ ____ _ ____ _ ____ _ ____ _ ____ _ ____ 
 72
    65
 73
     4
 40
2.0
 49
1.25
 49
-0.25
 49
0.25
 49
-0.25
  0
LTYPE
  2
PHANTOM
 70
    64
  3
______  __  __  ______  __  __  ______  __  __ 
 72
    65
 73
     6
 40
2.5
 49
1.25
 49
-0.25
 49
0.25
 49
-0.25
 49
0.25
 49
-0.25
  0
LTYPE
  2
BORDER
 70
    64
  3
__ __ . __ __ . __ __ . __ __ . __ __ . __ __ .
 72
    65
 73
     6
 40
1.75
 49
0.5
 49
-0.25
 49
0.5
 49
-0.25
 49
0.0
 49
-0.25
  0
ENDTAB
  0
TABLE
  2
LAYER
 70
    16
  0
LAYER
  2
CSLAYER1
 70
    64
 62
     7
  6
CONTINUOUS
  0
LAYER
  2
CSLAYER2
 70
    64
 62
     7
  6
CONTINUOUS
  0
LAYER
  2
CSLAYER3
 70
    64
 62
     7
  6
CONTINUOUS
  0
LAYER
  2
CSLAYER4
 70
    64
 62
     7
  6
CONTINUOUS
  0
LAYER
  2
CSLAYER5
 70
    64
 62
     7
  6
CONTINUOUS
  0
LAYER
  2
CSLAYER6
 70
    64
 62
     7
  6
CONTINUOUS
  0
LAYER
  2
CSLAYER7
 70
    64
 62
     7
  6
CONTINUOUS
  0
LAYER
  2
CSLAYER8
 70
    64
 62
     7
  6
CONTINUOUS
  0
LAYER
  2
CSLAYER9
 70
    64
 62
     7
  6
CONTINUOUS
  0
LAYER
  2
CSLAYER10
 70
    64
 62
     7
  6
CONTINUOUS
  0
LAYER
  2
CSLAYER11
 70
    64
 62
     7
  6
CONTINUOUS
  0
LAYER
  2
CSLAYER12
 70
    64
 62
     7
  6
CONTINUOUS
  0
LAYER
  2
CSLAYER13
 70
    64
 62
     7
  6
CONTINUOUS
  0
LAYER
  2
CSLAYER14
 70
    64
 62
     7
  6
CONTINUOUS
  0
LAYER
  2
CSLAYER15
 70
    64
 62
     7
  6
CONTINUOUS
  0
LAYER
  2
CSLAYER16
 70
    64
 62
     7
  6
CONTINUOUS
  0
ENDTAB
  0
TABLE
  2
STYLE
 70
     1
  0
STYLE
  2
FX_FONT
 70
     0
 40
1.0
 41
1.0
 50
0.0
 71
     0
 42
1.0
  3
monotxt
  4
bigfont
  0
ENDTAB
  0
TABLE
  2
VIEW
 70
     0
  0
ENDTAB
  0
ENDSEC
  0
SECTION
  2
BLOCKS
  0
ENDSEC
  0
SECTION
  2
ENTITIES
  0
LINE
  8
CSLAYER17
  6
CENTER
 62
     3
 10
346.734888
 20
167.696154
 11
634.699538
 21
167.696154
  0
LINE
  8
CSLAYER17
  6
CENTER
 62
     3
 10
656.091538
 20
167.696154
 11
828.911538
 21
167.696154
  0
ARC
  8
CSLAYER17
  6
CENTER
 62
     3
 10
742.711538
 20
167.696154
 40
65.000000
 50
32.917958
 51
57.082042
  0
LINE
  8
CSLAYER17
  6
CENTER
 62
     3
 10
778.999367
 20
203.983983
 11
798.347591
 21
223.332207
  0
LINE
  8
CSLAYER17
  6
CENTER
 62
     3
 10
742.711538
 20
267.196154
 11
742.711538
 21
77.696154
  0
ARC
  8
CSLAYER17
  6
CENTER
 62
     3
 10
742.711538
 20
167.696154
 40
65.000000
 50
302.917958
 51
327.082042
  0
LINE
  8
CSLAYER17
  6
CENTER
 62
     3
 10
778.999367
 20
131.408325
 11
798.347591
 21
112.060101
  0
ARC
  8
CSLAYER17
  6
CENTER
 62
     3
 10
742.711538
 20
167.696154
 40
65.000000
 50
212.917958
 51
237.082042
  0
LINE
  8
CSLAYER17
  6
CENTER
 62
     3
 10
706.423710
 20
131.408325
 11
687.075486
 21
112.060101
  0
LINE
  8
CSLAYER17
  6
CENTER
 62
     3
 10
601.711538
 20
119.996142
 11
601.711538
 21
130.696154
  0
LINE
  8
CSLAYER17
  6
CENTER
 62
     3
 10
596.711538
 20
135.696154
 11
596.711538
 21
199.696154
  0
LINE
  8
CSLAYER17
  6
CENTER
 62
     3
 10
637.763538
 20
206.696154
 11
679.461401
 21
206.696154
  0
ARC
  8
CSLAYER17
  6
CENTER
 62
     3
 10
742.711538
 20
167.696154
 40
65.000000
 50
122.917958
 51
147.082042
  0
LINE
  8
CSLAYER17
  6
CENTER
 62
     3
 10
706.423710
 20
203.983983
 11
687.075486
 21
223.332207
  0
ARC
  8
CSLAYER17
  6
CONTINUOUS
 62
     3
 10
488.711538
 20
445.250000
 40
2.000000
 50
90.000000
 51
180.000000
  0
LINE
  8
CSLAYER17
  6
CONTINUOUS
 62
     3
 10
486.711538
 20
445.250000
 11
486.711538
 21
398.250000
  0
ARC
  8
CSLAYER17
  6
CONTINUOUS
 62
     3
 10
488.711538
 20
398.250000
 40
2.000000
 50
180.000000
 51
270.000000
  0
LINE
  8
CSLAYER17
  6
CONTINUOUS
 62
     3
 10
488.711538
 20
396.250000
 11
516.711538
 21
396.250000
  0
ARC
  8
CSLAYER17
  6
CONTINUOUS
 62
     3
 10
516.711538
 20
398.250000
 40
2.000000
 50
270.000000
 51
360.000000
  0
LINE
  8
CSLAYER17
  6
CONTINUOUS
 62
     3
 10
518.711538
 20
398.250000
 11
518.711538
 21
445.250000
  0
ARC
  8
CSLAYER17
  6
CONTINUOUS
 62
     3
 10
516.711538
 20
445.250000
 40
2.000000
 50
0.000000
 51
90.000000
  0
LINE
  8
CSLAYER17
  6
CONTINUOUS
 62
     3
 10
516.711538
 20
447.250000
 11
488.711538
 21
447.250000
  0
LINE
  8
CSLAYER17
  6
CENTER
 62
     3
 10
596.711538
 20
453.143158
 11
596.711538
 21
475.749969
  0
LINE
  8
CSLAYER17
  6
CENTER
 62
     3
 10
634.699538
 20
421.750000
 11
218.660668
 21
421.750000
  0
LINE
  8
CSLAYER17
  6
CENTER
 62
     3
 10
596.711538
 20
367.749969
 11
596.711538
 21
390.356781
  0
TEXT
  8
CSLAYER17
 62
     3
 10
504.654785
 20
416.500031
 40
3.500000
 41
1.125000
  1
N P
 50
90.000000
 51
10.000000
  7
FX_FONT
 72
     5
 11
504.654785
 21
427.000031
  0
LINE
  8
CSLAYER17
  6
CONTINUOUS
 62
     6
 10
448.011538
 20
122.696154
 11
575.711538
 21
122.696154
  0
LINE
  8
CSLAYER17
  6
CONTINUOUS
 62
     6
 10
575.711538
 20
122.696154
 11
575.711538
 21
212.696154
  0
LINE
  8
CSLAYER17
  6
CONTINUOUS
 62
     6
 10
575.711538
 20
212.696154
 11
448.011538
 21
212.696154
  0
LINE
  8
CSLAYER17
  6
CONTINUOUS
 62
     6
 10
575.711538
 20
211.584612
 11
627.711538
 21
211.584612
  0
LINE
  8
CSLAYER17
  6
CONTINUOUS
 62
     6
 10
627.711538
 20
211.584612
 11
627.711538
 21
123.696154
  0
LINE
  8
CSLAYER17
  6
CONTINUOUS
 62
     6
 10
627.711538
 20
123.696154
 11
628.711538
 21
124.696154
  0
LINE
  8
CSLAYER17
  6
CONTINUOUS
 62
     6
 10
628.711538
 20
124.696154
 11
628.711538
 21
210.584612
  0
LINE
  8
CSLAYER17
  6
CONTINUOUS
 62
     6
 10
628.711538
 20
210.584612
 11
627.711538
 21
211.584612
  0
ARC
  8
CSLAYER17
  6
CONTINUOUS
 62
     6
 10
614.711538
 20
192.696154
 40
1.000000
 50
-0.000005
 51
89.999984
  0
LINE
  8
CSLAYER17
  6
CONTINUOUS
 62
     6
 10
615.711538
 20
192.696154
 11
615.711538
 21
191.696154
  0
ARC
  8
CSLAYER17
  6
CONTINUOUS
 62
     6
 10
614.711538
 20
191.696154
 40
1.000000
 50
269.999999
 51
359.999981
  0
LINE
  8
CSLAYER17
  6
CONTINUOUS
 62
     6
 10
614.711538
 20
190.696154
 11
578.711538
 21
190.696154
  0
ARC
  8
CSLAYER17
  6
CONTINUOUS
 62
     6
 10
578.711538
 20
191.696154
 40
1.000000
 50
180.057309
 51
269.999999
  0
LINE
  8
CSLAYER17
  6
CONTINUOUS
 62
     6
 10
577.711538
 20
191.696154
 11
577.711538
 21
192.696154
  0
ARC
  8
CSLAYER17
  6
CONTINUOUS
 62
     6
 10
578.711538
 20
192.696154
 40
1.000000
 50
89.999997
 51
180.000000
  0
LINE
  8
CSLAYER17
  6
CONTINUOUS
 62
     6
 10
578.711538
 20
193.696154
 11
614.711538
 21
193.696154
  0
LINE
  8
CSLAYER17
  6
CONTINUOUS
 62
     6
 10
614.711538
 20
186.696154
 11
578.711538
 21
186.696154
  0
ARC
  8
CSLAYER17
  6
CONTINUOUS
 62
     6
 10
578.711538
 20
185.696154
 40
1.000000
 50
89.999997
 51
180.000000
  0
LINE
  8
CSLAYER17
  6
CONTINUOUS
 62
     6
 10
577.711538
 20
185.696154
 11
577.711538
 21
184.696154
  0
ARC
  8
CSLAYER17
  6
CONTINUOUS
 62
     6
 10
578.711538
 20
184.696154
 40
1.000000
 50
180.057309
 51
269.999999
  0
LINE
  8
CSLAYER17
  6
CONTINUOUS
 62
     6
 10
578.711538
 20
183.696154
 11
583.482779
 21
183.696154
  0
ARC
  8
CSLAYER17
  6
CONTINUOUS
 62
     6
 10
583.482779
 20
182.696154
 40
1.000000
 50
-48.590367
 51
89.999997
  0
ARC
  8
CSLAYER17
  6
CONTINUOUS
 62
     6
 10
596.711538
 20
167.696154
 40
19.000000
 50
131.409614
 51
228.590366
  0
ARC
  8
CSLAYER17
  6
CONTINUOUS
 62
     6
 10
583.482779
 20
152.696154
 40
1.000000
 50
-90.000001
 51
48.590357
  0
LINE
  8
CSLAYER17
  6
CONTINUOUS
 62
     6
 10
583.482779
 20
151.696154
 11
578.711538
 21
151.696154
  0
ARC
  8
CSLAYER17
  6
CONTINUOUS
 62
     6
 10
578.711538
 20
150.696154
 40
1.000000
 50
90.000001
 51
179.942691
  0
LINE
  8
CSLAYER17
  6
CONTINUOUS
 62
     6
 10
577.711538
 20
150.696154
 11
577.711538
 21
149.696154
  0
ARC
  8
CSLAYER17
  6
CONTINUOUS
 62
     6
 10
578.711538
 20
149.696154
 40
1.000000
 50
180.000000
 51
270.000003
  0
LINE
  8
CSLAYER17
  6
CONTINUOUS
 62
     6
 10
578.711538
 20
148.696154
 11
614.711538
 21
148.696154
  0
ARC
  8
CSLAYER17
  6
CONTINUOUS
 62
     6
 10
614.711538
 20
149.696154
 40
1.000000
 50
-89.999984
 51
0.000005
  0
LINE
  8
CSLAYER17
  6
CONTINUOUS
 62
     6
 10
615.711538
 20
149.696154
 11
615.711538
 21
150.696154
  0
ARC
  8
CSLAYER17
  6
CONTINUOUS
 62
     6
 10
614.711538
 20
150.696154
 40
1.000000
 50
0.000019
 51
90.000001
  0
LINE
  8
CSLAYER17
  6
CONTINUOUS
 62
     6
 10
614.711538
 20
151.696154
 11
609.940298
 21
151.696154
  0
ARC
  8
CSLAYER17
  6
CONTINUOUS
 62
     6
 10
609.940298
 20
152.696154
 40
1.000000
 50
131.409614
 51
269.999999
  0
ARC
  8
CSLAYER17
  6
CONTINUOUS
 62
     6
 10
596.711538
 20
167.696154
 40
19.000000
 50
-48.590367
 51
48.590343
  0
ARC
  8
CSLAYER17
  6
CONTINUOUS
 62
     6
 10
609.940298
 20
182.696154
 40
1.000000
 50
89.999981
 51
228.590366
  0
LINE
  8
CSLAYER17
  6
CONTINUOUS
 62
     6
 10
609.940298
 20
183.696154
 11
614.711538
 21
183.696154
  0
ARC
  8
CSLAYER17
  6
CONTINUOUS
 62
     6
 10
614.711538
 20
184.696154
 40
1.000000
 50
269.999999
 51
359.999981
  0
LINE
  8
CSLAYER17
  6
CONTINUOUS
 62
     6
 10
615.711538
 20
184.696154
 11
615.711538
 21
185.696154
  0
ARC
  8
CSLAYER17
  6
CONTINUOUS
 62
     6
 10
614.711538
 20
185.696154
 40
1.000000
 50
-0.000005
 51
89.999984
  0
LINE
  8
CSLAYER17
  6
CONTINUOUS
 62
     6
 10
602.711538
 20
168.596148
 11
590.711538
 21
168.596148
  0
LINE
  8
CSLAYER17
  6
CONTINUOUS
 62
     6
 10
590.711538
 20
168.596148
 11
590.711538
 21
166.796160
  0
LINE
  8
CSLAYER17
  6
CONTINUOUS
 62
     6
 10
590.711538
 20
166.796160
 11
602.711538
 21
166.796160
  0
LINE
  8
CSLAYER17
  6
CONTINUOUS
 62
     6
 10
602.711538
 20
166.796160
 11
602.711538
 21
168.596148
  0
CIRCLE
  8
CSLAYER17
  6
CONTINUOUS
 62
     6
 10
596.711538
 20
167.696154
 40
12.000000
  0
CIRCLE
  8
CSLAYER17
  6
CONTINUOUS
 62
     6
 10
596.711538
 20
167.696154
 40
15.000000
  0
CIRCLE
  8
CSLAYER17
  6
CONTINUOUS
 62
     6
 10
596.711538
 20
167.696154
 40
16.000000
  0
LINE
  8
CSLAYER17
  6
CONTINUOUS
 62
     6
 10
642.711538
 20
192.696154
 11
642.711538
 21
220.696154
  0
LINE
  8
CSLAYER17
  6
CONTINUOUS
 62
     6
 10
642.711538
 20
220.696154
 11
682.786585
 21
220.696154
  0
LINE
  8
CSLAYER17
  6
CONTINUOUS
 62
     6
 10
690.249598
 20
217.410871
 11
690.249598
 21
209.905318
  0
LINE
  8
CSLAYER17
  6
CONTINUOUS
 62
     6
 10
690.249598
 20
209.905318
 11
696.749598
 21
206.152541
  0
LINE
  8
CSLAYER17
  6
CONTINUOUS
 62
     6
 10
696.749598
 20
206.152541
 11
703.249598
 21
209.905318
  0
LINE
  8
CSLAYER17
  6
CONTINUOUS
 62
     6
 10
703.249598
 20
209.905318
 11
703.249598
 21
217.410871
  0
LINE
  8
CSLAYER17
  6
CONTINUOUS
 62
     6
 10
703.249598
 20
217.410871
 11
696.749598
 21
221.163648
  0
LINE
  8
CSLAYER17
  6
CONTINUOUS
 62
     6
 10
696.749598
 20
221.163648
 11
690.249598
 21
217.410871
  0
CIRCLE
  8
CSLAYER17
  6
CONTINUOUS
 62
     6
 10
696.749598
 20
213.658095
 40
7.700000
  0
CIRCLE
  8
CSLAYER17
  6
CONTINUOUS
 62
     6
 10
696.749598
 20
213.658095
 40
6.305000
  0
LINE
  8
CSLAYER17
  6
CONTINUOUS
 62
     6
 10
788.673479
 20
221.163648
 11
782.173479
 21
217.410871
  0
LINE
  8
CSLAYER17
  6
CONTINUOUS
 62
     6
 10
782.173479
 20
217.410871
 11
782.173479
 21
209.905318
  0
LINE
  8
CSLAYER17
  6
CONTINUOUS
 62
     6
 10
782.173479
 20
209.905318
 11
788.673479
 21
206.152541
  0
LINE
  8
CSLAYER17
  6
CONTINUOUS
 62
     6
 10
788.673479
 20
206.152541
 11
795.173479
 21
209.905318
  0
LINE
  8
CSLAYER17
  6
CONTINUOUS
 62
     6
 10
795.173479
 20
209.905318
 11
795.173479
 21
217.410871
  0
LINE
  8
CSLAYER17
  6
CONTINUOUS
 62
     6
 10
795.173479
 20
217.410871
 11
788.673479
 21
221.163648
  0
CIRCLE
  8
CSLAYER17
  6
CONTINUOUS
 62
     6
 10
788.673479
 20
213.658095
 40
7.700000
  0
CIRCLE
  8
CSLAYER17
  6
CONTINUOUS
 62
     6
 10
788.673479
 20
213.658095
 40
6.305000
  0
ARC
  8
CSLAYER17
  6
CONTINUOUS
 62
     6
 10
786.711538
 20
192.696154
 40
1.000000
 50
-0.000020
 51
89.999961
  0
LINE
  8
CSLAYER17
  6
CONTINUOUS
 62
     6
 10
787.711538
 20
192.696154
 11
787.711538
 21
191.696154
  0
ARC
  8
CSLAYER17
  6
CONTINUOUS
 62
     6
 10
786.726583
 20
191.696154
 40
1.000000
 50
269.999999
 51
359.999980
  0
LINE
  8
CSLAYER17
  6
CONTINUOUS
 62
     6
 10
786.726583
 20
190.696154
 11
782.050405
 21
190.451037
  0
ARC
  8
CSLAYER17
  6
CONTINUOUS
 62
     6
 10
782.102743
 20
189.452410
 40
1.000000
 50
93.000960
 51
208.911583
  0
ARC
  8
CSLAYER17
  6
CONTINUOUS
 62
     6
 10
783.427725
 20
189.101641
 40
2.000000
 50
207.731805
 51
267.000336
  0
LINE
  8
CSLAYER17
  6
CONTINUOUS
 62
     6
 10
783.323049
 20
187.104357
 11
790.731954
 21
186.716113
  0
ARC
  8
CSLAYER17
  6
CONTINUOUS
 62
     6
 10
790.711538
 20
185.716357
 40
1.000000
 50
-0.000020
 51
88.830784
  0
LINE
  8
CSLAYER17
  6
CONTINUOUS
 62
     6
 10
791.711538
 20
185.716357
 11
791.711538
 21
149.675951
  0
ARC
  8
CSLAYER17
  6
CONTINUOUS
 62
     6
 10
790.711538
 20
149.675951
 40
1.000000
 50
271.169234
 51
359.999980
  0
LINE
  8
CSLAYER17
  6
CONTINUOUS
 62
     6
 10
790.731954
 20
148.676196
 11
783.323049
 21
148.287951
  0
ARC
  8
CSLAYER17
  6
CONTINUOUS
 62
     6
 10
783.427725
 20
146.290667
 40
2.000000
 50
92.999625
 51
152.268155
  0
ARC
  8
CSLAYER17
  6
CONTINUOUS
 62
     6
 10
782.102743
 20
145.939898
 40
1.000000
 50
151.088395
 51
266.999018
  0
LINE
  8
CSLAYER17
  6
CONTINUOUS
 62
     6
 10
782.050405
 20
144.941271
 11
786.726583
 21
144.696154
  0
ARC
  8
CSLAYER17
  6
CONTINUOUS
 62
     6
 10
786.726583
 20
143.696154
 40
1.000000
 50
-0.000020
 51
89.999961
  0
LINE
  8
CSLAYER17
  6
CONTINUOUS
 62
     6
 10
787.711538
 20
143.696154
 11
787.711538
 21
142.696154
  0
ARC
  8
CSLAYER17
  6
CONTINUOUS
 62
     6
 10
786.711538
 20
142.696154
 40
1.000000
 50
269.999999
 51
359.999980
  0
LINE
  8
CSLAYER17
  6
CONTINUOUS
 62
     6
 10
786.711538
 20
141.696154
 11
778.783071
 21
141.280657
  0
ARC
  8
CSLAYER17
  6
CONTINUOUS
 62
     6
 10
778.887747
 20
139.283404
 40
2.000000
 50
93.000083
 51
141.854246
  0
ARC
  8
CSLAYER17
  6
CONTINUOUS
 62
     6
 10
742.711538
 20
167.696124
 40
45.000000
 50
215.914343
 51
267.450134
  0
LINE
  8
CSLAYER17
  6
CONTINUOUS
 62
     6
 10
706.640020
 20
141.280657
 11
698.711538
 21
141.696154
  0
ARC
  8
CSLAYER17
  6
CONTINUOUS
 62
     6
 10
698.711538
 20
142.696154
 40
1.000000
 50
180.057313
 51
269.999999
  0
LINE
  8
CSLAYER17
  6
CONTINUOUS
 62
     6
 10
697.711538
 20
142.696154
 11
697.711538
 21
143.696154
  0
ARC
  8
CSLAYER17
  6
CONTINUOUS
 62
     6
 10
698.696493
 20
143.696154
 40
1.000000
 50
90.000019
 51
180.000000
  0
LINE
  8
CSLAYER17
  6
CONTINUOUS
 62
     6
 10
698.696493
 20
144.696154
 11
703.372686
 21
144.941271
  0
ARC
  8
CSLAYER17
  6
CONTINUOUS
 62
     6
 10
703.320333
 20
145.939898
 40
1.000000
 50
-86.999020
 51
28.911602
  0
ARC
  8
CSLAYER17
  6
CONTINUOUS
 62
     6
 10
701.995367
 20
146.290667
 40
2.000000
 50
27.731825
 51
87.000355
  0
LINE
  8
CSLAYER17
  6
CONTINUOUS
 62
     6
 10
702.100027
 20
148.287951
 11
694.691122
 21
148.676196
  0
ARC
  8
CSLAYER17
  6
CONTINUOUS
 62
     6
 10
694.711538
 20
149.675951
 40
1.000000
 50
180.057313
 51
268.830764
  0
LINE
  8
CSLAYER17
  6
CONTINUOUS
 62
     6
 10
693.711538
 20
149.675951
 11
693.711538
 21
185.716357
  0
ARC
  8
CSLAYER17
  6
CONTINUOUS
 62
     6
 10
694.711538
 20
185.716357
 40
1.000000
 50
91.169254
 51
180.000000
  0
LINE
  8
CSLAYER17
  6
CONTINUOUS
 62
     6
 10
694.691122
 20
186.716113
 11
702.100027
 21
187.104357
  0
ARC
  8
CSLAYER17
  6
CONTINUOUS
 62
     6
 10
701.995367
 20
189.101641
 40
2.000000
 50
272.999605
 51
332.268193
  0
ARC
  8
CSLAYER17
  6
CONTINUOUS
 62
     6
 10
703.320333
 20
189.452410
 40
1.000000
 50
-28.911585
 51
86.999038
  0
LINE
  8
CSLAYER17
  6
CONTINUOUS
 62
     6
 10
703.372686
 20
190.451037
 11
698.696493
 21
190.696154
  0
ARC
  8
CSLAYER17
  6
CONTINUOUS
 62
     6
 10
698.696493
 20
191.696154
 40
1.000000
 50
180.057313
 51
269.999999
  0
LINE
  8
CSLAYER17
  6
CONTINUOUS
 62
     6
 10
697.711538
 20
191.696154
 11
697.711538
 21
192.696154
  0
ARC
  8
CSLAYER17
  6
CONTINUOUS
 62
     6
 10
698.711538
 20
192.696154
 40
1.000000
 50
90.000019
 51
180.000000
  0
LINE
  8
CSLAYER17
  6
CONTINUOUS
 62
     6
 10
698.711538
 20
193.696154
 11
706.640020
 21
194.111651
  0
ARC
  8
CSLAYER17
  6
CONTINUOUS
 62
     6
 10
706.535345
 20
196.108904
 40
2.000000
 50
273.000063
 51
321.854284
  0
ARC
  8
CSLAYER17
  6
CONTINUOUS
 62
     6
 10
742.711538
 20
167.696185
 40
45.000000
 50
35.914343
 51
144.085658
  0
ARC
  8
CSLAYER17
  6
CONTINUOUS
 62
     6
 10
778.887747
 20
196.108904
 40
2.000000
 50
218.145714
 51
266.999935
  0
LINE
  8
CSLAYER17
  6
CONTINUOUS
 62
     6
 10
778.783071
 20
194.111651
 11
786.711538
 21
193.696154
  0
ARC
  8
CSLAYER17
  6
CONTINUOUS
 62
     6
 10
742.711538
 20
167.696185
 40
45.000000
 50
25.550626
 51
30.185652
  0
LINE
  8
CSLAYER17
  6
CONTINUOUS
 62
     6
 10
774.711538
 20
185.723956
 11
774.711523
 21
179.696154
  0
ARC
  8
CSLAYER17
  6
CONTINUOUS
 62
     6
 10
772.711523
 20
179.696154
 40
2.000000
 50
269.999999
 51
359.999866
  0
LINE
  8
CSLAYER17
  6
CONTINUOUS
 62
     6
 10
772.711523
 20
177.696154
 11
766.711523
 21
177.696154
  0
ARC
  8
CSLAYER17
  6
CONTINUOUS
 62
     6
 10
766.711523
 20
180.696154
 40
3.000000
 50
180.057313
 51
269.999999
  0
LINE
  8
CSLAYER17
  6
CONTINUOUS
 62
     6
 10
763.711523
 20
180.696154
 11
763.711538
 21
194.078021
  0
ARC
  8
CSLAYER17
  6
CONTINUOUS
 62
     6
 10
765.711538
 20
194.078021
 40
2.000000
 50
48.917742
 51
180.000000
  0
ARC
  8
CSLAYER17
  6
CONTINUOUS
 62
     6
 10
742.711538
 20
167.696185
 40
37.000008
 50
31.002726
 51
48.917684
  0
ARC
  8
CSLAYER17
  6
CONTINUOUS
 62
     6
 10
772.711538
 20
185.723956
 40
2.000000
 50
-0.000020
 51
31.002669
  0
ARC
  8
CSLAYER17
  6
CONTINUOUS
 62
     6
 10
754.711538
 20
187.317584
 40
2.000000
 50
238.551148
 51
359.999980
  0
ARC
  8
CSLAYER17
  6
CONTINUOUS
 62
     6
 10
742.711538
 20
167.696185
 40
20.999992
 50
58.550938
 51
72.281070
  0
ARC
  8
CSLAYER17
  6
CONTINUOUS
 62
     6
 10
749.711538
 20
189.605090
 40
2.000000
 50
180.057313
 51
252.281222
  0
LINE
  8
CSLAYER17
  6
CONTINUOUS
 62
     6
 10
747.711538
 20
189.605090
 11
747.711538
 21
197.696154
  0
ARC
  8
CSLAYER17
  6
CONTINUOUS
 62
     6
 10
749.711538
 20
197.696154
 40
2.000000
 50
89.999961
 51
180.000000
  0
LINE
  8
CSLAYER17
  6
CONTINUOUS
 62
     6
 10
749.711538
 20
199.696154
 11
754.711538
 21
199.696154
  0
ARC
  8
CSLAYER17
  6
CONTINUOUS
 62
     6
 10
754.711538
 20
197.696154
 40
2.000000
 50
-0.000020
 51
89.999961
  0
LINE
  8
CSLAYER17
  6
CONTINUOUS
 62
     6
 10
756.711538
 20
197.696154
 11
756.711538
 21
187.317584
  0
ARC
  8
CSLAYER17
  6
CONTINUOUS
 62
     6
 10
735.711538
 20
189.605090
 40
2.000000
 50
287.718719
 51
359.999980
  0
ARC
  8
CSLAYER17
  6
CONTINUOUS
 62
     6
 10
742.711538
 20
167.696185
 40
20.999992
 50
107.718968
 51
121.449042
  0
ARC
  8
CSLAYER17
  6
CONTINUOUS
 62
     6
 10
730.711538
 20
187.317584
 40
2.000000
 50
180.057313
 51
301.448850
  0
LINE
  8
CSLAYER17
  6
CONTINUOUS
 62
     6
 10
728.711538
 20
187.317584
 11
728.711538
 21
197.696154
  0
ARC
  8
CSLAYER17
  6
CONTINUOUS
 62
     6
 10
730.711538
 20
197.696154
 40
2.000000
 50
90.000019
 51
180.000000
  0
LINE
  8
CSLAYER17
  6
CONTINUOUS
 62
     6
 10
730.711538
 20
199.696154
 11
735.711538
 21
199.696154
  0
ARC
  8
CSLAYER17
  6
CONTINUOUS
 62
     6
 10
735.711538
 20
197.696154
 40
2.000000
 50
-0.000020
 51
90.000019
  0
LINE
  8
CSLAYER17
  6
CONTINUOUS
 62
     6
 10
737.711538
 20
197.696154
 11
737.711538
 21
189.605090
  0
ARC
  8
CSLAYER17
  6
CONTINUOUS
 62
     6
 10
719.711538
 20
194.078021
 40
2.000000
 50
-0.000020
 51
131.082239
  0
ARC
  8
CSLAYER17
  6
CONTINUOUS
 62
     6
 10
742.711538
 20
167.696185
 40
37.000008
 50
131.082296
 51
148.997254
  0
ARC
  8
CSLAYER17
  6
CONTINUOUS
 62
     6
 10
712.711538
 20
185.723956
 40
2.000000
 50
148.997311
 51
180.000000
  0
LINE
  8
CSLAYER17
  6
CONTINUOUS
 62
     6
 10
710.711538
 20
185.723956
 11
710.711553
 21
179.696154
  0
ARC
  8
CSLAYER17
  6
CONTINUOUS
 62
     6
 10
712.711553
 20
179.696154
 40
2.000000
 50
180.057313
 51
269.999999
  0
LINE
  8
CSLAYER17
  6
CONTINUOUS
 62
     6
 10
712.711553
 20
177.696154
 11
718.711553
 21
177.696154
  0
ARC
  8
CSLAYER17
  6
CONTINUOUS
 62
     6
 10
718.711553
 20
180.696154
 40
3.000000
 50
-90.000001
 51
0.000037
  0
LINE
  8
CSLAYER17
  6
CONTINUOUS
 62
     6
 10
721.711553
 20
180.696154
 11
721.711538
 21
194.078021
  0
ARC
  8
CSLAYER17
  6
CONTINUOUS
 62
     6
 10
742.711538
 20
167.696185
 40
45.000000
 50
149.814348
 51
154.449465
  0
ARC
  8
CSLAYER17
  6
CONTINUOUS
 62
     6
 10
712.711553
 20
155.696154
 40
2.000000
 50
90.000019
 51
179.999885
  0
LINE
  8
CSLAYER17
  6
CONTINUOUS
 62
     6
 10
710.711553
 20
155.696154
 11
710.711538
 21
149.668353
  0
ARC
  8
CSLAYER17
  6
CONTINUOUS
 62
     6
 10
712.711538
 20
149.668353
 40
2.000000
 50
180.057313
 51
211.002649
  0
ARC
  8
CSLAYER17
  6
CONTINUOUS
 62
     6
 10
742.711538
 20
167.696124
 40
37.000008
 50
211.002764
 51
228.917722
  0
ARC
  8
CSLAYER17
  6
CONTINUOUS
 62
     6
 10
719.711538
 20
141.314288
 40
2.000000
 50
228.917779
 51
359.999980
  0
LINE
  8
CSLAYER17
  6
CONTINUOUS
 62
     6
 10
721.711538
 20
141.314288
 11
721.711553
 21
154.696154
  0
ARC
  8
CSLAYER17
  6
CONTINUOUS
 62
     6
 10
718.711553
 20
154.696154
 40
3.000000
 50
-0.000020
 51
90.000019
  0
LINE
  8
CSLAYER17
  6
CONTINUOUS
 62
     6
 10
718.711553
 20
157.696154
 11
712.711553
 21
157.696154
  0
ARC
  8
CSLAYER17
  6
CONTINUOUS
 62
     6
 10
742.711538
 20
166.903032
 40
13.065822
 50
-37.903051
 51
217.903067
  0
ARC
  8
CSLAYER17
  6
CONTINUOUS
 62
     6
 10
751.945169
 20
159.714081
 40
1.363635
 50
230.236270
 51
322.096587
  0
ARC
  8
CSLAYER17
  6
CONTINUOUS
 62
     6
 10
749.203667
 20
156.419418
 40
2.922462
 50
50.235849
 51
203.481547
  0
LINE
  8
CSLAYER17
  6
CONTINUOUS
 62
     6
 10
746.523221
 20
155.254959
 11
747.105566
 21
153.354189
  0
CIRCLE
  8
CSLAYER17
  6
CONTINUOUS
 62
     6
 10
749.203667
 20
156.419418
 40
1.363635
  0
ARC
  8
CSLAYER17
  6
CONTINUOUS
 62
     6
 10
754.711538
 20
148.074725
 40
2.000000
 50
-0.000020
 51
121.448870
  0
LINE
  8
CSLAYER17
  6
CONTINUOUS
 62
     6
 10
756.711538
 20
148.074725
 11
756.711538
 21
137.696154
  0
ARC
  8
CSLAYER17
  6
CONTINUOUS
 62
     6
 10
754.711538
 20
137.696154
 40
2.000000
 50
269.999999
 51
359.999980
  0
LINE
  8
CSLAYER17
  6
CONTINUOUS
 62
     6
 10
754.711538
 20
135.696154
 11
749.711538
 21
135.696154
  0
ARC
  8
CSLAYER17
  6
CONTINUOUS
 62
     6
 10
749.711538
 20
137.696154
 40
2.000000
 50
180.057313
 51
269.999999
  0
LINE
  8
CSLAYER17
  6
CONTINUOUS
 62
     6
 10
747.711538
 20
137.696154
 11
747.711538
 21
145.787219
  0
ARC
  8
CSLAYER17
  6
CONTINUOUS
 62
     6
 10
749.711538
 20
145.787219
 40
2.000000
 50
107.718739
 51
180.000000
  0
ARC
  8
CSLAYER17
  6
CONTINUOUS
 62
     6
 10
742.711538
 20
167.696124
 40
20.999992
 50
287.718948
 51
301.449022
  0
ARC
  8
CSLAYER17
  6
CONTINUOUS
 62
     6
 10
766.711523
 20
154.696154
 40
3.000000
 50
89.999979
 51
180.000018
  0
LINE
  8
CSLAYER17
  6
CONTINUOUS
 62
     6
 10
766.711523
 20
157.696154
 11
772.711523
 21
157.696154
  0
ARC
  8
CSLAYER17
  6
CONTINUOUS
 62
     6
 10
772.711523
 20
155.696154
 40
2.000000
 50
0.000095
 51
90.000019
  0
LINE
  8
CSLAYER17
  6
CONTINUOUS
 62
     6
 10
774.711523
 20
155.696154
 11
774.711538
 21
149.668353
  0
ARC
  8
CSLAYER17
  6
CONTINUOUS
 62
     6
 10
772.711538
 20
149.668353
 40
2.000000
 50
328.997291
 51
359.999980
  0
ARC
  8
CSLAYER17
  6
CONTINUOUS
 62
     6
 10
742.711538
 20
167.696124
 40
37.000008
 50
311.082276
 51
328.997234
  0
ARC
  8
CSLAYER17
  6
CONTINUOUS
 62
     6
 10
765.711538
 20
141.314288
 40
2.000000
 50
180.057313
 51
311.082219
  0
LINE
  8
CSLAYER17
  6
CONTINUOUS
 62
     6
 10
763.711538
 20
141.314288
 11
763.711523
 21
154.696154
  0
CIRCLE
  8
CSLAYER17
  6
CONTINUOUS
 62
     6
 10
742.711538
 20
167.696154
 40
80.000000
  0
CIRCLE
  8
CSLAYER17
  6
CONTINUOUS
 62
     6
 10
742.711538
 20
167.696185
 40
15.000000
  0
CIRCLE
  8
CSLAYER17
  6
CONTINUOUS
 62
     6
 10
742.711538
 20
167.696185
 40
44.000000
  0
ARC
  8
CSLAYER17
  6
CONTINUOUS
 62
     6
 10
733.477919
 20
159.714081
 40
1.363635
 50
217.903410
 51
309.763671
  0
ARC
  8
CSLAYER17
  6
CONTINUOUS
 62
     6
 10
736.219418
 20
156.419418
 40
2.922462
 50
-23.481549
 51
129.764149
  0
LINE
  8
CSLAYER17
  6
CONTINUOUS
 62
     6
 10
738.899867
 20
155.254959
 11
738.317522
 21
153.354189
  0
CIRCLE
  8
CSLAYER17
  6
CONTINUOUS
 62
     6
 10
736.219418
 20
156.419418
 40
1.363635
  0
ARC
  8
CSLAYER17
  6
CONTINUOUS
 62
     6
 10
730.711538
 20
148.074725
 40
2.000000
 50
58.551110
 51
180.000000
  0
LINE
  8
CSLAYER17
  6
CONTINUOUS
 62
     6
 10
728.711538
 20
148.074725
 11
728.711538
 21
137.696154
  0
ARC
  8
CSLAYER17
  6
CONTINUOUS
 62
     6
 10
730.711538
 20
137.696154
 40
2.000000
 50
180.057313
 51
269.999999
  0
LINE
  8
CSLAYER17
  6
CONTINUOUS
 62
     6
 10
730.711538
 20
135.696154
 11
735.711538
 21
135.696154
  0
ARC
  8
CSLAYER17
  6
CONTINUOUS
 62
     6
 10
735.711538
 20
137.696154
 40
2.000000
 50
269.999999
 51
359.999980
  0
LINE
  8
CSLAYER17
  6
CONTINUOUS
 62
     6
 10
737.711538
 20
137.696154
 11
737.711538
 21
145.787219
  0
ARC
  8
CSLAYER17
  6
CONTINUOUS
 62
     6
 10
735.711538
 20
145.787219
 40
2.000000
 50
-0.000020
 51
72.281242
  0
ARC
  8
CSLAYER17
  6
CONTINUOUS
 62
     6
 10
742.711538
 20
167.696124
 40
20.999992
 50
238.550976
 51
252.281050
  0
LINE
  8
CSLAYER17
  6
CONTINUOUS
 62
     6
 10
666.718118
 20
192.696154
 11
642.711538
 21
192.696154
  0
LINE
  8
CSLAYER17
  6
CONTINUOUS
 62
     6
 10
614.711538
 20
144.696154
 11
578.711538
 21
144.696154
  0
ARC
  8
CSLAYER17
  6
CONTINUOUS
 62
     6
 10
578.711538
 20
143.696154
 40
1.000000
 50
90.000001
 51
179.942691
  0
LINE
  8
CSLAYER17
  6
CONTINUOUS
 62
     6
 10
577.711538
 20
143.696154
 11
577.711538
 21
142.696154
  0
ARC
  8
CSLAYER17
  6
CONTINUOUS
 62
     6
 10
578.711538
 20
142.696154
 40
1.000000
 50
180.000000
 51
270.000003
  0
LINE
  8
CSLAYER17
  6
CONTINUOUS
 62
     6
 10
578.711538
 20
141.696154
 11
614.711538
 21
141.696154
  0
ARC
  8
CSLAYER17
  6
CONTINUOUS
 62
     6
 10
614.711538
 20
142.696154
 40
1.000000
 50
-89.999984
 51
0.000005
  0
LINE
  8
CSLAYER17
  6
CONTINUOUS
 62
     6
 10
615.711538
 20
142.696154
 11
615.711538
 21
143.696154
  0
ARC
  8
CSLAYER17
  6
CONTINUOUS
 62
     6
 10
614.711538
 20
143.696154
 40
1.000000
 50
0.000019
 51
90.000001
  0
LINE
  8
CSLAYER17
  6
CONTINUOUS
 62
     6
 10
614.711538
 20
127.696154
 11
614.711538
 21
123.696154
  0
LINE
  8
CSLAYER17
  6
CONTINUOUS
 62
     6
 10
614.711538
 20
123.696154
 11
627.711538
 21
123.696154
  0
LINE
  8
CSLAYER17
  6
CONTINUOUS
 62
     6
 10
618.827700
 20
114.692337
 11
618.998595
 21
114.525326
  0
LINE
  8
CSLAYER17
  6
CONTINUOUS
 62
     6
 10
618.998595
 20
114.525326
 11
619.171598
 21
114.357210
  0
LINE
  8
CSLAYER17
  6
CONTINUOUS
 62
     6
 10
619.171598
 20
114.357210
 11
619.344933
 21
114.190315
  0
LINE
  8
CSLAYER17
  6
CONTINUOUS
 62
     6
 10
619.344933
 20
114.190315
 11
619.516825
 21
114.026966
  0
LINE
  8
CSLAYER17
  6
CONTINUOUS
 62
     6
 10
619.516825
 20
114.026966
 11
619.685497
 21
113.869487
  0
LINE
  8
CSLAYER17
  6
CONTINUOUS
 62
     6
 10
619.685497
 20
113.869487
 11
619.849174
 21
113.720202
  0
LINE
  8
CSLAYER17
  6
CONTINUOUS
 62
     6
 10
619.849174
 20
113.720202
 11
620.006080
 21
113.581438
  0
LINE
  8
CSLAYER17
  6
CONTINUOUS
 62
     6
 10
620.006080
 20
113.581438
 11
620.147311
 21
113.458640
  0
LINE
  8
CSLAYER17
  6
CONTINUOUS
 62
     6
 10
620.147311
 20
113.458640
 11
620.293495
 21
113.330755
  0
LINE
  8
CSLAYER17
  6
CONTINUOUS
 62
     6
 10
620.293495
 20
113.330755
 11
620.443488
 21
113.198248
  0
LINE
  8
CSLAYER17
  6
CONTINUOUS
 62
     6
 10
620.443488
 20
113.198248
 11
620.596149
 21
113.061589
  0
LINE
  8
CSLAYER17
  6
CONTINUOUS
 62
     6
 10
620.596149
 20
113.061589
 11
620.750336
 21
112.921244
  0
LINE
  8
CSLAYER17
  6
CONTINUOUS
 62
     6
 10
620.750336
 20
112.921244
 11
620.904907
 21
112.777681
  0
LINE
  8
CSLAYER17
  6
CONTINUOUS
 62
     6
 10
620.904907
 20
112.777681
 11
621.058718
 21
112.631369
  0
LINE
  8
CSLAYER17
  6
CONTINUOUS
 62
     6
 10
621.058718
 20
112.631369
 11
621.210629
 21
112.482774
  0
LINE
  8
CSLAYER17
  6
CONTINUOUS
 62
     6
 10
621.210629
 20
112.482774
 11
621.359496
 21
112.332364
  0
LINE
  8
CSLAYER17
  6
CONTINUOUS
 62
     6
 10
621.359496
 20
112.332364
 11
621.504178
 21
112.180608
  0
LINE
  8
CSLAYER17
  6
CONTINUOUS
 62
     6
 10
621.504178
 20
112.180608
 11
621.643531
 21
112.027972
  0
LINE
  8
CSLAYER17
  6
CONTINUOUS
 62
     6
 10
621.643531
 20
112.027972
 11
621.699056
 21
111.965028
  0
LINE
  8
CSLAYER17
  6
CONTINUOUS
 62
     6
 10
621.699056
 20
111.965028
 11
621.753983
 21
111.901528
  0
LINE
  8
CSLAYER17
  6
CONTINUOUS
 62
     6
 10
621.753983
 20
111.901528
 11
621.808374
 21
111.837526
  0
LINE
  8
CSLAYER17
  6
CONTINUOUS
 62
     6
 10
621.808374
 20
111.837526
 11
621.862288
 21
111.773080
  0
LINE
  8
CSLAYER17
  6
CONTINUOUS
 62
     6
 10
621.862288
 20
111.773080
 11
621.915784
 21
111.708244
  0
LINE
  8
CSLAYER17
  6
CONTINUOUS
 62
     6
 10
621.915784
 20
111.708244
 11
621.968922
 21
111.643074
  0
LINE
  8
CSLAYER17
  6
CONTINUOUS
 62
     6
 10
621.968922
 20
111.643074
 11
622.021761
 21
111.577626
  0
LINE
  8
CSLAYER17
  6
CONTINUOUS
 62
     6
 10
622.021761
 20
111.577626
 11
622.074362
 21
111.511956
  0
LINE
  8
CSLAYER17
  6
CONTINUOUS
 62
     6
 10
622.074362
 20
111.511956
 11
622.126785
 21
111.446118
  0
LINE
  8
CSLAYER17
  6
CONTINUOUS
 62
     6
 10
622.126785
 20
111.446118
 11
622.179087
 21
111.380169
  0
LINE
  8
CSLAYER17
  6
CONTINUOUS
 62
     6
 10
622.179087
 20
111.380169
 11
622.307642
 21
111.217752
  0
LINE
  8
CSLAYER17
  6
CONTINUOUS
 62
     6
 10
622.307642
 20
111.217752
 11
622.278905
 21
111.170897
  0
LINE
  8
CSLAYER17
  6
CONTINUOUS
 62
     6
 10
622.278905
 20
111.170897
 11
622.238313
 21
111.111016
  0
LINE
  8
CSLAYER17
  6
CONTINUOUS
 62
     6
 10
622.238313
 20
111.111016
 11
622.194031
 21
111.051148
  0
LINE
  8
CSLAYER17
  6
CONTINUOUS
 62
     6
 10
622.194031
 20
111.051148
 11
622.146579
 21
110.991875
  0
LINE
  8
CSLAYER17
  6
CONTINUOUS
 62
     6
 10
622.146579
 20
110.991875
 11
622.096481
 21
110.933777
  0
LINE
  8
CSLAYER17
  6
CONTINUOUS
 62
     6
 10
622.096481
 20
110.933777
 11
622.044256
 21
110.877436
  0
LINE
  8
CSLAYER17
  6
CONTINUOUS
 62
     6
 10
622.044256
 20
110.877436
 11
621.990428
 21
110.823433
  0
LINE
  8
CSLAYER17
  6
CONTINUOUS
 62
     6
 10
621.990428
 20
110.823433
 11
621.935517
 21
110.772348
  0
LINE
  8
CSLAYER17
  6
CONTINUOUS
 62
     6
 10
621.935517
 20
110.772348
 11
621.880046
 21
110.724762
  0
LINE
  8
CSLAYER17
  6
CONTINUOUS
 62
     6
 10
621.880046
 20
110.724762
 11
621.824536
 21
110.681257
  0
LINE
  8
CSLAYER17
  6
CONTINUOUS
 62
     6
 10
621.824536
 20
110.681257
 11
621.769508
 21
110.642412
  0
LINE
  8
CSLAYER17
  6
CONTINUOUS
 62
     6
 10
621.769508
 20
110.642412
 11
621.713022
 21
110.608118
  0
LINE
  8
CSLAYER17
  6
CONTINUOUS
 62
     6
 10
621.713022
 20
110.608118
 11
621.652421
 21
110.577151
  0
LINE
  8
CSLAYER17
  6
CONTINUOUS
 62
     6
 10
621.652421
 20
110.577151
 11
621.588260
 21
110.549162
  0
LINE
  8
CSLAYER17
  6
CONTINUOUS
 62
     6
 10
621.588260
 20
110.549162
 11
621.521098
 21
110.523801
  0
LINE
  8
CSLAYER17
  6
CONTINUOUS
 62
     6
 10
621.521098
 20
110.523801
 11
621.451491
 21
110.500719
  0
LINE
  8
CSLAYER17
  6
CONTINUOUS
 62
     6
 10
621.451491
 20
110.500719
 11
621.379997
 21
110.479565
  0
LINE
  8
CSLAYER17
  6
CONTINUOUS
 62
     6
 10
621.379997
 20
110.479565
 11
621.307173
 21
110.459991
  0
LINE
  8
CSLAYER17
  6
CONTINUOUS
 62
     6
 10
621.307173
 20
110.459991
 11
621.233574
 21
110.441646
  0
LINE
  8
CSLAYER17
  6
CONTINUOUS
 62
     6
 10
621.233574
 20
110.441646
 11
621.159760
 21
110.424180
  0
LINE
  8
CSLAYER17
  6
CONTINUOUS
 62
     6
 10
621.159760
 20
110.424180
 11
621.086286
 21
110.407245
  0
LINE
  8
CSLAYER17
  6
CONTINUOUS
 62
     6
 10
621.086286
 20
110.407245
 11
621.013709
 21
110.390490
  0
LINE
  8
CSLAYER17
  6
CONTINUOUS
 62
     6
 10
621.013709
 20
110.390490
 11
620.939486
 21
110.372890
  0
LINE
  8
CSLAYER17
  6
CONTINUOUS
 62
     6
 10
620.939486
 20
110.372890
 11
620.865750
 21
110.354865
  0
LINE
  8
CSLAYER17
  6
CONTINUOUS
 62
     6
 10
620.865750
 20
110.354865
 11
620.792454
 21
110.336459
  0
LINE
  8
CSLAYER17
  6
CONTINUOUS
 62
     6
 10
620.792454
 20
110.336459
 11
620.719548
 21
110.317713
  0
LINE
  8
CSLAYER17
  6
CONTINUOUS
 62
     6
 10
620.719548
 20
110.317713
 11
620.646984
 21
110.298671
  0
LINE
  8
CSLAYER17
  6
CONTINUOUS
 62
     6
 10
620.646984
 20
110.298671
 11
620.574713
 21
110.279375
  0
LINE
  8
CSLAYER17
  6
CONTINUOUS
 62
     6
 10
620.574713
 20
110.279375
 11
620.502686
 21
110.259866
  0
LINE
  8
CSLAYER17
  6
CONTINUOUS
 62
     6
 10
620.502686
 20
110.259866
 11
620.430854
 21
110.240188
  0
LINE
  8
CSLAYER17
  6
CONTINUOUS
 62
     6
 10
620.430854
 20
110.240188
 11
620.359168
 21
110.220382
  0
LINE
  8
CSLAYER17
  6
CONTINUOUS
 62
     6
 10
620.359168
 20
110.220382
 11
620.287580
 21
110.200492
  0
LINE
  8
CSLAYER17
  6
CONTINUOUS
 62
     6
 10
620.287580
 20
110.200492
 11
620.206961
 21
110.178029
  0
LINE
  8
CSLAYER17
  6
CONTINUOUS
 62
     6
 10
620.206961
 20
110.178029
 11
620.079706
 21
110.350179
  0
LINE
  8
CSLAYER17
  6
CONTINUOUS
 62
     6
 10
620.079706
 20
110.350179
 11
619.984926
 21
110.477341
  0
LINE
  8
CSLAYER17
  6
CONTINUOUS
 62
     6
 10
619.984926
 20
110.477341
 11
619.889275
 21
110.603573
  0
LINE
  8
CSLAYER17
  6
CONTINUOUS
 62
     6
 10
619.889275
 20
110.603573
 11
619.792316
 21
110.728409
  0
LINE
  8
CSLAYER17
  6
CONTINUOUS
 62
     6
 10
619.792316
 20
110.728409
 11
619.693614
 21
110.851384
  0
LINE
  8
CSLAYER17
  6
CONTINUOUS
 62
     6
 10
619.693614
 20
110.851384
 11
619.592732
 21
110.972032
  0
LINE
  8
CSLAYER17
  6
CONTINUOUS
 62
     6
 10
619.592732
 20
110.972032
 11
619.489236
 21
111.089889
  0
LINE
  8
CSLAYER17
  6
CONTINUOUS
 62
     6
 10
619.489236
 20
111.089889
 11
619.382689
 21
111.204489
  0
LINE
  8
CSLAYER17
  6
CONTINUOUS
 62
     6
 10
619.382689
 20
111.204489
 11
619.272654
 21
111.315367
  0
LINE
  8
CSLAYER17
  6
CONTINUOUS
 62
     6
 10
619.272654
 20
111.315367
 11
619.158698
 21
111.422058
  0
LINE
  8
CSLAYER17
  6
CONTINUOUS
 62
     6
 10
619.158698
 20
111.422058
 11
619.040382
 21
111.524096
  0
LINE
  8
CSLAYER17
  6
CONTINUOUS
 62
     6
 10
619.040382
 20
111.524096
 11
618.888958
 21
111.643134
  0
LINE
  8
CSLAYER17
  6
CONTINUOUS
 62
     6
 10
618.888958
 20
111.643134
 11
618.730718
 21
111.757646
  0
LINE
  8
CSLAYER17
  6
CONTINUOUS
 62
     6
 10
618.730718
 20
111.757646
 11
618.567597
 21
111.868586
  0
LINE
  8
CSLAYER17
  6
CONTINUOUS
 62
     6
 10
618.567597
 20
111.868586
 11
618.401529
 21
111.976904
  0
LINE
  8
CSLAYER17
  6
CONTINUOUS
 62
     6
 10
618.401529
 20
111.976904
 11
618.234447
 21
112.083554
  0
LINE
  8
CSLAYER17
  6
CONTINUOUS
 62
     6
 10
618.234447
 20
112.083554
 11
618.068286
 21
112.189487
  0
LINE
  8
CSLAYER17
  6
CONTINUOUS
 62
     6
 10
618.068286
 20
112.189487
 11
617.904980
 21
112.295654
  0
LINE
  8
CSLAYER17
  6
CONTINUOUS
 62
     6
 10
617.904980
 20
112.295654
 11
617.746462
 21
112.403009
  0
LINE
  8
CSLAYER17
  6
CONTINUOUS
 62
     6
 10
617.746462
 20
112.403009
 11
617.594666
 21
112.512503
  0
LINE
  8
CSLAYER17
  6
CONTINUOUS
 62
     6
 10
617.594666
 20
112.512503
 11
617.451527
 21
112.625089
  0
LINE
  8
CSLAYER17
  6
CONTINUOUS
 62
     6
 10
617.451527
 20
112.625089
 11
617.318977
 21
112.741717
  0
LINE
  8
CSLAYER17
  6
CONTINUOUS
 62
     6
 10
617.318977
 20
112.741717
 11
617.215972
 21
112.844732
  0
LINE
  8
CSLAYER17
  6
CONTINUOUS
 62
     6
 10
617.215972
 20
112.844732
 11
617.114309
 21
112.958167
  0
LINE
  8
CSLAYER17
  6
CONTINUOUS
 62
     6
 10
617.114309
 20
112.958167
 11
617.014554
 21
113.080335
  0
LINE
  8
CSLAYER17
  6
CONTINUOUS
 62
     6
 10
617.014554
 20
113.080335
 11
616.917276
 21
113.209544
  0
LINE
  8
CSLAYER17
  6
CONTINUOUS
 62
     6
 10
616.917276
 20
113.209544
 11
616.823041
 21
113.344104
  0
LINE
  8
CSLAYER17
  6
CONTINUOUS
 62
     6
 10
616.823041
 20
113.344104
 11
616.732417
 21
113.482325
  0
LINE
  8
CSLAYER17
  6
CONTINUOUS
 62
     6
 10
616.732417
 20
113.482325
 11
616.645971
 21
113.622519
  0
LINE
  8
CSLAYER17
  6
CONTINUOUS
 62
     6
 10
616.645971
 20
113.622519
 11
616.564270
 21
113.762993
  0
LINE
  8
CSLAYER17
  6
CONTINUOUS
 62
     6
 10
616.564270
 20
113.762993
 11
616.487881
 21
113.902060
  0
LINE
  8
CSLAYER17
  6
CONTINUOUS
 62
     6
 10
616.487881
 20
113.902060
 11
616.417372
 21
114.038028
  0
LINE
  8
CSLAYER17
  6
CONTINUOUS
 62
     6
 10
616.417372
 20
114.038028
 11
616.312111
 21
114.253568
  0
ARC
  8
CSLAYER17
  6
CONTINUOUS
 62
     6
 10
617.238222
 20
113.697490
 40
1.080690
 50
89.054803
 51
149.054803
  0
ARC
  8
CSLAYER17
  6
CONTINUOUS
 62
     6
 10
618.182913
 20
114.222323
 40
1.080690
 50
89.054803
 51
149.054803
  0
ARC
  8
CSLAYER17
  6
CONTINUOUS
 62
     6
 10
617.273877
 20
115.858576
 40
1.080690
 50
269.054803
 51
329.054803
  0
LINE
  8
CSLAYER17
  6
CONTINUOUS
 62
     6
 10
618.200721
 20
115.302843
 11
618.345424
 21
115.163497
  0
LINE
  8
CSLAYER17
  6
CONTINUOUS
 62
     6
 10
618.345424
 20
115.163497
 11
618.499339
 21
115.013747
  0
LINE
  8
CSLAYER17
  6
CONTINUOUS
 62
     6
 10
618.499339
 20
115.013747
 11
618.660689
 21
114.855919
  0
LINE
  8
CSLAYER17
  6
CONTINUOUS
 62
     6
 10
618.660689
 20
114.855919
 11
618.827700
 21
114.692337
  0
ARC
  8
CSLAYER17
  6
CONTINUOUS
 62
     6
 10
615.726781
 20
116.706691
 40
1.095863
 50
276.431024
 51
336.431024
  0
ARC
  8
CSLAYER17
  6
CONTINUOUS
 62
     6
 10
614.845080
 20
116.055908
 40
1.095863
 50
276.431024
 51
336.431024
  0
ARC
  8
CSLAYER17
  6
CONTINUOUS
 62
     6
 10
615.972270
 20
114.528757
 40
1.095863
 50
96.431024
 51
156.431024
  0
LINE
  8
CSLAYER17
  6
CONTINUOUS
 62
     6
 10
616.478097
 20
116.448478
 11
616.731208
 21
116.268511
  0
LINE
  8
CSLAYER17
  6
CONTINUOUS
 62
     6
 10
616.478097
 20
116.448478
 11
616.225236
 21
116.628798
  0
LINE
  8
CSLAYER17
  6
CONTINUOUS
 62
     6
 10
616.225236
 20
116.628798
 11
615.972876
 21
116.809824
  0
LINE
  8
CSLAYER17
  6
CONTINUOUS
 62
     6
 10
615.972876
 20
116.809824
 11
615.721268
 21
116.991908
  0
LINE
  8
CSLAYER17
  6
CONTINUOUS
 62
     6
 10
615.721268
 20
116.991908
 11
615.470662
 21
117.175403
  0
LINE
  8
CSLAYER17
  6
CONTINUOUS
 62
     6
 10
615.470662
 20
117.175403
 11
615.221310
 21
117.360662
  0
LINE
  8
CSLAYER17
  6
CONTINUOUS
 62
     6
 10
615.221310
 20
117.360662
 11
614.973461
 21
117.548037
  0
LINE
  8
CSLAYER17
  6
CONTINUOUS
 62
     6
 10
614.973461
 20
117.548037
 11
614.727366
 21
117.737882
  0
LINE
  8
CSLAYER17
  6
CONTINUOUS
 62
     6
 10
614.727366
 20
117.737882
 11
614.483276
 21
117.930550
  0
LINE
  8
CSLAYER17
  6
CONTINUOUS
 62
     6
 10
614.483276
 20
117.930550
 11
614.241442
 21
118.126392
  0
LINE
  8
CSLAYER17
  6
CONTINUOUS
 62
     6
 10
614.241442
 20
118.126392
 11
614.002113
 21
118.325762
  0
LINE
  8
CSLAYER17
  6
CONTINUOUS
 62
     6
 10
614.002113
 20
118.325762
 11
613.844849
 21
118.460059
  0
LINE
  8
CSLAYER17
  6
CONTINUOUS
 62
     6
 10
613.844849
 20
118.460059
 11
613.687799
 21
118.597083
  0
LINE
  8
CSLAYER17
  6
CONTINUOUS
 62
     6
 10
613.687799
 20
118.597083
 11
613.531708
 21
118.736643
  0
LINE
  8
CSLAYER17
  6
CONTINUOUS
 62
     6
 10
613.531708
 20
118.736643
 11
613.377319
 21
118.878545
  0
LINE
  8
CSLAYER17
  6
CONTINUOUS
 62
     6
 10
613.377319
 20
118.878545
 11
613.225374
 21
119.022598
  0
LINE
  8
CSLAYER17
  6
CONTINUOUS
 62
     6
 10
613.225374
 20
119.022598
 11
613.076618
 21
119.168608
  0
LINE
  8
CSLAYER17
  6
CONTINUOUS
 62
     6
 10
613.076618
 20
119.168608
 11
612.931791
 21
119.316383
  0
LINE
  8
CSLAYER17
  6
CONTINUOUS
 62
     6
 10
612.931791
 20
119.316383
 11
612.791639
 21
119.465730
  0
LINE
  8
CSLAYER17
  6
CONTINUOUS
 62
     6
 10
612.791639
 20
119.465730
 11
612.656903
 21
119.616458
  0
LINE
  8
CSLAYER17
  6
CONTINUOUS
 62
     6
 10
612.656903
 20
119.616458
 11
612.528327
 21
119.768372
  0
LINE
  8
CSLAYER17
  6
CONTINUOUS
 62
     6
 10
612.528327
 20
119.768372
 11
612.406654
 21
119.921282
  0
LINE
  8
CSLAYER17
  6
CONTINUOUS
 62
     6
 10
612.406654
 20
119.921282
 11
612.292200
 21
120.072608
  0
LINE
  8
CSLAYER17
  6
CONTINUOUS
 62
     6
 10
612.292200
 20
120.072608
 11
612.176899
 21
120.229862
  0
LINE
  8
CSLAYER17
  6
CONTINUOUS
 62
     6
 10
612.176899
 20
120.229862
 11
612.061286
 21
120.391920
  0
LINE
  8
CSLAYER17
  6
CONTINUOUS
 62
     6
 10
612.061286
 20
120.391920
 11
611.945893
 21
120.557660
  0
LINE
  8
CSLAYER17
  6
CONTINUOUS
 62
     6
 10
611.945893
 20
120.557660
 11
611.831253
 21
120.725959
  0
LINE
  8
CSLAYER17
  6
CONTINUOUS
 62
     6
 10
611.831253
 20
120.725959
 11
611.717899
 21
120.895695
  0
LINE
  8
CSLAYER17
  6
CONTINUOUS
 62
     6
 10
611.717899
 20
120.895695
 11
611.606363
 21
121.065746
  0
LINE
  8
CSLAYER17
  6
CONTINUOUS
 62
     6
 10
611.606363
 20
121.065746
 11
611.497179
 21
121.234988
  0
LINE
  8
CSLAYER17
  6
CONTINUOUS
 62
     6
 10
611.497179
 20
121.234988
 11
611.390879
 21
121.402300
  0
LINE
  8
CSLAYER17
  6
CONTINUOUS
 62
     6
 10
611.390879
 20
121.402300
 11
611.287996
 21
121.566558
  0
LINE
  8
CSLAYER17
  6
CONTINUOUS
 62
     6
 10
611.287996
 20
121.566558
 11
611.189063
 21
121.726641
  0
LINE
  8
CSLAYER17
  6
CONTINUOUS
 62
     6
 10
611.189063
 20
121.726641
 11
611.102590
 21
121.864867
  0
LINE
  8
CSLAYER17
  6
CONTINUOUS
 62
     6
 10
611.102590
 20
121.864867
 11
611.010638
 21
122.007325
  0
LINE
  8
CSLAYER17
  6
CONTINUOUS
 62
     6
 10
611.010638
 20
122.007325
 11
610.914438
 21
122.152805
  0
LINE
  8
CSLAYER17
  6
CONTINUOUS
 62
     6
 10
610.914438
 20
122.152805
 11
610.815219
 21
122.300095
  0
LINE
  8
CSLAYER17
  6
CONTINUOUS
 62
     6
 10
610.815219
 20
122.300095
 11
610.714211
 21
122.447985
  0
LINE
  8
CSLAYER17
  6
CONTINUOUS
 62
     6
 10
610.714211
 20
122.447985
 11
610.612643
 21
122.595264
  0
LINE
  8
CSLAYER17
  6
CONTINUOUS
 62
     6
 10
610.612643
 20
122.595264
 11
610.511745
 21
122.740720
  0
LINE
  8
CSLAYER17
  6
CONTINUOUS
 62
     6
 10
610.511745
 20
122.740720
 11
610.412746
 21
122.883144
  0
LINE
  8
CSLAYER17
  6
CONTINUOUS
 62
     6
 10
610.412746
 20
122.883144
 11
610.316876
 21
123.021324
  0
LINE
  8
CSLAYER17
  6
CONTINUOUS
 62
     6
 10
610.316876
 20
123.021324
 11
610.196335
 21
123.196154
  0
ARC
  8
CSLAYER17
  6
CONTINUOUS
 62
     6
 10
612.461538
 20
125.196154
 40
2.000000
 50
270.000000
 51
360.000000
  0
LINE
  8
CSLAYER17
  6
CONTINUOUS
 62
     6
 10
614.461538
 20
125.196154
 11
614.461538
 21
125.696154
  0
LINE
  8
CSLAYER17
  6
CONTINUOUS
 62
     6
 10
614.711538
 20
125.696154
 11
588.711538
 21
125.696154
  0
LINE
  8
CSLAYER17
  6
CONTINUOUS
 62
     6
 10
588.711538
 20
127.696154
 11
614.711538
 21
127.696154
  0
LINE
  8
CSLAYER17
  6
CONTINUOUS
 62
     6
 10
612.461538
 20
123.196154
 11
603.372913
 21
123.196154
  0
ARC
  8
CSLAYER17
  6
CONTINUOUS
 62
     6
 10
601.711538
 20
129.996142
 40
7.000000
 50
253.742974
 51
286.256997
  0
ARC
  8
CSLAYER17
  6
CONTINUOUS
 62
     6
 10
600.031881
 20
124.236071
 40
1.000000
 50
185.000098
 51
253.742592
  0
LINE
  8
CSLAYER17
  6
CONTINUOUS
 62
     6
 10
599.035696
 20
124.148913
 11
598.980581
 21
124.778734
  0
ARC
  8
CSLAYER17
  6
CONTINUOUS
 62
     6
 10
599.179800
 20
124.796160
 40
0.200000
 50
89.999981
 51
185.000126
  0
LINE
  8
CSLAYER17
  6
CONTINUOUS
 62
     6
 10
598.911551
 20
124.996172
 11
601.711538
 21
124.996142
  0
LINE
  8
CSLAYER17
  6
CONTINUOUS
 62
     6
 10
601.711538
 20
124.996142
 11
604.511526
 21
124.996142
  0
ARC
  8
CSLAYER17
  6
CONTINUOUS
 62
     6
 10
604.511526
 20
125.096148
 40
0.100000
 50
269.999999
 51
359.999995
  0
LINE
  8
CSLAYER17
  6
CONTINUOUS
 62
     6
 10
604.611563
 20
125.096148
 11
604.611563
 21
125.596148
  0
ARC
  8
CSLAYER17
  6
CONTINUOUS
 62
     6
 10
604.511526
 20
125.596148
 40
0.100000
 50
-0.000005
 51
89.999997
  0
ARC
  8
CSLAYER17
  6
CONTINUOUS
 62
     6
 10
604.243277
 20
124.796160
 40
0.200000
 50
-5.000154
 51
89.999997
  0
LINE
  8
CSLAYER17
  6
CONTINUOUS
 62
     6
 10
604.442526
 20
124.778734
 11
604.387442
 21
124.148913
  0
ARC
  8
CSLAYER17
  6
CONTINUOUS
 62
     6
 10
603.391226
 20
124.236071
 40
1.000000
 50
286.257380
 51
354.999887
  0
LINE
  8
CSLAYER17
  6
CONTINUOUS
 62
     6
 10
605.282916
 20
123.196154
 11
605.448034
 21
122.178110
  0
LINE
  8
CSLAYER17
  6
CONTINUOUS
 62
     6
 10
605.448034
 20
122.178110
 11
605.506169
 21
121.855683
  0
LINE
  8
CSLAYER17
  6
CONTINUOUS
 62
     6
 10
605.506169
 20
121.855683
 11
605.571022
 21
121.523873
  0
LINE
  8
CSLAYER17
  6
CONTINUOUS
 62
     6
 10
605.571022
 20
121.523873
 11
605.641397
 21
121.186077
  0
LINE
  8
CSLAYER17
  6
CONTINUOUS
 62
     6
 10
605.641397
 20
121.186077
 11
605.716100
 21
120.845689
  0
LINE
  8
CSLAYER17
  6
CONTINUOUS
 62
     6
 10
605.716100
 20
120.845689
 11
605.793937
 21
120.506105
  0
LINE
  8
CSLAYER17
  6
CONTINUOUS
 62
     6
 10
605.793937
 20
120.506105
 11
605.873710
 21
120.170720
  0
LINE
  8
CSLAYER17
  6
CONTINUOUS
 62
     6
 10
605.873710
 20
120.170720
 11
605.954227
 21
119.842929
  0
LINE
  8
CSLAYER17
  6
CONTINUOUS
 62
     6
 10
605.954227
 20
119.842929
 11
606.034291
 21
119.526128
  0
LINE
  8
CSLAYER17
  6
CONTINUOUS
 62
     6
 10
606.034291
 20
119.526128
 11
606.112708
 21
119.223711
  0
LINE
  8
CSLAYER17
  6
CONTINUOUS
 62
     6
 10
606.112708
 20
119.223711
 11
606.196081
 21
118.923961
  0
LINE
  8
CSLAYER17
  6
CONTINUOUS
 62
     6
 10
606.196081
 20
118.923961
 11
606.289994
 21
118.618437
  0
LINE
  8
CSLAYER17
  6
CONTINUOUS
 62
     6
 10
606.289994
 20
118.618437
 11
606.393579
 21
118.308397
  0
LINE
  8
CSLAYER17
  6
CONTINUOUS
 62
     6
 10
606.393579
 20
118.308397
 11
606.505968
 21
117.995102
  0
LINE
  8
CSLAYER17
  6
CONTINUOUS
 62
     6
 10
606.505968
 20
117.995102
 11
606.626290
 21
117.679811
  0
LINE
  8
CSLAYER17
  6
CONTINUOUS
 62
     6
 10
606.626290
 20
117.679811
 11
606.753676
 21
117.363782
  0
LINE
  8
CSLAYER17
  6
CONTINUOUS
 62
     6
 10
606.753676
 20
117.363782
 11
606.887259
 21
117.048277
  0
LINE
  8
CSLAYER17
  6
CONTINUOUS
 62
     6
 10
606.887259
 20
117.048277
 11
607.026168
 21
116.734553
  0
LINE
  8
CSLAYER17
  6
CONTINUOUS
 62
     6
 10
607.026168
 20
116.734553
 11
607.169534
 21
116.423871
  0
LINE
  8
CSLAYER17
  6
CONTINUOUS
 62
     6
 10
607.169534
 20
116.423871
 11
607.316489
 21
116.117489
  0
LINE
  8
CSLAYER17
  6
CONTINUOUS
 62
     6
 10
607.316489
 20
116.117489
 11
607.466163
 21
115.816668
  0
LINE
  8
CSLAYER17
  6
CONTINUOUS
 62
     6
 10
607.466163
 20
115.816668
 11
607.593508
 21
115.569048
  0
LINE
  8
CSLAYER17
  6
CONTINUOUS
 62
     6
 10
607.593508
 20
115.569048
 11
607.723660
 21
115.323014
  0
LINE
  8
CSLAYER17
  6
CONTINUOUS
 62
     6
 10
607.723660
 20
115.323014
 11
607.856339
 21
115.078408
  0
LINE
  8
CSLAYER17
  6
CONTINUOUS
 62
     6
 10
607.856339
 20
115.078408
 11
607.991264
 21
114.835071
  0
LINE
  8
CSLAYER17
  6
CONTINUOUS
 62
     6
 10
607.991264
 20
114.835071
 11
608.128154
 21
114.592844
  0
LINE
  8
CSLAYER17
  6
CONTINUOUS
 62
     6
 10
608.128154
 20
114.592844
 11
608.266729
 21
114.351569
  0
LINE
  8
CSLAYER17
  6
CONTINUOUS
 62
     6
 10
608.266729
 20
114.351569
 11
608.406707
 21
114.111087
  0
LINE
  8
CSLAYER17
  6
CONTINUOUS
 62
     6
 10
608.406707
 20
114.111087
 11
608.547809
 21
113.871240
  0
LINE
  8
CSLAYER17
  6
CONTINUOUS
 62
     6
 10
608.547809
 20
113.871240
 11
608.689752
 21
113.631868
  0
LINE
  8
CSLAYER17
  6
CONTINUOUS
 62
     6
 10
608.689752
 20
113.631868
 11
608.832257
 21
113.392814
  0
LINE
  8
CSLAYER17
  6
CONTINUOUS
 62
     6
 10
608.832257
 20
113.392814
 11
608.975043
 21
113.153918
  0
ARC
  8
CSLAYER17
  6
CONTINUOUS
 62
     6
 10
608.984709
 20
114.353886
 40
1.200008
 50
269.538514
 51
329.538514
  0
ARC
  8
CSLAYER17
  6
CONTINUOUS
 62
     6
 10
610.028746
 20
114.945500
 40
1.200008
 50
269.538514
 51
329.538514
  0
LINE
  8
CSLAYER17
  6
CONTINUOUS
 62
     6
 10
611.063148
 20
114.337145
 11
610.927867
 21
114.563067
  0
LINE
  8
CSLAYER17
  6
CONTINUOUS
 62
     6
 10
610.927867
 20
114.563067
 11
610.792860
 21
114.789143
  0
LINE
  8
CSLAYER17
  6
CONTINUOUS
 62
     6
 10
610.792860
 20
114.789143
 11
610.658404
 21
115.015529
  0
LINE
  8
CSLAYER17
  6
CONTINUOUS
 62
     6
 10
610.658404
 20
115.015529
 11
610.524774
 21
115.242379
  0
LINE
  8
CSLAYER17
  6
CONTINUOUS
 62
     6
 10
610.524774
 20
115.242379
 11
610.392244
 21
115.469847
  0
LINE
  8
CSLAYER17
  6
CONTINUOUS
 62
     6
 10
610.392244
 20
115.469847
 11
610.261091
 21
115.698089
  0
LINE
  8
CSLAYER17
  6
CONTINUOUS
 62
     6
 10
610.261091
 20
115.698089
 11
610.131588
 21
115.927259
  0
LINE
  8
CSLAYER17
  6
CONTINUOUS
 62
     6
 10
610.131588
 20
115.927259
 11
610.004013
 21
116.157511
  0
LINE
  8
CSLAYER17
  6
CONTINUOUS
 62
     6
 10
610.004013
 20
116.157511
 11
609.878639
 21
116.389000
  0
LINE
  8
CSLAYER17
  6
CONTINUOUS
 62
     6
 10
609.878639
 20
116.389000
 11
609.755741
 21
116.621882
  0
LINE
  8
CSLAYER17
  6
CONTINUOUS
 62
     6
 10
609.755741
 20
116.621882
 11
609.635596
 21
116.856310
  0
LINE
  8
CSLAYER17
  6
CONTINUOUS
 62
     6
 10
609.635596
 20
116.856310
 11
609.501355
 21
117.127115
  0
LINE
  8
CSLAYER17
  6
CONTINUOUS
 62
     6
 10
609.501355
 20
117.127115
 11
609.369492
 21
117.402880
  0
LINE
  8
CSLAYER17
  6
CONTINUOUS
 62
     6
 10
609.369492
 20
117.402880
 11
609.240785
 21
117.682474
  0
LINE
  8
CSLAYER17
  6
CONTINUOUS
 62
     6
 10
609.240785
 20
117.682474
 11
609.116011
 21
117.964764
  0
LINE
  8
CSLAYER17
  6
CONTINUOUS
 62
     6
 10
609.116011
 20
117.964764
 11
608.995948
 21
118.248620
  0
LINE
  8
CSLAYER17
  6
CONTINUOUS
 62
     6
 10
608.995948
 20
118.248620
 11
608.881373
 21
118.532910
  0
LINE
  8
CSLAYER17
  6
CONTINUOUS
 62
     6
 10
608.881373
 20
118.532910
 11
608.773064
 21
118.816503
  0
LINE
  8
CSLAYER17
  6
CONTINUOUS
 62
     6
 10
608.773064
 20
118.816503
 11
608.671798
 21
119.098268
  0
LINE
  8
CSLAYER17
  6
CONTINUOUS
 62
     6
 10
608.671798
 20
119.098268
 11
608.578354
 21
119.377074
  0
LINE
  8
CSLAYER17
  6
CONTINUOUS
 62
     6
 10
608.578354
 20
119.377074
 11
608.493507
 21
119.651789
  0
LINE
  8
CSLAYER17
  6
CONTINUOUS
 62
     6
 10
608.493507
 20
119.651789
 11
608.418037
 21
119.921282
  0
LINE
  8
CSLAYER17
  6
CONTINUOUS
 62
     6
 10
608.418037
 20
119.921282
 11
608.343497
 21
120.206721
  0
LINE
  8
CSLAYER17
  6
CONTINUOUS
 62
     6
 10
608.343497
 20
120.206721
 11
608.267489
 21
120.505900
  0
LINE
  8
CSLAYER17
  6
CONTINUOUS
 62
     6
 10
608.267489
 20
120.505900
 11
608.191146
 21
120.815565
  0
LINE
  8
CSLAYER17
  6
CONTINUOUS
 62
     6
 10
608.191146
 20
120.815565
 11
608.115600
 21
121.132465
  0
LINE
  8
CSLAYER17
  6
CONTINUOUS
 62
     6
 10
608.115600
 20
121.132465
 11
608.041984
 21
121.453347
  0
LINE
  8
CSLAYER17
  6
CONTINUOUS
 62
     6
 10
608.041984
 20
121.453347
 11
607.971431
 21
121.774958
  0
LINE
  8
CSLAYER17
  6
CONTINUOUS
 62
     6
 10
607.971431
 20
121.774958
 11
607.905074
 21
122.094046
  0
LINE
  8
CSLAYER17
  6
CONTINUOUS
 62
     6
 10
607.905074
 20
122.094046
 11
607.844046
 21
122.407357
  0
LINE
  8
CSLAYER17
  6
CONTINUOUS
 62
     6
 10
607.844046
 20
122.407357
 11
607.789479
 21
122.711640
  0
LINE
  8
CSLAYER17
  6
CONTINUOUS
 62
     6
 10
607.789479
 20
122.711640
 11
607.711538
 21
123.196154
  0
LINE
  8
CSLAYER17
  6
CONTINUOUS
 62
     6
 10
607.839939
 20
122.430260
 11
607.888185
 21
122.342426
  0
LINE
  8
CSLAYER17
  6
CONTINUOUS
 62
     6
 10
607.888185
 20
122.342426
 11
607.998073
 21
122.150617
  0
LINE
  8
CSLAYER17
  6
CONTINUOUS
 62
     6
 10
607.998073
 20
122.150617
 11
608.116327
 21
121.951130
  0
LINE
  8
CSLAYER17
  6
CONTINUOUS
 62
     6
 10
608.116327
 20
121.951130
 11
608.241365
 21
121.746150
  0
LINE
  8
CSLAYER17
  6
CONTINUOUS
 62
     6
 10
608.241365
 20
121.746150
 11
608.371606
 21
121.537864
  0
LINE
  8
CSLAYER17
  6
CONTINUOUS
 62
     6
 10
608.371606
 20
121.537864
 11
608.505469
 21
121.328459
  0
LINE
  8
CSLAYER17
  6
CONTINUOUS
 62
     6
 10
608.505469
 20
121.328459
 11
608.641371
 21
121.120119
  0
LINE
  8
CSLAYER17
  6
CONTINUOUS
 62
     6
 10
608.641371
 20
121.120119
 11
608.777731
 21
120.915032
  0
LINE
  8
CSLAYER17
  6
CONTINUOUS
 62
     6
 10
608.777731
 20
120.915032
 11
608.912968
 21
120.715382
  0
LINE
  8
CSLAYER17
  6
CONTINUOUS
 62
     6
 10
608.912968
 20
120.715382
 11
609.045499
 21
120.523357
  0
LINE
  8
CSLAYER17
  6
CONTINUOUS
 62
     6
 10
609.045499
 20
120.523357
 11
609.173743
 21
120.341143
  0
LINE
  8
CSLAYER17
  6
CONTINUOUS
 62
     6
 10
609.173743
 20
120.341143
 11
609.278824
 21
120.196964
  0
LINE
  8
CSLAYER17
  6
CONTINUOUS
 62
     6
 10
609.278824
 20
120.196964
 11
609.390715
 21
120.049914
  0
LINE
  8
CSLAYER17
  6
CONTINUOUS
 62
     6
 10
609.390715
 20
120.049914
 11
609.508283
 21
119.900892
  0
LINE
  8
CSLAYER17
  6
CONTINUOUS
 62
     6
 10
609.508283
 20
119.900892
 11
609.630396
 21
119.750798
  0
LINE
  8
CSLAYER17
  6
CONTINUOUS
 62
     6
 10
609.630396
 20
119.750798
 11
609.755922
 21
119.600530
  0
LINE
  8
CSLAYER17
  6
CONTINUOUS
 62
     6
 10
609.755922
 20
119.600530
 11
609.883728
 21
119.450987
  0
LINE
  8
CSLAYER17
  6
CONTINUOUS
 62
     6
 10
609.883728
 20
119.450987
 11
610.012681
 21
119.303069
  0
LINE
  8
CSLAYER17
  6
CONTINUOUS
 62
     6
 10
610.012681
 20
119.303069
 11
610.141648
 21
119.157674
  0
LINE
  8
CSLAYER17
  6
CONTINUOUS
 62
     6
 10
610.141648
 20
119.157674
 11
610.269497
 21
119.015702
  0
LINE
  8
CSLAYER17
  6
CONTINUOUS
 62
     6
 10
610.269497
 20
119.015702
 11
610.395095
 21
118.878052
  0
LINE
  8
CSLAYER17
  6
CONTINUOUS
 62
     6
 10
610.395095
 20
118.878052
 11
610.517310
 21
118.745623
  0
LINE
  8
CSLAYER17
  6
CONTINUOUS
 62
     6
 10
610.517310
 20
118.745623
 11
610.662287
 21
118.593463
  0
LINE
  8
CSLAYER17
  6
CONTINUOUS
 62
     6
 10
610.662287
 20
118.593463
 11
610.815462
 21
118.439512
  0
LINE
  8
CSLAYER17
  6
CONTINUOUS
 62
     6
 10
610.815462
 20
118.439512
 11
610.974871
 21
118.284079
  0
LINE
  8
CSLAYER17
  6
CONTINUOUS
 62
     6
 10
610.974871
 20
118.284079
 11
611.138547
 21
118.127471
  0
LINE
  8
CSLAYER17
  6
CONTINUOUS
 62
     6
 10
611.138547
 20
118.127471
 11
611.304527
 21
117.969997
  0
LINE
  8
CSLAYER17
  6
CONTINUOUS
 62
     6
 10
611.304527
 20
117.969997
 11
611.470845
 21
117.811966
  0
LINE
  8
CSLAYER17
  6
CONTINUOUS
 62
     6
 10
611.470845
 20
117.811966
 11
611.635535
 21
117.653686
  0
LINE
  8
CSLAYER17
  6
CONTINUOUS
 62
     6
 10
611.635535
 20
117.653686
 11
611.796633
 21
117.495466
  0
LINE
  8
CSLAYER17
  6
CONTINUOUS
 62
     6
 10
611.796633
 20
117.495466
 11
611.952172
 21
117.337614
  0
LINE
  8
CSLAYER17
  6
CONTINUOUS
 62
     6
 10
611.952172
 20
117.337614
 11
612.100188
 21
117.180438
  0
LINE
  8
CSLAYER17
  6
CONTINUOUS
 62
     6
 10
612.100188
 20
117.180438
 11
612.238715
 21
117.024248
  0
LINE
  8
CSLAYER17
  6
CONTINUOUS
 62
     6
 10
612.238715
 20
117.024248
 11
612.364630
 21
116.877666
  0
LINE
  8
CSLAYER17
  6
CONTINUOUS
 62
     6
 10
612.364630
 20
116.877666
 11
612.495440
 21
116.727487
  0
LINE
  8
CSLAYER17
  6
CONTINUOUS
 62
     6
 10
612.495440
 20
116.727487
 11
612.631042
 21
116.575268
  0
LINE
  8
CSLAYER17
  6
CONTINUOUS
 62
     6
 10
612.631042
 20
116.575268
 11
612.771336
 21
116.422563
  0
LINE
  8
CSLAYER17
  6
CONTINUOUS
 62
     6
 10
612.771336
 20
116.422563
 11
612.916219
 21
116.270930
  0
LINE
  8
CSLAYER17
  6
CONTINUOUS
 62
     6
 10
612.916219
 20
116.270930
 11
613.065590
 21
116.121923
  0
LINE
  8
CSLAYER17
  6
CONTINUOUS
 62
     6
 10
613.065590
 20
116.121923
 11
613.219346
 21
115.977099
  0
LINE
  8
CSLAYER17
  6
CONTINUOUS
 62
     6
 10
613.219346
 20
115.977099
 11
613.377387
 21
115.838014
  0
LINE
  8
CSLAYER17
  6
CONTINUOUS
 62
     6
 10
613.377387
 20
115.838014
 11
613.539610
 21
115.706224
  0
LINE
  8
CSLAYER17
  6
CONTINUOUS
 62
     6
 10
613.539610
 20
115.706224
 11
613.705914
 21
115.583284
  0
LINE
  8
CSLAYER17
  6
CONTINUOUS
 62
     6
 10
613.705914
 20
115.583284
 11
613.876197
 21
115.470751
  0
LINE
  8
CSLAYER17
  6
CONTINUOUS
 62
     6
 10
613.876197
 20
115.470751
 11
613.968931
 21
115.415325
  0
LINE
  8
CSLAYER17
  6
CONTINUOUS
 62
     6
 10
613.968931
 20
115.415325
 11
614.063524
 21
115.362648
  0
LINE
  8
CSLAYER17
  6
CONTINUOUS
 62
     6
 10
614.063524
 20
115.362648
 11
614.159788
 21
115.312447
  0
LINE
  8
CSLAYER17
  6
CONTINUOUS
 62
     6
 10
614.159788
 20
115.312447
 11
614.257539
 21
115.264446
  0
LINE
  8
CSLAYER17
  6
CONTINUOUS
 62
     6
 10
614.257539
 20
115.264446
 11
614.356591
 21
115.218369
  0
LINE
  8
CSLAYER17
  6
CONTINUOUS
 62
     6
 10
614.356591
 20
115.218369
 11
614.456758
 21
115.173943
  0
LINE
  8
CSLAYER17
  6
CONTINUOUS
 62
     6
 10
614.456758
 20
115.173943
 11
614.557854
 21
115.130891
  0
LINE
  8
CSLAYER17
  6
CONTINUOUS
 62
     6
 10
614.557854
 20
115.130891
 11
614.659693
 21
115.088940
  0
LINE
  8
CSLAYER17
  6
CONTINUOUS
 62
     6
 10
614.659693
 20
115.088940
 11
614.762089
 21
115.047814
  0
LINE
  8
CSLAYER17
  6
CONTINUOUS
 62
     6
 10
614.762089
 20
115.047814
 11
614.864857
 21
115.007237
  0
LINE
  8
CSLAYER17
  6
CONTINUOUS
 62
     6
 10
614.864857
 20
115.007237
 11
614.967811
 21
114.966936
  0
LINE
  8
CSLAYER17
  6
CONTINUOUS
 62
     6
 10
612.069047
 20
112.646304
 11
612.203848
 21
112.480992
  0
LINE
  8
CSLAYER17
  6
CONTINUOUS
 62
     6
 10
612.203848
 20
112.480992
 11
612.342405
 21
112.309339
  0
LINE
  8
CSLAYER17
  6
CONTINUOUS
 62
     6
 10
612.342405
 20
112.309339
 11
612.482681
 21
112.132918
  0
LINE
  8
CSLAYER17
  6
CONTINUOUS
 62
     6
 10
612.482681
 20
112.132918
 11
612.622639
 21
111.953300
  0
LINE
  8
CSLAYER17
  6
CONTINUOUS
 62
     6
 10
612.622639
 20
111.953300
 11
612.760242
 21
111.772056
  0
LINE
  8
CSLAYER17
  6
CONTINUOUS
 62
     6
 10
612.760242
 20
111.772056
 11
612.893454
 21
111.590760
  0
LINE
  8
CSLAYER17
  6
CONTINUOUS
 62
     6
 10
612.893454
 20
111.590760
 11
613.020238
 21
111.410983
  0
LINE
  8
CSLAYER17
  6
CONTINUOUS
 62
     6
 10
613.020238
 20
111.410983
 11
613.138557
 21
111.234297
  0
LINE
  8
CSLAYER17
  6
CONTINUOUS
 62
     6
 10
613.138557
 20
111.234297
 11
613.246375
 21
111.062273
  0
LINE
  8
CSLAYER17
  6
CONTINUOUS
 62
     6
 10
613.246375
 20
111.062273
 11
613.344014
 21
110.898512
  0
LINE
  8
CSLAYER17
  6
CONTINUOUS
 62
     6
 10
613.344014
 20
110.898512
 11
613.443644
 21
110.729245
  0
LINE
  8
CSLAYER17
  6
CONTINUOUS
 62
     6
 10
613.443644
 20
110.729245
 11
613.545470
 21
110.555774
  0
LINE
  8
CSLAYER17
  6
CONTINUOUS
 62
     6
 10
613.545470
 20
110.555774
 11
613.649700
 21
110.379401
  0
LINE
  8
CSLAYER17
  6
CONTINUOUS
 62
     6
 10
613.649700
 20
110.379401
 11
613.756540
 21
110.201428
  0
LINE
  8
CSLAYER17
  6
CONTINUOUS
 62
     6
 10
613.756540
 20
110.201428
 11
613.866197
 21
110.023159
  0
LINE
  8
CSLAYER17
  6
CONTINUOUS
 62
     6
 10
613.866197
 20
110.023159
 11
613.978878
 21
109.845894
  0
LINE
  8
CSLAYER17
  6
CONTINUOUS
 62
     6
 10
613.978878
 20
109.845894
 11
614.094788
 21
109.670936
  0
LINE
  8
CSLAYER17
  6
CONTINUOUS
 62
     6
 10
614.094788
 20
109.670936
 11
614.214136
 21
109.499588
  0
LINE
  8
CSLAYER17
  6
CONTINUOUS
 62
     6
 10
614.214136
 20
109.499588
 11
614.337126
 21
109.333152
  0
LINE
  8
CSLAYER17
  6
CONTINUOUS
 62
     6
 10
614.337126
 20
109.333152
 11
614.463966
 21
109.172930
  0
LINE
  8
CSLAYER17
  6
CONTINUOUS
 62
     6
 10
614.463966
 20
109.172930
 11
614.562787
 21
109.056417
  0
LINE
  8
CSLAYER17
  6
CONTINUOUS
 62
     6
 10
614.562787
 20
109.056417
 11
614.665000
 21
108.942658
  0
LINE
  8
CSLAYER17
  6
CONTINUOUS
 62
     6
 10
614.665000
 20
108.942658
 11
614.770264
 21
108.831377
  0
LINE
  8
CSLAYER17
  6
CONTINUOUS
 62
     6
 10
614.770264
 20
108.831377
 11
614.878241
 21
108.722299
  0
LINE
  8
CSLAYER17
  6
CONTINUOUS
 62
     6
 10
614.878241
 20
108.722299
 11
614.988592
 21
108.615148
  0
LINE
  8
CSLAYER17
  6
CONTINUOUS
 62
     6
 10
614.988592
 20
108.615148
 11
615.100977
 21
108.509650
  0
LINE
  8
CSLAYER17
  6
CONTINUOUS
 62
     6
 10
615.100977
 20
108.509650
 11
615.215058
 21
108.405528
  0
LINE
  8
CSLAYER17
  6
CONTINUOUS
 62
     6
 10
615.215058
 20
108.405528
 11
615.330496
 21
108.302507
  0
LINE
  8
CSLAYER17
  6
CONTINUOUS
 62
     6
 10
615.330496
 20
108.302507
 11
615.446951
 21
108.200313
  0
LINE
  8
CSLAYER17
  6
CONTINUOUS
 62
     6
 10
615.446951
 20
108.200313
 11
615.542977
 21
108.116985
  0
LINE
  8
CSLAYER17
  6
CONTINUOUS
 62
     6
 10
615.542977
 20
108.116985
 11
615.473830
 21
108.082456
  0
LINE
  8
CSLAYER17
  6
CONTINUOUS
 62
     6
 10
615.473830
 20
108.082456
 11
615.389354
 21
108.034840
  0
LINE
  8
CSLAYER17
  6
CONTINUOUS
 62
     6
 10
615.389354
 20
108.034840
 11
615.303421
 21
107.981090
  0
LINE
  8
CSLAYER17
  6
CONTINUOUS
 62
     6
 10
615.303421
 20
107.981090
 11
615.217302
 21
107.921865
  0
LINE
  8
CSLAYER17
  6
CONTINUOUS
 62
     6
 10
615.217302
 20
107.921865
 11
615.132266
 21
107.857828
  0
LINE
  8
CSLAYER17
  6
CONTINUOUS
 62
     6
 10
615.132266
 20
107.857828
 11
615.049584
 21
107.789637
  0
LINE
  8
CSLAYER17
  6
CONTINUOUS
 62
     6
 10
615.049584
 20
107.789637
 11
614.970524
 21
107.717954
  0
LINE
  8
CSLAYER17
  6
CONTINUOUS
 62
     6
 10
614.970524
 20
107.717954
 11
614.896358
 21
107.643438
  0
LINE
  8
CSLAYER17
  6
CONTINUOUS
 62
     6
 10
614.896358
 20
107.643438
 11
614.828356
 21
107.566751
  0
LINE
  8
CSLAYER17
  6
CONTINUOUS
 62
     6
 10
614.828356
 20
107.566751
 11
614.767786
 21
107.488552
  0
LINE
  8
CSLAYER17
  6
CONTINUOUS
 62
     6
 10
614.767786
 20
107.488552
 11
614.715919
 21
107.409502
  0
LINE
  8
CSLAYER17
  6
CONTINUOUS
 62
     6
 10
614.715919
 20
107.409502
 11
614.700013
 21
107.381896
  0
LINE
  8
CSLAYER17
  6
CONTINUOUS
 62
     6
 10
614.700013
 20
107.381896
 11
614.684360
 21
107.353202
  0
LINE
  8
CSLAYER17
  6
CONTINUOUS
 62
     6
 10
614.684360
 20
107.353202
 11
614.668917
 21
107.323589
  0
LINE
  8
CSLAYER17
  6
CONTINUOUS
 62
     6
 10
614.668917
 20
107.323589
 11
614.653644
 21
107.293222
  0
LINE
  8
CSLAYER17
  6
CONTINUOUS
 62
     6
 10
614.653644
 20
107.293222
 11
614.638499
 21
107.262271
  0
LINE
  8
CSLAYER17
  6
CONTINUOUS
 62
     6
 10
614.638499
 20
107.262271
 11
614.623439
 21
107.230901
  0
LINE
  8
CSLAYER17
  6
CONTINUOUS
 62
     6
 10
614.623439
 20
107.230901
 11
614.608422
 21
107.199279
  0
LINE
  8
CSLAYER17
  6
CONTINUOUS
 62
     6
 10
614.608422
 20
107.199279
 11
614.593406
 21
107.167574
  0
LINE
  8
CSLAYER17
  6
CONTINUOUS
 62
     6
 10
614.593406
 20
107.167574
 11
614.578351
 21
107.135952
  0
LINE
  8
CSLAYER17
  6
CONTINUOUS
 62
     6
 10
614.578351
 20
107.135952
 11
614.563213
 21
107.104580
  0
LINE
  8
CSLAYER17
  6
CONTINUOUS
 62
     6
 10
614.563213
 20
107.104580
 11
614.547950
 21
107.073626
  0
LINE
  8
CSLAYER17
  6
CONTINUOUS
 62
     6
 10
614.547950
 20
107.073626
 11
614.507129
 21
106.995489
  0
LINE
  8
CSLAYER17
  6
CONTINUOUS
 62
     6
 10
614.507129
 20
106.995489
 11
614.463794
 21
106.918956
  0
LINE
  8
CSLAYER17
  6
CONTINUOUS
 62
     6
 10
614.463794
 20
106.918956
 11
614.418195
 21
106.843868
  0
LINE
  8
CSLAYER17
  6
CONTINUOUS
 62
     6
 10
614.418195
 20
106.843868
 11
614.370585
 21
106.770063
  0
LINE
  8
CSLAYER17
  6
CONTINUOUS
 62
     6
 10
614.370585
 20
106.770063
 11
614.321215
 21
106.697382
  0
LINE
  8
CSLAYER17
  6
CONTINUOUS
 62
     6
 10
614.321215
 20
106.697382
 11
614.270337
 21
106.625664
  0
LINE
  8
CSLAYER17
  6
CONTINUOUS
 62
     6
 10
614.270337
 20
106.625664
 11
614.218201
 21
106.554747
  0
LINE
  8
CSLAYER17
  6
CONTINUOUS
 62
     6
 10
614.218201
 20
106.554747
 11
614.165059
 21
106.484473
  0
LINE
  8
CSLAYER17
  6
CONTINUOUS
 62
     6
 10
614.165059
 20
106.484473
 11
614.111163
 21
106.414680
  0
LINE
  8
CSLAYER17
  6
CONTINUOUS
 62
     6
 10
614.111163
 20
106.414680
 11
614.056764
 21
106.345208
  0
LINE
  8
CSLAYER17
  6
CONTINUOUS
 62
     6
 10
614.056764
 20
106.345208
 11
614.004691
 21
106.279165
  0
LINE
  8
CSLAYER17
  6
CONTINUOUS
 62
     6
 10
614.004691
 20
106.279165
 11
613.877344
 21
106.388466
  0
LINE
  8
CSLAYER17
  6
CONTINUOUS
 62
     6
 10
613.877344
 20
106.388466
 11
613.740628
 21
106.506499
  0
LINE
  8
CSLAYER17
  6
CONTINUOUS
 62
     6
 10
613.740628
 20
106.506499
 11
613.604741
 21
106.625203
  0
LINE
  8
CSLAYER17
  6
CONTINUOUS
 62
     6
 10
613.604741
 20
106.625203
 11
613.470095
 21
106.744914
  0
LINE
  8
CSLAYER17
  6
CONTINUOUS
 62
     6
 10
613.470095
 20
106.744914
 11
613.337103
 21
106.865969
  0
LINE
  8
CSLAYER17
  6
CONTINUOUS
 62
     6
 10
613.337103
 20
106.865969
 11
613.206181
 21
106.988702
  0
LINE
  8
CSLAYER17
  6
CONTINUOUS
 62
     6
 10
613.206181
 20
106.988702
 11
613.077741
 21
107.113450
  0
LINE
  8
CSLAYER17
  6
CONTINUOUS
 62
     6
 10
613.077741
 20
107.113450
 11
612.952198
 21
107.240547
  0
LINE
  8
CSLAYER17
  6
CONTINUOUS
 62
     6
 10
612.952198
 20
107.240547
 11
612.829964
 21
107.370331
  0
LINE
  8
CSLAYER17
  6
CONTINUOUS
 62
     6
 10
612.829964
 20
107.370331
 11
612.711455
 21
107.503137
  0
LINE
  8
CSLAYER17
  6
CONTINUOUS
 62
     6
 10
612.711455
 20
107.503137
 11
612.597083
 21
107.639300
  0
LINE
  8
CSLAYER17
  6
CONTINUOUS
 62
     6
 10
612.597083
 20
107.639300
 11
612.460587
 21
107.813526
  0
LINE
  8
CSLAYER17
  6
CONTINUOUS
 62
     6
 10
612.460587
 20
107.813526
 11
612.328244
 21
107.994202
  0
LINE
  8
CSLAYER17
  6
CONTINUOUS
 62
     6
 10
612.328244
 20
107.994202
 11
612.199773
 21
108.179972
  0
LINE
  8
CSLAYER17
  6
CONTINUOUS
 62
     6
 10
612.199773
 20
108.179972
 11
612.074891
 21
108.369480
  0
LINE
  8
CSLAYER17
  6
CONTINUOUS
 62
     6
 10
612.074891
 20
108.369480
 11
611.953319
 21
108.561368
  0
LINE
  8
CSLAYER17
  6
CONTINUOUS
 62
     6
 10
611.953319
 20
108.561368
 11
611.834775
 21
108.754281
  0
LINE
  8
CSLAYER17
  6
CONTINUOUS
 62
     6
 10
611.834775
 20
108.754281
 11
611.718977
 21
108.946861
  0
LINE
  8
CSLAYER17
  6
CONTINUOUS
 62
     6
 10
611.718977
 20
108.946861
 11
611.605644
 21
109.137752
  0
LINE
  8
CSLAYER17
  6
CONTINUOUS
 62
     6
 10
611.605644
 20
109.137752
 11
611.494496
 21
109.325597
  0
LINE
  8
CSLAYER17
  6
CONTINUOUS
 62
     6
 10
611.494496
 20
109.325597
 11
611.385250
 21
109.509040
  0
LINE
  8
CSLAYER17
  6
CONTINUOUS
 62
     6
 10
611.385250
 20
109.509040
 11
611.277625
 21
109.686724
  0
LINE
  8
CSLAYER17
  6
CONTINUOUS
 62
     6
 10
611.277625
 20
109.686724
 11
611.172300
 21
109.852411
  0
LINE
  8
CSLAYER17
  6
CONTINUOUS
 62
     6
 10
611.172300
 20
109.852411
 11
611.057571
 21
110.022300
  0
LINE
  8
CSLAYER17
  6
CONTINUOUS
 62
     6
 10
611.057571
 20
110.022300
 11
610.935270
 21
110.194963
  0
LINE
  8
CSLAYER17
  6
CONTINUOUS
 62
     6
 10
610.935270
 20
110.194963
 11
610.807229
 21
110.368973
  0
LINE
  8
CSLAYER17
  6
CONTINUOUS
 62
     6
 10
610.807229
 20
110.368973
 11
610.675276
 21
110.542903
  0
LINE
  8
CSLAYER17
  6
CONTINUOUS
 62
     6
 10
610.675276
 20
110.542903
 11
610.541245
 21
110.715324
  0
LINE
  8
CSLAYER17
  6
CONTINUOUS
 62
     6
 10
610.541245
 20
110.715324
 11
610.406964
 21
110.884809
  0
LINE
  8
CSLAYER17
  6
CONTINUOUS
 62
     6
 10
610.406964
 20
110.884809
 11
610.274265
 21
111.049930
  0
LINE
  8
CSLAYER17
  6
CONTINUOUS
 62
     6
 10
610.274265
 20
111.049930
 11
610.144979
 21
111.209261
  0
LINE
  8
CSLAYER17
  6
CONTINUOUS
 62
     6
 10
610.144979
 20
111.209261
 11
610.020937
 21
111.361373
  0
LINE
  8
CSLAYER17
  6
CONTINUOUS
 62
     6
 10
610.020937
 20
111.361373
 11
609.851679
 21
111.568974
  0
ARC
  8
CSLAYER17
  6
CONTINUOUS
 62
     6
 10
610.933929
 20
111.139202
 40
1.164461
 50
93.975995
 51
158.341495
  0
ARC
  8
CSLAYER17
  6
CONTINUOUS
 62
     6
 10
611.899584
 20
111.789955
 40
1.164461
 50
93.975995
 51
153.975995
  0
ARC
  8
CSLAYER17
  6
CONTINUOUS
 62
     6
 10
610.772445
 20
113.462518
 40
1.164461
 50
273.975995
 51
333.975995
  0
LINE
  8
CSLAYER17
  6
CONTINUOUS
 62
     6
 10
611.818855
 20
112.951617
 11
611.940037
 21
112.803703
  0
LINE
  8
CSLAYER17
  6
CONTINUOUS
 62
     6
 10
611.940037
 20
112.803703
 11
612.069047
 21
112.646304
  0
ARC
  8
CSLAYER17
  6
CONTINUOUS
 62
     6
 10
610.009415
 20
112.545562
 40
1.200008
 50
89.538514
 51
149.538514
  0
LINE
  8
CSLAYER17
  6
CONTINUOUS
 62
     6
 10
614.777929
 20
107.501647
 11
617.220924
 21
105.107012
  0
LINE
  8
CSLAYER17
  6
CONTINUOUS
 62
     6
 10
617.835273
 20
105.319659
 11
615.089426
 21
107.822497
  0
LINE
  8
CSLAYER17
  6
CONTINUOUS
 62
     6
 10
614.497459
 20
106.978410
 11
616.748389
 21
104.539904
  0
LINE
  8
CSLAYER17
  6
CONTINUOUS
 62
     6
 10
623.175269
 20
107.398943
 11
620.949147
 21
110.375181
  0
LINE
  8
CSLAYER17
  6
CONTINUOUS
 62
     6
 10
621.514981
 20
110.521773
 11
623.860511
 21
107.847887
  0
LINE
  8
CSLAYER17
  6
CONTINUOUS
 62
     6
 10
624.403968
 20
108.367693
 11
621.932199
 21
110.769501
  0
LINE
  8
CSLAYER17
  6
CONTINUOUS
 62
     6
 10
601.615622
 20
124.996172
 11
602.059500
 21
125.696154
  0
LINE
  8
CSLAYER17
  6
CONTINUOUS
 62
     6
 10
601.559500
 20
125.696154
 11
601.115622
 21
124.996172
  0
ARC
  8
CSLAYER17
  6
CONTINUOUS
 62
     6
 10
598.911551
 20
125.096148
 40
0.100000
 50
180.057309
 51
269.999999
  0
LINE
  8
CSLAYER17
  6
CONTINUOUS
 62
     6
 10
598.811575
 20
125.096148
 11
598.811575
 21
125.596148
  0
ARC
  8
CSLAYER17
  6
CONTINUOUS
 62
     6
 10
598.911551
 20
125.596148
 40
0.100000
 50
89.999984
 51
179.999990
  0
LINE
  8
CSLAYER17
  6
CONTINUOUS
 62
     6
 10
588.711538
 20
123.696154
 11
588.711538
 21
127.696154
  0
LINE
  8
CSLAYER17
  6
CONTINUOUS
 62
     6
 10
588.711538
 20
123.696154
 11
575.711538
 21
123.696154
  0
LINE
  8
CSLAYER17
  6
CONTINUOUS
 62
     6
 10
448.011538
 20
376.750000
 11
575.711538
 21
376.750000
  0
LINE
  8
CSLAYER17
  6
CONTINUOUS
 62
     6
 10
575.711538
 20
376.750000
 11
575.711538
 21
466.750000
  0
LINE
  8
CSLAYER17
  6
CONTINUOUS
 62
     6
 10
575.711538
 20
466.750000
 11
448.011538
 21
466.750000
  0
LINE
  8
CSLAYER17
  6
CONTINUOUS
 62
     6
 10
575.711538
 20
465.749969
 11
577.186575
 21
465.749969
  0
LINE
  8
CSLAYER17
  6
CONTINUOUS
 62
     6
 10
577.617422
 20
465.854462
 11
576.919790
 21
459.217010
  0
ARC
  8
CSLAYER17
  6
CONTINUOUS
 62
     6
 10
575.925284
 20
459.321503
 40
1.000000
 50
269.999999
 51
353.999974
  0
ARC
  8
CSLAYER17
  6
CONTINUOUS
 62
     6
 10
575.974905
 20
463.793793
 40
1.000000
 50
269.999999
 51
353.999974
  0
LINE
  8
CSLAYER17
  6
CONTINUOUS
 62
     6
 10
576.969473
 20
463.689240
 11
577.617422
 21
469.854462
  0
ARC
  8
CSLAYER17
  6
CONTINUOUS
 62
     6
 10
578.611990
 20
469.749969
 40
1.000000
 50
89.999984
 51
173.999997
  0
LINE
  8
CSLAYER17
  6
CONTINUOUS
 62
     6
 10
578.611990
 20
470.749969
 11
614.811148
 21
470.749969
  0
ARC
  8
CSLAYER17
  6
CONTINUOUS
 62
     6
 10
614.811148
 20
469.749969
 40
1.000000
 50
6.000002
 51
89.999997
  0
LINE
  8
CSLAYER17
  6
CONTINUOUS
 62
     6
 10
615.805655
 20
469.854462
 11
616.453665
 21
463.689240
  0
ARC
  8
CSLAYER17
  6
CONTINUOUS
 62
     6
 10
617.448172
 20
463.793793
 40
1.000000
 50
186.000011
 51
269.999999
  0
LINE
  8
CSLAYER17
  6
CONTINUOUS
 62
     6
 10
616.237112
 20
465.749969
 11
627.711538
 21
465.749969
  0
LINE
  8
CSLAYER17
  6
CONTINUOUS
 62
     6
 10
627.711538
 20
465.749969
 11
628.711538
 21
464.749969
  0
LINE
  8
CSLAYER17
  6
CONTINUOUS
 62
     6
 10
628.711538
 20
464.749969
 11
628.711538
 21
378.749969
  0
LINE
  8
CSLAYER17
  6
CONTINUOUS
 62
     6
 10
628.711538
 20
378.749969
 11
627.711538
 21
377.749969
  0
LINE
  8
CSLAYER17
  6
CONTINUOUS
 62
     6
 10
627.711538
 20
377.749969
 11
616.237112
 21
377.749969
  0
ARC
  8
CSLAYER17
  6
CONTINUOUS
 62
     6
 10
614.811148
 20
377.749969
 40
1.000000
 50
269.999999
 51
353.999988
  0
LINE
  8
CSLAYER17
  6
CONTINUOUS
 62
     6
 10
614.811148
 20
376.749969
 11
578.611990
 21
376.749969
  0
ARC
  8
CSLAYER17
  6
CONTINUOUS
 62
     6
 10
578.611990
 20
377.749969
 40
1.000000
 50
185.999983
 51
269.999999
  0
LINE
  8
CSLAYER17
  6
CONTINUOUS
 62
     6
 10
577.617422
 20
377.645416
 11
576.919790
 21
384.282928
  0
ARC
  8
CSLAYER17
  6
CONTINUOUS
 62
     6
 10
575.925284
 20
384.178375
 40
1.000000
 50
6.000016
 51
89.999991
  0
ARC
  8
CSLAYER17
  6
CONTINUOUS
 62
     6
 10
575.974905
 20
379.706146
 40
1.000000
 50
6.000016
 51
89.999991
  0
LINE
  8
CSLAYER17
  6
CONTINUOUS
 62
     6
 10
576.969473
 20
379.810699
 11
577.617422
 21
373.645416
  0
ARC
  8
CSLAYER17
  6
CONTINUOUS
 62
     6
 10
578.611990
 20
373.749969
 40
1.000000
 50
185.999983
 51
269.999999
  0
LINE
  8
CSLAYER17
  6
CONTINUOUS
 62
     6
 10
578.611990
 20
372.749969
 11
614.811148
 21
372.749969
  0
ARC
  8
CSLAYER17
  6
CONTINUOUS
 62
     6
 10
614.811148
 20
373.749969
 40
1.000000
 50
269.999999
 51
353.999988
  0
LINE
  8
CSLAYER17
  6
CONTINUOUS
 62
     6
 10
615.805655
 20
373.645416
 11
616.453665
 21
379.810699
  0
ARC
  8
CSLAYER17
  6
CONTINUOUS
 62
     6
 10
617.448172
 20
379.706146
 40
1.000000
 50
89.999991
 51
173.999979
  0
LINE
  8
CSLAYER17
  6
CONTINUOUS
 62
     6
 10
615.805655
 20
377.645416
 11
616.503287
 21
384.282928
  0
ARC
  8
CSLAYER17
  6
CONTINUOUS
 62
     6
 10
617.497854
 20
384.178375
 40
1.000000
 50
89.999991
 51
173.999979
  0
LINE
  8
CSLAYER17
  6
CONTINUOUS
 62
     6
 10
613.025564
 20
385.356781
 11
581.068472
 21
385.356781
  0
LINE
  8
CSLAYER17
  6
CONTINUOUS
 62
     6
 10
577.186575
 20
377.749969
 11
575.711538
 21
377.749969
  0
LINE
  8
CSLAYER17
  6
CONTINUOUS
 62
     6
 10
627.711538
 20
377.749969
 11
627.711538
 21
465.749969
  0
ARC
  8
CSLAYER17
  6
CONTINUOUS
 62
     6
 10
614.811148
 20
465.749969
 40
1.000000
 50
6.000002
 51
89.999997
  0
LINE
  8
CSLAYER17
  6
CONTINUOUS
 62
     6
 10
614.811148
 20
466.749969
 11
578.611990
 21
466.749969
  0
ARC
  8
CSLAYER17
  6
CONTINUOUS
 62
     6
 10
578.611990
 20
465.749969
 40
1.000000
 50
89.999984
 51
173.999997
  0
LINE
  8
CSLAYER17
  6
CONTINUOUS
 62
     6
 10
581.068472
 20
458.143158
 11
613.025564
 21
458.143158
  0
LINE
  8
CSLAYER17
  6
CONTINUOUS
 62
     6
 10
616.503287
 20
459.217010
 11
615.805655
 21
465.854462
  0
ARC
  8
CSLAYER17
  6
CONTINUOUS
 62
     6
 10
617.497854
 20
459.321503
 40
1.000000
 50
186.000011
 51
269.999999
  0
ARC
  8
CSLAYER17
  6
CONTINUOUS
 62
     6
 10
742.711538
 20
167.696124
 40
45.000000
 50
205.550536
 51
210.185653
  0
ARC
  8
CSLAYER17
  6
CONTINUOUS
 62
     6
 10
706.535345
 20
139.283404
 40
2.000000
 50
38.145734
 51
86.999897
  0
LINE
  8
CSLAYER17
  6
CONTINUOUS
 62
     6
 10
703.249598
 20
125.486990
 11
696.749598
 21
129.239767
  0
LINE
  8
CSLAYER17
  6
CONTINUOUS
 62
     6
 10
696.749598
 20
129.239767
 11
690.249598
 21
125.486990
  0
LINE
  8
CSLAYER17
  6
CONTINUOUS
 62
     6
 10
690.249598
 20
125.486990
 11
690.249598
 21
117.981436
  0
LINE
  8
CSLAYER17
  6
CONTINUOUS
 62
     6
 10
690.249598
 20
117.981436
 11
696.749598
 21
114.228660
  0
LINE
  8
CSLAYER17
  6
CONTINUOUS
 62
     6
 10
696.749598
 20
114.228660
 11
703.249598
 21
117.981436
  0
LINE
  8
CSLAYER17
  6
CONTINUOUS
 62
     6
 10
703.249598
 20
117.981436
 11
703.249598
 21
125.486990
  0
CIRCLE
  8
CSLAYER17
  6
CONTINUOUS
 62
     6
 10
696.749598
 20
121.734213
 40
7.700000
  0
CIRCLE
  8
CSLAYER17
  6
CONTINUOUS
 62
     6
 10
696.749598
 20
121.734213
 40
6.305000
  0
LINE
  8
CSLAYER17
  6
CONTINUOUS
 62
     6
 10
788.673479
 20
114.228660
 11
795.173479
 21
117.981436
  0
LINE
  8
CSLAYER17
  6
CONTINUOUS
 62
     6
 10
795.173479
 20
117.981436
 11
795.173479
 21
125.486990
  0
LINE
  8
CSLAYER17
  6
CONTINUOUS
 62
     6
 10
795.173479
 20
125.486990
 11
788.673479
 21
129.239767
  0
LINE
  8
CSLAYER17
  6
CONTINUOUS
 62
     6
 10
788.673479
 20
129.239767
 11
782.173479
 21
125.486990
  0
LINE
  8
CSLAYER17
  6
CONTINUOUS
 62
     6
 10
782.173479
 20
125.486990
 11
782.173479
 21
117.981436
  0
LINE
  8
CSLAYER17
  6
CONTINUOUS
 62
     6
 10
782.173479
 20
117.981436
 11
788.673479
 21
114.228660
  0
CIRCLE
  8
CSLAYER17
  6
CONTINUOUS
 62
     6
 10
788.673479
 20
121.734213
 40
7.700000
  0
CIRCLE
  8
CSLAYER17
  6
CONTINUOUS
 62
     6
 10
788.673479
 20
121.734213
 40
6.305000
  0
ARC
  8
CSLAYER17
  6
CONTINUOUS
 62
     6
 10
742.711538
 20
167.696124
 40
45.000000
 50
329.814347
 51
334.449464
  0
ARC
  8
CSLAYER17
  6
CONTINUOUS
 62
     6
 10
742.711538
 20
167.696124
 40
45.000000
 50
272.549866
 51
324.085656
  0
LINE
  8
CSLAYER17
  6
CENTER
 62
     3
 10
289.211538
 20
315.750000
 11
289.211538
 21
490.750000
  0
LINE
  8
CSLAYER17
  6
CENTER
 62
     3
 10
259.711538
 20
471.750000
 11
238.711538
 21
471.750000
  0
LINE
  8
CSLAYER17
  6
CENTER
 62
     3
 10
249.211538
 20
482.250000
 11
249.211538
 21
461.250000
  0
LINE
  8
CSLAYER17
  6
CENTER
 62
     3
 10
318.711538
 20
471.750000
 11
339.711538
 21
471.750000
  0
LINE
  8
CSLAYER17
  6
CENTER
 62
     3
 10
329.211538
 20
461.250000
 11
329.211538
 21
482.250000
  0
LINE
  8
CSLAYER17
  6
CENTER
 62
     3
 10
410.711538
 20
467.711941
 11
454.011538
 21
467.711941
  0
LINE
  8
CSLAYER17
  6
CENTER
 62
     3
 10
454.011538
 20
375.778060
 11
410.711538
 21
375.778060
  0
LINE
  8
CSLAYER17
  6
CONTINUOUS
 62
     6
 10
272.211538
 20
321.750000
 11
272.211538
 21
361.750000
  0
LINE
  8
CSLAYER17
  6
CONTINUOUS
 62
     6
 10
272.211538
 20
361.750000
 11
275.211538
 21
361.750000
  0
LINE
  8
CSLAYER17
  6
DASHED
 62
     6
 10
275.211538
 20
361.750000
 11
279.211538
 21
361.750000
  0
LINE
  8
CSLAYER17
  6
DASHED
 62
     6
 10
279.211538
 20
361.750000
 11
279.211538
 21
321.750000
  0
LINE
  8
CSLAYER17
  6
CONTINUOUS
 62
     6
 10
275.211538
 20
321.750000
 11
275.211538
 21
366.750000
  0
LINE
  8
CSLAYER17
  6
CONTINUOUS
 62
     6
 10
274.211538
 20
366.750000
 11
304.211538
 21
366.750000
  0
LINE
  8
CSLAYER17
  6
CONTINUOUS
 62
     6
 10
304.211538
 20
366.750000
 11
304.211538
 21
368.750000
  0
LINE
  8
CSLAYER17
  6
CONTINUOUS
 62
     6
 10
303.211538
 20
366.750000
 11
303.211538
 21
321.750000
  0
LINE
  8
CSLAYER17
  6
CONTINUOUS
 62
     6
 10
303.211538
 20
321.750000
 11
272.211538
 21
321.750000
  0
LINE
  8
CSLAYER17
  6
CONTINUOUS
 62
     6
 10
272.211538
 20
358.750000
 11
237.696341
 21
358.750000
  0
ARC
  8
CSLAYER17
  6
CONTINUOUS
 62
     6
 10
237.803432
 20
360.750000
 40
2.000000
 50
199.274131
 51
270.000000
  0
LINE
  8
CSLAYER17
  6
CONTINUOUS
 62
     6
 10
235.915532
 20
360.089824
 11
226.823638
 21
386.089824
  0
ARC
  8
CSLAYER17
  6
CONTINUOUS
 62
     6
 10
228.711538
 20
386.750000
 40
2.000000
 50
180.000000
 51
270.000000
  0
LINE
  8
CSLAYER17
  6
CONTINUOUS
 62
     6
 10
228.711538
 20
384.750000
 11
349.711538
 21
384.750000
  0
ARC
  8
CSLAYER17
  6
CONTINUOUS
 62
     6
 10
349.711538
 20
386.750000
 40
2.000000
 50
270.000000
 51
360.000000
  0
LINE
  8
CSLAYER17
  6
CONTINUOUS
 62
     6
 10
351.599439
 20
386.089824
 11
342.507545
 21
360.089824
  0
ARC
  8
CSLAYER17
  6
CONTINUOUS
 62
     6
 10
340.619645
 20
360.750000
 40
2.000000
 50
270.000000
 51
340.725869
  0
LINE
  8
CSLAYER17
  6
CONTINUOUS
 62
     6
 10
340.619645
 20
358.750000
 11
303.211538
 21
358.750000
  0
LINE
  8
CSLAYER17
  6
CONTINUOUS
 62
     6
 10
309.211538
 20
360.750000
 11
309.211538
 21
368.750000
  0
LINE
  8
CSLAYER17
  6
CONTINUOUS
 62
     6
 10
226.711538
 20
386.750000
 11
226.711538
 21
456.750000
  0
ARC
  8
CSLAYER17
  6
CONTINUOUS
 62
     6
 10
228.711538
 20
456.750000
 40
2.000000
 50
90.000000
 51
180.000000
  0
LINE
  8
CSLAYER17
  6
CONTINUOUS
 62
     6
 10
228.711538
 20
458.750000
 11
349.711538
 21
458.750000
  0
ARC
  8
CSLAYER17
  6
CONTINUOUS
 62
     6
 10
349.711538
 20
456.750000
 40
2.000000
 50
0.000000
 51
90.000000
  0
LINE
  8
CSLAYER17
  6
CONTINUOUS
 62
     6
 10
351.599439
 20
457.410176
 11
342.507545
 21
483.410176
  0
ARC
  8
CSLAYER17
  6
CONTINUOUS
 62
     6
 10
340.619645
 20
482.750000
 40
2.000000
 50
19.274131
 51
90.000000
  0
LINE
  8
CSLAYER17
  6
CONTINUOUS
 62
     6
 10
340.619645
 20
484.750000
 11
237.803432
 21
484.750000
  0
ARC
  8
CSLAYER17
  6
CONTINUOUS
 62
     6
 10
237.803432
 20
482.750000
 40
2.000000
 50
90.000000
 51
160.725869
  0
LINE
  8
CSLAYER17
  6
CONTINUOUS
 62
     6
 10
235.915532
 20
483.410176
 11
226.823638
 21
457.410176
  0
ARC
  8
CSLAYER17
  6
CONTINUOUS
 62
     6
 10
239.686111
 20
463.750000
 40
5.000000
 50
270.000000
 51
344.470000
  0
LINE
  8
CSLAYER17
  6
CONTINUOUS
 62
     6
 10
244.506111
 20
462.410000
 11
244.966111
 21
464.090000
  0
ARC
  8
CSLAYER17
  6
CONTINUOUS
 62
     6
 10
249.786111
 20
462.750000
 40
5.000000
 50
90.000000
 51
164.470000
  0
LINE
  8
CSLAYER17
  6
CONTINUOUS
 62
     6
 10
249.786111
 20
467.750000
 11
253.743649
 21
467.750000
  0
ARC
  8
CSLAYER17
  6
CONTINUOUS
 62
     6
 10
249.211538
 20
471.750000
 40
5.500000
 50
-46.658242
 51
244.435030
  0
ARC
  8
CSLAYER17
  6
CONTINUOUS
 62
     6
 10
329.211538
 20
471.750000
 40
5.500000
 50
-64.435030
 51
226.658242
  0
LINE
  8
CSLAYER17
  6
CONTINUOUS
 62
     6
 10
309.211538
 20
474.750000
 11
309.211538
 21
482.750000
  0
LINE
  8
CSLAYER17
  6
CONTINUOUS
 62
     6
 10
313.135913
 20
455.750000
 11
313.135913
 21
387.750000
  0
LINE
  8
CSLAYER17
  6
CONTINUOUS
 62
     6
 10
440.711538
 20
383.478060
 11
442.711538
 21
383.478060
  0
LINE
  8
CSLAYER17
  6
CONTINUOUS
 62
     6
 10
442.711538
 20
383.478060
 11
442.711538
 21
368.078060
  0
LINE
  8
CSLAYER17
  6
CONTINUOUS
 62
     6
 10
442.711538
 20
368.078060
 11
440.711538
 21
368.078060
  0
LINE
  8
CSLAYER17
  6
CONTINUOUS
 62
     6
 10
442.711538
 20
369.278060
 11
448.011538
 21
369.278060
  0
LINE
  8
CSLAYER17
  6
CONTINUOUS
 62
     6
 10
448.011538
 20
369.278060
 11
448.011538
 21
382.278060
  0
LINE
  8
CSLAYER17
  6
CONTINUOUS
 62
     6
 10
448.011538
 20
382.278060
 11
442.711538
 21
382.278060
  0
ARC
  8
CSLAYER17
  6
CONTINUOUS
 62
     6
 10
437.255985
 20
379.028060
 40
10.755553
 50
-17.587954
 51
17.587954
  0
ARC
  8
CSLAYER17
  6
CONTINUOUS
 62
     6
 10
437.255985
 20
372.528060
 40
10.755553
 50
-17.587954
 51
17.587954
  0
ARC
  8
CSLAYER17
  6
CONTINUOUS
 62
     6
 10
437.255985
 20
464.461941
 40
10.755553
 50
-17.587954
 51
17.587954
  0
LINE
  8
CSLAYER17
  6
CONTINUOUS
 62
     6
 10
448.011538
 20
461.211941
 11
448.011538
 21
474.211941
  0
LINE
  8
CSLAYER17
  6
CONTINUOUS
 62
     6
 10
448.011538
 20
474.211941
 11
442.711538
 21
474.211941
  0
LINE
  8
CSLAYER17
  6
CONTINUOUS
 62
     6
 10
442.711538
 20
475.411941
 11
442.711538
 21
460.011941
  0
LINE
  8
CSLAYER17
  6
CONTINUOUS
 62
     6
 10
442.711538
 20
460.011941
 11
440.711538
 21
460.011941
  0
LINE
  8
CSLAYER17
  6
CONTINUOUS
 62
     6
 10
442.711538
 20
461.211941
 11
448.011538
 21
461.211941
  0
ARC
  8
CSLAYER17
  6
CONTINUOUS
 62
     6
 10
437.255985
 20
470.961941
 40
10.755553
 50
-17.587954
 51
17.587954
  0
LINE
  8
CSLAYER17
  6
CONTINUOUS
 62
     6
 10
442.711538
 20
475.411941
 11
440.711538
 21
475.411941
  0
LINE
  8
CSLAYER17
  6
CONTINUOUS
 62
     6
 10
442.711538
 20
468.943941
 11
440.711538
 21
468.327941
  0
LINE
  8
CSLAYER17
  6
CONTINUOUS
 62
     6
 10
440.711538
 20
466.479941
 11
442.711538
 21
467.095941
  0
LINE
  8
CSLAYER17
  6
CONTINUOUS
 62
     6
 10
442.711538
 20
467.711941
 11
447.508762
 21
467.711941
  0
LINE
  8
CSLAYER17
  6
CONTINUOUS
 62
     6
 10
419.711538
 20
498.610000
 11
419.711538
 21
344.890000
  0
ARC
  8
CSLAYER17
  6
CONTINUOUS
 62
     6
 10
422.711538
 20
344.890000
 40
3.000000
 50
180.000000
 51
268.500000
  0
LINE
  8
CSLAYER17
  6
CONTINUOUS
 62
     6
 10
422.631538
 20
341.890000
 11
427.711538
 21
341.750000
  0
LINE
  8
CSLAYER17
  6
CONTINUOUS
 62
     6
 10
427.711538
 20
341.750000
 11
427.711538
 21
501.750000
  0
LINE
  8
CSLAYER17
  6
CONTINUOUS
 62
     6
 10
427.711538
 20
501.750000
 11
440.711538
 21
501.750000
  0
LINE
  8
CSLAYER17
  6
CONTINUOUS
 62
     6
 10
440.711538
 20
501.750000
 11
440.711538
 21
341.750000
  0
LINE
  8
CSLAYER17
  6
CONTINUOUS
 62
     6
 10
440.711538
 20
341.750000
 11
427.711538
 21
341.750000
  0
LINE
  8
CSLAYER17
  6
CONTINUOUS
 62
     6
 10
440.711538
 20
376.394060
 11
442.711538
 21
377.010060
  0
LINE
  8
CSLAYER17
  6
CONTINUOUS
 62
     6
 10
442.711538
 20
375.778060
 11
447.508762
 21
375.778060
  0
LINE
  8
CSLAYER17
  6
CONTINUOUS
 62
     6
 10
442.711538
 20
375.162060
 11
440.711538
 21
374.546060
  0
LINE
  8
CSLAYER17
  6
CONTINUOUS
 62
     6
 10
274.211538
 20
368.750000
 11
274.211538
 21
366.750000
  0
LINE
  8
CSLAYER17
  6
CONTINUOUS
 62
     6
 10
269.211538
 20
368.750000
 11
269.211538
 21
360.750000
  0
LINE
  8
CSLAYER17
  6
CONTINUOUS
 62
     6
 10
265.287164
 20
387.750000
 11
265.287164
 21
455.750000
  0
LINE
  8
CSLAYER17
  6
CONTINUOUS
 62
     6
 10
269.211538
 20
474.750000
 11
269.211538
 21
482.750000
  0
ARC
  8
CSLAYER17
  6
CONTINUOUS
 62
     6
 10
422.711538
 20
498.610000
 40
3.000000
 50
91.500000
 51
180.000000
  0
LINE
  8
CSLAYER17
  6
CONTINUOUS
 62
     6
 10
422.631538
 20
501.610000
 11
427.711538
 21
501.750000
  0
LINE
  8
CSLAYER17
  6
CONTINUOUS
 62
     6
 10
351.711538
 20
456.750000
 11
351.711538
 21
386.750000
  0
ARC
  8
CSLAYER17
  6
CONTINUOUS
 62
     6
 10
318.931538
 20
469.750000
 40
5.000000
 50
15.710000
 51
90.000000
  0
LINE
  8
CSLAYER17
  6
CONTINUOUS
 62
     6
 10
323.731538
 20
471.110000
 11
326.191538
 21
462.390000
  0
ARC
  8
CSLAYER17
  6
CONTINUOUS
 62
     6
 10
330.991538
 20
463.750000
 40
5.000000
 50
195.710000
 51
270.000000
  0
LINE
  8
CSLAYER17
  6
CONTINUOUS
 62
     6
 10
259.491538
 20
474.750000
 11
318.931538
 21
474.750000
  0
ARC
  8
CSLAYER17
  6
CONTINUOUS
 62
     6
 10
259.491538
 20
469.750000
 40
5.000000
 50
90.000000
 51
164.290000
  0
LINE
  8
CSLAYER17
  6
CONTINUOUS
 62
     6
 10
254.691538
 20
471.110000
 11
252.231538
 21
462.390000
  0
ARC
  8
CSLAYER17
  6
CONTINUOUS
 62
     6
 10
247.431538
 20
463.750000
 40
5.000000
 50
270.000000
 51
344.290000
  0
ARC
  8
CSLAYER17
  6
CONTINUOUS
 62
     6
 10
338.736966
 20
463.750000
 40
5.000000
 50
195.530000
 51
270.000000
  0
LINE
  8
CSLAYER17
  6
CONTINUOUS
 62
     6
 10
333.916966
 20
462.410000
 11
333.456966
 21
464.090000
  0
ARC
  8
CSLAYER17
  6
CONTINUOUS
 62
     6
 10
328.636966
 20
462.750000
 40
5.000000
 50
15.530000
 51
90.000000
  0
LINE
  8
CSLAYER17
  6
CONTINUOUS
 62
     6
 10
328.636966
 20
467.750000
 11
324.679428
 21
467.750000
  0
LINE
  8
CSLAYER17
  6
CENTER
 62
     3
 10
259.711538
 20
371.750000
 11
238.711538
 21
371.750000
  0
LINE
  8
CSLAYER17
  6
CENTER
 62
     3
 10
249.211538
 20
361.250000
 11
249.211538
 21
382.250000
  0
LINE
  8
CSLAYER17
  6
CENTER
 62
     3
 10
318.711538
 20
371.750000
 11
339.711538
 21
371.750000
  0
LINE
  8
CSLAYER17
  6
CENTER
 62
     3
 10
329.211538
 20
382.250000
 11
329.211538
 21
361.250000
  0
ARC
  8
CSLAYER17
  6
CONTINUOUS
 62
     6
 10
239.686111
 20
379.750000
 40
5.000000
 50
15.530000
 51
90.000000
  0
LINE
  8
CSLAYER17
  6
CONTINUOUS
 62
     6
 10
244.506111
 20
381.090000
 11
244.966111
 21
379.410000
  0
ARC
  8
CSLAYER17
  6
CONTINUOUS
 62
     6
 10
249.786111
 20
380.750000
 40
5.000000
 50
195.530000
 51
270.000000
  0
LINE
  8
CSLAYER17
  6
CONTINUOUS
 62
     6
 10
249.786111
 20
375.750000
 11
253.743649
 21
375.750000
  0
ARC
  8
CSLAYER17
  6
CONTINUOUS
 62
     6
 10
249.211538
 20
371.750000
 40
5.500000
 50
-244.435030
 51
46.658242
  0
ARC
  8
CSLAYER17
  6
CONTINUOUS
 62
     6
 10
329.211538
 20
371.750000
 40
5.500000
 50
-226.658242
 51
64.435030
  0
ARC
  8
CSLAYER17
  6
CONTINUOUS
 62
     6
 10
318.931538
 20
373.750000
 40
5.000000
 50
270.000000
 51
344.290000
  0
LINE
  8
CSLAYER17
  6
CONTINUOUS
 62
     6
 10
323.731538
 20
372.390000
 11
326.191538
 21
381.110000
  0
ARC
  8
CSLAYER17
  6
CONTINUOUS
 62
     6
 10
330.991538
 20
379.750000
 40
5.000000
 50
90.000000
 51
164.290000
  0
LINE
  8
CSLAYER17
  6
CONTINUOUS
 62
     6
 10
259.491538
 20
368.750000
 11
318.931538
 21
368.750000
  0
ARC
  8
CSLAYER17
  6
CONTINUOUS
 62
     6
 10
259.491538
 20
373.750000
 40
5.000000
 50
195.710000
 51
270.000000
  0
LINE
  8
CSLAYER17
  6
CONTINUOUS
 62
     6
 10
254.691538
 20
372.390000
 11
252.231538
 21
381.110000
  0
ARC
  8
CSLAYER17
  6
CONTINUOUS
 62
     6
 10
247.431538
 20
379.750000
 40
5.000000
 50
15.710000
 51
90.000000
  0
ARC
  8
CSLAYER17
  6
CONTINUOUS
 62
     6
 10
338.736966
 20
379.750000
 40
5.000000
 50
90.000000
 51
164.470000
  0
LINE
  8
CSLAYER17
  6
CONTINUOUS
 62
     6
 10
333.916966
 20
381.090000
 11
333.456966
 21
379.410000
  0
ARC
  8
CSLAYER17
  6
CONTINUOUS
 62
     6
 10
328.636966
 20
380.750000
 40
5.000000
 50
270.000000
 51
344.470000
  0
LINE
  8
CSLAYER17
  6
CONTINUOUS
 62
     6
 10
328.636966
 20
375.750000
 11
324.679428
 21
375.750000
  0
LINE
  8
CSLAYER17
  6
CONTINUOUS
 62
     6
 10
371.711538
 20
357.750000
 11
371.711538
 21
485.750000
  0
LINE
  8
CSLAYER17
  6
CONTINUOUS
 62
     6
 10
416.791538
 20
486.930000
 11
371.711538
 21
485.750000
  0
ARC
  8
CSLAYER17
  6
CONTINUOUS
 62
     6
 10
417.771538
 20
344.150000
 40
2.000000
 50
8.320000
 51
13.170000
  0
LINE
  8
CSLAYER17
  6
CONTINUOUS
 62
     6
 10
411.671538
 20
488.790000
 11
414.851538
 21
488.890000
  0
ARC
  8
CSLAYER17
  6
CONTINUOUS
 62
     6
 10
414.711538
 20
493.890000
 40
5.000000
 50
271.500000
 51
360.000000
  0
ARC
  8
CSLAYER17
  6
CONTINUOUS
 62
     6
 10
411.711538
 20
486.810000
 40
2.000000
 50
91.500000
 51
151.580000
  0
LINE
  8
CSLAYER17
  6
CONTINUOUS
 62
     6
 10
416.791538
 20
356.570000
 11
371.711538
 21
357.750000
  0
LINE
  8
CSLAYER17
  6
CONTINUOUS
 62
     6
 10
411.671538
 20
354.690000
 11
414.851538
 21
354.610000
  0
ARC
  8
CSLAYER17
  6
CONTINUOUS
 62
     6
 10
414.711538
 20
349.610000
 40
5.000000
 50
0.000000
 51
88.510000
  0
ARC
  8
CSLAYER17
  6
CONTINUOUS
 62
     6
 10
411.711538
 20
356.690000
 40
2.000000
 50
208.430000
 51
268.510000
  0
LINE
  8
CSLAYER17
  6
CONTINUOUS
 62
     6
 10
409.711538
 20
415.750000
 11
409.711538
 21
427.750000
  0
LINE
  8
CSLAYER17
  6
CONTINUOUS
 62
     6
 10
395.211538
 20
380.910000
 11
395.211538
 21
370.650000
  0
LINE
  8
CSLAYER17
  6
CONTINUOUS
 62
     6
 10
395.211538
 20
472.830000
 11
395.211538
 21
462.570000
  0
LINE
  8
CSLAYER17
  6
CONTINUOUS
 62
     6
 10
411.711538
 20
429.750000
 11
419.711538
 21
429.750000
  0
LINE
  8
CSLAYER17
  6
CONTINUOUS
 62
     6
 10
411.711538
 20
413.750000
 11
419.711538
 21
413.750000
  0
LINE
  8
CSLAYER17
  6
CONTINUOUS
 62
     6
 10
400.091538
 20
477.830000
 11
419.711538
 21
478.350000
  0
LINE
  8
CSLAYER17
  6
CONTINUOUS
 62
     6
 10
400.091538
 20
457.590000
 11
419.711538
 21
457.070000
  0
LINE
  8
CSLAYER17
  6
CONTINUOUS
 62
     6
 10
400.091538
 20
385.910000
 11
419.711538
 21
386.430000
  0
LINE
  8
CSLAYER17
  6
CONTINUOUS
 62
     6
 10
400.091538
 20
365.670000
 11
419.711538
 21
365.150000
  0
ARC
  8
CSLAYER17
  6
CONTINUOUS
 62
     6
 10
400.211538
 20
380.910000
 40
5.000000
 50
91.500000
 51
180.000000
  0
ARC
  8
CSLAYER17
  6
CONTINUOUS
 62
     6
 10
400.211538
 20
370.650000
 40
5.000000
 50
180.000000
 51
268.500000
  0
ARC
  8
CSLAYER17
  6
CONTINUOUS
 62
     6
 10
400.211538
 20
472.830000
 40
5.000000
 50
91.510000
 51
180.000000
  0
ARC
  8
CSLAYER17
  6
CONTINUOUS
 62
     6
 10
400.211538
 20
462.570000
 40
5.000000
 50
180.000000
 51
268.500000
  0
ARC
  8
CSLAYER17
  6
CONTINUOUS
 62
     6
 10
411.711538
 20
427.750000
 40
2.000000
 50
90.000000
 51
180.000000
  0
ARC
  8
CSLAYER17
  6
CONTINUOUS
 62
     6
 10
411.711538
 20
415.750000
 40
2.000000
 50
180.000000
 51
270.000000
  0
ARC
  8
CSLAYER17
  6
CONTINUOUS
 62
     6
 10
416.711538
 20
489.930000
 40
3.000000
 50
271.500000
 51
360.000000
  0
ARC
  8
CSLAYER17
  6
CONTINUOUS
 62
     6
 10
416.711538
 20
353.570000
 40
3.000000
 50
0.000000
 51
88.510000
  0
ARC
  8
CSLAYER17
  6
CONTINUOUS
 62
     6
 10
408.191538
 20
488.710000
 40
2.000000
 50
271.500000
 51
331.580000
  0
ARC
  8
CSLAYER17
  6
CONTINUOUS
 62
     6
 10
408.191538
 20
354.790000
 40
2.000000
 50
28.430000
 51
88.510000
  0
LINE
  8
CSLAYER17
  6
CONTINUOUS
 62
     6
 10
371.711538
 20
485.250000
 11
361.271461
 21
485.250000
  0
LINE
  8
CSLAYER17
  6
CONTINUOUS
 62
     6
 10
371.711538
 20
358.250000
 11
361.271461
 21
358.250000
  0
LINE
  8
CSLAYER17
  6
CONTINUOUS
 62
     7
 10
351.711538
 20
458.522609
 11
351.711538
 21
384.977391
  0
LINE
  8
CSLAYER17
  6
CONTINUOUS
 62
     7
 10
359.358851
 20
359.665257
 11
351.798929
 21
384.392648
  0
ARC
  8
CSLAYER17
  6
CONTINUOUS
 62
     7
 10
353.711538
 20
384.977391
 40
2.000000
 50
180.000000
 51
197.000000
  0
ARC
  8
CSLAYER17
  6
CONTINUOUS
 62
     7
 10
361.271461
 20
360.250000
 40
2.000000
 50
197.000000
 51
270.000000
  0
LINE
  8
CSLAYER17
  6
CONTINUOUS
 62
     7
 10
359.358851
 20
483.834743
 11
351.798929
 21
459.107352
  0
ARC
  8
CSLAYER17
  6
CONTINUOUS
 62
     7
 10
353.711538
 20
458.522609
 40
2.000000
 50
163.000000
 51
180.000000
  0
ARC
  8
CSLAYER17
  6
CONTINUOUS
 62
     7
 10
361.271461
 20
483.250000
 40
2.000000
 50
90.000000
 51
163.000000
  0
LINE
  8
CSLAYER17
  6
CENTER
 62
     3
 10
410.711538
 20
213.658095
 11
454.011538
 21
213.658095
  0
LINE
  8
CSLAYER17
  6
CENTER
 62
     3
 10
454.011538
 20
121.724214
 11
410.711538
 21
121.724214
  0
ARC
  8
CSLAYER17
  6
CONTINUOUS
 62
     6
 10
444.258762
 20
219.287260
 40
3.752777
 50
-30.000000
 51
15.446648
  0
LINE
  8
CSLAYER17
  6
CONTINUOUS
 62
     6
 10
448.011538
 20
219.963095
 11
448.011538
 21
207.353095
  0
LINE
  8
CSLAYER17
  6
CONTINUOUS
 62
     6
 10
448.011538
 20
207.353095
 11
447.508762
 21
206.152541
  0
LINE
  8
CSLAYER17
  6
CONTINUOUS
 62
     6
 10
447.508762
 20
206.152541
 11
442.711538
 21
206.152541
  0
LINE
  8
CSLAYER17
  6
CONTINUOUS
 62
     6
 10
442.711538
 20
205.958095
 11
442.711538
 21
221.358095
  0
LINE
  8
CSLAYER17
  6
CONTINUOUS
 62
     6
 10
442.711538
 20
221.358095
 11
440.711538
 21
221.358095
  0
LINE
  8
CSLAYER17
  6
CONTINUOUS
 62
     6
 10
442.711538
 20
221.163648
 11
447.508762
 21
221.163648
  0
LINE
  8
CSLAYER17
  6
CONTINUOUS
 62
     6
 10
447.508762
 20
221.163648
 11
448.011538
 21
219.963095
  0
LINE
  8
CSLAYER17
  6
CONTINUOUS
 62
     6
 10
447.508762
 20
217.410871
 11
442.711538
 21
217.410871
  0
LINE
  8
CSLAYER17
  6
CONTINUOUS
 62
     6
 10
442.711538
 20
214.890095
 11
440.711538
 21
214.274095
  0
LINE
  8
CSLAYER17
  6
CONTINUOUS
 62
     6
 10
440.711538
 20
212.426095
 11
442.711538
 21
213.042095
  0
LINE
  8
CSLAYER17
  6
CONTINUOUS
 62
     6
 10
442.711538
 20
209.905318
 11
447.508762
 21
209.905318
  0
ARC
  8
CSLAYER17
  6
CONTINUOUS
 62
     6
 10
444.258762
 20
208.028929
 40
3.752777
 50
-15.446648
 51
30.000000
  0
ARC
  8
CSLAYER17
  6
CONTINUOUS
 62
     6
 10
433.754597
 20
213.658095
 40
14.256942
 50
-15.261480
 51
15.261480
  0
LINE
  8
CSLAYER17
  6
CONTINUOUS
 62
     6
 10
442.711538
 20
205.958095
 11
440.711538
 21
205.958095
  0
LINE
  8
CSLAYER17
  6
CONTINUOUS
 62
     6
 10
427.711538
 20
247.696154
 11
440.711538
 21
247.696154
  0
LINE
  8
CSLAYER17
  6
CONTINUOUS
 62
     6
 10
440.711538
 20
247.696154
 11
440.711538
 21
87.696154
  0
LINE
  8
CSLAYER17
  6
CONTINUOUS
 62
     6
 10
440.711538
 20
87.696154
 11
427.711538
 21
87.696154
  0
LINE
  8
CSLAYER17
  6
CONTINUOUS
 62
     6
 10
447.508762
 20
117.971437
 11
442.711538
 21
117.971437
  0
LINE
  8
CSLAYER17
  6
CONTINUOUS
 62
     6
 10
442.711538
 20
121.108214
 11
440.711538
 21
120.492214
  0
LINE
  8
CSLAYER17
  6
CONTINUOUS
 62
     6
 10
440.711538
 20
122.340214
 11
442.711538
 21
122.956214
  0
LINE
  8
CSLAYER17
  6
CONTINUOUS
 62
     6
 10
442.711538
 20
125.476991
 11
447.508762
 21
125.476991
  0
ARC
  8
CSLAYER17
  6
CONTINUOUS
 62
     6
 10
433.754597
 20
121.724214
 40
14.256942
 50
-15.261480
 51
15.261480
  0
ARC
  8
CSLAYER17
  6
CONTINUOUS
 62
     6
 10
444.258762
 20
116.095049
 40
3.752777
 50
-15.446648
 51
30.000000
  0
LINE
  8
CSLAYER17
  6
CONTINUOUS
 62
     6
 10
448.011538
 20
115.419214
 11
447.508762
 21
114.218661
  0
LINE
  8
CSLAYER17
  6
CONTINUOUS
 62
     6
 10
447.508762
 20
114.218661
 11
442.711538
 21
114.218661
  0
LINE
  8
CSLAYER17
  6
CONTINUOUS
 62
     6
 10
442.711538
 20
114.024214
 11
442.711538
 21
129.424214
  0
LINE
  8
CSLAYER17
  6
CONTINUOUS
 62
     6
 10
442.711538
 20
129.424214
 11
440.711538
 21
129.424214
  0
LINE
  8
CSLAYER17
  6
CONTINUOUS
 62
     6
 10
442.711538
 20
129.229768
 11
447.508762
 21
129.229768
  0
LINE
  8
CSLAYER17
  6
CONTINUOUS
 62
     6
 10
447.508762
 20
129.229768
 11
448.011538
 21
128.029214
  0
LINE
  8
CSLAYER17
  6
CONTINUOUS
 62
     6
 10
448.011538
 20
128.029214
 11
448.011538
 21
115.419214
  0
LINE
  8
CSLAYER17
  6
CONTINUOUS
 62
     6
 10
442.711538
 20
114.024214
 11
440.711538
 21
114.024214
  0
ARC
  8
CSLAYER17
  6
CONTINUOUS
 62
     6
 10
444.258762
 20
127.353379
 40
3.752777
 50
-30.000000
 51
15.446648
  0
LINE
  8
CSLAYER17
  6
CONTINUOUS
 62
     3
 10
518.711569
 20
212.696154
 11
518.711569
 21
206.781832
  0
LINE
  8
CSLAYER17
  6
CONTINUOUS
 62
     3
 10
486.711569
 20
206.781832
 11
486.711569
 21
212.696154
  0
LINE
  8
CSLAYER17
  6
CONTINUOUS
 62
     3
 10
516.711569
 20
204.781832
 11
488.711569
 21
204.781832
  0
ARC
  8
CSLAYER17
  6
CONTINUOUS
 62
     3
 10
516.711569
 20
206.781832
 40
2.000000
 50
269.999999
 51
359.999995
  0
ARC
  8
CSLAYER17
  6
CONTINUOUS
 62
     3
 10
488.711569
 20
206.781832
 40
2.000000
 50
180.057309
 51
269.999999
  0
ARC
  8
CSLAYER17
  6
CONTINUOUS
 62
     6
 10
728.371000
 20
114.489991
 40
14.340522
 50
332.536225
 51
359.942687
  0
ARC
  8
CSLAYER17
  6
CONTINUOUS
 62
     6
 10
728.371000
 20
114.489991
 40
12.338538
 50
332.536225
 51
359.942687
  0
LINE
  8
CSLAYER17
  6
CONTINUOUS
 62
     6
 10
739.318998
 20
108.799638
 11
741.095381
 21
107.876328
  0
ARC
  8
CSLAYER17
  6
CONTINUOUS
 62
     6
 10
741.210052
 20
118.007004
 40
1.001006
 50
239.999981
 51
299.999981
  0
ARC
  8
CSLAYER17
  6
CONTINUOUS
 62
     6
 10
742.211058
 20
118.007003
 40
1.001006
 50
239.999981
 51
299.999981
  0
ARC
  8
CSLAYER17
  6
CONTINUOUS
 62
     6
 10
742.211057
 20
116.273210
 40
1.001006
 50
59.999981
 51
119.999981
  0
ARC
  8
CSLAYER17
  6
CONTINUOUS
 62
     6
 10
757.052076
 20
114.489991
 40
12.338538
 50
179.999963
 51
207.463892
  0
LINE
  8
CSLAYER17
  6
CONTINUOUS
 62
     6
 10
746.104094
 20
108.799607
 11
744.327711
 21
107.876328
  0
ARC
  8
CSLAYER17
  6
CONTINUOUS
 62
     6
 10
757.052076
 20
114.490037
 40
14.340522
 50
180.000020
 51
207.463892
  0
ARC
  8
CSLAYER17
  6
CONTINUOUS
 62
     6
 10
743.212066
 20
118.007004
 40
1.001006
 50
239.999981
 51
299.999981
  0
ARC
  8
CSLAYER17
  6
CONTINUOUS
 62
     6
 10
744.213072
 20
118.007003
 40
1.001006
 50
239.999981
 51
299.999981
  0
ARC
  8
CSLAYER17
  6
CONTINUOUS
 62
     6
 10
744.213071
 20
116.273210
 40
1.001006
 50
59.999981
 51
119.999981
  0
ARC
  8
CSLAYER17
  6
CONTINUOUS
 62
     6
 10
742.211029
 20
114.781749
 40
1.000999
 50
60.000345
 51
120.000345
  0
ARC
  8
CSLAYER17
  6
CONTINUOUS
 62
     6
 10
741.210030
 20
114.781743
 40
1.000999
 50
60.000345
 51
120.000345
  0
ARC
  8
CSLAYER17
  6
CONTINUOUS
 62
     6
 10
741.210020
 20
116.515524
 40
1.000999
 50
240.000345
 51
300.000345
  0
ARC
  8
CSLAYER17
  6
CONTINUOUS
 62
     6
 10
744.213043
 20
114.781749
 40
1.000999
 50
60.000345
 51
120.000345
  0
ARC
  8
CSLAYER17
  6
CONTINUOUS
 62
     6
 10
743.212044
 20
114.781743
 40
1.000999
 50
60.000345
 51
120.000345
  0
ARC
  8
CSLAYER17
  6
CONTINUOUS
 62
     6
 10
743.212034
 20
116.515524
 40
1.000999
 50
240.000345
 51
300.000345
  0
LINE
  8
CSLAYER17
  6
CONTINUOUS
 62
     6
 10
740.709532
 20
114.490037
 11
740.709532
 21
115.648637
  0
LINE
  8
CSLAYER17
  6
CONTINUOUS
 62
     6
 10
744.713545
 20
114.490037
 11
744.713545
 21
115.648637
  0
LINE
  8
CSLAYER17
  6
CONTINUOUS
 62
     6
 10
740.709538
 20
123.741754
 11
740.709547
 21
117.140107
  0
LINE
  8
CSLAYER17
  6
CONTINUOUS
 62
     6
 10
744.713536
 20
123.741754
 11
744.713545
 21
117.140107
  0
LINE
  8
CSLAYER17
  6
CONTINUOUS
 62
     6
 10
745.215903
 20
108.337967
 11
746.537054
 21
105.770056
  0
LINE
  8
CSLAYER17
  6
CONTINUOUS
 62
     6
 10
740.207190
 20
108.337983
 11
738.797054
 21
105.590056
  0
LINE
  8
CSLAYER17
  6
CONTINUOUS
 62
     6
 10
745.674257
 20
108.576198
 11
747.127054
 21
106.180056
  0
LINE
  8
CSLAYER17
  6
CONTINUOUS
 62
     6
 10
740.681729
 20
108.091332
 11
739.427054
 21
105.360056
  0
LINE
  8
CSLAYER17
  6
CONTINUOUS
 62
     6
 10
744.755584
 20
108.103555
 11
745.860442
 21
105.528403
  0
LINE
  8
CSLAYER17
  6
CONTINUOUS
 62
     6
 10
739.730104
 20
108.579671
 11
738.242845
 21
105.967749
  0
LINE
  8
CSLAYER17
  6
CONTINUOUS
 62
     6
 10
742.711538
 20
123.696185
 11
742.711560
 21
117.140106
  0
LINE
  8
CSLAYER17
  6
CONTINUOUS
 62
     6
 10
742.711539
 20
115.648631
 11
742.711515
 21
114.475646
  0
LINE
  8
CSLAYER17
  6
CONTINUOUS
 62
     6
 10
226.711538
 20
229.076154
 11
226.711538
 21
83.696154
  0
LINE
  8
CSLAYER17
  6
CONTINUOUS
 62
     6
 10
351.711538
 20
83.696154
 11
226.711538
 21
83.696154
  0
LINE
  8
CSLAYER17
  6
CONTINUOUS
 62
     6
 10
311.651538
 20
258.196154
 11
266.771538
 21
258.196154
  0
LINE
  8
CSLAYER17
  6
CONTINUOUS
 62
     6
 10
263.931538
 20
257.316154
 11
228.871538
 21
233.176154
  0
LINE
  8
CSLAYER17
  6
CONTINUOUS
 62
     6
 10
348.711538
 20
98.696154
 11
229.711538
 21
98.696154
  0
LINE
  8
CSLAYER17
  6
CONTINUOUS
 62
     6
 10
236.711538
 20
97.156154
 11
236.711538
 21
83.696154
  0
LINE
  8
CSLAYER17
  6
CONTINUOUS
 62
     6
 10
340.711538
 20
97.156154
 11
340.711538
 21
83.696154
  0
LINE
  8
CSLAYER17
  6
CONTINUOUS
 62
     6
 10
270.951538
 20
105.696154
 11
307.471538
 21
105.696154
  0
LINE
  8
CSLAYER17
  6
CONTINUOUS
 62
     6
 10
268.351538
 20
104.176154
 11
266.071538
 21
100.216154
  0
LINE
  8
CSLAYER17
  6
CONTINUOUS
 62
     6
 10
310.071538
 20
104.176154
 11
312.351538
 21
100.216154
  0
ARC
  8
CSLAYER17
  6
CONTINUOUS
 62
     6
 10
309.211538
 20
153.696154
 40
26.500000
 50
-90.000000
 51
9.480000
  0
ARC
  8
CSLAYER17
  6
CONTINUOUS
 62
     6
 10
269.211538
 20
153.696154
 40
26.500000
 50
170.530000
 51
270.000000
  0
LINE
  8
CSLAYER17
  6
CONTINUOUS
 62
     6
 10
335.351538
 20
158.056154
 11
326.691538
 21
209.956154
  0
LINE
  8
CSLAYER17
  6
CONTINUOUS
 62
     6
 10
251.731538
 20
209.956154
 11
243.071538
 21
158.056154
  0
LINE
  8
CSLAYER17
  6
CONTINUOUS
 62
     6
 10
309.211538
 20
127.196154
 11
269.211538
 21
127.196154
  0
ARC
  8
CSLAYER17
  6
CONTINUOUS
 62
     6
 10
231.711538
 20
229.076154
 40
5.000000
 50
124.540000
 51
180.000000
  0
ARC
  8
CSLAYER17
  6
CONTINUOUS
 62
     6
 10
266.771538
 20
253.196154
 40
5.000000
 50
90.000000
 51
124.540000
  0
ARC
  8
CSLAYER17
  6
CONTINUOUS
 62
     6
 10
311.631538
 20
253.196154
 40
5.000000
 50
88.970000
 51
90.000000
  0
LINE
  8
CSLAYER17
  6
CONTINUOUS
 62
     6
 10
309.211538
 20
105.136154
 11
309.211538
 21
98.696154
  0
LINE
  8
CSLAYER17
  6
CONTINUOUS
 62
     6
 10
269.211538
 20
105.136154
 11
269.211538
 21
98.696154
  0
LINE
  8
CSLAYER17
  6
CONTINUOUS
 62
     6
 10
351.711538
 20
83.696154
 11
351.711538
 21
229.076154
  0
ARC
  8
CSLAYER17
  6
CONTINUOUS
 62
     6
 10
307.471538
 20
102.696154
 40
3.000000
 50
29.750000
 51
90.000000
  0
ARC
  8
CSLAYER17
  6
CONTINUOUS
 62
     6
 10
270.951538
 20
102.696154
 40
3.000000
 50
90.000000
 51
150.260000
  0
ARC
  8
CSLAYER17
  6
CONTINUOUS
 62
     6
 10
309.211538
 20
153.696154
 40
24.000000
 50
-93.140000
 51
10.430000
  0
ARC
  8
CSLAYER17
  6
CONTINUOUS
 62
     6
 10
269.211538
 20
153.696154
 40
24.000000
 50
170.553373
 51
271.540000
  0
LINE
  8
CSLAYER17
  6
CONTINUOUS
 62
     6
 10
309.211538
 20
129.696154
 11
269.211538
 21
129.696154
  0
CIRCLE
  8
CSLAYER17
  6
CONTINUOUS
 62
     6
 10
289.211538
 20
203.696154
 40
33.500000
  0
ARC
  8
CSLAYER17
  6
CONTINUOUS
 62
     6
 10
289.211538
 20
203.696154
 40
38.000000
 50
9.480000
 51
170.530000
  0
ARC
  8
CSLAYER17
  6
CONTINUOUS
 62
     6
 10
289.211538
 20
203.696154
 40
35.500000
 50
-189.470000
 51
9.480000
  0
LINE
  8
CSLAYER17
  6
CONTINUOUS
 62
     6
 10
332.823747
 20
158.042435
 11
324.231538
 21
209.536154
  0
LINE
  8
CSLAYER17
  6
CONTINUOUS
 62
     6
 10
254.191538
 20
209.536154
 11
245.531538
 21
157.636154
  0
LINE
  8
CSLAYER17
  6
CONTINUOUS
 62
     6
 10
371.711538
 20
231.196154
 11
353.731538
 21
231.196154
  0
LINE
  8
CSLAYER17
  6
CONTINUOUS
 62
     6
 10
371.711538
 20
104.196154
 11
356.711538
 21
104.196154
  0
LINE
  8
CSLAYER17
  6
CONTINUOUS
 62
     6
 10
371.711538
 20
103.696154
 11
371.711538
 21
231.696154
  0
LINE
  8
CSLAYER17
  6
CONTINUOUS
 62
     6
 10
349.551538
 20
233.176154
 11
314.491538
 21
257.316154
  0
ARC
  8
CSLAYER17
  6
CONTINUOUS
 62
     6
 10
311.651538
 20
253.196154
 40
5.000000
 50
55.460000
 51
90.000000
  0
ARC
  8
CSLAYER17
  6
CONTINUOUS
 62
     6
 10
346.711538
 20
229.076154
 40
5.000000
 50
0.000000
 51
55.460000
  0
ARC
  8
CSLAYER17
  6
CONTINUOUS
 62
     6
 10
353.731538
 20
236.196154
 40
5.000000
 50
225.470000
 51
270.000000
  0
ARC
  8
CSLAYER17
  6
CONTINUOUS
 62
     6
 10
356.711538
 20
99.196154
 40
5.000000
 50
90.000000
 51
180.000000
  0
ARC
  8
CSLAYER17
  6
CONTINUOUS
 62
     6
 10
348.711538
 20
95.696154
 40
3.000000
 50
0.000000
 51
90.000000
  0
ARC
  8
CSLAYER17
  6
CONTINUOUS
 62
     6
 10
314.951538
 20
101.696154
 40
3.000000
 50
209.750000
 51
270.000000
  0
ARC
  8
CSLAYER17
  6
CONTINUOUS
 62
     6
 10
263.471538
 20
101.696154
 40
3.000000
 50
270.000000
 51
330.260000
  0
ARC
  8
CSLAYER17
  6
CONTINUOUS
 62
     6
 10
229.711538
 20
95.696154
 40
3.000000
 50
90.000000
 51
180.000000
  0
ARC
  8
CSLAYER17
  6
CONTINUOUS
 62
     6
 10
191.111538
 20
167.696154
 40
168.680000
 50
-17.810000
 51
17.820000
  0
LINE
  8
CSLAYER17
  6
CONTINUOUS
 62
     6
 10
279.211538
 20
199.696154
 11
279.211538
 21
207.696154
  0
LINE
  8
CSLAYER17
  6
CONTINUOUS
 62
     6
 10
272.211538
 20
199.696154
 11
272.211538
 21
207.696154
  0
LINE
  8
CSLAYER17
  6
CONTINUOUS
 62
     6
 10
272.211538
 20
199.696154
 11
279.211538
 21
199.696154
  0
LINE
  8
CSLAYER17
  6
CONTINUOUS
 62
     6
 10
272.211538
 20
207.696154
 11
279.211538
 21
207.696154
  0
ARC
  8
CSLAYER17
  6
CONTINUOUS
 62
     6
 10
289.211538
 20
203.696154
 40
14.000000
 50
-163.390000
 51
163.400000
  0
LINE
  8
CSLAYER17
  6
CONTINUOUS
 62
     6
 10
416.791538
 20
232.876154
 11
371.711538
 21
231.696154
  0
LINE
  8
CSLAYER17
  6
CONTINUOUS
 62
     6
 10
422.631538
 20
247.556154
 11
427.711538
 21
247.696154
  0
LINE
  8
CSLAYER17
  6
CONTINUOUS
 62
     6
 10
422.631538
 20
87.836154
 11
427.711538
 21
87.696154
  0
LINE
  8
CSLAYER17
  6
CONTINUOUS
 62
     6
 10
419.711538
 20
90.556154
 11
419.711538
 21
244.556154
  0
ARC
  8
CSLAYER17
  6
CONTINUOUS
 62
     6
 10
422.711538
 20
244.556154
 40
3.000000
 50
91.510000
 51
180.000000
  0
ARC
  8
CSLAYER17
  6
CONTINUOUS
 62
     6
 10
422.711538
 20
90.836154
 40
3.000000
 50
188.320000
 51
268.500000
  0
ARC
  8
CSLAYER17
  6
CONTINUOUS
 62
     6
 10
417.771538
 20
90.096154
 40
2.000000
 50
8.320000
 51
13.170000
  0
LINE
  8
CSLAYER17
  6
CONTINUOUS
 62
     6
 10
411.671538
 20
234.736154
 11
414.851538
 21
234.836154
  0
ARC
  8
CSLAYER17
  6
CONTINUOUS
 62
     6
 10
414.711538
 20
239.836154
 40
5.000000
 50
271.500000
 51
360.000000
  0
ARC
  8
CSLAYER17
  6
CONTINUOUS
 62
     6
 10
411.711538
 20
232.756154
 40
2.000000
 50
91.500000
 51
151.580000
  0
LINE
  8
CSLAYER17
  6
CONTINUOUS
 62
     6
 10
416.791538
 20
102.516154
 11
371.711538
 21
103.696154
  0
LINE
  8
CSLAYER17
  6
CONTINUOUS
 62
     6
 10
411.671538
 20
100.636154
 11
414.851538
 21
100.556154
  0
ARC
  8
CSLAYER17
  6
CONTINUOUS
 62
     6
 10
414.711538
 20
95.556154
 40
5.000000
 50
0.000000
 51
88.510000
  0
ARC
  8
CSLAYER17
  6
CONTINUOUS
 62
     6
 10
411.711538
 20
102.636154
 40
2.000000
 50
208.430000
 51
268.510000
  0
LINE
  8
CSLAYER17
  6
CONTINUOUS
 62
     6
 10
409.711538
 20
161.696154
 11
409.711538
 21
173.696154
  0
LINE
  8
CSLAYER17
  6
CONTINUOUS
 62
     6
 10
395.211538
 20
126.856154
 11
395.211538
 21
116.596154
  0
LINE
  8
CSLAYER17
  6
CONTINUOUS
 62
     6
 10
395.211538
 20
218.776154
 11
395.211538
 21
208.516154
  0
LINE
  8
CSLAYER17
  6
CONTINUOUS
 62
     6
 10
411.711538
 20
175.696154
 11
419.711538
 21
175.696154
  0
LINE
  8
CSLAYER17
  6
CONTINUOUS
 62
     6
 10
411.711538
 20
159.696154
 11
419.711538
 21
159.696154
  0
LINE
  8
CSLAYER17
  6
CONTINUOUS
 62
     6
 10
400.091538
 20
223.776154
 11
419.711538
 21
224.296154
  0
LINE
  8
CSLAYER17
  6
CONTINUOUS
 62
     6
 10
400.091538
 20
203.536154
 11
419.711538
 21
203.016154
  0
LINE
  8
CSLAYER17
  6
CONTINUOUS
 62
     6
 10
400.091538
 20
131.856154
 11
419.711538
 21
132.376154
  0
LINE
  8
CSLAYER17
  6
CONTINUOUS
 62
     6
 10
400.091538
 20
111.616154
 11
419.711538
 21
111.096154
  0
ARC
  8
CSLAYER17
  6
CONTINUOUS
 62
     6
 10
400.211538
 20
126.856154
 40
5.000000
 50
91.500000
 51
180.000000
  0
ARC
  8
CSLAYER17
  6
CONTINUOUS
 62
     6
 10
400.211538
 20
116.596154
 40
5.000000
 50
180.000000
 51
268.500000
  0
ARC
  8
CSLAYER17
  6
CONTINUOUS
 62
     6
 10
400.211538
 20
218.776154
 40
5.000000
 50
91.510000
 51
180.000000
  0
ARC
  8
CSLAYER17
  6
CONTINUOUS
 62
     6
 10
400.211538
 20
208.516154
 40
5.000000
 50
180.000000
 51
268.500000
  0
ARC
  8
CSLAYER17
  6
CONTINUOUS
 62
     6
 10
411.711538
 20
173.696154
 40
2.000000
 50
90.000000
 51
180.000000
  0
ARC
  8
CSLAYER17
  6
CONTINUOUS
 62
     6
 10
411.711538
 20
161.696154
 40
2.000000
 50
180.000000
 51
270.000000
  0
ARC
  8
CSLAYER17
  6
CONTINUOUS
 62
     6
 10
416.711538
 20
235.876154
 40
3.000000
 50
271.500000
 51
360.000000
  0
ARC
  8
CSLAYER17
  6
CONTINUOUS
 62
     6
 10
416.711538
 20
99.516154
 40
3.000000
 50
0.000000
 51
88.510000
  0
ARC
  8
CSLAYER17
  6
CONTINUOUS
 62
     6
 10
408.191538
 20
234.656154
 40
2.000000
 50
271.500000
 51
331.580000
  0
ARC
  8
CSLAYER17
  6
CONTINUOUS
 62
     6
 10
408.191538
 20
100.736154
 40
2.000000
 50
28.430000
 51
88.510000
  0
LINE
  8
CSLAYER17
  6
CENTER
 62
     3
 10
331.557467
 20
203.696154
 11
247.211538
 21
203.696154
  0
LINE
  8
CSLAYER17
  6
CENTER
 62
     3
 10
289.211538
 20
264.196154
 11
289.211538
 21
77.196154
  0
LINE
  8
CSLAYER17
  6
CENTER
 62
     3
 10
249.211538
 20
105.936154
 11
249.211538
 21
76.436154
  0
LINE
  8
CSLAYER17
  6
CENTER
 62
     3
 10
329.211538
 20
105.936154
 11
329.211538
 21
77.696154
  0
LINE
  8
CSLAYER17
  6
DASHED
 62
     6
 10
243.711538
 20
98.696154
 11
243.711538
 21
83.696154
  0
LINE
  8
CSLAYER17
  6
DASHED
 62
     6
 10
254.711538
 20
98.696154
 11
254.711538
 21
83.696154
  0
LINE
  8
CSLAYER17
  6
DASHED
 62
     6
 10
323.711538
 20
98.696154
 11
323.711538
 21
83.696154
  0
LINE
  8
CSLAYER17
  6
DASHED
 62
     6
 10
334.711538
 20
98.696154
 11
334.711538
 21
83.696154
  0
LINE
  8
CSLAYER17
  6
CONTINUOUS
 62
     6
 10
427.711538
 20
247.696154
 11
427.711538
 21
87.696154
  0
LINE
  8
CSLAYER17
  6
CONTINUOUS
 62
     6
 10
805.711538
 20
83.696154
 11
770.211538
 21
83.696154
  0
LINE
  8
CSLAYER17
  6
CONTINUOUS
 62
     6
 10
803.211538
 20
98.696154
 11
783.196103
 21
98.696154
  0
LINE
  8
CSLAYER17
  6
CONTINUOUS
 62
     6
 10
682.211538
 20
98.696154
 11
702.226974
 21
98.696154
  0
LINE
  8
CSLAYER17
  6
CONTINUOUS
 62
     6
 10
708.671538
 20
257.596154
 11
742.711538
 21
258.196154
  0
LINE
  8
CSLAYER17
  6
CONTINUOUS
 62
     6
 10
776.771538
 20
257.596154
 11
742.711538
 21
258.196154
  0
LINE
  8
CSLAYER17
  6
CONTINUOUS
 62
     6
 10
795.711538
 20
227.621107
 11
795.711538
 21
233.416154
  0
LINE
  8
CSLAYER17
  6
CONTINUOUS
 62
     6
 10
689.711538
 20
233.416154
 11
689.711538
 21
227.621107
  0
LINE
  8
CSLAYER17
  6
CONTINUOUS
 62
     6
 10
679.711538
 20
96.396154
 11
679.711538
 21
83.696154
  0
LINE
  8
CSLAYER17
  6
CONTINUOUS
 62
     6
 10
805.711538
 20
96.396154
 11
805.711538
 21
83.696154
  0
ARC
  8
CSLAYER17
  6
CONTINUOUS
 62
     6
 10
776.711538
 20
254.596154
 40
3.000000
 50
0.000000
 51
89.000000
  0
ARC
  8
CSLAYER17
  6
CONTINUOUS
 62
     6
 10
708.711538
 20
254.596154
 40
3.000000
 50
91.000000
 51
180.000000
  0
LINE
  8
CSLAYER17
  6
CONTINUOUS
 62
     6
 10
715.211538
 20
83.696154
 11
679.711538
 21
83.696154
  0
LINE
  8
CSLAYER17
  6
CONTINUOUS
 62
     6
 10
769.211538
 20
84.696154
 11
716.211538
 21
84.696154
  0
LINE
  8
CSLAYER17
  6
CONTINUOUS
 62
     6
 10
792.071538
 20
238.216154
 11
783.351538
 21
240.676154
  0
LINE
  8
CSLAYER17
  6
CONTINUOUS
 62
     6
 10
693.351538
 20
238.216154
 11
702.071538
 21
240.676154
  0
ARC
  8
CSLAYER17
  6
CONTINUOUS
 62
     6
 10
790.711538
 20
233.416154
 40
5.000000
 50
0.000000
 51
74.300000
  0
ARC
  8
CSLAYER17
  6
CONTINUOUS
 62
     6
 10
694.711538
 20
233.416154
 40
5.000000
 50
105.710000
 51
180.000000
  0
ARC
  8
CSLAYER17
  6
CONTINUOUS
 62
     6
 10
784.711538
 20
245.476154
 40
5.000000
 50
180.000000
 51
254.300000
  0
ARC
  8
CSLAYER17
  6
CONTINUOUS
 62
     6
 10
700.711538
 20
245.476154
 40
5.000000
 50
285.710000
 51
360.000000
  0
LINE
  8
CSLAYER17
  6
CONTINUOUS
 62
     6
 10
715.211538
 20
83.696154
 11
716.211538
 21
84.696154
  0
LINE
  8
CSLAYER17
  6
CONTINUOUS
 62
     6
 10
770.211538
 20
83.696154
 11
769.211538
 21
84.696154
  0
LINE
  8
CSLAYER17
  6
CONTINUOUS
 62
     6
 10
681.931538
 20
99.296154
 11
695.666354
 21
102.991049
  0
LINE
  8
CSLAYER17
  6
CONTINUOUS
 62
     6
 10
803.491538
 20
99.296154
 11
789.756723
 21
102.991049
  0
ARC
  8
CSLAYER17
  6
CONTINUOUS
 62
     6
 10
802.711538
 20
96.396154
 40
3.000000
 50
0.000000
 51
74.940000
  0
ARC
  8
CSLAYER17
  6
CONTINUOUS
 62
     6
 10
803.211538
 20
96.196154
 40
2.500000
 50
0.000000
 51
90.000000
  0
ARC
  8
CSLAYER17
  6
CONTINUOUS
 62
     6
 10
682.211538
 20
96.196154
 40
2.500000
 50
90.000000
 51
180.000000
  0
ARC
  8
CSLAYER17
  6
CONTINUOUS
 62
     6
 10
682.711538
 20
96.396154
 40
3.000000
 50
105.070000
 51
180.000000
  0
LINE
  8
CSLAYER17
  6
CENTER
 62
     3
 10
792.711538
 20
106.696154
 11
792.711538
 21
77.696154
  0
LINE
  8
CSLAYER17
  6
CENTER
 62
     3
 10
692.711538
 20
107.196154
 11
692.711538
 21
77.696154
  0
LINE
  8
CSLAYER17
  6
DASHED
 62
     6
 10
798.211538
 20
98.696154
 11
798.211538
 21
83.696154
  0
LINE
  8
CSLAYER17
  6
DASHED
 62
     6
 10
787.211538
 20
98.696154
 11
787.211538
 21
83.696154
  0
LINE
  8
CSLAYER17
  6
DASHED
 62
     6
 10
698.211538
 20
98.696154
 11
698.211538
 21
83.696154
  0
LINE
  8
CSLAYER17
  6
DASHED
 62
     6
 10
687.211538
 20
98.696154
 11
687.211538
 21
83.696154
  0
LINE
  8
CSLAYER17
  6
CONTINUOUS
 62
     6
 10
705.711538
 20
254.596154
 11
705.711538
 21
238.625696
  0
LINE
  8
CSLAYER17
  6
CONTINUOUS
 62
     6
 10
779.711538
 20
254.596154
 11
779.711538
 21
238.625696
  0
LINE
  8
CSLAYER17
  6
CONTINUOUS
 62
     6
 10
41.211538
 20
83.696154
 11
76.711538
 21
83.696154
  0
LINE
  8
CSLAYER17
  6
CONTINUOUS
 62
     6
 10
43.711538
 20
98.696154
 11
64.211538
 21
98.696154
  0
LINE
  8
CSLAYER17
  6
CONTINUOUS
 62
     6
 10
164.711538
 20
98.696154
 11
144.211538
 21
98.696154
  0
LINE
  8
CSLAYER17
  6
CONTINUOUS
 62
     6
 10
68.711538
 20
231.696154
 11
139.451538
 21
231.696154
  0
LINE
  8
CSLAYER17
  6
CONTINUOUS
 62
     6
 10
138.251538
 20
257.596154
 11
104.211538
 21
258.196154
  0
LINE
  8
CSLAYER17
  6
CONTINUOUS
 62
     6
 10
70.151538
 20
257.596154
 11
104.211538
 21
258.196154
  0
LINE
  8
CSLAYER17
  6
CONTINUOUS
 62
     6
 10
141.211538
 20
254.596154
 11
141.211538
 21
83.696154
  0
LINE
  8
CSLAYER17
  6
CONTINUOUS
 62
     6
 10
67.211538
 20
254.596154
 11
67.211538
 21
83.696154
  0
LINE
  8
CSLAYER17
  6
CONTINUOUS
 62
     6
 10
51.211538
 20
173.976154
 11
51.211538
 21
233.416154
  0
LINE
  8
CSLAYER17
  6
CONTINUOUS
 62
     6
 10
157.211538
 20
233.416154
 11
157.211538
 21
173.976154
  0
LINE
  8
CSLAYER17
  6
CONTINUOUS
 62
     6
 10
58.211538
 20
133.496154
 11
58.211538
 21
206.196154
  0
LINE
  8
CSLAYER17
  6
CONTINUOUS
 62
     6
 10
150.211538
 20
133.496154
 11
150.211538
 21
206.196154
  0
LINE
  8
CSLAYER17
  6
CONTINUOUS
 62
     6
 10
167.211538
 20
96.396154
 11
167.211538
 21
83.696154
  0
LINE
  8
CSLAYER17
  6
CONTINUOUS
 62
     6
 10
41.211538
 20
96.396154
 11
41.211538
 21
83.696154
  0
ARC
  8
CSLAYER17
  6
CONTINUOUS
 62
     6
 10
70.211538
 20
254.596154
 40
3.000000
 50
91.000000
 51
180.000000
  0
ARC
  8
CSLAYER17
  6
CONTINUOUS
 62
     6
 10
138.211538
 20
254.596154
 40
3.000000
 50
0.000000
 51
89.000000
  0
LINE
  8
CSLAYER17
  6
CONTINUOUS
 62
     6
 10
131.711538
 20
83.696154
 11
167.211538
 21
83.696154
  0
LINE
  8
CSLAYER17
  6
CONTINUOUS
 62
     6
 10
77.711538
 20
84.696154
 11
130.711538
 21
84.696154
  0
LINE
  8
CSLAYER17
  6
CONTINUOUS
 62
     6
 10
54.851538
 20
238.216154
 11
63.571538
 21
240.676154
  0
LINE
  8
CSLAYER17
  6
CONTINUOUS
 62
     6
 10
54.851538
 20
169.176154
 11
56.011538
 21
168.836154
  0
LINE
  8
CSLAYER17
  6
CONTINUOUS
 62
     6
 10
61.871538
 20
128.676154
 11
63.551538
 21
128.216154
  0
LINE
  8
CSLAYER17
  6
CONTINUOUS
 62
     6
 10
146.551538
 20
128.676154
 11
144.871538
 21
128.216154
  0
LINE
  8
CSLAYER17
  6
CONTINUOUS
 62
     6
 10
153.571538
 20
169.176154
 11
152.391538
 21
168.836154
  0
LINE
  8
CSLAYER17
  6
CONTINUOUS
 62
     6
 10
153.571538
 20
238.216154
 11
144.851538
 21
240.676154
  0
ARC
  8
CSLAYER17
  6
CONTINUOUS
 62
     6
 10
56.211538
 20
233.416154
 40
5.000000
 50
105.700000
 51
180.000000
  0
ARC
  8
CSLAYER17
  6
CONTINUOUS
 62
     6
 10
56.211538
 20
173.976154
 40
5.000000
 50
180.000000
 51
254.290000
  0
ARC
  8
CSLAYER17
  6
CONTINUOUS
 62
     6
 10
63.211538
 20
133.496154
 40
5.000000
 50
180.000000
 51
254.470000
  0
ARC
  8
CSLAYER17
  6
CONTINUOUS
 62
     6
 10
145.211538
 20
133.496154
 40
5.000000
 50
285.520000
 51
360.000000
  0
ARC
  8
CSLAYER17
  6
CONTINUOUS
 62
     6
 10
152.211538
 20
173.976154
 40
5.000000
 50
285.700000
 51
360.000000
  0
ARC
  8
CSLAYER17
  6
CONTINUOUS
 62
     6
 10
152.211538
 20
233.416154
 40
5.000000
 50
0.000000
 51
74.290000
  0
ARC
  8
CSLAYER17
  6
CONTINUOUS
 62
     6
 10
153.211538
 20
165.956154
 40
3.000000
 50
105.700000
 51
180.000000
  0
ARC
  8
CSLAYER17
  6
CONTINUOUS
 62
     6
 10
55.211538
 20
165.956154
 40
3.000000
 50
0.000000
 51
74.290000
  0
ARC
  8
CSLAYER17
  6
CONTINUOUS
 62
     6
 10
62.211538
 20
245.476154
 40
5.000000
 50
285.700000
 51
360.000000
  0
ARC
  8
CSLAYER17
  6
CONTINUOUS
 62
     6
 10
146.211538
 20
245.476154
 40
5.000000
 50
180.000000
 51
254.290000
  0
ARC
  8
CSLAYER17
  6
CONTINUOUS
 62
     6
 10
146.211538
 20
123.396154
 40
5.000000
 50
105.520000
 51
180.000000
  0
ARC
  8
CSLAYER17
  6
CONTINUOUS
 62
     6
 10
62.211538
 20
123.396154
 40
5.000000
 50
0.000000
 51
74.470000
  0
LINE
  8
CSLAYER17
  6
CONTINUOUS
 62
     6
 10
131.711538
 20
83.696154
 11
130.711538
 21
84.696154
  0
LINE
  8
CSLAYER17
  6
CONTINUOUS
 62
     6
 10
76.711538
 20
83.696154
 11
77.711538
 21
84.696154
  0
ARC
  8
CSLAYER17
  6
CONTINUOUS
 62
     6
 10
64.211538
 20
101.696154
 40
3.000000
 50
270.000000
 51
360.000000
  0
ARC
  8
CSLAYER17
  6
CONTINUOUS
 62
     6
 10
144.211538
 20
101.696154
 40
3.000000
 50
180.000000
 51
270.000000
  0
LINE
  8
CSLAYER17
  6
CONTINUOUS
 62
     6
 10
164.991538
 20
99.296154
 11
143.431538
 21
105.096154
  0
LINE
  8
CSLAYER17
  6
CONTINUOUS
 62
     6
 10
43.431538
 20
99.296154
 11
64.991538
 21
105.096154
  0
ARC
  8
CSLAYER17
  6
CONTINUOUS
 62
     6
 10
64.211538
 20
107.996154
 40
3.000000
 50
285.060000
 51
360.000000
  0
ARC
  8
CSLAYER17
  6
CONTINUOUS
 62
     6
 10
44.211538
 20
96.396154
 40
3.000000
 50
105.060000
 51
180.000000
  0
ARC
  8
CSLAYER17
  6
CONTINUOUS
 62
     6
 10
43.711538
 20
96.196154
 40
2.500000
 50
90.000000
 51
180.000000
  0
ARC
  8
CSLAYER17
  6
CONTINUOUS
 62
     6
 10
144.211538
 20
107.996154
 40
3.000000
 50
180.000000
 51
254.930000
  0
ARC
  8
CSLAYER17
  6
CONTINUOUS
 62
     6
 10
164.711538
 20
96.196154
 40
2.500000
 50
0.000000
 51
90.000000
  0
ARC
  8
CSLAYER17
  6
CONTINUOUS
 62
     6
 10
164.211538
 20
96.396154
 40
3.000000
 50
0.000000
 51
74.930000
  0
ARC
  8
CSLAYER17
  6
CONTINUOUS
 62
     6
 10
104.211538
 20
167.696154
 40
63.500000
 50
146.578961
 51
234.370000
  0
ARC
  8
CSLAYER17
  6
CONTINUOUS
 62
     6
 10
104.211538
 20
167.696154
 40
63.500000
 50
-54.360000
 51
20.270743
  0
LINE
  8
CSLAYER17
  6
CONTINUOUS
 62
     6
 10
204.211538
 20
189.696154
 11
204.211538
 21
217.696154
  0
LINE
  8
CSLAYER17
  6
CONTINUOUS
 62
     6
 10
159.211538
 20
217.696154
 11
204.211538
 21
217.696154
  0
LINE
  8
CSLAYER17
  6
CONTINUOUS
 62
     6
 10
159.211538
 20
189.696154
 11
204.211538
 21
189.696154
  0
LINE
  8
CSLAYER17
  6
CONTINUOUS
 62
     6
 10
159.211538
 20
218.696154
 11
159.211538
 21
188.696154
  0
LINE
  8
CSLAYER17
  6
CONTINUOUS
 62
     6
 10
157.211538
 20
188.696154
 11
159.211538
 21
188.696154
  0
ARC
  8
CSLAYER17
  6
CONTINUOUS
 62
     6
 10
168.211538
 20
203.696154
 40
4.000000
 50
90.000000
 51
270.000000
  0
LINE
  8
CSLAYER17
  6
CONTINUOUS
 62
     6
 10
168.211538
 20
207.696154
 11
204.211538
 21
207.696154
  0
LINE
  8
CSLAYER17
  6
CONTINUOUS
 62
     6
 10
168.211538
 20
199.696154
 11
204.211538
 21
199.696154
  0
LINE
  8
CSLAYER17
  6
CONTINUOUS
 62
     6
 10
157.211538
 20
218.696154
 11
159.211538
 21
218.696154
  0
ARC
  8
CSLAYER17
  6
CONTINUOUS
 62
     6
 10
58.251538
 20
121.736154
 40
10.000000
 50
154.110000
 51
295.900000
  0
ARC
  8
CSLAYER17
  6
CONTINUOUS
 62
     6
 10
40.251538
 20
130.476154
 40
10.000000
 50
-25.890000
 51
30.210000
  0
ARC
  8
CSLAYER17
  6
CONTINUOUS
 62
     6
 10
66.991538
 20
103.736154
 40
10.000000
 50
88.690000
 51
115.900000
  0
ARC
  8
CSLAYER17
  6
CONTINUOUS
 62
     6
 10
51.711538
 20
167.696154
 40
14.500000
 50
140.930000
 51
219.080000
  0
ARC
  8
CSLAYER17
  6
CONTINUOUS
 62
     6
 10
38.131538
 20
178.716154
 40
3.000000
 50
320.930000
 51
350.530000
  0
ARC
  8
CSLAYER17
  6
CONTINUOUS
 62
     6
 10
38.131538
 20
156.656154
 40
3.000000
 50
9.480000
 51
39.080000
  0
ARC
  8
CSLAYER17
  6
CONTINUOUS
 62
     6
 10
150.171538
 20
121.736154
 40
10.000000
 50
-115.890000
 51
25.900000
  0
ARC
  8
CSLAYER17
  6
CONTINUOUS
 62
     6
 10
168.171538
 20
130.476154
 40
10.000000
 50
149.800000
 51
205.900000
  0
ARC
  8
CSLAYER17
  6
CONTINUOUS
 62
     6
 10
141.451538
 20
103.736154
 40
10.000000
 50
64.110000
 51
91.320000
  0
ARC
  8
CSLAYER17
  6
CONTINUOUS
 62
     6
 10
156.711538
 20
167.696154
 40
14.500000
 50
-39.070000
 51
39.080000
  0
ARC
  8
CSLAYER17
  6
CONTINUOUS
 62
     6
 10
170.291538
 20
178.716154
 40
3.000000
 50
189.480000
 51
219.080000
  0
ARC
  8
CSLAYER17
  6
CONTINUOUS
 62
     6
 10
170.291538
 20
156.656154
 40
3.000000
 50
140.930000
 51
170.530000
  0
ARC
  8
CSLAYER17
  6
CONTINUOUS
 62
     6
 10
104.211538
 20
167.696154
 40
80.000000
 50
153.256316
 51
233.980000
  0
ARC
  8
CSLAYER17
  6
CONTINUOUS
 62
     6
 10
104.211538
 20
167.696154
 40
64.000000
 50
145.906609
 51
234.690000
  0
ARC
  8
CSLAYER17
  6
CONTINUOUS
 62
     6
 10
104.211538
 20
167.696154
 40
64.000000
 50
-54.680000
 51
20.105510
  0
ARC
  8
CSLAYER17
  6
CONTINUOUS
 62
     6
 10
104.211538
 20
167.696154
 40
80.000000
 50
-53.970000
 51
15.962014
  0
ARC
  8
CSLAYER17
  6
CONTINUOUS
 62
     6
 10
104.211538
 20
167.696154
 40
80.000000
 50
38.682187
 51
48.510000
  0
ARC
  8
CSLAYER17
  6
CONTINUOUS
 62
     6
 10
104.211538
 20
167.696154
 40
80.000000
 50
131.500000
 51
153.256316
  0
LINE
  8
CSLAYER17
  6
CENTER
 62
     3
 10
104.211538
 20
77.696154
 11
104.211538
 21
264.196154
  0
LINE
  8
CSLAYER17
  6
CENTER
 62
     3
 10
210.491538
 20
203.696154
 11
41.211538
 21
203.696154
  0
LINE
  8
CSLAYER17
  6
CENTER
 62
     3
 10
54.211538
 20
106.696154
 11
54.211538
 21
77.696154
  0
LINE
  8
CSLAYER17
  6
CENTER
 62
     3
 10
154.211538
 20
107.196154
 11
154.211538
 21
77.696154
  0
LINE
  8
CSLAYER17
  6
CENTER
 62
     3
 10
18.211538
 20
167.696154
 11
190.211538
 21
167.696154
  0
LINE
  8
CSLAYER17
  6
DASHED
 62
     6
 10
48.711538
 20
98.696154
 11
48.711538
 21
83.696154
  0
LINE
  8
CSLAYER17
  6
DASHED
 62
     6
 10
59.711538
 20
98.696154
 11
59.711538
 21
83.696154
  0
LINE
  8
CSLAYER17
  6
DASHED
 62
     6
 10
148.711538
 20
98.696154
 11
148.711538
 21
83.696154
  0
LINE
  8
CSLAYER17
  6
DASHED
 62
     6
 10
159.711538
 20
98.696154
 11
159.711538
 21
83.696154
  0
ENDSEC
  0
EOF
