  0
SECTION
  2
HEADER
  9
$ACADVER
  1
AC1006
  9
$INSBASE
 10
0.000000
 20
0.000000
 30
0.0
  9
$EXTMIN
 10
0.000000
 20
0.000000
  9
$EXTMAX
 10
594.000000
 20
420.000000
  9
$LIMMIN
 10
0.000000
 20
0.000000
  9
$LIMMAX
 10
594.000000
 20
420.000000
  9
$VIEWCTR
 10
297.000000
 20
210.000000
  9
$VIEWSIZE
 40
420.000000
  9
$SNAPMODE
 70
     0
  9
$SNAPUNIT
 10
1.0
 20
1.0
  9
$SNAPBASE
 10
0.0
 20
0.0
  9
$SNAPANG
 50
0.0
  9
$SNAPSTYLE
 70
     0
  9
$SNAPISOPAIR
 70
     0
  9
$GRIDMODE
 70
     0
  9
$GRIDUNIT
 10
0.0
 20
0.0
  9
$ORTHOMODE
 70
     0
  9
$REGENMODE
 70
     1
  9
$FILLMODE
 70
     1
  9
$QTEXTMODE
 70
     0
  9
$DRAGMODE
 70
     2
  9
$LTSCALE
 40
15.000000
  9
$OSMODE
 70
     0
  9
$ATTMODE
 70
     1
  9
$TEXTSIZE
 40
0.2
  9
$TRACEWID
 40
0.05
  9
$TEXTSTYLE
  7
STANDARD
  9
$CLAYER
  8
CSLAYER1
  9
$CELTYPE
  6
BYLAYER
  9
$CECOLOR
 62
   256
  9
$DIMSCALE
 40
1.0
  9
$DIMASZ
 40
0.18
  9
$DIMEXO
 40
0.0625
  9
$DIMDLI
 40
0.38
  9
$DIMRND
 40
0.0
  9
$DIMDLE
 40
0.0
  9
$DIMEXE
 40
0.18
  9
$DIMTP
 40
0.0
  9
$DIMTM
 40
0.0
  9
$DIMTXT
 40
0.18
  9
$DIMCEN
 40
0.09
  9
$DIMTSZ
 40
0.0
  9
$DIMTOL
 70
     0
  9
$DIMLIM
 70
     0
  9
$DIMTIH
 70
     1
  9
$DIMTOH
 70
     1
  9
$DIMSE1
 70
     0
  9
$DIMSE2
 70
     0
  9
$DIMTAD
 70
     0
  9
$DIMZIN
 70
     0
  9
$DIMBLK
  1

  9
$LUNITS
 70
     2
  9
$LUPREC
 70
     4
  9
$AXISMODE
 70
     0
  9
$AXISUNIT
 10
0.0
 20
0.0
  9
$SKETCHINC
 40
0.1
  9
$FILLETRAD
 40
0.0
  9
$AUNITS
 70
     0
  9
$AUPREC
 70
     0
  9
$MENU
  1
ACAD
  9
$ELEVATION
 40
0.0
  9
$THICKNESS
 40
0.0
  9
$VIEWDIR
 10
0.0
 20
0.0
 30
1.0
  9
$LIMCHECK
 70
     0
  9
$BLIPMODE
 70
     1
  9
$CHAMFERA
 40
0.0
  9
$CHAMFERB
 40
0.0
  9
$FASTZOOM
 70
     1
  9
$SKPOLY
 70
     0
  9
$TDCREATE
 40
0.000000
  9
$TDUPDATE
 40
0.000000
  9
$TDINDWG
 40
0.0
  9
$TDUSRTIMER
 40
0.0
  9
$USRTIMER
 70
     1
  9
$ANGBASE
 50
0.0
  9
$ANGDIR
 70
     0
  9
$PDMODE
 70
     0
  9
$PDSIZE
 40
0.0
  9
$PLINEWID
 40
0.0
  9
$COORDS
 70
     0
  9
$USERI1
 70
     0
  9
$USERI2
 70
     0
  9
$USERI3
 70
     0
  9
$USERI4
 70
     0
  9
$USERI5
 70
     0
  9
$USERR1
 40
0.0
  9
$USERR2
 40
0.0
  9
$USERR3
 40
0.0
  9
$USERR4
 40
0.0
  9
$USERR5
 40
0.0
  0
ENDSEC
  0
SECTION
  2
TABLES
  0
TABLE
  2
LTYPE
 70
     9
  0
LTYPE
  2
CONTINUOUS
 70
    64
  3
Solid line
 72
    65
 73
     0
 40
0.0
  0
LTYPE
  2
DASHED
 70
    64
  3
__ __ __ __ __ __ __ __ __ __ __ __ __ __ __
 72
    65
 73
     2
 40
0.75
 49
0.5
 49
-0.25
  0
LTYPE
  2
HIDDEN
 70
    64
  3
_ _ _ _ _ _ _ _ _ _ _ _ _ _ _ _ _ _ _ _ _ _ _
 72
    65
 73
     2
 40
0.375
 49
0.25
 49
-0.125
  0
LTYPE
  2
DOT
 70
    64
  3
...............................................
 72
    65
 73
     2
 40
0.25
 49
0.0
 49
-0.25
  0
LTYPE
  2
DASHDOT
 70
    64
  3
__ . __ . __ . __ . __ . __ . __ . __ . __ . __
 72
    65
 73
     4
 40
1.0
 49
0.5
 49
-0.25
 49
0.0
 49
-0.25
  0
LTYPE
  2
DIVIDE
 70
    64
  3
__ . . __ . . __ . . __ . . __ . . __ . . __
 72
    65
 73
     6
 40
1.25
 49
0.5
 49
-0.25
 49
0.0
 49
-0.25
 49
0.0
 49
-0.25
  0
LTYPE
  2
CENTER
 70
    64
  3
____ _ ____ _ ____ _ ____ _ ____ _ ____ _ ____ 
 72
    65
 73
     4
 40
2.0
 49
1.25
 49
-0.25
 49
0.25
 49
-0.25
  0
LTYPE
  2
PHANTOM
 70
    64
  3
______  __  __  ______  __  __  ______  __  __ 
 72
    65
 73
     6
 40
2.5
 49
1.25
 49
-0.25
 49
0.25
 49
-0.25
 49
0.25
 49
-0.25
  0
LTYPE
  2
BORDER
 70
    64
  3
__ __ . __ __ . __ __ . __ __ . __ __ . __ __ .
 72
    65
 73
     6
 40
1.75
 49
0.5
 49
-0.25
 49
0.5
 49
-0.25
 49
0.0
 49
-0.25
  0
ENDTAB
  0
TABLE
  2
LAYER
 70
    16
  0
LAYER
  2
CSLAYER1
 70
    64
 62
     7
  6
CONTINUOUS
  0
LAYER
  2
CSLAYER2
 70
    64
 62
     7
  6
CONTINUOUS
  0
LAYER
  2
CSLAYER3
 70
    64
 62
     7
  6
CONTINUOUS
  0
LAYER
  2
CSLAYER4
 70
    64
 62
     7
  6
CONTINUOUS
  0
LAYER
  2
CSLAYER5
 70
    64
 62
     7
  6
CONTINUOUS
  0
LAYER
  2
CSLAYER6
 70
    64
 62
     7
  6
CONTINUOUS
  0
LAYER
  2
CSLAYER7
 70
    64
 62
     7
  6
CONTINUOUS
  0
LAYER
  2
CSLAYER8
 70
    64
 62
     7
  6
CONTINUOUS
  0
LAYER
  2
CSLAYER9
 70
    64
 62
     7
  6
CONTINUOUS
  0
LAYER
  2
CSLAYER10
 70
    64
 62
     7
  6
CONTINUOUS
  0
LAYER
  2
CSLAYER11
 70
    64
 62
     7
  6
CONTINUOUS
  0
LAYER
  2
CSLAYER12
 70
    64
 62
     7
  6
CONTINUOUS
  0
LAYER
  2
CSLAYER13
 70
    64
 62
     7
  6
CONTINUOUS
  0
LAYER
  2
CSLAYER14
 70
    64
 62
     7
  6
CONTINUOUS
  0
LAYER
  2
CSLAYER15
 70
    64
 62
     7
  6
CONTINUOUS
  0
LAYER
  2
CSLAYER16
 70
    64
 62
     7
  6
CONTINUOUS
  0
ENDTAB
  0
TABLE
  2
STYLE
 70
     1
  0
STYLE
  2
JX_FONT
 70
     0
 40
1.0
 41
1.0
 50
0.0
 71
     0
 42
1.0
  3
monotxt
  4
bigfont
  0
ENDTAB
  0
TABLE
  2
VIEW
 70
     0
  0
ENDTAB
  0
ENDSEC
  0
SECTION
  2
BLOCKS
  0
ENDSEC
  0
SECTION
  2
ENTITIES
  0
LINE
  8
CSLAYER1
  6
CENTER
 62
     3
 10
73.037163
 20
138.934517
 11
73.037163
 21
267.159123
  0
ARC
  8
CSLAYER1
  6
CENTER
 62
     3
 10
73.037163
 20
211.159123
 40
36.500000
 50
45.074661
 51
74.925352
  0
LINE
  8
CSLAYER1
  6
CENTER
 62
     3
 10
86.537154
 20
234.541794
 11
96.037154
 21
250.996277
  0
LINE
  8
CSLAYER1
  6
CENTER
 62
     3
 10
106.037163
 20
253.659123
 11
125.037163
 21
253.659123
  0
LINE
  8
CSLAYER1
  6
CENTER
 62
     3
 10
115.537163
 20
244.159123
 11
115.537163
 21
263.159123
  0
LINE
  8
CSLAYER1
  6
CENTER
 62
     3
 10
129.037163
 20
211.159123
 11
17.037163
 21
211.159123
  0
ARC
  8
CSLAYER1
  6
CENTER
 62
     3
 10
73.037163
 20
211.159123
 40
36.500000
 50
165.074661
 51
194.925352
  0
LINE
  8
CSLAYER1
  6
CENTER
 62
     3
 10
30.537163
 20
178.159123
 11
30.537163
 21
159.159123
  0
LINE
  8
CSLAYER1
  6
CENTER
 62
     3
 10
40.037163
 20
168.659123
 11
21.037163
 21
168.659123
  0
ARC
  8
CSLAYER1
  6
CENTER
 62
     3
 10
73.037163
 20
211.159123
 40
36.500000
 50
285.074648
 51
314.925339
  0
ARC
  8
CSLAYER1
  6
CENTER
 62
     3
 10
73.037122
 20
211.159164
 40
23.000000
 50
323.666694
 51
352.333373
  0
LINE
  8
CSLAYER1
  6
CENTER
 62
     3
 10
88.724023
 20
204.821245
 11
100.345381
 21
200.125911
  0
LINE
  8
CSLAYER1
  6
CENTER
 62
     3
 10
83.297624
 20
191.861966
 11
96.787604
 21
166.491003
  0
LINE
  8
CSLAYER1
  6
CENTER
 62
     3
 10
106.037163
 20
168.659123
 11
125.037163
 21
168.659123
  0
LINE
  8
CSLAYER1
  6
CENTER
 62
     3
 10
115.537163
 20
178.159123
 11
115.537163
 21
159.159123
  0
LINE
  8
CSLAYER1
  6
CENTER
 62
     3
 10
151.761012
 20
185.553651
 11
168.659648
 21
185.553651
  0
LINE
  8
CSLAYER1
  6
CENTER
 62
     3
 10
175.078814
 20
179.549210
 11
162.113115
 21
179.549208
  0
LINE
  8
CSLAYER1
  6
CENTER
 62
     3
 10
160.385661
 20
181.680068
 11
160.385661
 21
193.910096
  0
LINE
  8
CSLAYER1
  6
CENTER
 62
     3
 10
205.885661
 20
170.559123
 11
205.885661
 21
145.501308
  0
LINE
  8
CSLAYER1
  6
CENTER
 62
     3
 10
243.885661
 20
163.459111
 11
243.885661
 21
174.159123
  0
LINE
  8
CSLAYER1
  6
CENTER
 62
     3
 10
248.885661
 20
179.159123
 11
248.885661
 21
243.159123
  0
LINE
  8
CSLAYER1
  6
CENTER
 62
     3
 10
248.885661
 20
292.159108
 11
248.885661
 21
314.765919
  0
LINE
  8
CSLAYER1
  6
CENTER
 62
     3
 10
175.078805
 20
242.769039
 11
160.627039
 21
242.769036
  0
LINE
  8
CSLAYER1
  6
CENTER
 62
     3
 10
135.885661
 20
211.159123
 11
461.885631
 21
211.159123
  0
LINE
  8
CSLAYER1
  6
CENTER
 62
     3
 10
466.974485
 20
211.159123
 11
578.974485
 21
211.159123
  0
LINE
  8
CSLAYER1
  6
CENTER
 62
     3
 10
565.474485
 20
244.159123
 11
565.474485
 21
263.159123
  0
LINE
  8
CSLAYER1
  6
CENTER
 62
     3
 10
574.974485
 20
253.659123
 11
555.974485
 21
253.659123
  0
LINE
  8
CSLAYER1
  6
CENTER
 62
     3
 10
536.474485
 20
248.159145
 11
509.474485
 21
248.159145
  0
LINE
  8
CSLAYER1
  6
CENTER
 62
     3
 10
489.974485
 20
253.659123
 11
470.974485
 21
253.659123
  0
LINE
  8
CSLAYER1
  6
CENTER
 62
     3
 10
480.474485
 20
263.159123
 11
480.474485
 21
244.159123
  0
LINE
  8
CSLAYER1
  6
CENTER
 62
     3
 10
522.974485
 20
267.159123
 11
522.974485
 21
155.159123
  0
LINE
  8
CSLAYER1
  6
CENTER
 62
     3
 10
536.474485
 20
174.159100
 11
509.474485
 21
174.159100
  0
LINE
  8
CSLAYER1
  6
CENTER
 62
     3
 10
489.974485
 20
168.659123
 11
470.974485
 21
168.659123
  0
LINE
  8
CSLAYER1
  6
CENTER
 62
     3
 10
480.474485
 20
178.159123
 11
480.474485
 21
159.159123
  0
LINE
  8
CSLAYER1
  6
CENTER
 62
     3
 10
555.974485
 20
168.659123
 11
574.974485
 21
168.659123
  0
LINE
  8
CSLAYER1
  6
CENTER
 62
     3
 10
565.474485
 20
159.159123
 11
565.474485
 21
178.159123
  0
LINE
  8
CSLAYER1
  6
CENTER
 62
     3
 10
461.885631
 20
76.159123
 11
135.885661
 21
76.159123
  0
LINE
  8
CSLAYER1
  6
CENTER
 62
     3
 10
151.761012
 20
89.069650
 11
168.659648
 21
89.069650
  0
LINE
  8
CSLAYER1
  6
CENTER
 62
     3
 10
175.078827
 20
94.409122
 11
161.598527
 21
94.409124
  0
LINE
  8
CSLAYER1
  6
CENTER
 62
     3
 10
160.385661
 20
92.200551
 11
160.385661
 21
80.713205
  0
LINE
  8
CSLAYER1
  6
CENTER
 62
     3
 10
160.627053
 20
39.659122
 11
175.078819
 21
39.659124
  0
LINE
  8
CSLAYER1
  6
CENTER
 62
     3
 10
205.885661
 20
69.159123
 11
205.885661
 21
83.159123
  0
LINE
  8
CSLAYER1
  6
CENTER
 62
     3
 10
237.885661
 20
85.909085
 11
237.885661
 21
66.409085
  0
LINE
  8
CSLAYER1
  6
CENTER
 62
     3
 10
238.135668
 20
61.159123
 11
249.635668
 21
61.159123
  0
LINE
  8
CSLAYER1
  6
CENTER
 62
     3
 10
243.885661
 20
55.159123
 11
243.885661
 21
97.159123
  0
LINE
  8
CSLAYER1
  6
CENTER
 62
     3
 10
238.135668
 20
91.159123
 11
249.635668
 21
91.159123
  0
LINE
  8
CSLAYER1
  6
CENTER
 62
     3
 10
248.885661
 20
44.765919
 11
248.885661
 21
22.159108
  0
LINE
  8
CSLAYER1
  6
CENTER
 62
     3
 10
248.885661
 20
107.552296
 11
248.885661
 21
130.159108
  0
LINE
  8
CSLAYER1
  6
CENTER
 62
     3
 10
400.885631
 20
118.659123
 11
419.885631
 21
118.659123
  0
LINE
  8
CSLAYER1
  6
CENTER
 62
     3
 10
419.885661
 20
168.659123
 11
400.885661
 21
168.659123
  0
ARC
  8
CSLAYER1
  6
CONTINUOUS
 62
     3
 10
356.885631
 20
249.564857
 40
2.000000
 50
270.000001
 51
359.942691
  0
LINE
  8
CSLAYER1
  6
CONTINUOUS
 62
     3
 10
358.885631
 20
249.564857
 11
358.885631
 21
256.159123
  0
LINE
  8
CSLAYER1
  6
CONTINUOUS
 62
     3
 10
356.885631
 20
247.564857
 11
328.885631
 21
247.564888
  0
ARC
  8
CSLAYER1
  6
CONTINUOUS
 62
     3
 10
328.885631
 20
249.564888
 40
2.000000
 50
180.000005
 51
270.000001
  0
LINE
  8
CSLAYER1
  6
CONTINUOUS
 62
     3
 10
326.885631
 20
249.564888
 11
326.885631
 21
256.159123
  0
LINE
  8
CSLAYER1
  6
CENTER
 62
     3
 10
400.885661
 20
253.659123
 11
419.885661
 21
253.659123
  0
LINE
  8
CSLAYER1
  6
CENTER
 62
     3
 10
419.885631
 20
303.659123
 11
400.885631
 21
303.659123
  0
ARC
  8
CSLAYER1
  6
CONTINUOUS
 62
     3
 10
356.885631
 20
322.659123
 40
2.000000
 50
270.000000
 51
360.000000
  0
LINE
  8
CSLAYER1
  6
CONTINUOUS
 62
     3
 10
358.885631
 20
322.659123
 11
358.885631
 21
369.659123
  0
ARC
  8
CSLAYER1
  6
CONTINUOUS
 62
     3
 10
356.885631
 20
369.659123
 40
2.000000
 50
0.000000
 51
90.000000
  0
LINE
  8
CSLAYER1
  6
CONTINUOUS
 62
     3
 10
356.885631
 20
371.659123
 11
328.885631
 21
371.659123
  0
ARC
  8
CSLAYER1
  6
CONTINUOUS
 62
     3
 10
328.885631
 20
369.659123
 40
2.000000
 50
90.000000
 51
180.000000
  0
LINE
  8
CSLAYER1
  6
CONTINUOUS
 62
     3
 10
326.885631
 20
369.659123
 11
326.885631
 21
322.659123
  0
ARC
  8
CSLAYER1
  6
CONTINUOUS
 62
     3
 10
328.885631
 20
322.659123
 40
2.000000
 50
180.000000
 51
270.000000
  0
LINE
  8
CSLAYER1
  6
CONTINUOUS
 62
     3
 10
328.885631
 20
320.659123
 11
356.885631
 21
320.659123
  0
LINE
  8
CSLAYER1
  6
CENTER
 62
     3
 10
400.885631
 20
388.659123
 11
419.885631
 21
388.659123
  0
LINE
  8
CSLAYER1
  6
CENTER
 62
     3
 10
461.885631
 20
346.159123
 11
135.885661
 21
346.159123
  0
LINE
  8
CSLAYER1
  6
CENTER
 62
     3
 10
160.627053
 20
327.909134
 11
175.078819
 21
327.909136
  0
LINE
  8
CSLAYER1
  6
CENTER
 62
     3
 10
175.078827
 20
382.659109
 11
161.598527
 21
382.659111
  0
LINE
  8
CSLAYER1
  6
CENTER
 62
     3
 10
248.885661
 20
377.552296
 11
248.885661
 21
400.159108
  0
LINE
  8
CSLAYER1
  6
CENTER
 62
     3
 10
40.037163
 20
253.659123
 11
21.037163
 21
253.659123
  0
LINE
  8
CSLAYER1
  6
CENTER
 62
     3
 10
30.537163
 20
263.159123
 11
30.537163
 21
244.159123
  0
LINE
  8
CSLAYER1
  6
CENTER
 62
     3
 10
45.728862
 20
222.192417
 11
57.350221
 21
217.497084
  0
ARC
  8
CSLAYER1
  6
CENTER
 62
     3
 10
73.037122
 20
211.159164
 40
23.000000
 50
143.666694
 51
172.333373
  0
LINE
  8
CSLAYER1
  6
CENTER
 62
     3
 10
400.885631
 20
33.659123
 11
419.885631
 21
33.659123
  0
TEXT
  8
CSLAYER1
 62
     3
 10
340.942383
 20
351.409119
 40
3.500000
 41
1.125000
  1
N P
 50
-90.000000
 51
10.000000
  7
JX_FONT
 72
     5
 11
340.942383
 21
340.909119
  0
LINE
  8
CSLAYER1
  6
CONTINUOUS
 62
     6
 10
67.171259
 20
139.026905
 11
69.284365
 21
143.144708
  0
LINE
  8
CSLAYER1
  6
CONTINUOUS
 62
     6
 10
68.569445
 20
143.506881
 11
66.340769
 21
139.592882
  0
LINE
  8
CSLAYER1
  6
CONTINUOUS
 62
     6
 10
68.115322
 20
138.682247
 11
69.995468
 21
142.775098
  0
LINE
  8
CSLAYER1
  6
CONTINUOUS
 62
     6
 10
70.615331
 20
142.452912
 11
67.953399
 21
143.836504
  0
ARC
  8
CSLAYER1
  6
CONTINUOUS
 62
     6
 10
51.547684
 20
152.363570
 40
18.489456
 50
332.536225
 51
359.942687
  0
LINE
  8
CSLAYER1
  6
CONTINUOUS
 62
     6
 10
70.037131
 20
152.363639
 11
70.037131
 21
154.099816
  0
ARC
  8
CSLAYER1
  6
CONTINUOUS
 62
     6
 10
70.787134
 20
152.800765
 40
1.500010
 50
77.905623
 51
120.000345
  0
ARC
  8
CSLAYER1
  6
CONTINUOUS
 62
     6
 10
70.787118
 20
155.398858
 40
1.500010
 50
240.000345
 51
278.069511
  0
LINE
  8
CSLAYER1
  6
CONTINUOUS
 62
     6
 10
70.342768
 20
152.328135
 11
71.753592
 21
151.594831
  0
ARC
  8
CSLAYER1
  6
CONTINUOUS
 62
     6
 10
61.647739
 20
156.847480
 40
11.389411
 50
332.536225
 51
359.942687
  0
LINE
  8
CSLAYER1
  6
CONTINUOUS
 62
     6
 10
73.037144
 20
156.836087
 11
73.037164
 21
157.767686
  0
ARC
  8
CSLAYER1
  6
CONTINUOUS
 62
     6
 10
73.434662
 20
158.456183
 40
0.795005
 50
240.000345
 51
300.000345
  0
ARC
  8
CSLAYER1
  6
CONTINUOUS
 62
     6
 10
73.434670
 20
157.079193
 40
0.795005
 50
60.000345
 51
120.000345
  0
ARC
  8
CSLAYER1
  6
CONTINUOUS
 62
     6
 10
72.639653
 20
157.079198
 40
0.795005
 50
60.000345
 51
120.000345
  0
ARC
  8
CSLAYER1
  6
CONTINUOUS
 62
     6
 10
71.844647
 20
157.079193
 40
0.795005
 50
60.000345
 51
120.000345
  0
ARC
  8
CSLAYER1
  6
CONTINUOUS
 62
     6
 10
71.844639
 20
158.456183
 40
0.795005
 50
240.000345
 51
300.000345
  0
LINE
  8
CSLAYER1
  6
CONTINUOUS
 62
     6
 10
71.447146
 20
157.767690
 11
71.447146
 21
156.847517
  0
ARC
  8
CSLAYER1
  6
CONTINUOUS
 62
     6
 10
61.647739
 20
156.847480
 40
9.799412
 50
332.536225
 51
359.942687
  0
LINE
  8
CSLAYER1
  6
CONTINUOUS
 62
     6
 10
70.669273
 20
152.153435
 11
69.488074
 21
150.079015
  0
LINE
  8
CSLAYER1
  6
CONTINUOUS
 62
     6
 10
69.928234
 20
149.779047
 11
71.048180
 21
151.961483
  0
LINE
  8
CSLAYER1
  6
CONTINUOUS
 62
     6
 10
71.425064
 20
151.765590
 11
70.428587
 21
149.596379
  0
ARC
  8
CSLAYER1
  6
CONTINUOUS
 62
     6
 10
51.547684
 20
152.363570
 40
21.489455
 50
332.536225
 51
359.942687
  0
ARC
  8
CSLAYER1
  6
CONTINUOUS
 62
     6
 10
94.526642
 20
152.363639
 40
21.489455
 50
180.000020
 51
207.463892
  0
LINE
  8
CSLAYER1
  6
CONTINUOUS
 62
     6
 10
73.037128
 20
152.342074
 11
73.037164
 21
154.099807
  0
ARC
  8
CSLAYER1
  6
CONTINUOUS
 62
     6
 10
73.787161
 20
155.398858
 40
1.500010
 50
240.000345
 51
255.551203
  0
ARC
  8
CSLAYER1
  6
CONTINUOUS
 62
     6
 10
73.787177
 20
152.800765
 40
1.500010
 50
107.291250
 51
120.000345
  0
ARC
  8
CSLAYER1
  6
CONTINUOUS
 62
     6
 10
72.287143
 20
152.800774
 40
1.500010
 50
60.000345
 51
72.708151
  0
LINE
  8
CSLAYER1
  6
CONTINUOUS
 62
     6
 10
73.037196
 20
156.334803
 11
73.037163
 21
166.159123
  0
LINE
  8
CSLAYER1
  6
CONTINUOUS
 62
     6
 10
73.037163
 20
166.159123
 11
73.037180
 21
158.952233
  0
ARC
  8
CSLAYER1
  6
CONTINUOUS
 62
     6
 10
72.639675
 20
159.640733
 40
0.795011
 50
239.999981
 51
299.999981
  0
ARC
  8
CSLAYER1
  6
CONTINUOUS
 62
     6
 10
72.639675
 20
158.263734
 40
0.795011
 50
59.999981
 51
119.999981
  0
ARC
  8
CSLAYER1
  6
CONTINUOUS
 62
     6
 10
73.434688
 20
159.640733
 40
0.795011
 50
239.999981
 51
299.999981
  0
ARC
  8
CSLAYER1
  6
CONTINUOUS
 62
     6
 10
74.229698
 20
159.640733
 40
0.795011
 50
239.999981
 51
299.999981
  0
ARC
  8
CSLAYER1
  6
CONTINUOUS
 62
     6
 10
74.229698
 20
158.263734
 40
0.795011
 50
59.999981
 51
119.999981
  0
LINE
  8
CSLAYER1
  6
CONTINUOUS
 62
     6
 10
74.627180
 20
158.952233
 11
74.627175
 21
165.159123
  0
LINE
  8
CSLAYER1
  6
CONTINUOUS
 62
     6
 10
76.037185
 20
165.159123
 11
76.037196
 21
156.334803
  0
ARC
  8
CSLAYER1
  6
CONTINUOUS
 62
     6
 10
75.287230
 20
157.633858
 40
1.500020
 50
244.594310
 51
299.999981
  0
ARC
  8
CSLAYER1
  6
CONTINUOUS
 62
     6
 10
75.287229
 20
155.035747
 40
1.500020
 50
59.999981
 51
115.648168
  0
ARC
  8
CSLAYER1
  6
CONTINUOUS
 62
     6
 10
84.426587
 20
156.847480
 40
9.799412
 50
179.999963
 51
207.463892
  0
LINE
  8
CSLAYER1
  6
CONTINUOUS
 62
     6
 10
75.731571
 20
152.328110
 11
74.320746
 21
151.594831
  0
ARC
  8
CSLAYER1
  6
CONTINUOUS
 62
     6
 10
84.426587
 20
156.847517
 40
11.389411
 50
180.000020
 51
207.463892
  0
ARC
  8
CSLAYER1
  6
CONTINUOUS
 62
     6
 10
74.229676
 20
157.079198
 40
0.795005
 50
60.000345
 51
120.000345
  0
LINE
  8
CSLAYER1
  6
CONTINUOUS
 62
     6
 10
74.627180
 20
157.767690
 11
74.627180
 21
156.847517
  0
ARC
  8
CSLAYER1
  6
CONTINUOUS
 62
     6
 10
75.287187
 20
152.800774
 40
1.500010
 50
60.000345
 51
102.094271
  0
LINE
  8
CSLAYER1
  6
CONTINUOUS
 62
     6
 10
76.037196
 20
154.099816
 11
76.037196
 21
152.363639
  0
ARC
  8
CSLAYER1
  6
CONTINUOUS
 62
     6
 10
94.526642
 20
152.363570
 40
18.489456
 50
179.999963
 51
207.463892
  0
LINE
  8
CSLAYER1
  6
CONTINUOUS
 62
     6
 10
78.120951
 20
143.836458
 11
75.459019
 21
142.452912
  0
LINE
  8
CSLAYER1
  6
CONTINUOUS
 62
     6
 10
76.100192
 20
142.793415
 11
77.755835
 21
138.934517
  0
LINE
  8
CSLAYER1
  6
CONTINUOUS
 62
     6
 10
78.769747
 20
139.296637
 11
76.789985
 21
143.144685
  0
LINE
  8
CSLAYER1
  6
CONTINUOUS
 62
     6
 10
77.476835
 20
143.501677
 11
79.653870
 21
139.911027
  0
LINE
  8
CSLAYER1
  6
CONTINUOUS
 62
     6
 10
76.075433
 20
149.922005
 11
75.026159
 21
151.961471
  0
LINE
  8
CSLAYER1
  6
CONTINUOUS
 62
     6
 10
75.390189
 20
152.150676
 11
76.544018
 21
150.247632
  0
LINE
  8
CSLAYER1
  6
CONTINUOUS
 62
     6
 10
75.538059
 20
149.730082
 11
74.660568
 21
151.775298
  0
ARC
  8
CSLAYER1
  6
CONTINUOUS
 62
     6
 10
70.787166
 20
157.633859
 40
1.500020
 50
239.999981
 51
295.402657
  0
LINE
  8
CSLAYER1
  6
CONTINUOUS
 62
     6
 10
70.037154
 20
156.334803
 11
70.037143
 21
165.159123
  0
LINE
  8
CSLAYER1
  6
CONTINUOUS
 62
     6
 10
69.327163
 20
165.159123
 11
76.747163
 21
165.159123
  0
LINE
  8
CSLAYER1
  6
CONTINUOUS
 62
     6
 10
76.747163
 20
165.159123
 11
76.747163
 21
166.159123
  0
LINE
  8
CSLAYER1
  6
CONTINUOUS
 62
     6
 10
76.747163
 20
166.159123
 11
69.327163
 21
166.159123
  0
LINE
  8
CSLAYER1
  6
CONTINUOUS
 62
     6
 10
69.327163
 20
166.159123
 11
69.327163
 21
165.159123
  0
LINE
  8
CSLAYER1
  6
CONTINUOUS
 62
     6
 10
71.447153
 20
165.159123
 11
71.447158
 21
158.952233
  0
ARC
  8
CSLAYER1
  6
CONTINUOUS
 62
     6
 10
71.844664
 20
159.640733
 40
0.795011
 50
239.999981
 51
299.999981
  0
LINE
  8
CSLAYER1
  6
CONTINUOUS
 62
     6
 10
70.037148
 20
161.159123
 11
30.537163
 21
161.159123
  0
LINE
  8
CSLAYER1
  6
CONTINUOUS
 62
     6
 10
34.704347
 20
162.423373
 11
46.862603
 21
170.548410
  0
ARC
  8
CSLAYER1
  6
CONTINUOUS
 62
     6
 10
50.196351
 20
165.559810
 40
6.000000
 50
63.393594
 51
123.753747
  0
ARC
  8
CSLAYER1
  6
CONTINUOUS
 62
     6
 10
30.537163
 20
168.659123
 40
7.500000
 50
146.246253
 51
303.753747
  0
LINE
  8
CSLAYER1
  6
CONTINUOUS
 62
     6
 10
24.301413
 20
172.826307
 11
32.426450
 21
184.984563
  0
LINE
  8
CSLAYER1
  6
CONTINUOUS
 62
     6
 10
32.596438
 20
188.346482
 11
29.022118
 21
188.159123
  0
ARC
  8
CSLAYER1
  6
CONTINUOUS
 62
     6
 10
29.022118
 20
187.159123
 40
1.000000
 50
90.000039
 51
180.000020
  0
LINE
  8
CSLAYER1
  6
CONTINUOUS
 62
     6
 10
28.037163
 20
187.159123
 11
28.037163
 21
186.159123
  0
ARC
  8
CSLAYER1
  6
CONTINUOUS
 62
     6
 10
29.037163
 20
186.159123
 40
1.000000
 50
180.000020
 51
270.000001
  0
LINE
  8
CSLAYER1
  6
CONTINUOUS
 62
     6
 10
29.037163
 20
185.159123
 11
36.591919
 21
184.763211
  0
ARC
  8
CSLAYER1
  6
CONTINUOUS
 62
     6
 10
27.437850
 20
188.318311
 40
6.000000
 50
2.848860
 51
26.606406
  0
LINE
  8
CSLAYER1
  6
CONTINUOUS
 62
     6
 10
32.437943
 20
191.750276
 11
25.016747
 21
192.139164
  0
ARC
  8
CSLAYER1
  6
CONTINUOUS
 62
     6
 10
25.037163
 20
193.138920
 40
1.000000
 50
180.000020
 51
268.830766
  0
LINE
  8
CSLAYER1
  6
CONTINUOUS
 62
     6
 10
24.037163
 20
193.138920
 11
24.037163
 21
229.179326
  0
ARC
  8
CSLAYER1
  6
CONTINUOUS
 62
     6
 10
25.037163
 20
229.179326
 40
1.000000
 50
91.169216
 51
180.000020
  0
LINE
  8
CSLAYER1
  6
CONTINUOUS
 62
     6
 10
25.016747
 20
230.179082
 11
32.437943
 21
230.567970
  0
ARC
  8
CSLAYER1
  6
CONTINUOUS
 62
     6
 10
27.437850
 20
233.999935
 40
6.000000
 50
333.393594
 51
357.151140
  0
ARC
  8
CSLAYER1
  6
CONTINUOUS
 62
     6
 10
32.507445
 20
232.274020
 40
1.700075
 50
37.189358
 51
86.999412
  0
LINE
  8
CSLAYER1
  6
CONTINUOUS
 62
     6
 10
32.596438
 20
233.971764
 11
29.022118
 21
234.159123
  0
ARC
  8
CSLAYER1
  6
CONTINUOUS
 62
     6
 10
29.022118
 20
235.159123
 40
1.000000
 50
180.000020
 51
270.000001
  0
LINE
  8
CSLAYER1
  6
CONTINUOUS
 62
     6
 10
28.037163
 20
235.159123
 11
28.037163
 21
236.159123
  0
ARC
  8
CSLAYER1
  6
CONTINUOUS
 62
     6
 10
29.037163
 20
236.159123
 40
1.000000
 50
90.000039
 51
180.000020
  0
LINE
  8
CSLAYER1
  6
CONTINUOUS
 62
     6
 10
29.037163
 20
237.159123
 11
36.591919
 21
237.555035
  0
LINE
  8
CSLAYER1
  6
CONTINUOUS
 62
     6
 10
32.426450
 20
237.333683
 11
24.301413
 21
249.491938
  0
ARC
  8
CSLAYER1
  6
CONTINUOUS
 62
     6
 10
30.537163
 20
253.659123
 40
7.500000
 50
56.246253
 51
213.753747
  0
LINE
  8
CSLAYER1
  6
CONTINUOUS
 62
     6
 10
34.704347
 20
259.894873
 11
46.862603
 21
251.769836
  0
ARC
  8
CSLAYER1
  6
CONTINUOUS
 62
     6
 10
50.196351
 20
256.758435
 40
6.000000
 50
236.246253
 51
296.606406
  0
CIRCLE
  8
CSLAYER1
  6
CONTINUOUS
 62
     6
 10
30.537163
 20
253.659123
 40
3.500000
  0
LINE
  8
CSLAYER1
  6
CONTINUOUS
 62
     6
 10
23.037163
 20
253.659123
 11
23.037163
 21
168.659123
  0
CIRCLE
  8
CSLAYER1
  6
CONTINUOUS
 62
     6
 10
30.537163
 20
168.659123
 40
3.500000
  0
ARC
  8
CSLAYER1
  6
CONTINUOUS
 62
     6
 10
32.507445
 20
190.044226
 40
1.700075
 50
273.000588
 51
322.810642
  0
ARC
  8
CSLAYER1
  6
CONTINUOUS
 62
     6
 10
36.537176
 20
211.159122
 40
1.944444
 50
253.398423
 51
286.601584
  0
LINE
  8
CSLAYER1
  6
CONTINUOUS
 62
     6
 10
37.092739
 20
209.295741
 11
37.092739
 21
210.047997
  0
ARC
  8
CSLAYER1
  6
CONTINUOUS
 62
     6
 10
37.648272
 20
210.047997
 40
0.555556
 50
89.999995
 51
179.999984
  0
LINE
  8
CSLAYER1
  6
CONTINUOUS
 62
     6
 10
37.648272
 20
210.603560
 11
38.400587
 21
210.603560
  0
ARC
  8
CSLAYER1
  6
CONTINUOUS
 62
     6
 10
36.537176
 20
211.159122
 40
1.944444
 50
-16.601595
 51
16.601594
  0
LINE
  8
CSLAYER1
  6
CONTINUOUS
 62
     6
 10
38.400587
 20
211.714685
 11
37.648272
 21
211.714685
  0
ARC
  8
CSLAYER1
  6
CONTINUOUS
 62
     6
 10
37.648272
 20
212.270247
 40
0.555556
 50
179.999984
 51
269.999990
  0
LINE
  8
CSLAYER1
  6
CONTINUOUS
 62
     6
 10
37.092739
 20
212.270247
 11
37.092739
 21
213.022503
  0
ARC
  8
CSLAYER1
  6
CONTINUOUS
 62
     6
 10
36.537176
 20
211.159122
 40
1.944444
 50
73.398428
 51
106.601562
  0
LINE
  8
CSLAYER1
  6
CONTINUOUS
 62
     6
 10
35.981614
 20
213.022503
 11
35.981614
 21
212.270247
  0
ARC
  8
CSLAYER1
  6
CONTINUOUS
 62
     6
 10
35.426081
 20
212.270247
 40
0.555556
 50
270.057309
 51
359.999999
  0
LINE
  8
CSLAYER1
  6
CONTINUOUS
 62
     6
 10
35.426081
 20
211.714685
 11
34.673766
 21
211.714685
  0
ARC
  8
CSLAYER1
  6
CONTINUOUS
 62
     6
 10
36.537176
 20
211.159122
 40
1.944444
 50
163.398417
 51
196.601578
  0
LINE
  8
CSLAYER1
  6
CONTINUOUS
 62
     6
 10
34.673766
 20
210.603560
 11
35.426081
 21
210.603560
  0
ARC
  8
CSLAYER1
  6
CONTINUOUS
 62
     6
 10
35.426081
 20
210.047997
 40
0.555556
 50
0.057346
 51
89.999995
  0
LINE
  8
CSLAYER1
  6
CONTINUOUS
 62
     6
 10
35.981614
 20
210.047997
 11
35.981614
 21
209.295741
  0
LINE
  8
CSLAYER1
  6
CONTINUOUS
 62
     6
 10
81.312133
 20
184.413346
 11
82.016340
 21
183.088925
  0
LINE
  8
CSLAYER1
  6
CONTINUOUS
 62
     6
 10
82.016340
 20
183.088925
 11
91.287290
 21
188.018376
  0
LINE
  8
CSLAYER1
  6
CONTINUOUS
 62
     6
 10
91.287290
 20
188.018376
 11
90.583082
 21
189.342798
  0
LINE
  8
CSLAYER1
  6
CONTINUOUS
 62
     6
 10
90.583082
 20
189.342798
 11
81.312133
 21
184.413346
  0
LINE
  8
CSLAYER1
  6
CONTINUOUS
 62
     6
 10
84.444446
 20
184.379972
 11
90.333440
 21
173.304385
  0
ARC
  8
CSLAYER1
  6
CONTINUOUS
 62
     6
 10
90.420686
 20
175.802867
 40
2.500000
 50
268.000007
 51
327.999995
  0
ARC
  8
CSLAYER1
  6
CONTINUOUS
 62
     6
 10
92.628055
 20
176.976546
 40
2.500000
 50
268.000007
 51
327.999995
  0
LINE
  8
CSLAYER1
  6
CONTINUOUS
 62
     6
 10
94.748178
 20
175.651742
 11
88.859184
 21
186.727329
  0
ARC
  8
CSLAYER1
  6
CONTINUOUS
 62
     6
 10
91.287151
 20
179.549209
 40
3.500000
 50
-41.492484
 51
97.492484
  0
ARC
  8
CSLAYER1
  6
CONTINUOUS
 62
     6
 10
94.660932
 20
173.153260
 40
2.500000
 50
88.000002
 51
148.000003
  0
ARC
  8
CSLAYER1
  6
CONTINUOUS
 62
     6
 10
91.534155
 20
173.708736
 40
2.500000
 50
268.000007
 51
327.999995
  0
ARC
  8
CSLAYER1
  6
CONTINUOUS
 62
     6
 10
93.567032
 20
169.885450
 40
2.500000
 50
87.999995
 51
147.999990
  0
ARC
  8
CSLAYER1
  6
CONTINUOUS
 62
     6
 10
95.774401
 20
171.059129
 40
2.500000
 50
87.999995
 51
147.999990
  0
ARC
  8
CSLAYER1
  6
CONTINUOUS
 62
     6
 10
82.151128
 20
164.691219
 40
16.327621
 50
-6.633093
 51
32.890180
  0
LINE
  8
CSLAYER1
  6
CONTINUOUS
 62
     6
 10
98.369462
 20
162.805207
 11
93.428955
 21
163.379735
  0
ARC
  8
CSLAYER1
  6
CONTINUOUS
 62
     6
 10
82.151128
 20
164.691219
 40
11.353822
 50
-6.633120
 51
35.041553
  0
ARC
  8
CSLAYER1
  6
CONTINUOUS
 62
     6
 10
73.037163
 20
211.159123
 40
45.000000
 50
-58.745133
 51
294.916636
  0
ARC
  8
CSLAYER1
  6
CONTINUOUS
 62
     6
 10
95.877975
 20
165.559810
 40
6.000000
 50
56.246253
 51
79.090248
  0
LINE
  8
CSLAYER1
  6
CONTINUOUS
 62
     6
 10
99.211723
 20
170.548410
 11
111.369978
 21
162.423373
  0
ARC
  8
CSLAYER1
  6
CONTINUOUS
 62
     6
 10
115.537163
 20
168.659123
 40
7.500000
 50
-123.753747
 51
33.753747
  0
LINE
  8
CSLAYER1
  6
CONTINUOUS
 62
     6
 10
121.772912
 20
172.826307
 11
113.649850
 21
184.981609
  0
LINE
  8
CSLAYER1
  6
CONTINUOUS
 62
     6
 10
113.477888
 20
188.346482
 11
117.052208
 21
188.159123
  0
ARC
  8
CSLAYER1
  6
CONTINUOUS
 62
     6
 10
117.052208
 20
187.159123
 40
1.000000
 50
0.000018
 51
89.999999
  0
LINE
  8
CSLAYER1
  6
CONTINUOUS
 62
     6
 10
118.037163
 20
187.159123
 11
118.037163
 21
186.159123
  0
ARC
  8
CSLAYER1
  6
CONTINUOUS
 62
     6
 10
117.037163
 20
186.159123
 40
1.000000
 50
270.000019
 51
360.000000
  0
LINE
  8
CSLAYER1
  6
CONTINUOUS
 62
     6
 10
117.037163
 20
185.159123
 11
109.482407
 21
184.763211
  0
ARC
  8
CSLAYER1
  6
CONTINUOUS
 62
     6
 10
118.636475
 20
188.318311
 40
6.000000
 50
153.393594
 51
177.151140
  0
LINE
  8
CSLAYER1
  6
CONTINUOUS
 62
     6
 10
113.636383
 20
191.750276
 11
121.057579
 21
192.139164
  0
ARC
  8
CSLAYER1
  6
CONTINUOUS
 62
     6
 10
121.037163
 20
193.138920
 40
1.000000
 50
271.169236
 51
359.999982
  0
LINE
  8
CSLAYER1
  6
CONTINUOUS
 62
     6
 10
122.037163
 20
193.138920
 11
122.037163
 21
229.179326
  0
ARC
  8
CSLAYER1
  6
CONTINUOUS
 62
     6
 10
121.037163
 20
229.179326
 40
1.000000
 50
0.000000
 51
88.830746
  0
LINE
  8
CSLAYER1
  6
CONTINUOUS
 62
     6
 10
121.057579
 20
230.179082
 11
113.636383
 21
230.567970
  0
ARC
  8
CSLAYER1
  6
CONTINUOUS
 62
     6
 10
118.636475
 20
233.999935
 40
6.000000
 50
182.848860
 51
206.606406
  0
ARC
  8
CSLAYER1
  6
CONTINUOUS
 62
     6
 10
113.566880
 20
232.274020
 40
1.700075
 50
93.000588
 51
142.810642
  0
LINE
  8
CSLAYER1
  6
CONTINUOUS
 62
     6
 10
113.477888
 20
233.971764
 11
117.052208
 21
234.159123
  0
ARC
  8
CSLAYER1
  6
CONTINUOUS
 62
     6
 10
117.052208
 20
235.159123
 40
1.000000
 50
270.000001
 51
359.999982
  0
LINE
  8
CSLAYER1
  6
CONTINUOUS
 62
     6
 10
118.037163
 20
235.159123
 11
118.037163
 21
236.159123
  0
ARC
  8
CSLAYER1
  6
CONTINUOUS
 62
     6
 10
117.037163
 20
236.159123
 40
1.000000
 50
0.000000
 51
89.999981
  0
LINE
  8
CSLAYER1
  6
CONTINUOUS
 62
     6
 10
117.037163
 20
237.159123
 11
109.482407
 21
237.555035
  0
LINE
  8
CSLAYER1
  6
CONTINUOUS
 62
     6
 10
113.647876
 20
237.333683
 11
121.772912
 21
249.491938
  0
ARC
  8
CSLAYER1
  6
CONTINUOUS
 62
     6
 10
115.537163
 20
253.659123
 40
7.500000
 50
-33.753747
 51
123.753747
  0
LINE
  8
CSLAYER1
  6
CONTINUOUS
 62
     6
 10
111.369978
 20
259.894873
 11
99.211723
 21
251.769836
  0
ARC
  8
CSLAYER1
  6
CONTINUOUS
 62
     6
 10
95.877975
 20
256.758435
 40
6.000000
 50
243.393594
 51
303.753747
  0
LINE
  8
CSLAYER1
  6
CONTINUOUS
 62
     6
 10
91.842726
 20
244.632447
 11
91.842726
 21
243.880132
  0
ARC
  8
CSLAYER1
  6
CONTINUOUS
 62
     6
 10
92.398288
 20
243.880132
 40
0.555556
 50
180.000005
 51
269.942654
  0
LINE
  8
CSLAYER1
  6
CONTINUOUS
 62
     6
 10
92.398288
 20
243.324599
 11
93.150545
 21
243.324599
  0
ARC
  8
CSLAYER1
  6
CONTINUOUS
 62
     6
 10
91.287164
 20
242.769037
 40
1.944444
 50
-16.601584
 51
16.601577
  0
LINE
  8
CSLAYER1
  6
CONTINUOUS
 62
     6
 10
93.150545
 20
242.213474
 11
92.398288
 21
242.213474
  0
ARC
  8
CSLAYER1
  6
CONTINUOUS
 62
     6
 10
92.398288
 20
241.657941
 40
0.555556
 50
90.000016
 51
180.000005
  0
LINE
  8
CSLAYER1
  6
CONTINUOUS
 62
     6
 10
91.842726
 20
241.657941
 11
91.842726
 21
240.905626
  0
ARC
  8
CSLAYER1
  6
CONTINUOUS
 62
     6
 10
91.287164
 20
242.769037
 40
1.944444
 50
253.398406
 51
286.601595
  0
LINE
  8
CSLAYER1
  6
CONTINUOUS
 62
     6
 10
90.731601
 20
240.905626
 11
90.731601
 21
241.657941
  0
ARC
  8
CSLAYER1
  6
CONTINUOUS
 62
     6
 10
90.176039
 20
241.657941
 40
0.555556
 50
0.000010
 51
90.000016
  0
LINE
  8
CSLAYER1
  6
CONTINUOUS
 62
     6
 10
90.176039
 20
242.213474
 11
89.423782
 21
242.213474
  0
ARC
  8
CSLAYER1
  6
CONTINUOUS
 62
     6
 10
91.287164
 20
242.769037
 40
1.944444
 50
163.398438
 51
196.601572
  0
LINE
  8
CSLAYER1
  6
CONTINUOUS
 62
     6
 10
89.423782
 20
243.324599
 11
90.176039
 21
243.324599
  0
ARC
  8
CSLAYER1
  6
CONTINUOUS
 62
     6
 10
90.176039
 20
243.880132
 40
0.555556
 50
270.000001
 51
359.942691
  0
LINE
  8
CSLAYER1
  6
CONTINUOUS
 62
     6
 10
90.731601
 20
243.880132
 11
90.731601
 21
244.632447
  0
ARC
  8
CSLAYER1
  6
CONTINUOUS
 62
     6
 10
91.287164
 20
242.769037
 40
1.944444
 50
73.398422
 51
106.601583
  0
CIRCLE
  8
CSLAYER1
  6
CONTINUOUS
 62
     6
 10
91.287151
 20
242.769037
 40
3.500000
  0
CIRCLE
  8
CSLAYER1
  6
CONTINUOUS
 62
     6
 10
115.537163
 20
253.659123
 40
3.500000
  0
LINE
  8
CSLAYER1
  6
CONTINUOUS
 62
     6
 10
115.537163
 20
261.159123
 11
30.537163
 21
261.159123
  0
LINE
  8
CSLAYER1
  6
CONTINUOUS
 62
     6
 10
51.275376
 20
221.239236
 11
51.275376
 21
220.648132
  0
ARC
  8
CSLAYER1
  6
CONTINUOUS
 62
     6
 10
50.838863
 20
220.648132
 40
0.436508
 50
-89.999984
 51
0.000005
  0
LINE
  8
CSLAYER1
  6
CONTINUOUS
 62
     6
 10
50.838863
 20
220.211641
 11
50.247804
 21
220.211641
  0
ARC
  8
CSLAYER1
  6
CONTINUOUS
 62
     6
 10
51.711889
 20
219.775128
 40
1.527778
 50
163.398416
 51
196.601577
  0
LINE
  8
CSLAYER1
  6
CONTINUOUS
 62
     6
 10
50.247804
 20
219.338615
 11
50.838863
 21
219.338615
  0
ARC
  8
CSLAYER1
  6
CONTINUOUS
 62
     6
 10
50.838863
 20
218.902124
 40
0.436508
 50
0.000005
 51
89.942654
  0
LINE
  8
CSLAYER1
  6
CONTINUOUS
 62
     6
 10
51.275376
 20
218.902124
 11
51.275376
 21
218.311020
  0
ARC
  8
CSLAYER1
  6
CONTINUOUS
 62
     6
 10
51.711889
 20
219.775128
 40
1.527778
 50
253.398422
 51
286.601583
  0
LINE
  8
CSLAYER1
  6
CONTINUOUS
 62
     6
 10
52.148403
 20
218.311020
 11
52.148403
 21
218.902124
  0
ARC
  8
CSLAYER1
  6
CONTINUOUS
 62
     6
 10
52.584916
 20
218.902124
 40
0.436508
 50
90.000001
 51
179.942691
  0
LINE
  8
CSLAYER1
  6
CONTINUOUS
 62
     6
 10
52.584916
 20
219.338615
 11
53.175975
 21
219.338615
  0
ARC
  8
CSLAYER1
  6
CONTINUOUS
 62
     6
 10
51.711889
 20
219.775128
 40
1.527778
 50
-16.601562
 51
16.601572
  0
LINE
  8
CSLAYER1
  6
CONTINUOUS
 62
     6
 10
53.175975
 20
220.211641
 11
52.584916
 21
220.211641
  0
ARC
  8
CSLAYER1
  6
CONTINUOUS
 62
     6
 10
52.584916
 20
220.648132
 40
0.436508
 50
180.000010
 51
270.000016
  0
LINE
  8
CSLAYER1
  6
CONTINUOUS
 62
     6
 10
52.148403
 20
220.648132
 11
52.148403
 21
221.239236
  0
ARC
  8
CSLAYER1
  6
CONTINUOUS
 62
     6
 10
51.711889
 20
219.775128
 40
1.527778
 50
73.398406
 51
106.601595
  0
CIRCLE
  8
CSLAYER1
  6
CONTINUOUS
 62
     6
 10
51.711900
 20
219.775128
 40
2.750000
  0
CIRCLE
  8
CSLAYER1
  6
CONTINUOUS
 62
     6
 10
36.537176
 20
211.159135
 40
3.500000
  0
CIRCLE
  8
CSLAYER1
  6
CONTINUOUS
 62
     6
 10
73.037122
 20
211.159164
 40
27.500038
  0
LINE
  8
CSLAYER1
  6
CONTINUOUS
 62
     6
 10
123.037163
 20
253.659123
 11
123.037163
 21
168.659123
  0
CIRCLE
  8
CSLAYER1
  6
CONTINUOUS
 62
     6
 10
115.537163
 20
168.659123
 40
3.500000
  0
LINE
  8
CSLAYER1
  6
CONTINUOUS
 62
     6
 10
115.537163
 20
161.159123
 11
76.037190
 21
161.159123
  0
LINE
  8
CSLAYER1
  6
CONTINUOUS
 62
     6
 10
93.243580
 20
160.155230
 11
94.252368
 21
163.283963
  0
LINE
  8
CSLAYER1
  6
CONTINUOUS
 62
     6
 10
95.075773
 20
163.188205
 11
94.363917
 21
159.933952
  0
LINE
  8
CSLAYER1
  6
CONTINUOUS
 62
     6
 10
93.966648
 20
159.982670
 11
93.513752
 21
158.739198
  0
LINE
  8
CSLAYER1
  6
CONTINUOUS
 62
     6
 10
93.199676
 20
158.980687
 11
93.661745
 21
159.857672
  0
LINE
  8
CSLAYER1
  6
CONTINUOUS
 62
     6
 10
94.763009
 20
159.811926
 11
94.321836
 21
158.686100
  0
LINE
  8
CSLAYER1
  6
CONTINUOUS
 62
     6
 10
94.863843
 20
158.714340
 11
95.115931
 21
159.776765
  0
LINE
  8
CSLAYER1
  6
CONTINUOUS
 62
     6
 10
95.494128
 20
159.903579
 11
95.899205
 21
163.092461
  0
LINE
  8
CSLAYER1
  6
CONTINUOUS
 62
     6
 10
96.722611
 20
162.996702
 11
96.647077
 21
159.551087
  0
LINE
  8
CSLAYER1
  6
CONTINUOUS
 62
     6
 10
96.228911
 20
159.848646
 11
95.951556
 21
158.624233
  0
LINE
  8
CSLAYER1
  6
CONTINUOUS
 62
     6
 10
97.434688
 20
158.558701
 11
97.277784
 21
159.552231
  0
LINE
  8
CSLAYER1
  6
CONTINUOUS
 62
     6
 10
97.845079
 20
159.742452
 11
97.546043
 21
162.900958
  0
LINE
  8
CSLAYER1
  6
CONTINUOUS
 62
     6
 10
92.610662
 20
179.671826
 11
93.178674
 21
179.999767
  0
ARC
  8
CSLAYER1
  6
CONTINUOUS
 62
     6
 10
91.287157
 20
179.549208
 40
1.944444
 50
13.398423
 51
46.601584
  0
LINE
  8
CSLAYER1
  6
CONTINUOUS
 62
     6
 10
92.623111
 20
180.962030
 11
92.088702
 21
180.653489
  0
LINE
  8
CSLAYER1
  6
CONTINUOUS
 62
     6
 10
93.925833
 20
201.079117
 11
93.925833
 21
201.670221
  0
ARC
  8
CSLAYER1
  6
CONTINUOUS
 62
     6
 10
93.489320
 20
201.670221
 40
0.436508
 50
0.000005
 51
89.942654
  0
LINE
  8
CSLAYER1
  6
CONTINUOUS
 62
     6
 10
93.489320
 20
202.106712
 11
92.898261
 21
202.106712
  0
ARC
  8
CSLAYER1
  6
CONTINUOUS
 62
     6
 10
94.362347
 20
202.543225
 40
1.527778
 50
163.398416
 51
196.601577
  0
LINE
  8
CSLAYER1
  6
CONTINUOUS
 62
     6
 10
92.898261
 20
202.979738
 11
93.489320
 21
202.979738
  0
ARC
  8
CSLAYER1
  6
CONTINUOUS
 62
     6
 10
93.489320
 20
203.416229
 40
0.436508
 50
-89.999984
 51
0.000005
  0
LINE
  8
CSLAYER1
  6
CONTINUOUS
 62
     6
 10
93.925833
 20
203.416229
 11
93.925833
 21
204.007333
  0
ARC
  8
CSLAYER1
  6
CONTINUOUS
 62
     6
 10
94.362347
 20
202.543225
 40
1.527778
 50
73.398406
 51
106.601595
  0
LINE
  8
CSLAYER1
  6
CONTINUOUS
 62
     6
 10
94.798860
 20
204.007333
 11
94.798860
 21
203.416229
  0
ARC
  8
CSLAYER1
  6
CONTINUOUS
 62
     6
 10
95.235373
 20
203.416229
 40
0.436508
 50
180.000010
 51
270.000016
  0
LINE
  8
CSLAYER1
  6
CONTINUOUS
 62
     6
 10
95.235373
 20
202.979738
 11
95.826432
 21
202.979738
  0
ARC
  8
CSLAYER1
  6
CONTINUOUS
 62
     6
 10
94.362347
 20
202.543225
 40
1.527778
 50
-16.601562
 51
16.601572
  0
LINE
  8
CSLAYER1
  6
CONTINUOUS
 62
     6
 10
95.826432
 20
202.106712
 11
95.235373
 21
202.106712
  0
ARC
  8
CSLAYER1
  6
CONTINUOUS
 62
     6
 10
95.235373
 20
201.670221
 40
0.436508
 50
90.000001
 51
179.942691
  0
LINE
  8
CSLAYER1
  6
CONTINUOUS
 62
     6
 10
94.798860
 20
201.670221
 11
94.798860
 21
201.079117
  0
ARC
  8
CSLAYER1
  6
CONTINUOUS
 62
     6
 10
94.362347
 20
202.543225
 40
1.527778
 50
253.398422
 51
286.601583
  0
CIRCLE
  8
CSLAYER1
  6
CONTINUOUS
 62
     6
 10
94.362357
 20
202.543224
 40
2.750000
  0
ARC
  8
CSLAYER1
  6
CONTINUOUS
 62
     6
 10
113.566880
 20
190.044226
 40
1.700075
 50
217.189358
 51
266.999412
  0
ARC
  8
CSLAYER1
  6
CONTINUOUS
 62
     6
 10
143.885661
 20
185.659082
 40
2.000000
 50
179.999995
 51
270.000032
  0
LINE
  8
CSLAYER1
  6
CONTINUOUS
 62
     6
 10
143.885661
 20
183.659164
 11
157.027287
 21
183.659178
  0
LINE
  8
CSLAYER1
  6
CONTINUOUS
 62
     6
 10
157.885661
 20
185.553651
 11
157.885661
 21
173.781708
  0
ARC
  8
CSLAYER1
  6
CONTINUOUS
 62
     6
 10
159.135661
 20
175.946778
 40
2.500000
 50
240.000007
 51
299.999995
  0
ARC
  8
CSLAYER1
  6
CONTINUOUS
 62
     6
 10
161.635661
 20
175.946778
 40
2.500000
 50
240.000007
 51
299.999995
  0
LINE
  8
CSLAYER1
  6
CONTINUOUS
 62
     6
 10
162.885661
 20
173.781708
 11
162.885661
 21
185.553651
  0
LINE
  8
CSLAYER1
  6
CONTINUOUS
 62
     6
 10
163.744038
 20
183.659179
 11
166.885676
 21
183.659179
  0
LINE
  8
CSLAYER1
  6
CONTINUOUS
 62
     6
 10
166.764971
 20
183.049227
 11
166.161522
 21
183.049227
  0
ARC
  8
CSLAYER1
  6
CONTINUOUS
 62
     6
 10
166.161522
 20
182.928530
 40
0.120690
 50
90.000003
 51
180.000005
  0
LINE
  8
CSLAYER1
  6
CONTINUOUS
 62
     6
 10
166.040861
 20
182.928530
 11
166.040861
 21
176.169924
  0
ARC
  8
CSLAYER1
  6
CONTINUOUS
 62
     6
 10
166.161522
 20
176.169924
 40
0.120690
 50
180.000005
 51
270.000001
  0
LINE
  8
CSLAYER1
  6
CONTINUOUS
 62
     6
 10
166.161522
 20
176.049227
 11
166.764971
 21
176.049227
  0
ARC
  8
CSLAYER1
  6
CONTINUOUS
 62
     6
 10
166.764971
 20
176.169924
 40
0.120690
 50
270.000001
 51
359.942691
  0
ARC
  8
CSLAYER1
  6
CONTINUOUS
 62
     6
 10
165.799467
 20
176.493674
 40
0.241380
 50
264.999865
 51
359.942691
  0
LINE
  8
CSLAYER1
  6
CONTINUOUS
 62
     6
 10
165.778399
 20
176.253219
 11
165.018268
 21
176.319719
  0
ARC
  8
CSLAYER1
  6
CONTINUOUS
 62
     6
 10
165.123459
 20
177.522032
 40
1.206899
 50
196.257399
 51
264.999892
  0
ARC
  8
CSLAYER1
  6
CONTINUOUS
 62
     6
 10
172.075357
 20
179.549227
 40
8.448294
 50
163.742994
 51
196.257016
  0
ARC
  8
CSLAYER1
  6
CONTINUOUS
 62
     6
 10
165.123459
 20
181.576422
 40
1.206899
 50
95.000111
 51
163.742611
  0
LINE
  8
CSLAYER1
  6
CONTINUOUS
 62
     6
 10
165.018268
 20
182.778735
 11
165.778399
 21
182.845235
  0
ARC
  8
CSLAYER1
  6
CONTINUOUS
 62
     6
 10
165.799467
 20
182.604780
 40
0.241380
 50
0.000000
 51
95.000152
  0
ARC
  8
CSLAYER1
  6
CONTINUOUS
 62
     6
 10
166.764971
 20
182.928530
 40
0.120690
 50
0.000000
 51
90.000003
  0
LINE
  8
CSLAYER1
  6
CONTINUOUS
 62
     6
 10
165.635661
 20
185.553651
 11
165.635661
 21
186.878071
  0
LINE
  8
CSLAYER1
  6
CONTINUOUS
 62
     6
 10
166.885669
 20
179.969145
 11
166.040861
 21
179.433447
  0
LINE
  8
CSLAYER1
  6
CONTINUOUS
 62
     6
 10
166.040861
 20
178.829997
 11
166.885669
 21
179.365695
  0
ARC
  8
CSLAYER1
  6
CONTINUOUS
 62
     6
 10
161.635661
 20
171.616639
 40
2.500000
 50
60.000002
 51
120.000003
  0
ARC
  8
CSLAYER1
  6
CONTINUOUS
 62
     6
 10
159.135661
 20
173.575028
 40
2.500000
 50
240.000007
 51
299.999995
  0
ARC
  8
CSLAYER1
  6
CONTINUOUS
 62
     6
 10
159.135661
 20
169.244889
 40
2.500000
 50
59.999995
 51
119.999990
  0
ARC
  8
CSLAYER1
  6
CONTINUOUS
 62
     6
 10
161.635661
 20
169.244889
 40
2.500000
 50
59.999995
 51
119.999990
  0
ARC
  8
CSLAYER1
  6
CONTINUOUS
 62
     6
 10
146.617473
 20
170.018098
 40
16.327621
 50
-34.633093
 51
4.890180
  0
LINE
  8
CSLAYER1
  6
CONTINUOUS
 62
     6
 10
160.051982
 20
160.738801
 11
155.959498
 21
163.565507
  0
ARC
  8
CSLAYER1
  6
CONTINUOUS
 62
     6
 10
146.617473
 20
170.018098
 40
11.353822
 50
-34.633120
 51
7.041553
  0
LINE
  8
CSLAYER1
  6
CONTINUOUS
 62
     6
 10
156.641566
 20
163.094376
 11
154.282008
 21
160.805466
  0
LINE
  8
CSLAYER1
  6
CONTINUOUS
 62
     6
 10
154.511531
 20
160.346421
 11
153.691829
 21
159.789017
  0
LINE
  8
CSLAYER1
  6
CONTINUOUS
 62
     6
 10
153.855769
 20
159.428345
 11
154.839427
 21
160.313645
  0
LINE
  8
CSLAYER1
  6
CONTINUOUS
 62
     6
 10
155.167323
 20
160.084122
 11
157.323634
 21
162.623261
  0
LINE
  8
CSLAYER1
  6
CONTINUOUS
 62
     6
 10
158.005733
 20
162.152146
 11
156.150981
 21
159.526703
  0
LINE
  8
CSLAYER1
  6
CONTINUOUS
 62
     6
 10
155.757518
 20
159.592286
 11
155.036159
 21
158.772568
  0
LINE
  8
CSLAYER1
  6
CONTINUOUS
 62
     6
 10
154.544337
 20
159.002091
 11
155.462413
 21
159.789017
  0
LINE
  8
CSLAYER1
  6
CONTINUOUS
 62
     6
 10
156.773967
 20
159.133240
 11
155.954249
 21
158.182358
  0
LINE
  8
CSLAYER1
  6
CONTINUOUS
 62
     6
 10
157.003490
 20
158.674195
 11
158.687800
 21
161.681031
  0
LINE
  8
CSLAYER1
  6
CONTINUOUS
 62
     6
 10
159.369899
 20
161.209916
 11
158.151103
 21
158.280732
  0
LINE
  8
CSLAYER1
  6
CONTINUOUS
 62
     6
 10
157.560908
 20
158.379105
 11
157.233012
 21
157.428208
  0
LINE
  8
CSLAYER1
  6
CONTINUOUS
 62
     6
 10
166.885661
 20
166.159123
 11
166.885661
 21
256.159123
  0
LINE
  8
CSLAYER1
  6
CONTINUOUS
 62
     6
 10
166.885661
 20
256.159123
 11
226.885661
 21
256.159123
  0
LINE
  8
CSLAYER1
  6
CONTINUOUS
 62
     6
 10
226.885661
 20
256.159123
 11
226.885661
 21
166.159123
  0
LINE
  8
CSLAYER1
  6
CONTINUOUS
 62
     6
 10
226.885661
 20
166.159123
 11
166.885661
 21
166.159123
  0
LINE
  8
CSLAYER1
  6
CONTINUOUS
 62
     6
 10
171.885661
 20
166.159123
 11
171.885661
 21
256.159123
  0
LINE
  8
CSLAYER1
  6
CONTINUOUS
 62
     6
 10
166.764971
 20
246.269056
 11
166.161522
 21
246.269056
  0
ARC
  8
CSLAYER1
  6
CONTINUOUS
 62
     6
 10
166.161522
 20
246.148358
 40
0.120690
 50
90.000003
 51
180.000005
  0
LINE
  8
CSLAYER1
  6
CONTINUOUS
 62
     6
 10
166.040861
 20
246.148358
 11
166.040861
 21
239.389753
  0
ARC
  8
CSLAYER1
  6
CONTINUOUS
 62
     6
 10
166.161522
 20
239.389753
 40
0.120690
 50
180.000005
 51
270.000001
  0
LINE
  8
CSLAYER1
  6
CONTINUOUS
 62
     6
 10
166.161522
 20
239.269056
 11
166.764971
 21
239.269056
  0
ARC
  8
CSLAYER1
  6
CONTINUOUS
 62
     6
 10
166.764971
 20
239.389753
 40
0.120690
 50
270.000001
 51
359.942691
  0
LINE
  8
CSLAYER1
  6
CONTINUOUS
 62
     6
 10
166.885676
 20
238.659134
 11
143.885661
 21
238.659164
  0
ARC
  8
CSLAYER1
  6
CONTINUOUS
 62
     6
 10
143.885661
 20
236.659082
 40
2.000000
 50
89.999972
 51
179.999995
  0
LINE
  8
CSLAYER1
  6
CONTINUOUS
 62
     6
 10
141.885661
 20
236.659082
 11
141.885661
 21
185.659082
  0
LINE
  8
CSLAYER1
  6
CONTINUOUS
 62
     6
 10
155.135661
 20
185.553651
 11
155.135661
 21
186.878071
  0
LINE
  8
CSLAYER1
  6
CONTINUOUS
 62
     6
 10
202.175661
 20
166.159123
 11
202.175661
 21
165.159123
  0
LINE
  8
CSLAYER1
  6
CONTINUOUS
 62
     6
 10
202.175661
 20
165.159123
 11
209.595661
 21
165.159123
  0
LINE
  8
CSLAYER1
  6
CONTINUOUS
 62
     6
 10
209.595661
 20
165.159123
 11
209.595661
 21
166.159123
  0
LINE
  8
CSLAYER1
  6
CONTINUOUS
 62
     6
 10
206.972811
 20
165.159123
 11
206.972811
 21
157.816356
  0
ARC
  8
CSLAYER1
  6
CONTINUOUS
 62
     6
 10
206.429253
 20
158.757808
 40
1.087115
 50
239.999981
 51
299.999981
  0
ARC
  8
CSLAYER1
  6
CONTINUOUS
 62
     6
 10
205.342138
 20
158.757808
 40
1.087115
 50
239.999981
 51
299.999981
  0
LINE
  8
CSLAYER1
  6
CONTINUOUS
 62
     6
 10
204.798578
 20
157.816356
 11
204.798578
 21
165.159123
  0
ARC
  8
CSLAYER1
  6
CONTINUOUS
 62
     6
 10
206.429252
 20
156.874869
 40
1.087115
 50
59.999981
 51
119.999981
  0
ARC
  8
CSLAYER1
  6
CONTINUOUS
 62
     6
 10
206.429221
 20
155.255108
 40
1.087108
 50
60.000362
 51
120.000362
  0
ARC
  8
CSLAYER1
  6
CONTINUOUS
 62
     6
 10
205.342113
 20
155.255102
 40
1.087108
 50
60.000362
 51
120.000362
  0
ARC
  8
CSLAYER1
  6
CONTINUOUS
 62
     6
 10
205.342101
 20
157.138027
 40
1.087108
 50
240.000362
 51
300.000362
  0
LINE
  8
CSLAYER1
  6
CONTINUOUS
 62
     6
 10
204.798578
 20
156.196568
 11
204.798578
 21
154.938252
  0
ARC
  8
CSLAYER1
  6
CONTINUOUS
 62
     6
 10
191.398652
 20
154.938252
 40
13.399933
 50
332.536225
 51
359.942687
  0
LINE
  8
CSLAYER1
  6
CONTINUOUS
 62
     6
 10
203.288427
 20
148.758399
 11
205.217569
 21
147.755664
  0
ARC
  8
CSLAYER1
  6
CONTINUOUS
 62
     6
 10
191.398652
 20
154.938252
 40
15.574134
 50
332.536225
 51
359.942687
  0
ARC
  8
CSLAYER1
  6
CONTINUOUS
 62
     6
 10
220.372671
 20
154.922609
 40
13.399933
 50
179.999963
 51
207.463892
  0
LINE
  8
CSLAYER1
  6
CONTINUOUS
 62
     6
 10
208.482896
 20
148.742722
 11
206.553753
 21
147.739988
  0
ARC
  8
CSLAYER1
  6
CONTINUOUS
 62
     6
 10
220.372671
 20
154.922609
 40
15.574134
 50
201.503298
 51
207.463892
  0
LINE
  8
CSLAYER1
  6
CONTINUOUS
 62
     6
 10
204.814984
 20
147.964894
 11
203.429914
 21
145.909495
  0
LINE
  8
CSLAYER1
  6
CONTINUOUS
 62
     6
 10
202.863206
 20
146.185542
 11
204.421512
 21
148.169418
  0
LINE
  8
CSLAYER1
  6
CONTINUOUS
 62
     6
 10
203.938324
 20
148.420608
 11
202.340113
 21
145.516935
  0
LINE
  8
CSLAYER1
  6
CONTINUOUS
 62
     6
 10
206.956338
 20
147.949301
 11
208.341410
 21
145.893818
  0
LINE
  8
CSLAYER1
  6
CONTINUOUS
 62
     6
 10
208.908118
 20
146.169897
 11
207.349810
 21
148.153775
  0
LINE
  8
CSLAYER1
  6
CONTINUOUS
 62
     6
 10
207.832999
 20
148.404931
 11
209.431211
 21
145.501308
  0
LINE
  8
CSLAYER1
  6
CONTINUOUS
 62
     6
 10
206.972811
 20
154.938252
 11
206.972811
 21
156.196568
  0
LINE
  8
CSLAYER1
  6
CONTINUOUS
 62
     6
 10
221.193231
 20
151.830662
 11
223.665001
 21
154.232470
  0
LINE
  8
CSLAYER1
  6
CONTINUOUS
 62
     6
 10
223.661682
 20
154.235317
 11
223.717153
 21
154.187731
  0
LINE
  8
CSLAYER1
  6
CONTINUOUS
 62
     6
 10
223.717153
 20
154.187731
 11
223.772664
 21
154.144226
  0
LINE
  8
CSLAYER1
  6
CONTINUOUS
 62
     6
 10
223.772664
 20
154.144226
 11
223.827691
 21
154.105381
  0
LINE
  8
CSLAYER1
  6
CONTINUOUS
 62
     6
 10
223.827691
 20
154.105381
 11
223.884177
 21
154.071087
  0
LINE
  8
CSLAYER1
  6
CONTINUOUS
 62
     6
 10
223.884177
 20
154.071087
 11
223.944779
 21
154.040120
  0
LINE
  8
CSLAYER1
  6
CONTINUOUS
 62
     6
 10
223.944779
 20
154.040120
 11
224.008940
 21
154.012131
  0
LINE
  8
CSLAYER1
  6
CONTINUOUS
 62
     6
 10
224.008940
 20
154.012131
 11
224.076102
 21
153.986770
  0
LINE
  8
CSLAYER1
  6
CONTINUOUS
 62
     6
 10
224.076102
 20
153.986770
 11
224.145708
 21
153.963688
  0
LINE
  8
CSLAYER1
  6
CONTINUOUS
 62
     6
 10
224.145708
 20
153.963688
 11
224.217202
 21
153.942534
  0
LINE
  8
CSLAYER1
  6
CONTINUOUS
 62
     6
 10
224.217202
 20
153.942534
 11
224.290027
 21
153.922960
  0
LINE
  8
CSLAYER1
  6
CONTINUOUS
 62
     6
 10
224.290027
 20
153.922960
 11
224.363625
 21
153.904615
  0
LINE
  8
CSLAYER1
  6
CONTINUOUS
 62
     6
 10
224.363625
 20
153.904615
 11
224.437440
 21
153.887149
  0
LINE
  8
CSLAYER1
  6
CONTINUOUS
 62
     6
 10
224.437440
 20
153.887149
 11
224.510914
 21
153.870214
  0
LINE
  8
CSLAYER1
  6
CONTINUOUS
 62
     6
 10
224.510914
 20
153.870214
 11
224.583490
 21
153.853459
  0
LINE
  8
CSLAYER1
  6
CONTINUOUS
 62
     6
 10
224.583490
 20
153.853459
 11
224.657714
 21
153.835859
  0
LINE
  8
CSLAYER1
  6
CONTINUOUS
 62
     6
 10
224.657714
 20
153.835859
 11
224.731450
 21
153.817834
  0
LINE
  8
CSLAYER1
  6
CONTINUOUS
 62
     6
 10
224.731450
 20
153.817834
 11
224.804746
 21
153.799428
  0
LINE
  8
CSLAYER1
  6
CONTINUOUS
 62
     6
 10
224.804746
 20
153.799428
 11
224.877652
 21
153.780683
  0
LINE
  8
CSLAYER1
  6
CONTINUOUS
 62
     6
 10
224.877652
 20
153.780683
 11
224.950216
 21
153.761640
  0
LINE
  8
CSLAYER1
  6
CONTINUOUS
 62
     6
 10
224.950216
 20
153.761640
 11
225.022487
 21
153.742344
  0
LINE
  8
CSLAYER1
  6
CONTINUOUS
 62
     6
 10
225.022487
 20
153.742344
 11
225.094514
 21
153.722835
  0
LINE
  8
CSLAYER1
  6
CONTINUOUS
 62
     6
 10
225.094514
 20
153.722835
 11
225.166346
 21
153.703157
  0
LINE
  8
CSLAYER1
  6
CONTINUOUS
 62
     6
 10
225.166346
 20
153.703157
 11
225.238031
 21
153.683351
  0
LINE
  8
CSLAYER1
  6
CONTINUOUS
 62
     6
 10
225.238031
 20
153.683351
 11
225.309619
 21
153.663461
  0
LINE
  8
CSLAYER1
  6
CONTINUOUS
 62
     6
 10
225.309619
 20
153.663461
 11
225.390238
 21
153.640998
  0
LINE
  8
CSLAYER1
  6
CONTINUOUS
 62
     6
 10
225.390238
 20
153.640998
 11
225.517494
 21
153.813148
  0
LINE
  8
CSLAYER1
  6
CONTINUOUS
 62
     6
 10
225.517494
 20
153.813148
 11
225.612274
 21
153.940311
  0
LINE
  8
CSLAYER1
  6
CONTINUOUS
 62
     6
 10
225.612274
 20
153.940311
 11
225.707925
 21
154.066542
  0
LINE
  8
CSLAYER1
  6
CONTINUOUS
 62
     6
 10
225.707925
 20
154.066542
 11
225.804884
 21
154.191378
  0
LINE
  8
CSLAYER1
  6
CONTINUOUS
 62
     6
 10
225.804884
 20
154.191378
 11
225.903586
 21
154.314353
  0
LINE
  8
CSLAYER1
  6
CONTINUOUS
 62
     6
 10
225.903586
 20
154.314353
 11
226.004467
 21
154.435001
  0
LINE
  8
CSLAYER1
  6
CONTINUOUS
 62
     6
 10
226.004467
 20
154.435001
 11
226.107964
 21
154.552858
  0
LINE
  8
CSLAYER1
  6
CONTINUOUS
 62
     6
 10
226.107964
 20
154.552858
 11
226.214511
 21
154.667458
  0
LINE
  8
CSLAYER1
  6
CONTINUOUS
 62
     6
 10
226.214511
 20
154.667458
 11
226.324545
 21
154.778336
  0
LINE
  8
CSLAYER1
  6
CONTINUOUS
 62
     6
 10
226.324545
 20
154.778336
 11
226.438502
 21
154.885027
  0
LINE
  8
CSLAYER1
  6
CONTINUOUS
 62
     6
 10
226.438502
 20
154.885027
 11
226.556817
 21
154.987065
  0
LINE
  8
CSLAYER1
  6
CONTINUOUS
 62
     6
 10
226.556817
 20
154.987065
 11
226.708242
 21
155.106103
  0
LINE
  8
CSLAYER1
  6
CONTINUOUS
 62
     6
 10
226.708242
 20
155.106103
 11
226.866482
 21
155.220615
  0
LINE
  8
CSLAYER1
  6
CONTINUOUS
 62
     6
 10
226.866482
 20
155.220615
 11
227.029602
 21
155.331555
  0
LINE
  8
CSLAYER1
  6
CONTINUOUS
 62
     6
 10
227.029602
 20
155.331555
 11
227.195671
 21
155.439874
  0
LINE
  8
CSLAYER1
  6
CONTINUOUS
 62
     6
 10
227.195671
 20
155.439874
 11
227.362752
 21
155.546523
  0
LINE
  8
CSLAYER1
  6
CONTINUOUS
 62
     6
 10
227.362752
 20
155.546523
 11
227.528913
 21
155.652456
  0
LINE
  8
CSLAYER1
  6
CONTINUOUS
 62
     6
 10
227.528913
 20
155.652456
 11
227.692220
 21
155.758623
  0
LINE
  8
CSLAYER1
  6
CONTINUOUS
 62
     6
 10
227.692220
 20
155.758623
 11
227.850738
 21
155.865978
  0
LINE
  8
CSLAYER1
  6
CONTINUOUS
 62
     6
 10
227.850738
 20
155.865978
 11
228.002534
 21
155.975472
  0
LINE
  8
CSLAYER1
  6
CONTINUOUS
 62
     6
 10
228.002534
 20
155.975472
 11
228.145673
 21
156.088058
  0
LINE
  8
CSLAYER1
  6
CONTINUOUS
 62
     6
 10
228.145673
 20
156.088058
 11
228.278222
 21
156.204686
  0
LINE
  8
CSLAYER1
  6
CONTINUOUS
 62
     6
 10
228.278222
 20
156.204686
 11
228.381227
 21
156.307701
  0
LINE
  8
CSLAYER1
  6
CONTINUOUS
 62
     6
 10
228.381227
 20
156.307701
 11
228.482891
 21
156.421137
  0
LINE
  8
CSLAYER1
  6
CONTINUOUS
 62
     6
 10
228.482891
 20
156.421137
 11
228.582645
 21
156.543304
  0
LINE
  8
CSLAYER1
  6
CONTINUOUS
 62
     6
 10
228.582645
 20
156.543304
 11
228.679924
 21
156.672513
  0
LINE
  8
CSLAYER1
  6
CONTINUOUS
 62
     6
 10
228.679924
 20
156.672513
 11
228.774158
 21
156.807073
  0
LINE
  8
CSLAYER1
  6
CONTINUOUS
 62
     6
 10
228.774158
 20
156.807073
 11
228.864783
 21
156.945295
  0
LINE
  8
CSLAYER1
  6
CONTINUOUS
 62
     6
 10
228.864783
 20
156.945295
 11
228.951229
 21
157.085488
  0
LINE
  8
CSLAYER1
  6
CONTINUOUS
 62
     6
 10
228.951229
 20
157.085488
 11
229.032930
 21
157.225962
  0
LINE
  8
CSLAYER1
  6
CONTINUOUS
 62
     6
 10
229.032930
 20
157.225962
 11
229.109319
 21
157.365029
  0
LINE
  8
CSLAYER1
  6
CONTINUOUS
 62
     6
 10
229.109319
 20
157.365029
 11
229.179828
 21
157.500997
  0
LINE
  8
CSLAYER1
  6
CONTINUOUS
 62
     6
 10
229.179828
 20
157.500997
 11
229.285088
 21
157.716537
  0
ARC
  8
CSLAYER1
  6
CONTINUOUS
 62
     6
 10
228.358977
 20
157.160459
 40
1.080690
 50
30.945197
 51
90.945197
  0
ARC
  8
CSLAYER1
  6
CONTINUOUS
 62
     6
 10
227.414286
 20
157.685292
 40
1.080690
 50
30.945197
 51
90.945197
  0
ARC
  8
CSLAYER1
  6
CONTINUOUS
 62
     6
 10
228.323323
 20
159.321545
 40
1.080690
 50
210.945197
 51
270.945197
  0
LINE
  8
CSLAYER1
  6
CONTINUOUS
 62
     6
 10
227.396478
 20
158.765812
 11
227.251776
 21
158.626466
  0
LINE
  8
CSLAYER1
  6
CONTINUOUS
 62
     6
 10
227.251776
 20
158.626466
 11
227.097861
 21
158.476716
  0
LINE
  8
CSLAYER1
  6
CONTINUOUS
 62
     6
 10
227.097861
 20
158.476716
 11
226.936510
 21
158.318888
  0
LINE
  8
CSLAYER1
  6
CONTINUOUS
 62
     6
 10
226.936510
 20
158.318888
 11
226.769500
 21
158.155306
  0
LINE
  8
CSLAYER1
  6
CONTINUOUS
 62
     6
 10
226.769500
 20
158.155306
 11
226.598605
 21
157.988295
  0
LINE
  8
CSLAYER1
  6
CONTINUOUS
 62
     6
 10
226.598605
 20
157.988295
 11
226.425602
 21
157.820179
  0
LINE
  8
CSLAYER1
  6
CONTINUOUS
 62
     6
 10
226.425602
 20
157.820179
 11
226.252267
 21
157.653284
  0
LINE
  8
CSLAYER1
  6
CONTINUOUS
 62
     6
 10
226.252267
 20
157.653284
 11
226.080375
 21
157.489935
  0
LINE
  8
CSLAYER1
  6
CONTINUOUS
 62
     6
 10
226.080375
 20
157.489935
 11
225.911702
 21
157.332456
  0
LINE
  8
CSLAYER1
  6
CONTINUOUS
 62
     6
 10
225.911702
 20
157.332456
 11
225.748025
 21
157.183171
  0
LINE
  8
CSLAYER1
  6
CONTINUOUS
 62
     6
 10
225.748025
 20
157.183171
 11
225.591119
 21
157.044407
  0
LINE
  8
CSLAYER1
  6
CONTINUOUS
 62
     6
 10
225.591119
 20
157.044407
 11
225.449888
 21
156.921610
  0
LINE
  8
CSLAYER1
  6
CONTINUOUS
 62
     6
 10
225.449888
 20
156.921610
 11
225.303705
 21
156.793724
  0
LINE
  8
CSLAYER1
  6
CONTINUOUS
 62
     6
 10
225.303705
 20
156.793724
 11
225.153712
 21
156.661217
  0
LINE
  8
CSLAYER1
  6
CONTINUOUS
 62
     6
 10
225.153712
 20
156.661217
 11
225.001050
 21
156.524558
  0
LINE
  8
CSLAYER1
  6
CONTINUOUS
 62
     6
 10
225.001050
 20
156.524558
 11
224.846863
 21
156.384213
  0
LINE
  8
CSLAYER1
  6
CONTINUOUS
 62
     6
 10
224.846863
 20
156.384213
 11
224.692293
 21
156.240650
  0
LINE
  8
CSLAYER1
  6
CONTINUOUS
 62
     6
 10
224.692293
 20
156.240650
 11
224.538482
 21
156.094338
  0
LINE
  8
CSLAYER1
  6
CONTINUOUS
 62
     6
 10
224.538482
 20
156.094338
 11
224.386571
 21
155.945743
  0
LINE
  8
CSLAYER1
  6
CONTINUOUS
 62
     6
 10
224.386571
 20
155.945743
 11
224.237704
 21
155.795333
  0
LINE
  8
CSLAYER1
  6
CONTINUOUS
 62
     6
 10
224.237704
 20
155.795333
 11
224.093022
 21
155.643577
  0
LINE
  8
CSLAYER1
  6
CONTINUOUS
 62
     6
 10
224.093022
 20
155.643577
 11
223.953668
 21
155.490941
  0
LINE
  8
CSLAYER1
  6
CONTINUOUS
 62
     6
 10
223.953668
 20
155.490941
 11
223.898144
 21
155.427997
  0
LINE
  8
CSLAYER1
  6
CONTINUOUS
 62
     6
 10
223.898144
 20
155.427997
 11
223.843216
 21
155.364497
  0
LINE
  8
CSLAYER1
  6
CONTINUOUS
 62
     6
 10
223.843216
 20
155.364497
 11
223.788825
 21
155.300495
  0
LINE
  8
CSLAYER1
  6
CONTINUOUS
 62
     6
 10
223.788825
 20
155.300495
 11
223.734912
 21
155.236049
  0
LINE
  8
CSLAYER1
  6
CONTINUOUS
 62
     6
 10
223.734912
 20
155.236049
 11
223.681416
 21
155.171213
  0
LINE
  8
CSLAYER1
  6
CONTINUOUS
 62
     6
 10
223.681416
 20
155.171213
 11
223.628278
 21
155.106043
  0
LINE
  8
CSLAYER1
  6
CONTINUOUS
 62
     6
 10
223.628278
 20
155.106043
 11
223.575438
 21
155.040595
  0
LINE
  8
CSLAYER1
  6
CONTINUOUS
 62
     6
 10
223.575438
 20
155.040595
 11
223.522837
 21
154.974925
  0
LINE
  8
CSLAYER1
  6
CONTINUOUS
 62
     6
 10
223.522837
 20
154.974925
 11
223.470415
 21
154.909087
  0
LINE
  8
CSLAYER1
  6
CONTINUOUS
 62
     6
 10
223.470415
 20
154.909087
 11
223.418112
 21
154.843139
  0
LINE
  8
CSLAYER1
  6
CONTINUOUS
 62
     6
 10
223.418112
 20
154.843139
 11
223.289557
 21
154.680721
  0
LINE
  8
CSLAYER1
  6
CONTINUOUS
 62
     6
 10
223.289557
 20
154.680721
 11
223.318295
 21
154.633866
  0
LINE
  8
CSLAYER1
  6
CONTINUOUS
 62
     6
 10
223.318295
 20
154.633866
 11
223.358887
 21
154.573985
  0
LINE
  8
CSLAYER1
  6
CONTINUOUS
 62
     6
 10
223.358887
 20
154.573985
 11
223.403169
 21
154.514117
  0
LINE
  8
CSLAYER1
  6
CONTINUOUS
 62
     6
 10
223.403169
 20
154.514117
 11
223.450620
 21
154.454844
  0
LINE
  8
CSLAYER1
  6
CONTINUOUS
 62
     6
 10
223.450620
 20
154.454844
 11
223.500719
 21
154.396746
  0
LINE
  8
CSLAYER1
  6
CONTINUOUS
 62
     6
 10
223.500719
 20
154.396746
 11
223.552943
 21
154.340406
  0
LINE
  8
CSLAYER1
  6
CONTINUOUS
 62
     6
 10
223.552943
 20
154.340406
 11
223.606772
 21
154.286402
  0
LINE
  8
CSLAYER1
  6
CONTINUOUS
 62
     6
 10
223.606772
 20
154.286402
 11
223.661682
 21
154.235317
  0
LINE
  8
CSLAYER1
  6
CONTINUOUS
 62
     6
 10
224.082219
 20
153.984742
 11
221.736688
 21
151.310856
  0
LINE
  8
CSLAYER1
  6
CONTINUOUS
 62
     6
 10
222.421930
 20
150.861912
 11
224.648052
 21
153.838150
  0
LINE
  8
CSLAYER1
  6
CONTINUOUS
 62
     6
 10
230.054222
 20
151.579954
 11
230.123370
 21
151.545426
  0
LINE
  8
CSLAYER1
  6
CONTINUOUS
 62
     6
 10
230.123370
 20
151.545426
 11
230.207846
 21
151.497809
  0
LINE
  8
CSLAYER1
  6
CONTINUOUS
 62
     6
 10
230.207846
 20
151.497809
 11
230.293778
 21
151.444059
  0
LINE
  8
CSLAYER1
  6
CONTINUOUS
 62
     6
 10
230.293778
 20
151.444059
 11
230.379898
 21
151.384835
  0
LINE
  8
CSLAYER1
  6
CONTINUOUS
 62
     6
 10
230.379898
 20
151.384835
 11
230.464933
 21
151.320797
  0
LINE
  8
CSLAYER1
  6
CONTINUOUS
 62
     6
 10
230.464933
 20
151.320797
 11
230.547616
 21
151.252606
  0
LINE
  8
CSLAYER1
  6
CONTINUOUS
 62
     6
 10
230.547616
 20
151.252606
 11
230.626675
 21
151.180923
  0
LINE
  8
CSLAYER1
  6
CONTINUOUS
 62
     6
 10
230.626675
 20
151.180923
 11
230.700841
 21
151.106407
  0
LINE
  8
CSLAYER1
  6
CONTINUOUS
 62
     6
 10
230.700841
 20
151.106407
 11
230.768844
 21
151.029720
  0
LINE
  8
CSLAYER1
  6
CONTINUOUS
 62
     6
 10
230.768844
 20
151.029720
 11
230.829414
 21
150.951521
  0
LINE
  8
CSLAYER1
  6
CONTINUOUS
 62
     6
 10
230.829414
 20
150.951521
 11
230.881280
 21
150.872471
  0
LINE
  8
CSLAYER1
  6
CONTINUOUS
 62
     6
 10
230.881280
 20
150.872471
 11
230.897187
 21
150.844865
  0
LINE
  8
CSLAYER1
  6
CONTINUOUS
 62
     6
 10
230.897187
 20
150.844865
 11
230.912840
 21
150.816171
  0
LINE
  8
CSLAYER1
  6
CONTINUOUS
 62
     6
 10
230.912840
 20
150.816171
 11
230.928282
 21
150.786558
  0
LINE
  8
CSLAYER1
  6
CONTINUOUS
 62
     6
 10
230.928282
 20
150.786558
 11
230.943555
 21
150.756192
  0
LINE
  8
CSLAYER1
  6
CONTINUOUS
 62
     6
 10
230.943555
 20
150.756192
 11
230.958701
 21
150.725240
  0
LINE
  8
CSLAYER1
  6
CONTINUOUS
 62
     6
 10
230.958701
 20
150.725240
 11
230.973761
 21
150.693870
  0
LINE
  8
CSLAYER1
  6
CONTINUOUS
 62
     6
 10
230.973761
 20
150.693870
 11
230.988778
 21
150.662248
  0
LINE
  8
CSLAYER1
  6
CONTINUOUS
 62
     6
 10
230.988778
 20
150.662248
 11
231.003793
 21
150.630543
  0
LINE
  8
CSLAYER1
  6
CONTINUOUS
 62
     6
 10
231.003793
 20
150.630543
 11
231.018849
 21
150.598921
  0
LINE
  8
CSLAYER1
  6
CONTINUOUS
 62
     6
 10
231.018849
 20
150.598921
 11
231.033987
 21
150.567549
  0
LINE
  8
CSLAYER1
  6
CONTINUOUS
 62
     6
 10
231.033987
 20
150.567549
 11
231.049249
 21
150.536595
  0
LINE
  8
CSLAYER1
  6
CONTINUOUS
 62
     6
 10
231.049249
 20
150.536595
 11
231.090070
 21
150.458458
  0
LINE
  8
CSLAYER1
  6
CONTINUOUS
 62
     6
 10
231.090070
 20
150.458458
 11
231.133406
 21
150.381926
  0
LINE
  8
CSLAYER1
  6
CONTINUOUS
 62
     6
 10
231.133406
 20
150.381926
 11
231.179004
 21
150.306837
  0
LINE
  8
CSLAYER1
  6
CONTINUOUS
 62
     6
 10
231.179004
 20
150.306837
 11
231.226614
 21
150.233033
  0
LINE
  8
CSLAYER1
  6
CONTINUOUS
 62
     6
 10
231.226614
 20
150.233033
 11
231.275984
 21
150.160351
  0
LINE
  8
CSLAYER1
  6
CONTINUOUS
 62
     6
 10
231.275984
 20
150.160351
 11
231.326863
 21
150.088633
  0
LINE
  8
CSLAYER1
  6
CONTINUOUS
 62
     6
 10
231.326863
 20
150.088633
 11
231.378999
 21
150.017716
  0
LINE
  8
CSLAYER1
  6
CONTINUOUS
 62
     6
 10
231.378999
 20
150.017716
 11
231.432141
 21
149.947442
  0
LINE
  8
CSLAYER1
  6
CONTINUOUS
 62
     6
 10
231.432141
 20
149.947442
 11
231.486037
 21
149.877649
  0
LINE
  8
CSLAYER1
  6
CONTINUOUS
 62
     6
 10
231.486037
 20
149.877649
 11
231.540436
 21
149.808177
  0
LINE
  8
CSLAYER1
  6
CONTINUOUS
 62
     6
 10
231.540436
 20
149.808177
 11
231.592509
 21
149.742134
  0
LINE
  8
CSLAYER1
  6
CONTINUOUS
 62
     6
 10
231.592509
 20
149.742134
 11
231.719856
 21
149.851435
  0
LINE
  8
CSLAYER1
  6
CONTINUOUS
 62
     6
 10
231.719856
 20
149.851435
 11
231.856571
 21
149.969468
  0
LINE
  8
CSLAYER1
  6
CONTINUOUS
 62
     6
 10
231.856571
 20
149.969468
 11
231.992459
 21
150.088172
  0
LINE
  8
CSLAYER1
  6
CONTINUOUS
 62
     6
 10
231.992459
 20
150.088172
 11
232.127105
 21
150.207883
  0
LINE
  8
CSLAYER1
  6
CONTINUOUS
 62
     6
 10
232.127105
 20
150.207883
 11
232.260096
 21
150.328938
  0
LINE
  8
CSLAYER1
  6
CONTINUOUS
 62
     6
 10
232.260096
 20
150.328938
 11
232.391019
 21
150.451671
  0
LINE
  8
CSLAYER1
  6
CONTINUOUS
 62
     6
 10
232.391019
 20
150.451671
 11
232.519459
 21
150.576419
  0
LINE
  8
CSLAYER1
  6
CONTINUOUS
 62
     6
 10
232.519459
 20
150.576419
 11
232.645002
 21
150.703517
  0
LINE
  8
CSLAYER1
  6
CONTINUOUS
 62
     6
 10
232.645002
 20
150.703517
 11
232.767235
 21
150.833300
  0
LINE
  8
CSLAYER1
  6
CONTINUOUS
 62
     6
 10
232.767235
 20
150.833300
 11
232.885745
 21
150.966106
  0
LINE
  8
CSLAYER1
  6
CONTINUOUS
 62
     6
 10
232.885745
 20
150.966106
 11
233.000116
 21
151.102269
  0
LINE
  8
CSLAYER1
  6
CONTINUOUS
 62
     6
 10
233.000116
 20
151.102269
 11
233.136612
 21
151.276495
  0
LINE
  8
CSLAYER1
  6
CONTINUOUS
 62
     6
 10
233.136612
 20
151.276495
 11
233.268955
 21
151.457171
  0
LINE
  8
CSLAYER1
  6
CONTINUOUS
 62
     6
 10
233.268955
 20
151.457171
 11
233.397427
 21
151.642941
  0
LINE
  8
CSLAYER1
  6
CONTINUOUS
 62
     6
 10
233.397427
 20
151.642941
 11
233.522308
 21
151.832449
  0
LINE
  8
CSLAYER1
  6
CONTINUOUS
 62
     6
 10
233.522308
 20
151.832449
 11
233.643880
 21
152.024337
  0
LINE
  8
CSLAYER1
  6
CONTINUOUS
 62
     6
 10
233.643880
 20
152.024337
 11
233.762425
 21
152.217250
  0
LINE
  8
CSLAYER1
  6
CONTINUOUS
 62
     6
 10
233.762425
 20
152.217250
 11
233.878223
 21
152.409830
  0
LINE
  8
CSLAYER1
  6
CONTINUOUS
 62
     6
 10
233.878223
 20
152.409830
 11
233.991555
 21
152.600721
  0
LINE
  8
CSLAYER1
  6
CONTINUOUS
 62
     6
 10
233.991555
 20
152.600721
 11
234.102704
 21
152.788566
  0
LINE
  8
CSLAYER1
  6
CONTINUOUS
 62
     6
 10
234.102704
 20
152.788566
 11
234.211950
 21
152.972009
  0
LINE
  8
CSLAYER1
  6
CONTINUOUS
 62
     6
 10
234.211950
 20
152.972009
 11
234.319574
 21
153.149693
  0
LINE
  8
CSLAYER1
  6
CONTINUOUS
 62
     6
 10
234.319574
 20
153.149693
 11
234.424900
 21
153.315380
  0
LINE
  8
CSLAYER1
  6
CONTINUOUS
 62
     6
 10
234.424900
 20
153.315380
 11
234.539629
 21
153.485269
  0
LINE
  8
CSLAYER1
  6
CONTINUOUS
 62
     6
 10
234.539629
 20
153.485269
 11
234.661929
 21
153.657932
  0
LINE
  8
CSLAYER1
  6
CONTINUOUS
 62
     6
 10
234.661929
 20
153.657932
 11
234.789971
 21
153.831942
  0
LINE
  8
CSLAYER1
  6
CONTINUOUS
 62
     6
 10
234.789971
 20
153.831942
 11
234.921923
 21
154.005872
  0
LINE
  8
CSLAYER1
  6
CONTINUOUS
 62
     6
 10
234.921923
 20
154.005872
 11
235.055955
 21
154.178293
  0
LINE
  8
CSLAYER1
  6
CONTINUOUS
 62
     6
 10
235.055955
 20
154.178293
 11
235.190236
 21
154.347778
  0
LINE
  8
CSLAYER1
  6
CONTINUOUS
 62
     6
 10
235.190236
 20
154.347778
 11
235.322935
 21
154.512900
  0
LINE
  8
CSLAYER1
  6
CONTINUOUS
 62
     6
 10
235.322935
 20
154.512900
 11
235.452221
 21
154.672230
  0
LINE
  8
CSLAYER1
  6
CONTINUOUS
 62
     6
 10
235.452221
 20
154.672230
 11
235.576263
 21
154.824342
  0
LINE
  8
CSLAYER1
  6
CONTINUOUS
 62
     6
 10
235.576263
 20
154.824342
 11
235.745520
 21
155.031943
  0
ARC
  8
CSLAYER1
  6
CONTINUOUS
 62
     6
 10
234.663270
 20
154.602171
 40
1.164461
 50
21.658505
 51
86.024005
  0
ARC
  8
CSLAYER1
  6
CONTINUOUS
 62
     6
 10
233.697616
 20
155.252925
 40
1.164461
 50
26.024005
 51
86.024005
  0
ARC
  8
CSLAYER1
  6
CONTINUOUS
 62
     6
 10
234.824754
 20
156.925487
 40
1.164461
 50
206.024005
 51
266.024005
  0
LINE
  8
CSLAYER1
  6
CONTINUOUS
 62
     6
 10
233.778344
 20
156.414586
 11
233.657163
 21
156.266672
  0
LINE
  8
CSLAYER1
  6
CONTINUOUS
 62
     6
 10
233.657163
 20
156.266672
 11
233.528153
 21
156.109273
  0
LINE
  8
CSLAYER1
  6
CONTINUOUS
 62
     6
 10
233.528153
 20
156.109273
 11
233.393351
 21
155.943961
  0
LINE
  8
CSLAYER1
  6
CONTINUOUS
 62
     6
 10
233.393351
 20
155.943961
 11
233.254794
 21
155.772309
  0
LINE
  8
CSLAYER1
  6
CONTINUOUS
 62
     6
 10
233.254794
 20
155.772309
 11
233.114519
 21
155.595887
  0
LINE
  8
CSLAYER1
  6
CONTINUOUS
 62
     6
 10
233.114519
 20
155.595887
 11
232.974561
 21
155.416269
  0
LINE
  8
CSLAYER1
  6
CONTINUOUS
 62
     6
 10
232.974561
 20
155.416269
 11
232.836958
 21
155.235026
  0
LINE
  8
CSLAYER1
  6
CONTINUOUS
 62
     6
 10
232.836958
 20
155.235026
 11
232.703746
 21
155.053729
  0
LINE
  8
CSLAYER1
  6
CONTINUOUS
 62
     6
 10
232.703746
 20
155.053729
 11
232.576962
 21
154.873952
  0
LINE
  8
CSLAYER1
  6
CONTINUOUS
 62
     6
 10
232.576962
 20
154.873952
 11
232.458643
 21
154.697266
  0
LINE
  8
CSLAYER1
  6
CONTINUOUS
 62
     6
 10
232.458643
 20
154.697266
 11
232.350824
 21
154.525242
  0
LINE
  8
CSLAYER1
  6
CONTINUOUS
 62
     6
 10
232.350824
 20
154.525242
 11
232.253185
 21
154.361481
  0
LINE
  8
CSLAYER1
  6
CONTINUOUS
 62
     6
 10
232.253185
 20
154.361481
 11
232.153556
 21
154.192214
  0
LINE
  8
CSLAYER1
  6
CONTINUOUS
 62
     6
 10
232.153556
 20
154.192214
 11
232.051730
 21
154.018743
  0
LINE
  8
CSLAYER1
  6
CONTINUOUS
 62
     6
 10
232.051730
 20
154.018743
 11
231.947500
 21
153.842370
  0
LINE
  8
CSLAYER1
  6
CONTINUOUS
 62
     6
 10
231.947500
 20
153.842370
 11
231.840660
 21
153.664397
  0
LINE
  8
CSLAYER1
  6
CONTINUOUS
 62
     6
 10
231.840660
 20
153.664397
 11
231.731002
 21
153.486128
  0
LINE
  8
CSLAYER1
  6
CONTINUOUS
 62
     6
 10
231.731002
 20
153.486128
 11
231.618322
 21
153.308863
  0
LINE
  8
CSLAYER1
  6
CONTINUOUS
 62
     6
 10
231.618322
 20
153.308863
 11
231.502411
 21
153.133905
  0
LINE
  8
CSLAYER1
  6
CONTINUOUS
 62
     6
 10
231.502411
 20
153.133905
 11
231.383064
 21
152.962557
  0
LINE
  8
CSLAYER1
  6
CONTINUOUS
 62
     6
 10
231.383064
 20
152.962557
 11
231.260074
 21
152.796121
  0
LINE
  8
CSLAYER1
  6
CONTINUOUS
 62
     6
 10
231.260074
 20
152.796121
 11
231.133233
 21
152.635899
  0
LINE
  8
CSLAYER1
  6
CONTINUOUS
 62
     6
 10
231.133233
 20
152.635899
 11
231.034412
 21
152.519386
  0
LINE
  8
CSLAYER1
  6
CONTINUOUS
 62
     6
 10
231.034412
 20
152.519386
 11
230.932200
 21
152.405627
  0
LINE
  8
CSLAYER1
  6
CONTINUOUS
 62
     6
 10
230.932200
 20
152.405627
 11
230.826936
 21
152.294346
  0
LINE
  8
CSLAYER1
  6
CONTINUOUS
 62
     6
 10
230.826936
 20
152.294346
 11
230.718959
 21
152.185268
  0
LINE
  8
CSLAYER1
  6
CONTINUOUS
 62
     6
 10
230.718959
 20
152.185268
 11
230.608608
 21
152.078117
  0
LINE
  8
CSLAYER1
  6
CONTINUOUS
 62
     6
 10
230.608608
 20
152.078117
 11
230.496222
 21
151.972619
  0
LINE
  8
CSLAYER1
  6
CONTINUOUS
 62
     6
 10
230.496222
 20
151.972619
 11
230.382141
 21
151.868497
  0
LINE
  8
CSLAYER1
  6
CONTINUOUS
 62
     6
 10
230.382141
 20
151.868497
 11
230.266704
 21
151.765477
  0
LINE
  8
CSLAYER1
  6
CONTINUOUS
 62
     6
 10
230.266704
 20
151.765477
 11
230.150249
 21
151.663282
  0
LINE
  8
CSLAYER1
  6
CONTINUOUS
 62
     6
 10
230.150249
 20
151.663282
 11
230.054222
 21
151.579954
  0
LINE
  8
CSLAYER1
  6
CONTINUOUS
 62
     6
 10
230.507773
 20
151.285466
 11
227.761926
 21
148.782628
  0
LINE
  8
CSLAYER1
  6
CONTINUOUS
 62
     6
 10
228.376275
 20
148.569981
 11
230.819271
 21
150.964616
  0
LINE
  8
CSLAYER1
  6
CONTINUOUS
 62
     6
 10
231.099741
 20
150.441379
 11
228.848810
 21
148.002873
  0
LINE
  8
CSLAYER1
  6
CONTINUOUS
 62
     6
 10
230.629388
 20
158.429905
 11
230.732342
 21
158.470206
  0
LINE
  8
CSLAYER1
  6
CONTINUOUS
 62
     6
 10
230.732342
 20
158.470206
 11
230.835110
 21
158.510783
  0
LINE
  8
CSLAYER1
  6
CONTINUOUS
 62
     6
 10
230.835110
 20
158.510783
 11
230.937507
 21
158.551909
  0
LINE
  8
CSLAYER1
  6
CONTINUOUS
 62
     6
 10
230.937507
 20
158.551909
 11
231.039346
 21
158.593861
  0
LINE
  8
CSLAYER1
  6
CONTINUOUS
 62
     6
 10
231.039346
 20
158.593861
 11
231.140442
 21
158.636912
  0
LINE
  8
CSLAYER1
  6
CONTINUOUS
 62
     6
 10
231.140442
 20
158.636912
 11
231.240608
 21
158.681338
  0
LINE
  8
CSLAYER1
  6
CONTINUOUS
 62
     6
 10
231.240608
 20
158.681338
 11
231.339660
 21
158.727415
  0
LINE
  8
CSLAYER1
  6
CONTINUOUS
 62
     6
 10
231.339660
 20
158.727415
 11
231.437411
 21
158.775416
  0
LINE
  8
CSLAYER1
  6
CONTINUOUS
 62
     6
 10
231.437411
 20
158.775416
 11
231.533676
 21
158.825617
  0
LINE
  8
CSLAYER1
  6
CONTINUOUS
 62
     6
 10
231.533676
 20
158.825617
 11
231.628268
 21
158.878294
  0
LINE
  8
CSLAYER1
  6
CONTINUOUS
 62
     6
 10
231.628268
 20
158.878294
 11
231.721002
 21
158.933720
  0
LINE
  8
CSLAYER1
  6
CONTINUOUS
 62
     6
 10
231.721002
 20
158.933720
 11
231.891285
 21
159.046253
  0
LINE
  8
CSLAYER1
  6
CONTINUOUS
 62
     6
 10
231.891285
 20
159.046253
 11
232.057589
 21
159.169193
  0
LINE
  8
CSLAYER1
  6
CONTINUOUS
 62
     6
 10
232.057589
 20
159.169193
 11
232.219813
 21
159.300983
  0
LINE
  8
CSLAYER1
  6
CONTINUOUS
 62
     6
 10
232.219813
 20
159.300983
 11
232.377854
 21
159.440068
  0
LINE
  8
CSLAYER1
  6
CONTINUOUS
 62
     6
 10
232.377854
 20
159.440068
 11
232.531610
 21
159.584892
  0
LINE
  8
CSLAYER1
  6
CONTINUOUS
 62
     6
 10
232.531610
 20
159.584892
 11
232.680981
 21
159.733899
  0
LINE
  8
CSLAYER1
  6
CONTINUOUS
 62
     6
 10
232.680981
 20
159.733899
 11
232.825864
 21
159.885532
  0
LINE
  8
CSLAYER1
  6
CONTINUOUS
 62
     6
 10
232.825864
 20
159.885532
 11
232.966157
 21
160.038237
  0
LINE
  8
CSLAYER1
  6
CONTINUOUS
 62
     6
 10
232.966157
 20
160.038237
 11
233.101760
 21
160.190457
  0
LINE
  8
CSLAYER1
  6
CONTINUOUS
 62
     6
 10
233.101760
 20
160.190457
 11
233.232569
 21
160.340635
  0
LINE
  8
CSLAYER1
  6
CONTINUOUS
 62
     6
 10
233.232569
 20
160.340635
 11
233.358484
 21
160.487217
  0
LINE
  8
CSLAYER1
  6
CONTINUOUS
 62
     6
 10
233.358484
 20
160.487217
 11
233.497012
 21
160.643407
  0
LINE
  8
CSLAYER1
  6
CONTINUOUS
 62
     6
 10
233.497012
 20
160.643407
 11
233.645028
 21
160.800583
  0
LINE
  8
CSLAYER1
  6
CONTINUOUS
 62
     6
 10
233.645028
 20
160.800583
 11
233.800567
 21
160.958435
  0
LINE
  8
CSLAYER1
  6
CONTINUOUS
 62
     6
 10
233.800567
 20
160.958435
 11
233.961664
 21
161.116655
  0
LINE
  8
CSLAYER1
  6
CONTINUOUS
 62
     6
 10
233.961664
 20
161.116655
 11
234.126354
 21
161.274935
  0
LINE
  8
CSLAYER1
  6
CONTINUOUS
 62
     6
 10
234.126354
 20
161.274935
 11
234.292672
 21
161.432966
  0
LINE
  8
CSLAYER1
  6
CONTINUOUS
 62
     6
 10
234.292672
 20
161.432966
 11
234.458652
 21
161.590440
  0
LINE
  8
CSLAYER1
  6
CONTINUOUS
 62
     6
 10
234.458652
 20
161.590440
 11
234.622329
 21
161.747048
  0
LINE
  8
CSLAYER1
  6
CONTINUOUS
 62
     6
 10
234.622329
 20
161.747048
 11
234.781738
 21
161.902481
  0
LINE
  8
CSLAYER1
  6
CONTINUOUS
 62
     6
 10
234.781738
 20
161.902481
 11
234.934913
 21
162.056432
  0
LINE
  8
CSLAYER1
  6
CONTINUOUS
 62
     6
 10
234.934913
 20
162.056432
 11
235.079889
 21
162.208592
  0
LINE
  8
CSLAYER1
  6
CONTINUOUS
 62
     6
 10
235.079889
 20
162.208592
 11
235.202104
 21
162.341021
  0
LINE
  8
CSLAYER1
  6
CONTINUOUS
 62
     6
 10
235.202104
 20
162.341021
 11
235.327703
 21
162.478671
  0
LINE
  8
CSLAYER1
  6
CONTINUOUS
 62
     6
 10
235.327703
 20
162.478671
 11
235.455552
 21
162.620643
  0
LINE
  8
CSLAYER1
  6
CONTINUOUS
 62
     6
 10
235.455552
 20
162.620643
 11
235.584519
 21
162.766038
  0
LINE
  8
CSLAYER1
  6
CONTINUOUS
 62
     6
 10
235.584519
 20
162.766038
 11
235.713472
 21
162.913956
  0
LINE
  8
CSLAYER1
  6
CONTINUOUS
 62
     6
 10
235.713472
 20
162.913956
 11
235.841277
 21
163.063499
  0
LINE
  8
CSLAYER1
  6
CONTINUOUS
 62
     6
 10
235.841277
 20
163.063499
 11
235.966803
 21
163.213767
  0
LINE
  8
CSLAYER1
  6
CONTINUOUS
 62
     6
 10
235.966803
 20
163.213767
 11
236.088917
 21
163.363861
  0
LINE
  8
CSLAYER1
  6
CONTINUOUS
 62
     6
 10
236.088917
 20
163.363861
 11
236.206485
 21
163.512883
  0
LINE
  8
CSLAYER1
  6
CONTINUOUS
 62
     6
 10
236.206485
 20
163.512883
 11
236.318376
 21
163.659933
  0
LINE
  8
CSLAYER1
  6
CONTINUOUS
 62
     6
 10
236.318376
 20
163.659933
 11
236.423456
 21
163.804112
  0
LINE
  8
CSLAYER1
  6
CONTINUOUS
 62
     6
 10
236.423456
 20
163.804112
 11
236.551701
 21
163.986326
  0
LINE
  8
CSLAYER1
  6
CONTINUOUS
 62
     6
 10
236.551701
 20
163.986326
 11
236.684232
 21
164.178351
  0
LINE
  8
CSLAYER1
  6
CONTINUOUS
 62
     6
 10
236.684232
 20
164.178351
 11
236.819468
 21
164.378001
  0
LINE
  8
CSLAYER1
  6
CONTINUOUS
 62
     6
 10
236.819468
 20
164.378001
 11
236.955829
 21
164.583088
  0
LINE
  8
CSLAYER1
  6
CONTINUOUS
 62
     6
 10
236.955829
 20
164.583088
 11
237.091731
 21
164.791428
  0
LINE
  8
CSLAYER1
  6
CONTINUOUS
 62
     6
 10
237.091731
 20
164.791428
 11
237.225593
 21
165.000834
  0
LINE
  8
CSLAYER1
  6
CONTINUOUS
 62
     6
 10
237.225593
 20
165.000834
 11
237.355835
 21
165.209119
  0
LINE
  8
CSLAYER1
  6
CONTINUOUS
 62
     6
 10
237.355835
 20
165.209119
 11
237.480873
 21
165.414099
  0
LINE
  8
CSLAYER1
  6
CONTINUOUS
 62
     6
 10
237.480873
 20
165.414099
 11
237.599127
 21
165.613586
  0
LINE
  8
CSLAYER1
  6
CONTINUOUS
 62
     6
 10
237.599127
 20
165.613586
 11
237.709014
 21
165.805395
  0
LINE
  8
CSLAYER1
  6
CONTINUOUS
 62
     6
 10
237.709014
 20
165.805395
 11
237.757261
 21
165.893229
  0
LINE
  8
CSLAYER1
  6
CONTINUOUS
 62
     6
 10
237.753154
 20
165.870326
 11
237.692125
 21
165.557015
  0
LINE
  8
CSLAYER1
  6
CONTINUOUS
 62
     6
 10
237.692125
 20
165.557015
 11
237.625768
 21
165.237927
  0
LINE
  8
CSLAYER1
  6
CONTINUOUS
 62
     6
 10
237.625768
 20
165.237927
 11
237.555216
 21
164.916316
  0
LINE
  8
CSLAYER1
  6
CONTINUOUS
 62
     6
 10
237.555216
 20
164.916316
 11
237.481600
 21
164.595434
  0
LINE
  8
CSLAYER1
  6
CONTINUOUS
 62
     6
 10
237.481600
 20
164.595434
 11
237.406054
 21
164.278534
  0
LINE
  8
CSLAYER1
  6
CONTINUOUS
 62
     6
 10
237.406054
 20
164.278534
 11
237.329710
 21
163.968869
  0
LINE
  8
CSLAYER1
  6
CONTINUOUS
 62
     6
 10
237.329710
 20
163.968869
 11
237.253702
 21
163.669690
  0
LINE
  8
CSLAYER1
  6
CONTINUOUS
 62
     6
 10
237.253702
 20
163.669690
 11
237.179162
 21
163.384251
  0
LINE
  8
CSLAYER1
  6
CONTINUOUS
 62
     6
 10
237.179162
 20
163.384251
 11
237.103692
 21
163.114758
  0
LINE
  8
CSLAYER1
  6
CONTINUOUS
 62
     6
 10
237.103692
 20
163.114758
 11
237.018846
 21
162.840043
  0
LINE
  8
CSLAYER1
  6
CONTINUOUS
 62
     6
 10
237.018846
 20
162.840043
 11
236.925401
 21
162.561237
  0
LINE
  8
CSLAYER1
  6
CONTINUOUS
 62
     6
 10
236.925401
 20
162.561237
 11
236.824136
 21
162.279472
  0
LINE
  8
CSLAYER1
  6
CONTINUOUS
 62
     6
 10
236.824136
 20
162.279472
 11
236.715827
 21
161.995879
  0
LINE
  8
CSLAYER1
  6
CONTINUOUS
 62
     6
 10
236.715827
 20
161.995879
 11
236.601252
 21
161.711589
  0
LINE
  8
CSLAYER1
  6
CONTINUOUS
 62
     6
 10
236.601252
 20
161.711589
 11
236.481189
 21
161.427733
  0
LINE
  8
CSLAYER1
  6
CONTINUOUS
 62
     6
 10
236.481189
 20
161.427733
 11
236.356415
 21
161.145443
  0
LINE
  8
CSLAYER1
  6
CONTINUOUS
 62
     6
 10
236.356415
 20
161.145443
 11
236.227707
 21
160.865850
  0
LINE
  8
CSLAYER1
  6
CONTINUOUS
 62
     6
 10
236.227707
 20
160.865850
 11
236.095844
 21
160.590085
  0
LINE
  8
CSLAYER1
  6
CONTINUOUS
 62
     6
 10
236.095844
 20
160.590085
 11
235.961603
 21
160.319279
  0
LINE
  8
CSLAYER1
  6
CONTINUOUS
 62
     6
 10
235.961603
 20
160.319279
 11
235.841458
 21
160.084851
  0
LINE
  8
CSLAYER1
  6
CONTINUOUS
 62
     6
 10
235.841458
 20
160.084851
 11
235.718561
 21
159.851970
  0
LINE
  8
CSLAYER1
  6
CONTINUOUS
 62
     6
 10
235.718561
 20
159.851970
 11
235.593187
 21
159.620480
  0
LINE
  8
CSLAYER1
  6
CONTINUOUS
 62
     6
 10
235.593187
 20
159.620480
 11
235.465611
 21
159.390228
  0
LINE
  8
CSLAYER1
  6
CONTINUOUS
 62
     6
 10
235.465611
 20
159.390228
 11
235.336109
 21
159.161058
  0
LINE
  8
CSLAYER1
  6
CONTINUOUS
 62
     6
 10
235.336109
 20
159.161058
 11
235.204956
 21
158.932816
  0
LINE
  8
CSLAYER1
  6
CONTINUOUS
 62
     6
 10
235.204956
 20
158.932816
 11
235.072426
 21
158.705348
  0
LINE
  8
CSLAYER1
  6
CONTINUOUS
 62
     6
 10
235.072426
 20
158.705348
 11
234.938796
 21
158.478498
  0
LINE
  8
CSLAYER1
  6
CONTINUOUS
 62
     6
 10
234.938796
 20
158.478498
 11
234.804339
 21
158.252112
  0
LINE
  8
CSLAYER1
  6
CONTINUOUS
 62
     6
 10
234.804339
 20
158.252112
 11
234.669333
 21
158.026036
  0
LINE
  8
CSLAYER1
  6
CONTINUOUS
 62
     6
 10
234.669333
 20
158.026036
 11
234.534051
 21
157.800114
  0
ARC
  8
CSLAYER1
  6
CONTINUOUS
 62
     6
 10
235.568454
 20
158.408469
 40
1.200008
 50
210.461486
 51
270.461486
  0
ARC
  8
CSLAYER1
  6
CONTINUOUS
 62
     6
 10
236.612490
 20
157.816855
 40
1.200008
 50
210.461486
 51
270.461486
  0
ARC
  8
CSLAYER1
  6
CONTINUOUS
 62
     6
 10
235.587785
 20
156.008531
 40
1.200008
 50
30.461486
 51
90.461486
  0
LINE
  8
CSLAYER1
  6
CONTINUOUS
 62
     6
 10
236.622156
 20
156.616887
 11
236.764942
 21
156.855783
  0
LINE
  8
CSLAYER1
  6
CONTINUOUS
 62
     6
 10
236.764942
 20
156.855783
 11
236.907447
 21
157.094837
  0
LINE
  8
CSLAYER1
  6
CONTINUOUS
 62
     6
 10
236.907447
 20
157.094837
 11
237.049391
 21
157.334209
  0
LINE
  8
CSLAYER1
  6
CONTINUOUS
 62
     6
 10
237.049391
 20
157.334209
 11
237.190493
 21
157.574056
  0
LINE
  8
CSLAYER1
  6
CONTINUOUS
 62
     6
 10
237.190493
 20
157.574056
 11
237.330471
 21
157.814538
  0
LINE
  8
CSLAYER1
  6
CONTINUOUS
 62
     6
 10
237.330471
 20
157.814538
 11
237.469046
 21
158.055813
  0
LINE
  8
CSLAYER1
  6
CONTINUOUS
 62
     6
 10
237.469046
 20
158.055813
 11
237.605936
 21
158.298040
  0
LINE
  8
CSLAYER1
  6
CONTINUOUS
 62
     6
 10
237.605936
 20
158.298040
 11
237.740861
 21
158.541377
  0
LINE
  8
CSLAYER1
  6
CONTINUOUS
 62
     6
 10
237.740861
 20
158.541377
 11
237.873540
 21
158.785983
  0
LINE
  8
CSLAYER1
  6
CONTINUOUS
 62
     6
 10
237.873540
 20
158.785983
 11
238.003692
 21
159.032017
  0
LINE
  8
CSLAYER1
  6
CONTINUOUS
 62
     6
 10
238.003692
 20
159.032017
 11
238.131036
 21
159.279637
  0
LINE
  8
CSLAYER1
  6
CONTINUOUS
 62
     6
 10
238.131036
 20
159.279637
 11
238.280710
 21
159.580458
  0
LINE
  8
CSLAYER1
  6
CONTINUOUS
 62
     6
 10
238.280710
 20
159.580458
 11
238.427665
 21
159.886840
  0
LINE
  8
CSLAYER1
  6
CONTINUOUS
 62
     6
 10
238.427665
 20
159.886840
 11
238.571032
 21
160.197522
  0
LINE
  8
CSLAYER1
  6
CONTINUOUS
 62
     6
 10
238.571032
 20
160.197522
 11
238.709941
 21
160.511246
  0
LINE
  8
CSLAYER1
  6
CONTINUOUS
 62
     6
 10
238.709941
 20
160.511246
 11
238.843523
 21
160.826752
  0
LINE
  8
CSLAYER1
  6
CONTINUOUS
 62
     6
 10
238.843523
 20
160.826752
 11
238.970910
 21
161.142780
  0
LINE
  8
CSLAYER1
  6
CONTINUOUS
 62
     6
 10
238.970910
 20
161.142780
 11
239.091232
 21
161.458071
  0
LINE
  8
CSLAYER1
  6
CONTINUOUS
 62
     6
 10
239.091232
 20
161.458071
 11
239.203620
 21
161.771367
  0
LINE
  8
CSLAYER1
  6
CONTINUOUS
 62
     6
 10
239.203620
 20
161.771367
 11
239.307206
 21
162.081406
  0
LINE
  8
CSLAYER1
  6
CONTINUOUS
 62
     6
 10
239.307206
 20
162.081406
 11
239.401119
 21
162.386930
  0
LINE
  8
CSLAYER1
  6
CONTINUOUS
 62
     6
 10
239.401119
 20
162.386930
 11
239.484491
 21
162.686680
  0
LINE
  8
CSLAYER1
  6
CONTINUOUS
 62
     6
 10
239.484491
 20
162.686680
 11
239.562908
 21
162.989097
  0
LINE
  8
CSLAYER1
  6
CONTINUOUS
 62
     6
 10
239.562908
 20
162.989097
 11
239.642973
 21
163.305898
  0
LINE
  8
CSLAYER1
  6
CONTINUOUS
 62
     6
 10
239.642973
 20
163.305898
 11
239.723489
 21
163.633689
  0
LINE
  8
CSLAYER1
  6
CONTINUOUS
 62
     6
 10
239.723489
 20
163.633689
 11
239.803263
 21
163.969075
  0
LINE
  8
CSLAYER1
  6
CONTINUOUS
 62
     6
 10
239.803263
 20
163.969075
 11
239.881099
 21
164.308659
  0
LINE
  8
CSLAYER1
  6
CONTINUOUS
 62
     6
 10
239.881099
 20
164.308659
 11
239.955802
 21
164.649046
  0
LINE
  8
CSLAYER1
  6
CONTINUOUS
 62
     6
 10
239.955802
 20
164.649046
 11
240.026178
 21
164.986843
  0
LINE
  8
CSLAYER1
  6
CONTINUOUS
 62
     6
 10
240.026178
 20
164.986843
 11
240.091031
 21
165.318652
  0
LINE
  8
CSLAYER1
  6
CONTINUOUS
 62
     6
 10
240.091031
 20
165.318652
 11
240.149166
 21
165.641079
  0
LINE
  8
CSLAYER1
  6
CONTINUOUS
 62
     6
 10
240.149166
 20
165.641079
 11
240.314284
 21
166.659123
  0
LINE
  8
CSLAYER1
  6
CONTINUOUS
 62
     6
 10
241.209758
 20
167.611882
 11
241.154674
 21
168.241704
  0
ARC
  8
CSLAYER1
  6
CONTINUOUS
 62
     6
 10
241.353923
 20
168.259129
 40
0.200000
 50
90.000003
 51
185.000154
  0
ARC
  8
CSLAYER1
  6
CONTINUOUS
 62
     6
 10
241.085673
 20
168.559117
 40
0.100000
 50
180.000005
 51
270.000001
  0
LINE
  8
CSLAYER1
  6
CONTINUOUS
 62
     6
 10
240.985637
 20
168.559117
 11
240.985637
 21
169.059117
  0
ARC
  8
CSLAYER1
  6
CONTINUOUS
 62
     6
 10
241.085673
 20
169.059117
 40
0.100000
 50
90.000003
 51
180.000005
  0
LINE
  8
CSLAYER1
  6
CONTINUOUS
 62
     6
 10
241.085673
 20
168.459111
 11
243.885661
 21
168.459111
  0
LINE
  8
CSLAYER1
  6
CONTINUOUS
 62
     6
 10
243.885661
 20
168.459111
 11
246.685649
 21
168.459141
  0
ARC
  8
CSLAYER1
  6
CONTINUOUS
 62
     6
 10
246.685649
 20
168.559117
 40
0.100000
 50
270.000001
 51
359.942691
  0
LINE
  8
CSLAYER1
  6
CONTINUOUS
 62
     6
 10
246.785625
 20
168.559117
 11
246.785625
 21
169.059117
  0
ARC
  8
CSLAYER1
  6
CONTINUOUS
 62
     6
 10
246.685649
 20
169.059117
 40
0.100000
 50
0.000010
 51
90.000016
  0
ARC
  8
CSLAYER1
  6
CONTINUOUS
 62
     6
 10
246.417399
 20
168.259129
 40
0.200000
 50
-5.000126
 51
90.000019
  0
LINE
  8
CSLAYER1
  6
CONTINUOUS
 62
     6
 10
246.616618
 20
168.241704
 11
246.561503
 21
167.611882
  0
ARC
  8
CSLAYER1
  6
CONTINUOUS
 62
     6
 10
245.565318
 20
167.699040
 40
1.000000
 50
286.257408
 51
354.999902
  0
ARC
  8
CSLAYER1
  6
CONTINUOUS
 62
     6
 10
243.885661
 20
173.459111
 40
7.000000
 50
253.743003
 51
286.257026
  0
ARC
  8
CSLAYER1
  6
CONTINUOUS
 62
     6
 10
242.205974
 20
167.699040
 40
1.000000
 50
185.000113
 51
253.742620
  0
LINE
  8
CSLAYER1
  6
CONTINUOUS
 62
     6
 10
242.224286
 20
166.659123
 11
233.135661
 21
166.659123
  0
ARC
  8
CSLAYER1
  6
CONTINUOUS
 62
     6
 10
233.135661
 20
168.659123
 40
2.000000
 50
180.000000
 51
270.000000
  0
LINE
  8
CSLAYER1
  6
CONTINUOUS
 62
     6
 10
231.135661
 20
168.659123
 11
231.135661
 21
169.159123
  0
LINE
  8
CSLAYER1
  6
CONTINUOUS
 62
     6
 10
230.885661
 20
169.159123
 11
256.885661
 21
169.159123
  0
LINE
  8
CSLAYER1
  6
CONTINUOUS
 62
     6
 10
256.885661
 20
171.159123
 11
230.885661
 21
171.159123
  0
LINE
  8
CSLAYER1
  6
CONTINUOUS
 62
     6
 10
230.885661
 20
171.159123
 11
230.885661
 21
167.159123
  0
LINE
  8
CSLAYER1
  6
CONTINUOUS
 62
     6
 10
230.885661
 20
167.159123
 11
226.885661
 21
167.159123
  0
LINE
  8
CSLAYER1
  6
CONTINUOUS
 62
     6
 10
231.355758
 20
161.589361
 11
231.113924
 21
161.393519
  0
LINE
  8
CSLAYER1
  6
CONTINUOUS
 62
     6
 10
231.113924
 20
161.393519
 11
230.869834
 21
161.200851
  0
LINE
  8
CSLAYER1
  6
CONTINUOUS
 62
     6
 10
230.869834
 20
161.200851
 11
230.623739
 21
161.011006
  0
LINE
  8
CSLAYER1
  6
CONTINUOUS
 62
     6
 10
230.623739
 20
161.011006
 11
230.375890
 21
160.823631
  0
LINE
  8
CSLAYER1
  6
CONTINUOUS
 62
     6
 10
230.375890
 20
160.823631
 11
230.126537
 21
160.638372
  0
LINE
  8
CSLAYER1
  6
CONTINUOUS
 62
     6
 10
230.126537
 20
160.638372
 11
229.875932
 21
160.454877
  0
LINE
  8
CSLAYER1
  6
CONTINUOUS
 62
     6
 10
229.875932
 20
160.454877
 11
229.624324
 21
160.272793
  0
LINE
  8
CSLAYER1
  6
CONTINUOUS
 62
     6
 10
229.624324
 20
160.272793
 11
229.371964
 21
160.091767
  0
LINE
  8
CSLAYER1
  6
CONTINUOUS
 62
     6
 10
229.371964
 20
160.091767
 11
229.119103
 21
159.911447
  0
LINE
  8
CSLAYER1
  6
CONTINUOUS
 62
     6
 10
229.119103
 20
159.911447
 11
228.865991
 21
159.731480
  0
ARC
  8
CSLAYER1
  6
CONTINUOUS
 62
     6
 10
229.870419
 20
160.169660
 40
1.095863
 50
203.568976
 51
263.568976
  0
ARC
  8
CSLAYER1
  6
CONTINUOUS
 62
     6
 10
230.752120
 20
159.518877
 40
1.095863
 50
203.568976
 51
263.568976
  0
ARC
  8
CSLAYER1
  6
CONTINUOUS
 62
     6
 10
229.624930
 20
157.991726
 40
1.095863
 50
23.568976
 51
83.568976
  0
LINE
  8
CSLAYER1
  6
CONTINUOUS
 62
     6
 10
231.355758
 20
161.589361
 11
231.595086
 21
161.788731
  0
LINE
  8
CSLAYER1
  6
CONTINUOUS
 62
     6
 10
231.595086
 20
161.788731
 11
231.752351
 21
161.923028
  0
LINE
  8
CSLAYER1
  6
CONTINUOUS
 62
     6
 10
231.752351
 20
161.923028
 11
231.909400
 21
162.060052
  0
LINE
  8
CSLAYER1
  6
CONTINUOUS
 62
     6
 10
231.909400
 20
162.060052
 11
232.065491
 21
162.199612
  0
LINE
  8
CSLAYER1
  6
CONTINUOUS
 62
     6
 10
232.065491
 20
162.199612
 11
232.219881
 21
162.341514
  0
LINE
  8
CSLAYER1
  6
CONTINUOUS
 62
     6
 10
232.219881
 20
162.341514
 11
232.371825
 21
162.485567
  0
LINE
  8
CSLAYER1
  6
CONTINUOUS
 62
     6
 10
232.371825
 20
162.485567
 11
232.520582
 21
162.631577
  0
LINE
  8
CSLAYER1
  6
CONTINUOUS
 62
     6
 10
232.520582
 20
162.631577
 11
232.665408
 21
162.779352
  0
LINE
  8
CSLAYER1
  6
CONTINUOUS
 62
     6
 10
232.665408
 20
162.779352
 11
232.805561
 21
162.928699
  0
LINE
  8
CSLAYER1
  6
CONTINUOUS
 62
     6
 10
232.805561
 20
162.928699
 11
232.940297
 21
163.079427
  0
LINE
  8
CSLAYER1
  6
CONTINUOUS
 62
     6
 10
232.940297
 20
163.079427
 11
233.068872
 21
163.231342
  0
LINE
  8
CSLAYER1
  6
CONTINUOUS
 62
     6
 10
233.068872
 20
163.231342
 11
233.190545
 21
163.384251
  0
LINE
  8
CSLAYER1
  6
CONTINUOUS
 62
     6
 10
233.190545
 20
163.384251
 11
233.305000
 21
163.535577
  0
LINE
  8
CSLAYER1
  6
CONTINUOUS
 62
     6
 10
233.305000
 20
163.535577
 11
233.420301
 21
163.692831
  0
LINE
  8
CSLAYER1
  6
CONTINUOUS
 62
     6
 10
233.420301
 20
163.692831
 11
233.535914
 21
163.854889
  0
LINE
  8
CSLAYER1
  6
CONTINUOUS
 62
     6
 10
233.535914
 20
163.854889
 11
233.651307
 21
164.020629
  0
LINE
  8
CSLAYER1
  6
CONTINUOUS
 62
     6
 10
233.651307
 20
164.020629
 11
233.765947
 21
164.188928
  0
LINE
  8
CSLAYER1
  6
CONTINUOUS
 62
     6
 10
233.765947
 20
164.188928
 11
233.879301
 21
164.358664
  0
LINE
  8
CSLAYER1
  6
CONTINUOUS
 62
     6
 10
233.879301
 20
164.358664
 11
233.990836
 21
164.528715
  0
LINE
  8
CSLAYER1
  6
CONTINUOUS
 62
     6
 10
233.990836
 20
164.528715
 11
234.100021
 21
164.697957
  0
LINE
  8
CSLAYER1
  6
CONTINUOUS
 62
     6
 10
234.100021
 20
164.697957
 11
234.206320
 21
164.865269
  0
LINE
  8
CSLAYER1
  6
CONTINUOUS
 62
     6
 10
234.206320
 20
164.865269
 11
234.309203
 21
165.029528
  0
LINE
  8
CSLAYER1
  6
CONTINUOUS
 62
     6
 10
234.309203
 20
165.029528
 11
234.408136
 21
165.189610
  0
LINE
  8
CSLAYER1
  6
CONTINUOUS
 62
     6
 10
234.408136
 20
165.189610
 11
234.494610
 21
165.327836
  0
LINE
  8
CSLAYER1
  6
CONTINUOUS
 62
     6
 10
234.494610
 20
165.327836
 11
234.586562
 21
165.470294
  0
LINE
  8
CSLAYER1
  6
CONTINUOUS
 62
     6
 10
234.586562
 20
165.470294
 11
234.682762
 21
165.615774
  0
LINE
  8
CSLAYER1
  6
CONTINUOUS
 62
     6
 10
234.682762
 20
165.615774
 11
234.781981
 21
165.763064
  0
LINE
  8
CSLAYER1
  6
CONTINUOUS
 62
     6
 10
234.781981
 20
165.763064
 11
234.882989
 21
165.910954
  0
LINE
  8
CSLAYER1
  6
CONTINUOUS
 62
     6
 10
234.882989
 20
165.910954
 11
234.984557
 21
166.058233
  0
LINE
  8
CSLAYER1
  6
CONTINUOUS
 62
     6
 10
234.984557
 20
166.058233
 11
235.085455
 21
166.203689
  0
LINE
  8
CSLAYER1
  6
CONTINUOUS
 62
     6
 10
235.085455
 20
166.203689
 11
235.184454
 21
166.346113
  0
LINE
  8
CSLAYER1
  6
CONTINUOUS
 62
     6
 10
235.184454
 20
166.346113
 11
235.280323
 21
166.484293
  0
LINE
  8
CSLAYER1
  6
CONTINUOUS
 62
     6
 10
235.280323
 20
166.484293
 11
235.400865
 21
166.659123
  0
LINE
  8
CSLAYER1
  6
CONTINUOUS
 62
     6
 10
237.807720
 20
166.174609
 11
237.753154
 21
165.870326
  0
LINE
  8
CSLAYER1
  6
CONTINUOUS
 62
     6
 10
237.807720
 20
166.174609
 11
237.885661
 21
166.659123
  0
LINE
  8
CSLAYER1
  6
CONTINUOUS
 62
     6
 10
243.537700
 20
169.159123
 11
243.981578
 21
168.459141
  0
LINE
  8
CSLAYER1
  6
CONTINUOUS
 62
     6
 10
244.481578
 20
168.459141
 11
244.037700
 21
169.159123
  0
LINE
  8
CSLAYER1
  6
CONTINUOUS
 62
     6
 10
256.885661
 20
167.159123
 11
256.885661
 21
171.159123
  0
LINE
  8
CSLAYER1
  6
CONTINUOUS
 62
     6
 10
256.885661
 20
167.159123
 11
269.885661
 21
167.159123
  0
LINE
  8
CSLAYER1
  6
CONTINUOUS
 62
     6
 10
269.885661
 20
166.159123
 11
405.885661
 21
166.159123
  0
LINE
  8
CSLAYER1
  6
CONTINUOUS
 62
     6
 10
404.885661
 20
166.159123
 11
404.885661
 21
256.159123
  0
LINE
  8
CSLAYER1
  6
CONTINUOUS
 62
     6
 10
405.885661
 20
256.159123
 11
269.885661
 21
256.159123
  0
LINE
  8
CSLAYER1
  6
CONTINUOUS
 62
     6
 10
269.885661
 20
256.159123
 11
269.885661
 21
166.159123
  0
LINE
  8
CSLAYER1
  6
CONTINUOUS
 62
     6
 10
266.885661
 20
185.159123
 11
230.885661
 21
185.159123
  0
ARC
  8
CSLAYER1
  6
CONTINUOUS
 62
     6
 10
230.885661
 20
186.159123
 40
1.000000
 50
179.999995
 51
269.999984
  0
LINE
  8
CSLAYER1
  6
CONTINUOUS
 62
     6
 10
229.885661
 20
186.159123
 11
229.885661
 21
187.159123
  0
ARC
  8
CSLAYER1
  6
CONTINUOUS
 62
     6
 10
230.885661
 20
187.159123
 40
1.000000
 50
89.999999
 51
179.999981
  0
LINE
  8
CSLAYER1
  6
CONTINUOUS
 62
     6
 10
230.885661
 20
188.159123
 11
266.885661
 21
188.159123
  0
ARC
  8
CSLAYER1
  6
CONTINUOUS
 62
     6
 10
266.885661
 20
187.159123
 40
1.000000
 50
0.057309
 51
89.999999
  0
LINE
  8
CSLAYER1
  6
CONTINUOUS
 62
     6
 10
267.885661
 20
187.159123
 11
267.885661
 21
186.159123
  0
ARC
  8
CSLAYER1
  6
CONTINUOUS
 62
     6
 10
266.885661
 20
186.159123
 40
1.000000
 50
269.999997
 51
360.000000
  0
LINE
  8
CSLAYER1
  6
CONTINUOUS
 62
     6
 10
266.885661
 20
192.159123
 11
230.885661
 21
192.159123
  0
ARC
  8
CSLAYER1
  6
CONTINUOUS
 62
     6
 10
230.885661
 20
193.159123
 40
1.000000
 50
179.999995
 51
269.999984
  0
LINE
  8
CSLAYER1
  6
CONTINUOUS
 62
     6
 10
229.885661
 20
193.159123
 11
229.885661
 21
194.159123
  0
ARC
  8
CSLAYER1
  6
CONTINUOUS
 62
     6
 10
230.885661
 20
194.159123
 40
1.000000
 50
89.999999
 51
179.999981
  0
LINE
  8
CSLAYER1
  6
CONTINUOUS
 62
     6
 10
230.885661
 20
195.159123
 11
235.656901
 21
195.159123
  0
ARC
  8
CSLAYER1
  6
CONTINUOUS
 62
     6
 10
235.656901
 20
196.159123
 40
1.000000
 50
-89.999999
 51
48.590386
  0
ARC
  8
CSLAYER1
  6
CONTINUOUS
 62
     6
 10
248.885661
 20
211.159123
 40
19.000000
 50
131.409657
 51
228.590367
  0
ARC
  8
CSLAYER1
  6
CONTINUOUS
 62
     6
 10
235.656901
 20
226.159123
 40
1.000000
 50
-48.590366
 51
90.000019
  0
LINE
  8
CSLAYER1
  6
CONTINUOUS
 62
     6
 10
235.656901
 20
227.159123
 11
230.885661
 21
227.159123
  0
ARC
  8
CSLAYER1
  6
CONTINUOUS
 62
     6
 10
230.885661
 20
228.159123
 40
1.000000
 50
180.000019
 51
270.000001
  0
LINE
  8
CSLAYER1
  6
CONTINUOUS
 62
     6
 10
229.885661
 20
228.159123
 11
229.885661
 21
229.159123
  0
ARC
  8
CSLAYER1
  6
CONTINUOUS
 62
     6
 10
230.885661
 20
229.159123
 40
1.000000
 50
90.000016
 51
180.000005
  0
LINE
  8
CSLAYER1
  6
CONTINUOUS
 62
     6
 10
230.885661
 20
230.159123
 11
266.885661
 21
230.159123
  0
ARC
  8
CSLAYER1
  6
CONTINUOUS
 62
     6
 10
266.885661
 20
229.159123
 40
1.000000
 50
0.000000
 51
90.000003
  0
LINE
  8
CSLAYER1
  6
CONTINUOUS
 62
     6
 10
267.885661
 20
229.159123
 11
267.885661
 21
228.159123
  0
ARC
  8
CSLAYER1
  6
CONTINUOUS
 62
     6
 10
266.885661
 20
228.159123
 40
1.000000
 50
270.000001
 51
359.942691
  0
LINE
  8
CSLAYER1
  6
CONTINUOUS
 62
     6
 10
266.885661
 20
227.159123
 11
262.114421
 21
227.159123
  0
ARC
  8
CSLAYER1
  6
CONTINUOUS
 62
     6
 10
262.114421
 20
226.159123
 40
1.000000
 50
90.000003
 51
228.590367
  0
ARC
  8
CSLAYER1
  6
CONTINUOUS
 62
     6
 10
248.885661
 20
211.159123
 40
19.000000
 50
-48.590366
 51
48.590386
  0
ARC
  8
CSLAYER1
  6
CONTINUOUS
 62
     6
 10
262.114421
 20
196.159123
 40
1.000000
 50
131.409643
 51
270.000001
  0
LINE
  8
CSLAYER1
  6
CONTINUOUS
 62
     6
 10
262.114421
 20
195.159123
 11
266.885661
 21
195.159123
  0
ARC
  8
CSLAYER1
  6
CONTINUOUS
 62
     6
 10
266.885661
 20
194.159123
 40
1.000000
 50
0.057309
 51
89.999999
  0
LINE
  8
CSLAYER1
  6
CONTINUOUS
 62
     6
 10
267.885661
 20
194.159123
 11
267.885661
 21
193.159123
  0
ARC
  8
CSLAYER1
  6
CONTINUOUS
 62
     6
 10
266.885661
 20
193.159123
 40
1.000000
 50
269.999997
 51
360.000000
  0
ARC
  8
CSLAYER1
  6
CONTINUOUS
 62
     6
 10
266.985210
 20
124.159108
 40
1.000000
 50
6.000003
 51
90.000016
  0
LINE
  8
CSLAYER1
  6
CONTINUOUS
 62
     6
 10
267.979777
 20
124.263600
 11
268.627727
 21
118.098378
  0
ARC
  8
CSLAYER1
  6
CONTINUOUS
 62
     6
 10
269.622295
 20
118.202931
 40
1.000000
 50
186.000026
 51
270.000001
  0
LINE
  8
CSLAYER1
  6
CONTINUOUS
 62
     6
 10
269.885661
 20
120.159108
 11
268.410625
 21
120.159108
  0
LINE
  8
CSLAYER1
  6
CONTINUOUS
 62
     6
 10
267.979777
 20
120.263600
 11
268.677409
 21
113.626149
  0
ARC
  8
CSLAYER1
  6
CONTINUOUS
 62
     6
 10
269.671916
 20
113.730641
 40
1.000000
 50
186.000026
 51
270.000001
  0
LINE
  8
CSLAYER1
  6
CONTINUOUS
 62
     6
 10
264.528728
 20
112.552296
 11
232.571635
 21
112.552296
  0
LINE
  8
CSLAYER1
  6
CONTINUOUS
 62
     6
 10
229.093913
 20
113.626149
 11
229.791545
 21
120.263600
  0
ARC
  8
CSLAYER1
  6
CONTINUOUS
 62
     6
 10
230.786052
 20
120.159108
 40
1.000000
 50
90.000003
 51
173.999998
  0
LINE
  8
CSLAYER1
  6
CONTINUOUS
 62
     6
 10
230.786052
 20
121.159108
 11
266.985210
 21
121.159108
  0
ARC
  8
CSLAYER1
  6
CONTINUOUS
 62
     6
 10
266.985210
 20
120.159108
 40
1.000000
 50
6.000003
 51
90.000016
  0
LINE
  8
CSLAYER1
  6
CONTINUOUS
 62
     6
 10
269.885661
 20
121.159123
 11
269.885661
 21
31.159123
  0
LINE
  8
CSLAYER1
  6
CONTINUOUS
 62
     6
 10
269.885661
 20
31.159123
 11
405.885631
 21
31.159123
  0
LINE
  8
CSLAYER1
  6
CONTINUOUS
 62
     6
 10
404.885631
 20
31.159123
 11
404.885631
 21
121.159123
  0
LINE
  8
CSLAYER1
  6
CONTINUOUS
 62
     6
 10
405.885631
 20
121.159123
 11
269.885661
 21
121.159123
  0
LINE
  8
CSLAYER1
  6
CONTINUOUS
 62
     6
 10
266.985210
 20
125.159108
 11
230.786052
 21
125.159108
  0
ARC
  8
CSLAYER1
  6
CONTINUOUS
 62
     6
 10
230.786052
 20
124.159108
 40
1.000000
 50
90.000003
 51
173.999998
  0
LINE
  8
CSLAYER1
  6
CONTINUOUS
 62
     6
 10
229.791545
 20
124.263600
 11
229.143535
 21
118.098378
  0
ARC
  8
CSLAYER1
  6
CONTINUOUS
 62
     6
 10
228.149028
 20
118.202931
 40
1.000000
 50
270.000001
 51
353.999989
  0
LINE
  8
CSLAYER1
  6
CONTINUOUS
 62
     6
 10
229.360087
 20
120.159108
 11
226.885661
 21
120.159108
  0
LINE
  8
CSLAYER1
  6
CONTINUOUS
 62
     6
 10
226.885661
 20
121.159123
 11
226.885661
 21
79.095363
  0
LINE
  8
CSLAYER1
  6
CONTINUOUS
 62
     6
 10
226.837722
 20
79.095363
 11
226.579589
 21
78.997239
  0
LINE
  8
CSLAYER1
  6
CONTINUOUS
 62
     6
 10
226.579589
 20
78.997239
 11
226.321920
 21
78.896476
  0
LINE
  8
CSLAYER1
  6
CONTINUOUS
 62
     6
 10
226.321920
 20
78.896476
 11
226.064562
 21
78.793954
  0
LINE
  8
CSLAYER1
  6
CONTINUOUS
 62
     6
 10
226.064562
 20
78.793954
 11
225.807358
 21
78.690552
  0
ARC
  8
CSLAYER1
  6
CONTINUOUS
 62
     6
 10
227.275951
 20
78.384950
 40
1.499994
 50
168.245911
 51
228.245911
  0
ARC
  8
CSLAYER1
  6
CONTINUOUS
 62
     6
 10
225.278154
 20
76.146929
 40
1.499994
 50
-11.754089
 51
48.245911
  0
ARC
  8
CSLAYER1
  6
CONTINUOUS
 62
     6
 10
227.745593
 20
76.960373
 40
1.499994
 50
168.245911
 51
228.245911
  0
LINE
  8
CSLAYER1
  6
CONTINUOUS
 62
     6
 10
226.746647
 20
75.841384
 11
226.960198
 21
75.926933
  0
LINE
  8
CSLAYER1
  6
CONTINUOUS
 62
     6
 10
226.960198
 20
75.926933
 11
227.173875
 21
76.011765
  0
LINE
  8
CSLAYER1
  6
CONTINUOUS
 62
     6
 10
227.173875
 20
76.011765
 11
227.387802
 21
76.095166
  0
LINE
  8
CSLAYER1
  6
CONTINUOUS
 62
     6
 10
227.387802
 20
76.095166
 11
227.602104
 21
76.176418
  0
LINE
  8
CSLAYER1
  6
CONTINUOUS
 62
     6
 10
227.602104
 20
76.176418
 11
227.816906
 21
76.254805
  0
LINE
  8
CSLAYER1
  6
CONTINUOUS
 62
     6
 10
227.816906
 20
76.254805
 11
228.032334
 21
76.329612
  0
LINE
  8
CSLAYER1
  6
CONTINUOUS
 62
     6
 10
228.032334
 20
76.329612
 11
228.248511
 21
76.400123
  0
LINE
  8
CSLAYER1
  6
CONTINUOUS
 62
     6
 10
228.248511
 20
76.400123
 11
228.465564
 21
76.465620
  0
LINE
  8
CSLAYER1
  6
CONTINUOUS
 62
     6
 10
228.465564
 20
76.465620
 11
228.683617
 21
76.525388
  0
LINE
  8
CSLAYER1
  6
CONTINUOUS
 62
     6
 10
228.683617
 20
76.525388
 11
228.902796
 21
76.578712
  0
LINE
  8
CSLAYER1
  6
CONTINUOUS
 62
     6
 10
228.902796
 20
76.578712
 11
229.123225
 21
76.624874
  0
LINE
  8
CSLAYER1
  6
CONTINUOUS
 62
     6
 10
229.123225
 20
76.624874
 11
229.482292
 21
76.683893
  0
LINE
  8
CSLAYER1
  6
CONTINUOUS
 62
     6
 10
229.482292
 20
76.683893
 11
229.847840
 21
76.725749
  0
LINE
  8
CSLAYER1
  6
CONTINUOUS
 62
     6
 10
229.847840
 20
76.725749
 11
230.218134
 21
76.751744
  0
LINE
  8
CSLAYER1
  6
CONTINUOUS
 62
     6
 10
230.218134
 20
76.751744
 11
230.591440
 21
76.763181
  0
LINE
  8
CSLAYER1
  6
CONTINUOUS
 62
     6
 10
230.591440
 20
76.763181
 11
230.966023
 21
76.761362
  0
LINE
  8
CSLAYER1
  6
CONTINUOUS
 62
     6
 10
230.966023
 20
76.761362
 11
231.340148
 21
76.747589
  0
LINE
  8
CSLAYER1
  6
CONTINUOUS
 62
     6
 10
231.340148
 20
76.747589
 11
231.712079
 21
76.723164
  0
LINE
  8
CSLAYER1
  6
CONTINUOUS
 62
     6
 10
231.712079
 20
76.723164
 11
232.080084
 21
76.689390
  0
LINE
  8
CSLAYER1
  6
CONTINUOUS
 62
     6
 10
232.080084
 20
76.689390
 11
232.442426
 21
76.647570
  0
LINE
  8
CSLAYER1
  6
CONTINUOUS
 62
     6
 10
232.442426
 20
76.647570
 11
232.797371
 21
76.599004
  0
LINE
  8
CSLAYER1
  6
CONTINUOUS
 62
     6
 10
232.797371
 20
76.599004
 11
233.143185
 21
76.544996
  0
LINE
  8
CSLAYER1
  6
CONTINUOUS
 62
     6
 10
233.143185
 20
76.544996
 11
233.400347
 21
76.504742
  0
LINE
  8
CSLAYER1
  6
CONTINUOUS
 62
     6
 10
233.400347
 20
76.504742
 11
233.665044
 21
76.467317
  0
LINE
  8
CSLAYER1
  6
CONTINUOUS
 62
     6
 10
233.665044
 20
76.467317
 11
233.935588
 21
76.432390
  0
LINE
  8
CSLAYER1
  6
CONTINUOUS
 62
     6
 10
233.935588
 20
76.432390
 11
234.210286
 21
76.399627
  0
LINE
  8
CSLAYER1
  6
CONTINUOUS
 62
     6
 10
234.210286
 20
76.399627
 11
234.487450
 21
76.368697
  0
LINE
  8
CSLAYER1
  6
CONTINUOUS
 62
     6
 10
234.487450
 20
76.368697
 11
234.765389
 21
76.339266
  0
LINE
  8
CSLAYER1
  6
CONTINUOUS
 62
     6
 10
234.765389
 20
76.339266
 11
235.042413
 21
76.311002
  0
LINE
  8
CSLAYER1
  6
CONTINUOUS
 62
     6
 10
235.042413
 20
76.311002
 11
235.316831
 21
76.283573
  0
LINE
  8
CSLAYER1
  6
CONTINUOUS
 62
     6
 10
235.316831
 20
76.283573
 11
235.586954
 21
76.256647
  0
LINE
  8
CSLAYER1
  6
CONTINUOUS
 62
     6
 10
235.586954
 20
76.256647
 11
235.851092
 21
76.229890
  0
LINE
  8
CSLAYER1
  6
CONTINUOUS
 62
     6
 10
235.851092
 20
76.229890
 11
236.107554
 21
76.202970
  0
LINE
  8
CSLAYER1
  6
CONTINUOUS
 62
     6
 10
236.107554
 20
76.202970
 11
236.360903
 21
76.177542
  0
LINE
  8
CSLAYER1
  6
CONTINUOUS
 62
     6
 10
236.360903
 20
76.177542
 11
236.624918
 21
76.154343
  0
LINE
  8
CSLAYER1
  6
CONTINUOUS
 62
     6
 10
236.624918
 20
76.154343
 11
236.896851
 21
76.133263
  0
LINE
  8
CSLAYER1
  6
CONTINUOUS
 62
     6
 10
236.896851
 20
76.133263
 11
237.173954
 21
76.114192
  0
LINE
  8
CSLAYER1
  6
CONTINUOUS
 62
     6
 10
237.173954
 20
76.114192
 11
237.453479
 21
76.097020
  0
LINE
  8
CSLAYER1
  6
CONTINUOUS
 62
     6
 10
237.453479
 20
76.097020
 11
237.732678
 21
76.081639
  0
LINE
  8
CSLAYER1
  6
CONTINUOUS
 62
     6
 10
237.732678
 20
76.081639
 11
238.008804
 21
76.067939
  0
LINE
  8
CSLAYER1
  6
CONTINUOUS
 62
     6
 10
238.008804
 20
76.067939
 11
238.279107
 21
76.055809
  0
LINE
  8
CSLAYER1
  6
CONTINUOUS
 62
     6
 10
238.279107
 20
76.055809
 11
238.540841
 21
76.045141
  0
LINE
  8
CSLAYER1
  6
CONTINUOUS
 62
     6
 10
238.540841
 20
76.045141
 11
238.791258
 21
76.035825
  0
LINE
  8
CSLAYER1
  6
CONTINUOUS
 62
     6
 10
238.791258
 20
76.035825
 11
239.027608
 21
76.027751
  0
ARC
  8
CSLAYER1
  6
CONTINUOUS
 62
     6
 10
239.117409
 20
77.525142
 40
1.500000
 50
-93.433378
 51
86.566642
  0
LINE
  8
CSLAYER1
  6
CONTINUOUS
 62
     6
 10
239.207280
 20
79.022427
 11
238.977066
 21
79.030454
  0
LINE
  8
CSLAYER1
  6
CONTINUOUS
 62
     6
 10
238.977066
 20
79.030454
 11
238.733628
 21
79.039695
  0
LINE
  8
CSLAYER1
  6
CONTINUOUS
 62
     6
 10
238.733628
 20
79.039695
 11
238.479521
 21
79.050243
  0
LINE
  8
CSLAYER1
  6
CONTINUOUS
 62
     6
 10
238.479521
 20
79.050243
 11
238.217299
 21
79.062190
  0
LINE
  8
CSLAYER1
  6
CONTINUOUS
 62
     6
 10
238.217299
 20
79.062190
 11
237.949518
 21
79.075628
  0
LINE
  8
CSLAYER1
  6
CONTINUOUS
 62
     6
 10
237.949518
 20
79.075628
 11
237.678732
 21
79.090647
  0
LINE
  8
CSLAYER1
  6
CONTINUOUS
 62
     6
 10
237.678732
 20
79.090647
 11
237.407496
 21
79.107342
  0
LINE
  8
CSLAYER1
  6
CONTINUOUS
 62
     6
 10
237.407496
 20
79.107342
 11
237.138365
 21
79.125803
  0
LINE
  8
CSLAYER1
  6
CONTINUOUS
 62
     6
 10
237.138365
 20
79.125803
 11
236.873893
 21
79.146122
  0
LINE
  8
CSLAYER1
  6
CONTINUOUS
 62
     6
 10
236.873893
 20
79.146122
 11
236.616635
 21
79.168391
  0
LINE
  8
CSLAYER1
  6
CONTINUOUS
 62
     6
 10
236.616635
 20
79.168391
 11
236.369147
 21
79.192703
  0
LINE
  8
CSLAYER1
  6
CONTINUOUS
 62
     6
 10
236.369147
 20
79.192703
 11
236.106255
 21
79.219805
  0
LINE
  8
CSLAYER1
  6
CONTINUOUS
 62
     6
 10
236.106255
 20
79.219805
 11
235.836257
 21
79.246989
  0
LINE
  8
CSLAYER1
  6
CONTINUOUS
 62
     6
 10
235.836257
 20
79.246989
 11
235.560722
 21
79.274535
  0
LINE
  8
CSLAYER1
  6
CONTINUOUS
 62
     6
 10
235.560722
 20
79.274535
 11
235.281218
 21
79.302725
  0
LINE
  8
CSLAYER1
  6
CONTINUOUS
 62
     6
 10
235.281218
 20
79.302725
 11
234.999312
 21
79.331836
  0
LINE
  8
CSLAYER1
  6
CONTINUOUS
 62
     6
 10
234.999312
 20
79.331836
 11
234.716574
 21
79.362150
  0
LINE
  8
CSLAYER1
  6
CONTINUOUS
 62
     6
 10
234.716574
 20
79.362150
 11
234.434572
 21
79.393946
  0
LINE
  8
CSLAYER1
  6
CONTINUOUS
 62
     6
 10
234.434572
 20
79.393946
 11
234.154873
 21
79.427504
  0
LINE
  8
CSLAYER1
  6
CONTINUOUS
 62
     6
 10
234.154873
 20
79.427504
 11
233.879047
 21
79.463104
  0
LINE
  8
CSLAYER1
  6
CONTINUOUS
 62
     6
 10
233.879047
 20
79.463104
 11
233.608661
 21
79.501026
  0
LINE
  8
CSLAYER1
  6
CONTINUOUS
 62
     6
 10
233.608661
 20
79.501026
 11
233.345283
 21
79.541550
  0
LINE
  8
CSLAYER1
  6
CONTINUOUS
 62
     6
 10
233.345283
 20
79.541550
 11
232.941342
 21
79.603377
  0
LINE
  8
CSLAYER1
  6
CONTINUOUS
 62
     6
 10
232.941342
 20
79.603377
 11
232.527514
 21
79.659070
  0
LINE
  8
CSLAYER1
  6
CONTINUOUS
 62
     6
 10
232.527514
 20
79.659070
 11
232.105695
 21
79.707117
  0
LINE
  8
CSLAYER1
  6
CONTINUOUS
 62
     6
 10
232.105695
 20
79.707117
 11
231.677777
 21
79.746001
  0
LINE
  8
CSLAYER1
  6
CONTINUOUS
 62
     6
 10
231.677777
 20
79.746001
 11
231.245655
 21
79.774210
  0
LINE
  8
CSLAYER1
  6
CONTINUOUS
 62
     6
 10
231.245655
 20
79.774210
 11
230.811222
 21
79.790227
  0
LINE
  8
CSLAYER1
  6
CONTINUOUS
 62
     6
 10
230.811222
 20
79.790227
 11
230.376373
 21
79.792539
  0
LINE
  8
CSLAYER1
  6
CONTINUOUS
 62
     6
 10
230.376373
 20
79.792539
 11
229.943000
 21
79.779630
  0
LINE
  8
CSLAYER1
  6
CONTINUOUS
 62
     6
 10
229.943000
 20
79.779630
 11
229.512997
 21
79.749986
  0
LINE
  8
CSLAYER1
  6
CONTINUOUS
 62
     6
 10
229.512997
 20
79.749986
 11
229.088259
 21
79.702092
  0
LINE
  8
CSLAYER1
  6
CONTINUOUS
 62
     6
 10
229.088259
 20
79.702092
 11
228.670679
 21
79.634434
  0
LINE
  8
CSLAYER1
  6
CONTINUOUS
 62
     6
 10
228.670679
 20
79.634434
 11
228.404955
 21
79.579417
  0
LINE
  8
CSLAYER1
  6
CONTINUOUS
 62
     6
 10
228.404955
 20
79.579417
 11
228.140781
 21
79.515603
  0
LINE
  8
CSLAYER1
  6
CONTINUOUS
 62
     6
 10
228.140781
 20
79.515603
 11
227.878000
 21
79.443871
  0
LINE
  8
CSLAYER1
  6
CONTINUOUS
 62
     6
 10
227.878000
 20
79.443871
 11
227.616459
 21
79.365102
  0
LINE
  8
CSLAYER1
  6
CONTINUOUS
 62
     6
 10
227.616459
 20
79.365102
 11
227.356002
 21
79.280174
  0
LINE
  8
CSLAYER1
  6
CONTINUOUS
 62
     6
 10
227.356002
 20
79.280174
 11
227.096475
 21
79.189968
  0
LINE
  8
CSLAYER1
  6
CONTINUOUS
 62
     6
 10
227.096475
 20
79.189968
 11
226.837722
 21
79.095363
  0
LINE
  8
CSLAYER1
  6
CONTINUOUS
 62
     6
 10
226.885661
 20
80.159123
 11
205.885661
 21
80.159123
  0
ARC
  8
CSLAYER1
  6
CONTINUOUS
 62
     6
 10
205.885661
 20
76.159123
 40
4.000000
 50
90.000000
 51
181.434347
  0
LINE
  8
CSLAYER1
  6
CONTINUOUS
 62
     6
 10
201.879944
 20
76.058823
 11
202.085760
 21
76.160387
  0
LINE
  8
CSLAYER1
  6
CONTINUOUS
 62
     6
 10
202.085760
 20
76.160387
 11
202.292476
 21
76.255938
  0
LINE
  8
CSLAYER1
  6
CONTINUOUS
 62
     6
 10
202.292476
 20
76.255938
 11
202.498821
 21
76.345667
  0
LINE
  8
CSLAYER1
  6
CONTINUOUS
 62
     6
 10
202.498821
 20
76.345667
 11
202.703524
 21
76.429768
  0
LINE
  8
CSLAYER1
  6
CONTINUOUS
 62
     6
 10
202.703524
 20
76.429768
 11
202.905314
 21
76.508435
  0
LINE
  8
CSLAYER1
  6
CONTINUOUS
 62
     6
 10
202.905314
 20
76.508435
 11
203.036942
 21
76.559630
  0
LINE
  8
CSLAYER1
  6
CONTINUOUS
 62
     6
 10
203.036942
 20
76.559630
 11
203.171096
 21
76.613876
  0
LINE
  8
CSLAYER1
  6
CONTINUOUS
 62
     6
 10
203.171096
 20
76.613876
 11
203.307133
 21
76.670630
  0
LINE
  8
CSLAYER1
  6
CONTINUOUS
 62
     6
 10
203.307133
 20
76.670630
 11
203.444406
 21
76.729347
  0
LINE
  8
CSLAYER1
  6
CONTINUOUS
 62
     6
 10
203.444406
 20
76.729347
 11
203.582269
 21
76.789483
  0
LINE
  8
CSLAYER1
  6
CONTINUOUS
 62
     6
 10
203.582269
 20
76.789483
 11
203.720077
 21
76.850495
  0
LINE
  8
CSLAYER1
  6
CONTINUOUS
 62
     6
 10
203.720077
 20
76.850495
 11
203.857184
 21
76.911838
  0
LINE
  8
CSLAYER1
  6
CONTINUOUS
 62
     6
 10
203.857184
 20
76.911838
 11
203.992945
 21
76.972968
  0
LINE
  8
CSLAYER1
  6
CONTINUOUS
 62
     6
 10
203.992945
 20
76.972968
 11
204.126714
 21
77.033341
  0
LINE
  8
CSLAYER1
  6
CONTINUOUS
 62
     6
 10
204.126714
 20
77.033341
 11
204.257845
 21
77.092413
  0
LINE
  8
CSLAYER1
  6
CONTINUOUS
 62
     6
 10
204.257845
 20
77.092413
 11
204.385692
 21
77.149640
  0
LINE
  8
CSLAYER1
  6
CONTINUOUS
 62
     6
 10
204.385692
 20
77.149640
 11
204.505731
 21
77.204066
  0
LINE
  8
CSLAYER1
  6
CONTINUOUS
 62
     6
 10
204.505731
 20
77.204066
 11
204.629712
 21
77.262017
  0
LINE
  8
CSLAYER1
  6
CONTINUOUS
 62
     6
 10
204.629712
 20
77.262017
 11
204.756487
 21
77.322776
  0
LINE
  8
CSLAYER1
  6
CONTINUOUS
 62
     6
 10
204.756487
 20
77.322776
 11
204.884909
 21
77.385622
  0
LINE
  8
CSLAYER1
  6
CONTINUOUS
 62
     6
 10
204.884909
 20
77.385622
 11
205.013828
 21
77.449837
  0
LINE
  8
CSLAYER1
  6
CONTINUOUS
 62
     6
 10
205.013828
 20
77.449837
 11
205.142097
 21
77.514702
  0
LINE
  8
CSLAYER1
  6
CONTINUOUS
 62
     6
 10
205.142097
 20
77.514702
 11
205.268568
 21
77.579496
  0
LINE
  8
CSLAYER1
  6
CONTINUOUS
 62
     6
 10
205.268568
 20
77.579496
 11
205.392092
 21
77.643501
  0
LINE
  8
CSLAYER1
  6
CONTINUOUS
 62
     6
 10
205.392092
 20
77.643501
 11
205.511521
 21
77.705998
  0
LINE
  8
CSLAYER1
  6
CONTINUOUS
 62
     6
 10
205.511521
 20
77.705998
 11
205.625706
 21
77.766267
  0
LINE
  8
CSLAYER1
  6
CONTINUOUS
 62
     6
 10
205.625706
 20
77.766267
 11
205.733500
 21
77.823590
  0
ARC
  8
CSLAYER1
  6
CONTINUOUS
 62
     6
 10
206.089030
 20
77.112530
 40
0.795000
 50
-63.433378
 51
116.566642
  0
LINE
  8
CSLAYER1
  6
CONTINUOUS
 62
     6
 10
206.444621
 20
76.401440
 11
206.333998
 21
76.342513
  0
LINE
  8
CSLAYER1
  6
CONTINUOUS
 62
     6
 10
206.333998
 20
76.342513
 11
206.216590
 21
76.280429
  0
LINE
  8
CSLAYER1
  6
CONTINUOUS
 62
     6
 10
206.216590
 20
76.280429
 11
206.093629
 21
76.215966
  0
LINE
  8
CSLAYER1
  6
CONTINUOUS
 62
     6
 10
206.093629
 20
76.215966
 11
205.966347
 21
76.149903
  0
LINE
  8
CSLAYER1
  6
CONTINUOUS
 62
     6
 10
205.966347
 20
76.149903
 11
205.835976
 21
76.083018
  0
LINE
  8
CSLAYER1
  6
CONTINUOUS
 62
     6
 10
205.835976
 20
76.083018
 11
205.703750
 21
76.016090
  0
LINE
  8
CSLAYER1
  6
CONTINUOUS
 62
     6
 10
205.703750
 20
76.016090
 11
205.570899
 21
75.949897
  0
LINE
  8
CSLAYER1
  6
CONTINUOUS
 62
     6
 10
205.570899
 20
75.949897
 11
205.438657
 21
75.885218
  0
LINE
  8
CSLAYER1
  6
CONTINUOUS
 62
     6
 10
205.438657
 20
75.885218
 11
205.308255
 21
75.822832
  0
LINE
  8
CSLAYER1
  6
CONTINUOUS
 62
     6
 10
205.308255
 20
75.822832
 11
205.180926
 21
75.763516
  0
LINE
  8
CSLAYER1
  6
CONTINUOUS
 62
     6
 10
205.180926
 20
75.763516
 11
205.057902
 21
75.708050
  0
LINE
  8
CSLAYER1
  6
CONTINUOUS
 62
     6
 10
205.057902
 20
75.708050
 11
204.933054
 21
75.652444
  0
LINE
  8
CSLAYER1
  6
CONTINUOUS
 62
     6
 10
204.933054
 20
75.652444
 11
204.804726
 21
75.594728
  0
LINE
  8
CSLAYER1
  6
CONTINUOUS
 62
     6
 10
204.804726
 20
75.594728
 11
204.673606
 21
75.535505
  0
LINE
  8
CSLAYER1
  6
CONTINUOUS
 62
     6
 10
204.673606
 20
75.535505
 11
204.540381
 21
75.475374
  0
LINE
  8
CSLAYER1
  6
CONTINUOUS
 62
     6
 10
204.540381
 20
75.475374
 11
204.405739
 21
75.414935
  0
LINE
  8
CSLAYER1
  6
CONTINUOUS
 62
     6
 10
204.405739
 20
75.414935
 11
204.270367
 21
75.354790
  0
LINE
  8
CSLAYER1
  6
CONTINUOUS
 62
     6
 10
204.270367
 20
75.354790
 11
204.134954
 21
75.295538
  0
LINE
  8
CSLAYER1
  6
CONTINUOUS
 62
     6
 10
204.134954
 20
75.295538
 11
204.000187
 21
75.237781
  0
LINE
  8
CSLAYER1
  6
CONTINUOUS
 62
     6
 10
204.000187
 20
75.237781
 11
203.866754
 21
75.182119
  0
LINE
  8
CSLAYER1
  6
CONTINUOUS
 62
     6
 10
203.866754
 20
75.182119
 11
203.735342
 21
75.129151
  0
LINE
  8
CSLAYER1
  6
CONTINUOUS
 62
     6
 10
203.735342
 20
75.129151
 11
203.606639
 21
75.079480
  0
LINE
  8
CSLAYER1
  6
CONTINUOUS
 62
     6
 10
203.606639
 20
75.079480
 11
203.433601
 21
75.012629
  0
LINE
  8
CSLAYER1
  6
CONTINUOUS
 62
     6
 10
203.433601
 20
75.012629
 11
203.257813
 21
74.940859
  0
LINE
  8
CSLAYER1
  6
CONTINUOUS
 62
     6
 10
203.257813
 20
74.940859
 11
203.080418
 21
74.864034
  0
LINE
  8
CSLAYER1
  6
CONTINUOUS
 62
     6
 10
203.080418
 20
74.864034
 11
202.902557
 21
74.782015
  0
LINE
  8
CSLAYER1
  6
CONTINUOUS
 62
     6
 10
202.902557
 20
74.782015
 11
202.725370
 21
74.694664
  0
LINE
  8
CSLAYER1
  6
CONTINUOUS
 62
     6
 10
202.725370
 20
74.694664
 11
202.549999
 21
74.601843
  0
LINE
  8
CSLAYER1
  6
CONTINUOUS
 62
     6
 10
202.549999
 20
74.601843
 11
202.377586
 21
74.503413
  0
LINE
  8
CSLAYER1
  6
CONTINUOUS
 62
     6
 10
202.377586
 20
74.503413
 11
202.209272
 21
74.399238
  0
LINE
  8
CSLAYER1
  6
CONTINUOUS
 62
     6
 10
202.209272
 20
74.399238
 11
202.046198
 21
74.289178
  0
LINE
  8
CSLAYER1
  6
CONTINUOUS
 62
     6
 10
202.046198
 20
74.289178
 11
201.889506
 21
74.173096
  0
LINE
  8
CSLAYER1
  6
CONTINUOUS
 62
     6
 10
201.889506
 20
74.173096
 11
201.740336
 21
74.050854
  0
LINE
  8
CSLAYER1
  6
CONTINUOUS
 62
     6
 10
201.740336
 20
74.050854
 11
201.651394
 21
73.971252
  0
LINE
  8
CSLAYER1
  6
CONTINUOUS
 62
     6
 10
201.651394
 20
73.971252
 11
201.564923
 21
73.888695
  0
LINE
  8
CSLAYER1
  6
CONTINUOUS
 62
     6
 10
201.564923
 20
73.888695
 11
201.480676
 21
73.803477
  0
LINE
  8
CSLAYER1
  6
CONTINUOUS
 62
     6
 10
201.480676
 20
73.803477
 11
201.398407
 21
73.715896
  0
LINE
  8
CSLAYER1
  6
CONTINUOUS
 62
     6
 10
201.398407
 20
73.715896
 11
201.317869
 21
73.626245
  0
LINE
  8
CSLAYER1
  6
CONTINUOUS
 62
     6
 10
201.317869
 20
73.626245
 11
201.238813
 21
73.534821
  0
LINE
  8
CSLAYER1
  6
CONTINUOUS
 62
     6
 10
201.238813
 20
73.534821
 11
201.160993
 21
73.441919
  0
LINE
  8
CSLAYER1
  6
CONTINUOUS
 62
     6
 10
201.160993
 20
73.441919
 11
201.084161
 21
73.347834
  0
LINE
  8
CSLAYER1
  6
CONTINUOUS
 62
     6
 10
201.084161
 20
73.347834
 11
201.008071
 21
73.252864
  0
LINE
  8
CSLAYER1
  6
CONTINUOUS
 62
     6
 10
201.008071
 20
73.252864
 11
200.932476
 21
73.157302
  0
LINE
  8
CSLAYER1
  6
CONTINUOUS
 62
     6
 10
200.932476
 20
73.157302
 11
200.857127
 21
73.061444
  0
ARC
  8
CSLAYER1
  6
CONTINUOUS
 62
     6
 10
200.102129
 20
72.812536
 40
0.794997
 50
18.245911
 51
78.245911
  0
ARC
  8
CSLAYER1
  6
CONTINUOUS
 62
     6
 10
200.426029
 20
74.369190
 40
0.794997
 50
198.245911
 51
258.245911
  0
LINE
  8
CSLAYER1
  6
CONTINUOUS
 62
     6
 10
199.670970
 20
74.120282
 11
199.761623
 21
74.235902
  0
LINE
  8
CSLAYER1
  6
CONTINUOUS
 62
     6
 10
199.761623
 20
74.235902
 11
199.852581
 21
74.351159
  0
LINE
  8
CSLAYER1
  6
CONTINUOUS
 62
     6
 10
199.852581
 20
74.351159
 11
199.944147
 21
74.465691
  0
LINE
  8
CSLAYER1
  6
CONTINUOUS
 62
     6
 10
199.944147
 20
74.465691
 11
200.036626
 21
74.579134
  0
LINE
  8
CSLAYER1
  6
CONTINUOUS
 62
     6
 10
200.036626
 20
74.579134
 11
200.130321
 21
74.691126
  0
LINE
  8
CSLAYER1
  6
CONTINUOUS
 62
     6
 10
200.130321
 20
74.691126
 11
200.225538
 21
74.801305
  0
LINE
  8
CSLAYER1
  6
CONTINUOUS
 62
     6
 10
200.225538
 20
74.801305
 11
200.322580
 21
74.909308
  0
LINE
  8
CSLAYER1
  6
CONTINUOUS
 62
     6
 10
200.322580
 20
74.909308
 11
200.421752
 21
75.014771
  0
LINE
  8
CSLAYER1
  6
CONTINUOUS
 62
     6
 10
200.421752
 20
75.014771
 11
200.523358
 21
75.117332
  0
LINE
  8
CSLAYER1
  6
CONTINUOUS
 62
     6
 10
200.523358
 20
75.117332
 11
200.627701
 21
75.216629
  0
LINE
  8
CSLAYER1
  6
CONTINUOUS
 62
     6
 10
200.627701
 20
75.216629
 11
200.735087
 21
75.312298
  0
LINE
  8
CSLAYER1
  6
CONTINUOUS
 62
     6
 10
200.735087
 20
75.312298
 11
200.908824
 21
75.454011
  0
LINE
  8
CSLAYER1
  6
CONTINUOUS
 62
     6
 10
200.908824
 20
75.454011
 11
201.091085
 21
75.588550
  0
LINE
  8
CSLAYER1
  6
CONTINUOUS
 62
     6
 10
201.091085
 20
75.588550
 11
201.280597
 21
75.716107
  0
LINE
  8
CSLAYER1
  6
CONTINUOUS
 62
     6
 10
201.280597
 20
75.716107
 11
201.476092
 21
75.836876
  0
LINE
  8
CSLAYER1
  6
CONTINUOUS
 62
     6
 10
201.476092
 20
75.836876
 11
201.676297
 21
75.951050
  0
LINE
  8
CSLAYER1
  6
CONTINUOUS
 62
     6
 10
201.676297
 20
75.951050
 11
201.879944
 21
76.058823
  0
ARC
  8
CSLAYER1
  6
CONTINUOUS
 62
     6
 10
205.885661
 20
76.159100
 40
3.710000
 50
-124.666466
 51
179.299504
  0
LINE
  8
CSLAYER1
  6
CONTINUOUS
 62
     6
 10
203.787223
 20
73.121305
 11
203.870523
 21
73.187482
  0
LINE
  8
CSLAYER1
  6
CONTINUOUS
 62
     6
 10
203.870523
 20
73.187482
 11
203.956422
 21
73.253410
  0
LINE
  8
CSLAYER1
  6
CONTINUOUS
 62
     6
 10
203.956422
 20
73.253410
 11
204.044437
 21
73.318416
  0
LINE
  8
CSLAYER1
  6
CONTINUOUS
 62
     6
 10
204.044437
 20
73.318416
 11
204.134084
 21
73.381831
  0
LINE
  8
CSLAYER1
  6
CONTINUOUS
 62
     6
 10
204.134084
 20
73.381831
 11
204.224880
 21
73.442982
  0
LINE
  8
CSLAYER1
  6
CONTINUOUS
 62
     6
 10
204.224880
 20
73.442982
 11
204.316341
 21
73.501199
  0
LINE
  8
CSLAYER1
  6
CONTINUOUS
 62
     6
 10
204.316341
 20
73.501199
 11
204.407984
 21
73.555810
  0
LINE
  8
CSLAYER1
  6
CONTINUOUS
 62
     6
 10
204.407984
 20
73.555810
 11
204.499327
 21
73.606145
  0
LINE
  8
CSLAYER1
  6
CONTINUOUS
 62
     6
 10
204.499327
 20
73.606145
 11
204.589885
 21
73.651532
  0
LINE
  8
CSLAYER1
  6
CONTINUOUS
 62
     6
 10
204.589885
 20
73.651532
 11
204.753170
 21
73.729050
  0
LINE
  8
CSLAYER1
  6
CONTINUOUS
 62
     6
 10
204.753170
 20
73.729050
 11
204.837766
 21
73.769082
  0
LINE
  8
CSLAYER1
  6
CONTINUOUS
 62
     6
 10
204.837766
 20
73.769082
 11
204.923708
 21
73.809506
  0
LINE
  8
CSLAYER1
  6
CONTINUOUS
 62
     6
 10
204.923708
 20
73.809506
 11
205.010528
 21
73.849976
  0
LINE
  8
CSLAYER1
  6
CONTINUOUS
 62
     6
 10
205.010528
 20
73.849976
 11
205.097760
 21
73.890151
  0
LINE
  8
CSLAYER1
  6
CONTINUOUS
 62
     6
 10
205.097760
 20
73.890151
 11
205.184935
 21
73.929686
  0
LINE
  8
CSLAYER1
  6
CONTINUOUS
 62
     6
 10
205.184935
 20
73.929686
 11
205.271587
 21
73.968239
  0
LINE
  8
CSLAYER1
  6
CONTINUOUS
 62
     6
 10
205.271587
 20
73.968239
 11
205.357247
 21
74.005465
  0
LINE
  8
CSLAYER1
  6
CONTINUOUS
 62
     6
 10
205.357247
 20
74.005465
 11
205.441448
 21
74.041022
  0
LINE
  8
CSLAYER1
  6
CONTINUOUS
 62
     6
 10
205.441448
 20
74.041022
 11
205.523723
 21
74.074566
  0
LINE
  8
CSLAYER1
  6
CONTINUOUS
 62
     6
 10
205.523723
 20
74.074566
 11
205.605947
 21
74.108046
  0
LINE
  8
CSLAYER1
  6
CONTINUOUS
 62
     6
 10
205.605947
 20
74.108046
 11
205.690322
 21
74.143630
  0
LINE
  8
CSLAYER1
  6
CONTINUOUS
 62
     6
 10
205.690322
 20
74.143630
 11
205.776246
 21
74.181047
  0
LINE
  8
CSLAYER1
  6
CONTINUOUS
 62
     6
 10
205.776246
 20
74.181047
 11
205.863115
 21
74.220031
  0
LINE
  8
CSLAYER1
  6
CONTINUOUS
 62
     6
 10
205.863115
 20
74.220031
 11
205.950325
 21
74.260311
  0
LINE
  8
CSLAYER1
  6
CONTINUOUS
 62
     6
 10
205.950325
 20
74.260311
 11
206.037272
 21
74.301619
  0
LINE
  8
CSLAYER1
  6
CONTINUOUS
 62
     6
 10
206.037272
 20
74.301619
 11
206.123353
 21
74.343686
  0
LINE
  8
CSLAYER1
  6
CONTINUOUS
 62
     6
 10
206.123353
 20
74.343686
 11
206.207964
 21
74.386244
  0
LINE
  8
CSLAYER1
  6
CONTINUOUS
 62
     6
 10
206.207964
 20
74.386244
 11
206.290501
 21
74.429023
  0
LINE
  8
CSLAYER1
  6
CONTINUOUS
 62
     6
 10
206.290501
 20
74.429023
 11
206.370361
 21
74.471755
  0
LINE
  8
CSLAYER1
  6
CONTINUOUS
 62
     6
 10
206.370361
 20
74.471755
 11
206.446940
 21
74.514172
  0
LINE
  8
CSLAYER1
  6
CONTINUOUS
 62
     6
 10
206.446940
 20
74.514172
 11
206.520239
 21
74.556165
  0
LINE
  8
CSLAYER1
  6
CONTINUOUS
 62
     6
 10
206.520239
 20
74.556165
 11
206.596280
 21
74.600934
  0
LINE
  8
CSLAYER1
  6
CONTINUOUS
 62
     6
 10
206.596280
 20
74.600934
 11
206.674261
 21
74.647967
  0
LINE
  8
CSLAYER1
  6
CONTINUOUS
 62
     6
 10
206.674261
 20
74.647967
 11
206.753381
 21
74.696750
  0
LINE
  8
CSLAYER1
  6
CONTINUOUS
 62
     6
 10
206.753381
 20
74.696750
 11
206.832840
 21
74.746770
  0
LINE
  8
CSLAYER1
  6
CONTINUOUS
 62
     6
 10
206.832840
 20
74.746770
 11
206.911836
 21
74.797513
  0
LINE
  8
CSLAYER1
  6
CONTINUOUS
 62
     6
 10
206.911836
 20
74.797513
 11
206.989567
 21
74.848466
  0
LINE
  8
CSLAYER1
  6
CONTINUOUS
 62
     6
 10
206.989567
 20
74.848466
 11
207.065234
 21
74.899115
  0
LINE
  8
CSLAYER1
  6
CONTINUOUS
 62
     6
 10
207.065234
 20
74.899115
 11
207.138034
 21
74.948948
  0
LINE
  8
CSLAYER1
  6
CONTINUOUS
 62
     6
 10
207.138034
 20
74.948948
 11
207.207167
 21
74.997451
  0
LINE
  8
CSLAYER1
  6
CONTINUOUS
 62
     6
 10
207.207167
 20
74.997451
 11
207.271831
 21
75.044110
  0
ARC
  8
CSLAYER1
  6
CONTINUOUS
 62
     6
 10
206.858195
 20
75.722790
 40
0.795000
 50
-58.640300
 51
121.359720
  0
LINE
  8
CSLAYER1
  6
CONTINUOUS
 62
     6
 10
206.412395
 20
76.381817
 11
206.354485
 21
76.339987
  0
LINE
  8
CSLAYER1
  6
CONTINUOUS
 62
     6
 10
206.354485
 20
76.339987
 11
206.292624
 21
76.296532
  0
LINE
  8
CSLAYER1
  6
CONTINUOUS
 62
     6
 10
206.292624
 20
76.296532
 11
206.227504
 21
76.251901
  0
LINE
  8
CSLAYER1
  6
CONTINUOUS
 62
     6
 10
206.227504
 20
76.251901
 11
206.159820
 21
76.206544
  0
LINE
  8
CSLAYER1
  6
CONTINUOUS
 62
     6
 10
206.159820
 20
76.206544
 11
206.090263
 21
76.160909
  0
LINE
  8
CSLAYER1
  6
CONTINUOUS
 62
     6
 10
206.090263
 20
76.160909
 11
206.019527
 21
76.115444
  0
LINE
  8
CSLAYER1
  6
CONTINUOUS
 62
     6
 10
206.019527
 20
76.115444
 11
205.948304
 21
76.070598
  0
LINE
  8
CSLAYER1
  6
CONTINUOUS
 62
     6
 10
205.948304
 20
76.070598
 11
205.877287
 21
76.026821
  0
LINE
  8
CSLAYER1
  6
CONTINUOUS
 62
     6
 10
205.877287
 20
76.026821
 11
205.807170
 21
75.984560
  0
LINE
  8
CSLAYER1
  6
CONTINUOUS
 62
     6
 10
205.807170
 20
75.984560
 11
205.738644
 21
75.944265
  0
LINE
  8
CSLAYER1
  6
CONTINUOUS
 62
     6
 10
205.738644
 20
75.944265
 11
205.672404
 21
75.906384
  0
LINE
  8
CSLAYER1
  6
CONTINUOUS
 62
     6
 10
205.672404
 20
75.906384
 11
205.604085
 21
75.868640
  0
LINE
  8
CSLAYER1
  6
CONTINUOUS
 62
     6
 10
205.604085
 20
75.868640
 11
205.533139
 21
75.830812
  0
LINE
  8
CSLAYER1
  6
CONTINUOUS
 62
     6
 10
205.533139
 20
75.830812
 11
205.460036
 21
75.793082
  0
LINE
  8
CSLAYER1
  6
CONTINUOUS
 62
     6
 10
205.460036
 20
75.793082
 11
205.385247
 21
75.755632
  0
LINE
  8
CSLAYER1
  6
CONTINUOUS
 62
     6
 10
205.385247
 20
75.755632
 11
205.309242
 21
75.718646
  0
LINE
  8
CSLAYER1
  6
CONTINUOUS
 62
     6
 10
205.309242
 20
75.718646
 11
205.232491
 21
75.682306
  0
LINE
  8
CSLAYER1
  6
CONTINUOUS
 62
     6
 10
205.232491
 20
75.682306
 11
205.155464
 21
75.646796
  0
LINE
  8
CSLAYER1
  6
CONTINUOUS
 62
     6
 10
205.155464
 20
75.646796
 11
205.078633
 21
75.612298
  0
LINE
  8
CSLAYER1
  6
CONTINUOUS
 62
     6
 10
205.078633
 20
75.612298
 11
205.002467
 21
75.578995
  0
LINE
  8
CSLAYER1
  6
CONTINUOUS
 62
     6
 10
205.002467
 20
75.578995
 11
204.927438
 21
75.547070
  0
LINE
  8
CSLAYER1
  6
CONTINUOUS
 62
     6
 10
204.927438
 20
75.547070
 11
204.854014
 21
75.516705
  0
LINE
  8
CSLAYER1
  6
CONTINUOUS
 62
     6
 10
204.854014
 20
75.516705
 11
204.760885
 21
75.478147
  0
LINE
  8
CSLAYER1
  6
CONTINUOUS
 62
     6
 10
204.760885
 20
75.478147
 11
204.665953
 21
75.437715
  0
LINE
  8
CSLAYER1
  6
CONTINUOUS
 62
     6
 10
204.665953
 20
75.437715
 11
204.569670
 21
75.395722
  0
LINE
  8
CSLAYER1
  6
CONTINUOUS
 62
     6
 10
204.569670
 20
75.395722
 11
204.472485
 21
75.352484
  0
LINE
  8
CSLAYER1
  6
CONTINUOUS
 62
     6
 10
204.472485
 20
75.352484
 11
204.374851
 21
75.308318
  0
LINE
  8
CSLAYER1
  6
CONTINUOUS
 62
     6
 10
204.374851
 20
75.308318
 11
204.277218
 21
75.263539
  0
LINE
  8
CSLAYER1
  6
CONTINUOUS
 62
     6
 10
204.277218
 20
75.263539
 11
204.180036
 21
75.218462
  0
LINE
  8
CSLAYER1
  6
CONTINUOUS
 62
     6
 10
204.180036
 20
75.218462
 11
204.083758
 21
75.173402
  0
LINE
  8
CSLAYER1
  6
CONTINUOUS
 62
     6
 10
204.083758
 20
75.173402
 11
203.988834
 21
75.128676
  0
LINE
  8
CSLAYER1
  6
CONTINUOUS
 62
     6
 10
203.988834
 20
75.128676
 11
203.895715
 21
75.084598
  0
LINE
  8
CSLAYER1
  6
CONTINUOUS
 62
     6
 10
203.895715
 20
75.084598
 11
203.804851
 21
75.041485
  0
LINE
  8
CSLAYER1
  6
CONTINUOUS
 62
     6
 10
203.804851
 20
75.041485
 11
203.685353
 21
74.981525
  0
LINE
  8
CSLAYER1
  6
CONTINUOUS
 62
     6
 10
203.685353
 20
74.981525
 11
203.565102
 21
74.915144
  0
LINE
  8
CSLAYER1
  6
CONTINUOUS
 62
     6
 10
203.565102
 20
74.915144
 11
203.444685
 21
74.843224
  0
LINE
  8
CSLAYER1
  6
CONTINUOUS
 62
     6
 10
203.444685
 20
74.843224
 11
203.324686
 21
74.766648
  0
LINE
  8
CSLAYER1
  6
CONTINUOUS
 62
     6
 10
203.324686
 20
74.766648
 11
203.205688
 21
74.686298
  0
LINE
  8
CSLAYER1
  6
CONTINUOUS
 62
     6
 10
203.205688
 20
74.686298
 11
203.088277
 21
74.603057
  0
LINE
  8
CSLAYER1
  6
CONTINUOUS
 62
     6
 10
203.088277
 20
74.603057
 11
202.973038
 21
74.517806
  0
LINE
  8
CSLAYER1
  6
CONTINUOUS
 62
     6
 10
202.973038
 20
74.517806
 11
202.860554
 21
74.431428
  0
LINE
  8
CSLAYER1
  6
CONTINUOUS
 62
     6
 10
202.860554
 20
74.431428
 11
202.751410
 21
74.344806
  0
LINE
  8
CSLAYER1
  6
CONTINUOUS
 62
     6
 10
202.751410
 20
74.344806
 11
202.646192
 21
74.258822
  0
LINE
  8
CSLAYER1
  6
CONTINUOUS
 62
     6
 10
202.646192
 20
74.258822
 11
202.545482
 21
74.174359
  0
LINE
  8
CSLAYER1
  6
CONTINUOUS
 62
     6
 10
202.545482
 20
74.174359
 11
202.454444
 21
74.093890
  0
LINE
  8
CSLAYER1
  6
CONTINUOUS
 62
     6
 10
202.454444
 20
74.093890
 11
202.364216
 21
74.007919
  0
LINE
  8
CSLAYER1
  6
CONTINUOUS
 62
     6
 10
202.364216
 20
74.007919
 11
202.275114
 21
73.917000
  0
LINE
  8
CSLAYER1
  6
CONTINUOUS
 62
     6
 10
202.275114
 20
73.917000
 11
202.187455
 21
73.821687
  0
LINE
  8
CSLAYER1
  6
CONTINUOUS
 62
     6
 10
202.187455
 20
73.821687
 11
202.101558
 21
73.722536
  0
LINE
  8
CSLAYER1
  6
CONTINUOUS
 62
     6
 10
202.101558
 20
73.722536
 11
202.017739
 21
73.620101
  0
LINE
  8
CSLAYER1
  6
CONTINUOUS
 62
     6
 10
202.017739
 20
73.620101
 11
201.936314
 21
73.514936
  0
LINE
  8
CSLAYER1
  6
CONTINUOUS
 62
     6
 10
201.936314
 20
73.514936
 11
201.857602
 21
73.407597
  0
LINE
  8
CSLAYER1
  6
CONTINUOUS
 62
     6
 10
201.857602
 20
73.407597
 11
201.781919
 21
73.298637
  0
LINE
  8
CSLAYER1
  6
CONTINUOUS
 62
     6
 10
201.781919
 20
73.298637
 11
201.709583
 21
73.188612
  0
LINE
  8
CSLAYER1
  6
CONTINUOUS
 62
     6
 10
201.709583
 20
73.188612
 11
201.640910
 21
73.078076
  0
LINE
  8
CSLAYER1
  6
CONTINUOUS
 62
     6
 10
201.640910
 20
73.078076
 11
201.593056
 21
72.996963
  0
LINE
  8
CSLAYER1
  6
CONTINUOUS
 62
     6
 10
201.593056
 20
72.996963
 11
201.546727
 21
72.915000
  0
LINE
  8
CSLAYER1
  6
CONTINUOUS
 62
     6
 10
201.546727
 20
72.915000
 11
201.501769
 21
72.832272
  0
LINE
  8
CSLAYER1
  6
CONTINUOUS
 62
     6
 10
201.501769
 20
72.832272
 11
201.458030
 21
72.748865
  0
LINE
  8
CSLAYER1
  6
CONTINUOUS
 62
     6
 10
201.458030
 20
72.748865
 11
201.415358
 21
72.664863
  0
LINE
  8
CSLAYER1
  6
CONTINUOUS
 62
     6
 10
201.415358
 20
72.664863
 11
201.373601
 21
72.580351
  0
LINE
  8
CSLAYER1
  6
CONTINUOUS
 62
     6
 10
201.373601
 20
72.580351
 11
201.332606
 21
72.495415
  0
LINE
  8
CSLAYER1
  6
CONTINUOUS
 62
     6
 10
201.332606
 20
72.495415
 11
201.292221
 21
72.410138
  0
LINE
  8
CSLAYER1
  6
CONTINUOUS
 62
     6
 10
201.292221
 20
72.410138
 11
201.252292
 21
72.324607
  0
LINE
  8
CSLAYER1
  6
CONTINUOUS
 62
     6
 10
201.252292
 20
72.324607
 11
201.212669
 21
72.238905
  0
LINE
  8
CSLAYER1
  6
CONTINUOUS
 62
     6
 10
201.212669
 20
72.238905
 11
201.173198
 21
72.153119
  0
ARC
  8
CSLAYER1
  6
CONTINUOUS
 62
     6
 10
201.838624
 20
72.588165
 40
0.795003
 50
213.178280
 51
273.178280
  0
ARC
  8
CSLAYER1
  6
CONTINUOUS
 62
     6
 10
202.548096
 20
72.229447
 40
0.795003
 50
213.178280
 51
273.178280
  0
ARC
  8
CSLAYER1
  6
CONTINUOUS
 62
     6
 10
201.926779
 20
71.000605
 40
0.795003
 50
33.178280
 51
93.178280
  0
LINE
  8
CSLAYER1
  6
CONTINUOUS
 62
     6
 10
202.592143
 20
71.435681
 11
202.624669
 21
71.506937
  0
LINE
  8
CSLAYER1
  6
CONTINUOUS
 62
     6
 10
202.624669
 20
71.506937
 11
202.657331
 21
71.578117
  0
LINE
  8
CSLAYER1
  6
CONTINUOUS
 62
     6
 10
202.657331
 20
71.578117
 11
202.690267
 21
71.649144
  0
LINE
  8
CSLAYER1
  6
CONTINUOUS
 62
     6
 10
202.690267
 20
71.649144
 11
202.723614
 21
71.719942
  0
LINE
  8
CSLAYER1
  6
CONTINUOUS
 62
     6
 10
202.723614
 20
71.719942
 11
202.757507
 21
71.790435
  0
LINE
  8
CSLAYER1
  6
CONTINUOUS
 62
     6
 10
202.757507
 20
71.790435
 11
202.792085
 21
71.860547
  0
LINE
  8
CSLAYER1
  6
CONTINUOUS
 62
     6
 10
202.792085
 20
71.860547
 11
202.827483
 21
71.930200
  0
LINE
  8
CSLAYER1
  6
CONTINUOUS
 62
     6
 10
202.827483
 20
71.930200
 11
202.863840
 21
71.999320
  0
LINE
  8
CSLAYER1
  6
CONTINUOUS
 62
     6
 10
202.863840
 20
71.999320
 11
202.901290
 21
72.067829
  0
LINE
  8
CSLAYER1
  6
CONTINUOUS
 62
     6
 10
202.901290
 20
72.067829
 11
202.939972
 21
72.135651
  0
LINE
  8
CSLAYER1
  6
CONTINUOUS
 62
     6
 10
202.939972
 20
72.135651
 11
202.980021
 21
72.202710
  0
LINE
  8
CSLAYER1
  6
CONTINUOUS
 62
     6
 10
202.980021
 20
72.202710
 11
203.029818
 21
72.281922
  0
LINE
  8
CSLAYER1
  6
CONTINUOUS
 62
     6
 10
203.029818
 20
72.281922
 11
203.082110
 21
72.360816
  0
LINE
  8
CSLAYER1
  6
CONTINUOUS
 62
     6
 10
203.082110
 20
72.360816
 11
203.136685
 21
72.438993
  0
LINE
  8
CSLAYER1
  6
CONTINUOUS
 62
     6
 10
203.136685
 20
72.438993
 11
203.193336
 21
72.516057
  0
LINE
  8
CSLAYER1
  6
CONTINUOUS
 62
     6
 10
203.193336
 20
72.516057
 11
203.251851
 21
72.591608
  0
LINE
  8
CSLAYER1
  6
CONTINUOUS
 62
     6
 10
203.251851
 20
72.591608
 11
203.312021
 21
72.665250
  0
LINE
  8
CSLAYER1
  6
CONTINUOUS
 62
     6
 10
203.312021
 20
72.665250
 11
203.373636
 21
72.736584
  0
LINE
  8
CSLAYER1
  6
CONTINUOUS
 62
     6
 10
203.373636
 20
72.736584
 11
203.436487
 21
72.805213
  0
LINE
  8
CSLAYER1
  6
CONTINUOUS
 62
     6
 10
203.436487
 20
72.805213
 11
203.500363
 21
72.870738
  0
LINE
  8
CSLAYER1
  6
CONTINUOUS
 62
     6
 10
203.500363
 20
72.870738
 11
203.565054
 21
72.932762
  0
LINE
  8
CSLAYER1
  6
CONTINUOUS
 62
     6
 10
203.565054
 20
72.932762
 11
203.630351
 21
72.990887
  0
LINE
  8
CSLAYER1
  6
CONTINUOUS
 62
     6
 10
203.630351
 20
72.990887
 11
203.707004
 21
73.055550
  0
LINE
  8
CSLAYER1
  6
CONTINUOUS
 62
     6
 10
203.707004
 20
73.055550
 11
203.787223
 21
73.121305
  0
ARC
  8
CSLAYER1
  6
CONTINUOUS
 62
     6
 10
205.885661
 20
76.159123
 40
4.000000
 50
234.043961
 51
270.000000
  0
LINE
  8
CSLAYER1
  6
CONTINUOUS
 62
     6
 10
205.885661
 20
72.159123
 11
219.426207
 21
72.159123
  0
LINE
  8
CSLAYER1
  6
CONTINUOUS
 62
     6
 10
219.320700
 20
72.218002
 11
217.899036
 21
69.147129
  0
LINE
  8
CSLAYER1
  6
CONTINUOUS
 62
     6
 10
218.791569
 20
68.600110
 11
219.957026
 21
72.004543
  0
ARC
  8
CSLAYER1
  6
CONTINUOUS
 62
     6
 10
220.103825
 20
73.497341
 40
1.499998
 50
210.461270
 51
270.461270
  0
LINE
  8
CSLAYER1
  6
CONTINUOUS
 62
     6
 10
218.810844
 20
72.736903
 11
218.900149
 21
72.911477
  0
LINE
  8
CSLAYER1
  6
CONTINUOUS
 62
     6
 10
218.900149
 20
72.911477
 11
218.989815
 21
73.085839
  0
LINE
  8
CSLAYER1
  6
CONTINUOUS
 62
     6
 10
218.989815
 20
73.085839
 11
219.080203
 21
73.259778
  0
LINE
  8
CSLAYER1
  6
CONTINUOUS
 62
     6
 10
219.080203
 20
73.259778
 11
219.171676
 21
73.433081
  0
LINE
  8
CSLAYER1
  6
CONTINUOUS
 62
     6
 10
219.171676
 20
73.433081
 11
219.264594
 21
73.605538
  0
LINE
  8
CSLAYER1
  6
CONTINUOUS
 62
     6
 10
219.264594
 20
73.605538
 11
219.359319
 21
73.776935
  0
LINE
  8
CSLAYER1
  6
CONTINUOUS
 62
     6
 10
219.359319
 20
73.776935
 11
219.456213
 21
73.947062
  0
LINE
  8
CSLAYER1
  6
CONTINUOUS
 62
     6
 10
219.456213
 20
73.947062
 11
219.555635
 21
74.115707
  0
LINE
  8
CSLAYER1
  6
CONTINUOUS
 62
     6
 10
219.555635
 20
74.115707
 11
219.657949
 21
74.282658
  0
LINE
  8
CSLAYER1
  6
CONTINUOUS
 62
     6
 10
219.657949
 20
74.282658
 11
219.763515
 21
74.447703
  0
LINE
  8
CSLAYER1
  6
CONTINUOUS
 62
     6
 10
219.763515
 20
74.447703
 11
219.872695
 21
74.610630
  0
LINE
  8
CSLAYER1
  6
CONTINUOUS
 62
     6
 10
219.872695
 20
74.610630
 11
219.984395
 21
74.769617
  0
LINE
  8
CSLAYER1
  6
CONTINUOUS
 62
     6
 10
219.984395
 20
74.769617
 11
220.100786
 21
74.927866
  0
LINE
  8
CSLAYER1
  6
CONTINUOUS
 62
     6
 10
220.100786
 20
74.927866
 11
220.221499
 21
75.084509
  0
LINE
  8
CSLAYER1
  6
CONTINUOUS
 62
     6
 10
220.221499
 20
75.084509
 11
220.346167
 21
75.238679
  0
LINE
  8
CSLAYER1
  6
CONTINUOUS
 62
     6
 10
220.346167
 20
75.238679
 11
220.474422
 21
75.389509
  0
LINE
  8
CSLAYER1
  6
CONTINUOUS
 62
     6
 10
220.474422
 20
75.389509
 11
220.605895
 21
75.536132
  0
LINE
  8
CSLAYER1
  6
CONTINUOUS
 62
     6
 10
220.605895
 20
75.536132
 11
220.740220
 21
75.677681
  0
LINE
  8
CSLAYER1
  6
CONTINUOUS
 62
     6
 10
220.740220
 20
75.677681
 11
220.877028
 21
75.813289
  0
LINE
  8
CSLAYER1
  6
CONTINUOUS
 62
     6
 10
220.877028
 20
75.813289
 11
221.015951
 21
75.942088
  0
LINE
  8
CSLAYER1
  6
CONTINUOUS
 62
     6
 10
221.015951
 20
75.942088
 11
221.156622
 21
76.063211
  0
LINE
  8
CSLAYER1
  6
CONTINUOUS
 62
     6
 10
221.156622
 20
76.063211
 11
221.298672
 21
76.175792
  0
LINE
  8
CSLAYER1
  6
CONTINUOUS
 62
     6
 10
221.298672
 20
76.175792
 11
221.445123
 21
76.285499
  0
LINE
  8
CSLAYER1
  6
CONTINUOUS
 62
     6
 10
221.445123
 20
76.285499
 11
221.598847
 21
76.398093
  0
LINE
  8
CSLAYER1
  6
CONTINUOUS
 62
     6
 10
221.598847
 20
76.398093
 11
221.758431
 21
76.512226
  0
LINE
  8
CSLAYER1
  6
CONTINUOUS
 62
     6
 10
221.758431
 20
76.512226
 11
221.922459
 21
76.626546
  0
LINE
  8
CSLAYER1
  6
CONTINUOUS
 62
     6
 10
221.922459
 20
76.626546
 11
222.089517
 21
76.739703
  0
LINE
  8
CSLAYER1
  6
CONTINUOUS
 62
     6
 10
222.089517
 20
76.739703
 11
222.258190
 21
76.850346
  0
LINE
  8
CSLAYER1
  6
CONTINUOUS
 62
     6
 10
222.258190
 20
76.850346
 11
222.427064
 21
76.957126
  0
LINE
  8
CSLAYER1
  6
CONTINUOUS
 62
     6
 10
222.427064
 20
76.957126
 11
222.594723
 21
77.058692
  0
LINE
  8
CSLAYER1
  6
CONTINUOUS
 62
     6
 10
222.594723
 20
77.058692
 11
222.759754
 21
77.153693
  0
LINE
  8
CSLAYER1
  6
CONTINUOUS
 62
     6
 10
222.759754
 20
77.153693
 11
222.920741
 21
77.240779
  0
LINE
  8
CSLAYER1
  6
CONTINUOUS
 62
     6
 10
222.920741
 20
77.240779
 11
223.076271
 21
77.318600
  0
ARC
  8
CSLAYER1
  6
CONTINUOUS
 62
     6
 10
222.389197
 20
75.985192
 40
1.499998
 50
2.735346
 51
62.735346
  0
ARC
  8
CSLAYER1
  6
CONTINUOUS
 62
     6
 10
224.574637
 20
77.390124
 40
1.499998
 50
182.735346
 51
242.735346
  0
ARC
  8
CSLAYER1
  6
CONTINUOUS
 62
     6
 10
223.200335
 20
74.723428
 40
1.499998
 50
2.735346
 51
62.735346
  0
LINE
  8
CSLAYER1
  6
CONTINUOUS
 62
     6
 10
224.698573
 20
74.794960
 11
224.572439
 21
74.733695
  0
LINE
  8
CSLAYER1
  6
CONTINUOUS
 62
     6
 10
224.572439
 20
74.733695
 11
224.441483
 21
74.664415
  0
LINE
  8
CSLAYER1
  6
CONTINUOUS
 62
     6
 10
224.441483
 20
74.664415
 11
224.306952
 21
74.588240
  0
LINE
  8
CSLAYER1
  6
CONTINUOUS
 62
     6
 10
224.306952
 20
74.588240
 11
224.170093
 21
74.506288
  0
LINE
  8
CSLAYER1
  6
CONTINUOUS
 62
     6
 10
224.170093
 20
74.506288
 11
224.032152
 21
74.419677
  0
LINE
  8
CSLAYER1
  6
CONTINUOUS
 62
     6
 10
224.032152
 20
74.419677
 11
223.894376
 21
74.329527
  0
LINE
  8
CSLAYER1
  6
CONTINUOUS
 62
     6
 10
223.894376
 20
74.329527
 11
223.758013
 21
74.236957
  0
LINE
  8
CSLAYER1
  6
CONTINUOUS
 62
     6
 10
223.758013
 20
74.236957
 11
223.624308
 21
74.143084
  0
LINE
  8
CSLAYER1
  6
CONTINUOUS
 62
     6
 10
223.624308
 20
74.143084
 11
223.494508
 21
74.049028
  0
LINE
  8
CSLAYER1
  6
CONTINUOUS
 62
     6
 10
223.494508
 20
74.049028
 11
223.369861
 21
73.955907
  0
LINE
  8
CSLAYER1
  6
CONTINUOUS
 62
     6
 10
223.369861
 20
73.955907
 11
223.251612
 21
73.864840
  0
LINE
  8
CSLAYER1
  6
CONTINUOUS
 62
     6
 10
223.251612
 20
73.864840
 11
223.159430
 21
73.789688
  0
LINE
  8
CSLAYER1
  6
CONTINUOUS
 62
     6
 10
223.159430
 20
73.789688
 11
223.068020
 21
73.709289
  0
LINE
  8
CSLAYER1
  6
CONTINUOUS
 62
     6
 10
223.068020
 20
73.709289
 11
222.977605
 21
73.624185
  0
LINE
  8
CSLAYER1
  6
CONTINUOUS
 62
     6
 10
222.977605
 20
73.624185
 11
222.888408
 21
73.534918
  0
LINE
  8
CSLAYER1
  6
CONTINUOUS
 62
     6
 10
222.888408
 20
73.534918
 11
222.800651
 21
73.442027
  0
LINE
  8
CSLAYER1
  6
CONTINUOUS
 62
     6
 10
222.800651
 20
73.442027
 11
222.714560
 21
73.346055
  0
LINE
  8
CSLAYER1
  6
CONTINUOUS
 62
     6
 10
222.714560
 20
73.346055
 11
222.630356
 21
73.247543
  0
LINE
  8
CSLAYER1
  6
CONTINUOUS
 62
     6
 10
222.630356
 20
73.247543
 11
222.548263
 21
73.147031
  0
LINE
  8
CSLAYER1
  6
CONTINUOUS
 62
     6
 10
222.548263
 20
73.147031
 11
222.468504
 21
73.045062
  0
LINE
  8
CSLAYER1
  6
CONTINUOUS
 62
     6
 10
222.468504
 20
73.045062
 11
222.391302
 21
72.942176
  0
LINE
  8
CSLAYER1
  6
CONTINUOUS
 62
     6
 10
222.391302
 20
72.942176
 11
222.316881
 21
72.838914
  0
LINE
  8
CSLAYER1
  6
CONTINUOUS
 62
     6
 10
222.316881
 20
72.838914
 11
222.223214
 21
72.702568
  0
LINE
  8
CSLAYER1
  6
CONTINUOUS
 62
     6
 10
222.223214
 20
72.702568
 11
222.133038
 21
72.564111
  0
LINE
  8
CSLAYER1
  6
CONTINUOUS
 62
     6
 10
222.133038
 20
72.564111
 11
222.046003
 21
72.423754
  0
LINE
  8
CSLAYER1
  6
CONTINUOUS
 62
     6
 10
222.046003
 20
72.423754
 11
221.961760
 21
72.281708
  0
LINE
  8
CSLAYER1
  6
CONTINUOUS
 62
     6
 10
221.961760
 20
72.281708
 11
221.879961
 21
72.138184
  0
LINE
  8
CSLAYER1
  6
CONTINUOUS
 62
     6
 10
221.879961
 20
72.138184
 11
221.800256
 21
71.993394
  0
LINE
  8
CSLAYER1
  6
CONTINUOUS
 62
     6
 10
221.800256
 20
71.993394
 11
221.722296
 21
71.847548
  0
LINE
  8
CSLAYER1
  6
CONTINUOUS
 62
     6
 10
221.722296
 20
71.847548
 11
221.645732
 21
71.700857
  0
LINE
  8
CSLAYER1
  6
CONTINUOUS
 62
     6
 10
221.645732
 20
71.700857
 11
221.570216
 21
71.553533
  0
LINE
  8
CSLAYER1
  6
CONTINUOUS
 62
     6
 10
221.570216
 20
71.553533
 11
221.495398
 21
71.405787
  0
LINE
  8
CSLAYER1
  6
CONTINUOUS
 62
     6
 10
221.495398
 20
71.405787
 11
221.420928
 21
71.257829
  0
ARC
  8
CSLAYER1
  6
CONTINUOUS
 62
     6
 10
220.127977
 20
70.497442
 40
1.499998
 50
30.461270
 51
90.461270
  0
LINE
  8
CSLAYER1
  6
CONTINUOUS
 62
     6
 10
220.633486
 20
71.909694
 11
219.655258
 21
68.312225
  0
ARC
  8
CSLAYER1
  6
CONTINUOUS
 62
     6
 10
223.149574
 20
68.968268
 40
1.500000
 50
222.897147
 51
282.897147
  0
ARC
  8
CSLAYER1
  6
CONTINUOUS
 62
     6
 10
223.819179
 20
66.043951
 40
1.500000
 50
42.897147
 51
102.897147
  0
LINE
  8
CSLAYER1
  6
CONTINUOUS
 62
     6
 10
224.918011
 20
67.064962
 11
224.956078
 21
67.193650
  0
LINE
  8
CSLAYER1
  6
CONTINUOUS
 62
     6
 10
224.956078
 20
67.193650
 11
224.994224
 21
67.322345
  0
LINE
  8
CSLAYER1
  6
CONTINUOUS
 62
     6
 10
224.994224
 20
67.322345
 11
225.032527
 21
67.451053
  0
LINE
  8
CSLAYER1
  6
CONTINUOUS
 62
     6
 10
225.032527
 20
67.451053
 11
225.071065
 21
67.579781
  0
LINE
  8
CSLAYER1
  6
CONTINUOUS
 62
     6
 10
225.071065
 20
67.579781
 11
225.109917
 21
67.708534
  0
LINE
  8
CSLAYER1
  6
CONTINUOUS
 62
     6
 10
225.109917
 20
67.708534
 11
225.149161
 21
67.837319
  0
LINE
  8
CSLAYER1
  6
CONTINUOUS
 62
     6
 10
225.149161
 20
67.837319
 11
225.188875
 21
67.966144
  0
LINE
  8
CSLAYER1
  6
CONTINUOUS
 62
     6
 10
225.188875
 20
67.966144
 11
225.229138
 21
68.095013
  0
LINE
  8
CSLAYER1
  6
CONTINUOUS
 62
     6
 10
225.229138
 20
68.095013
 11
225.270029
 21
68.223934
  0
LINE
  8
CSLAYER1
  6
CONTINUOUS
 62
     6
 10
225.270029
 20
68.223934
 11
225.311625
 21
68.352913
  0
LINE
  8
CSLAYER1
  6
CONTINUOUS
 62
     6
 10
225.311625
 20
68.352913
 11
225.354005
 21
68.481957
  0
LINE
  8
CSLAYER1
  6
CONTINUOUS
 62
     6
 10
225.354005
 20
68.481957
 11
225.386818
 21
68.580078
  0
LINE
  8
CSLAYER1
  6
CONTINUOUS
 62
     6
 10
225.386818
 20
68.580078
 11
225.420657
 21
68.678894
  0
LINE
  8
CSLAYER1
  6
CONTINUOUS
 62
     6
 10
225.420657
 20
68.678894
 11
225.455701
 21
68.777863
  0
LINE
  8
CSLAYER1
  6
CONTINUOUS
 62
     6
 10
225.455701
 20
68.777863
 11
225.492130
 21
68.876440
  0
LINE
  8
CSLAYER1
  6
CONTINUOUS
 62
     6
 10
225.492130
 20
68.876440
 11
225.530123
 21
68.974083
  0
LINE
  8
CSLAYER1
  6
CONTINUOUS
 62
     6
 10
225.530123
 20
68.974083
 11
225.569859
 21
69.070249
  0
LINE
  8
CSLAYER1
  6
CONTINUOUS
 62
     6
 10
225.569859
 20
69.070249
 11
225.611518
 21
69.164395
  0
LINE
  8
CSLAYER1
  6
CONTINUOUS
 62
     6
 10
225.611518
 20
69.164395
 11
225.655278
 21
69.255978
  0
LINE
  8
CSLAYER1
  6
CONTINUOUS
 62
     6
 10
225.655278
 20
69.255978
 11
225.701320
 21
69.344455
  0
LINE
  8
CSLAYER1
  6
CONTINUOUS
 62
     6
 10
225.701320
 20
69.344455
 11
225.749821
 21
69.429282
  0
LINE
  8
CSLAYER1
  6
CONTINUOUS
 62
     6
 10
225.749821
 20
69.429282
 11
225.800961
 21
69.509918
  0
LINE
  8
CSLAYER1
  6
CONTINUOUS
 62
     6
 10
225.800961
 20
69.509918
 11
225.857253
 21
69.591298
  0
LINE
  8
CSLAYER1
  6
CONTINUOUS
 62
     6
 10
225.857253
 20
69.591298
 11
225.918162
 21
69.674471
  0
LINE
  8
CSLAYER1
  6
CONTINUOUS
 62
     6
 10
225.918162
 20
69.674471
 11
225.983015
 21
69.758612
  0
LINE
  8
CSLAYER1
  6
CONTINUOUS
 62
     6
 10
225.983015
 20
69.758612
 11
226.051143
 21
69.842895
  0
LINE
  8
CSLAYER1
  6
CONTINUOUS
 62
     6
 10
226.051143
 20
69.842895
 11
226.121872
 21
69.926493
  0
LINE
  8
CSLAYER1
  6
CONTINUOUS
 62
     6
 10
226.121872
 20
69.926493
 11
226.194532
 21
70.008580
  0
LINE
  8
CSLAYER1
  6
CONTINUOUS
 62
     6
 10
226.194532
 20
70.008580
 11
226.268450
 21
70.088331
  0
LINE
  8
CSLAYER1
  6
CONTINUOUS
 62
     6
 10
226.268450
 20
70.088331
 11
226.342954
 21
70.164919
  0
LINE
  8
CSLAYER1
  6
CONTINUOUS
 62
     6
 10
226.342954
 20
70.164919
 11
226.417374
 21
70.237518
  0
LINE
  8
CSLAYER1
  6
CONTINUOUS
 62
     6
 10
226.417374
 20
70.237518
 11
226.491037
 21
70.305303
  0
LINE
  8
CSLAYER1
  6
CONTINUOUS
 62
     6
 10
226.491037
 20
70.305303
 11
226.563271
 21
70.367447
  0
ARC
  8
CSLAYER1
  6
CONTINUOUS
 62
     6
 10
225.139610
 20
69.894768
 40
1.500000
 50
18.366208
 51
78.366208
  0
ARC
  8
CSLAYER1
  6
CONTINUOUS
 62
     6
 10
225.744577
 20
72.833138
 40
1.500000
 50
198.366208
 51
258.366208
  0
ARC
  8
CSLAYER1
  6
CONTINUOUS
 62
     6
 10
224.018501
 20
70.891319
 40
1.500000
 50
18.366208
 51
78.366208
  0
LINE
  8
CSLAYER1
  6
CONTINUOUS
 62
     6
 10
224.820170
 20
72.159123
 11
226.885661
 21
72.159123
  0
ARC
  8
CSLAYER1
  6
CONTINUOUS
 62
     6
 10
227.903933
 20
74.142101
 40
1.500006
 50
183.178280
 51
243.178280
  0
LINE
  8
CSLAYER1
  6
CONTINUOUS
 62
     6
 10
226.406200
 20
74.058991
 11
226.551626
 21
74.161930
  0
LINE
  8
CSLAYER1
  6
CONTINUOUS
 62
     6
 10
226.551626
 20
74.161930
 11
226.697221
 21
74.264587
  0
LINE
  8
CSLAYER1
  6
CONTINUOUS
 62
     6
 10
226.697221
 20
74.264587
 11
226.843154
 21
74.366678
  0
LINE
  8
CSLAYER1
  6
CONTINUOUS
 62
     6
 10
226.843154
 20
74.366678
 11
226.989594
 21
74.467921
  0
LINE
  8
CSLAYER1
  6
CONTINUOUS
 62
     6
 10
226.989594
 20
74.467921
 11
227.136709
 21
74.568034
  0
LINE
  8
CSLAYER1
  6
CONTINUOUS
 62
     6
 10
227.136709
 20
74.568034
 11
227.284669
 21
74.666734
  0
LINE
  8
CSLAYER1
  6
CONTINUOUS
 62
     6
 10
227.284669
 20
74.666734
 11
227.433642
 21
74.763737
  0
LINE
  8
CSLAYER1
  6
CONTINUOUS
 62
     6
 10
227.433642
 20
74.763737
 11
227.583798
 21
74.858763
  0
LINE
  8
CSLAYER1
  6
CONTINUOUS
 62
     6
 10
227.583798
 20
74.858763
 11
227.735304
 21
74.951527
  0
LINE
  8
CSLAYER1
  6
CONTINUOUS
 62
     6
 10
227.735304
 20
74.951527
 11
227.888331
 21
75.041748
  0
LINE
  8
CSLAYER1
  6
CONTINUOUS
 62
     6
 10
227.888331
 20
75.041748
 11
228.043047
 21
75.129143
  0
LINE
  8
CSLAYER1
  6
CONTINUOUS
 62
     6
 10
228.043047
 20
75.129143
 11
228.259538
 21
75.244974
  0
LINE
  8
CSLAYER1
  6
CONTINUOUS
 62
     6
 10
228.259538
 20
75.244974
 11
228.481533
 21
75.356514
  0
LINE
  8
CSLAYER1
  6
CONTINUOUS
 62
     6
 10
228.481533
 20
75.356514
 11
228.707992
 21
75.463157
  0
LINE
  8
CSLAYER1
  6
CONTINUOUS
 62
     6
 10
228.707992
 20
75.463157
 11
228.937872
 21
75.564294
  0
LINE
  8
CSLAYER1
  6
CONTINUOUS
 62
     6
 10
228.937872
 20
75.564294
 11
229.170132
 21
75.659319
  0
LINE
  8
CSLAYER1
  6
CONTINUOUS
 62
     6
 10
229.170132
 20
75.659319
 11
229.403731
 21
75.747624
  0
LINE
  8
CSLAYER1
  6
CONTINUOUS
 62
     6
 10
229.403731
 20
75.747624
 11
229.637627
 21
75.828603
  0
LINE
  8
CSLAYER1
  6
CONTINUOUS
 62
     6
 10
229.637627
 20
75.828603
 11
229.870779
 21
75.901648
  0
LINE
  8
CSLAYER1
  6
CONTINUOUS
 62
     6
 10
229.870779
 20
75.901648
 11
230.102146
 21
75.966152
  0
LINE
  8
CSLAYER1
  6
CONTINUOUS
 62
     6
 10
230.102146
 20
75.966152
 11
230.330685
 21
76.021509
  0
LINE
  8
CSLAYER1
  6
CONTINUOUS
 62
     6
 10
230.330685
 20
76.021509
 11
230.555356
 21
76.067111
  0
LINE
  8
CSLAYER1
  6
CONTINUOUS
 62
     6
 10
230.555356
 20
76.067111
 11
230.799599
 21
76.110116
  0
LINE
  8
CSLAYER1
  6
CONTINUOUS
 62
     6
 10
230.799599
 20
76.110116
 11
231.052644
 21
76.151351
  0
LINE
  8
CSLAYER1
  6
CONTINUOUS
 62
     6
 10
231.052644
 20
76.151351
 11
231.312704
 21
76.189927
  0
LINE
  8
CSLAYER1
  6
CONTINUOUS
 62
     6
 10
231.312704
 20
76.189927
 11
231.577993
 21
76.224952
  0
LINE
  8
CSLAYER1
  6
CONTINUOUS
 62
     6
 10
231.577993
 20
76.224952
 11
231.846721
 21
76.255536
  0
LINE
  8
CSLAYER1
  6
CONTINUOUS
 62
     6
 10
231.846721
 20
76.255536
 11
232.117101
 21
76.280789
  0
LINE
  8
CSLAYER1
  6
CONTINUOUS
 62
     6
 10
232.117101
 20
76.280789
 11
232.387346
 21
76.299820
  0
LINE
  8
CSLAYER1
  6
CONTINUOUS
 62
     6
 10
232.387346
 20
76.299820
 11
232.655668
 21
76.311739
  0
LINE
  8
CSLAYER1
  6
CONTINUOUS
 62
     6
 10
232.655668
 20
76.311739
 11
232.920280
 21
76.315656
  0
LINE
  8
CSLAYER1
  6
CONTINUOUS
 62
     6
 10
232.920280
 20
76.315656
 11
233.179393
 21
76.310679
  0
LINE
  8
CSLAYER1
  6
CONTINUOUS
 62
     6
 10
233.179393
 20
76.310679
 11
233.431221
 21
76.295919
  0
LINE
  8
CSLAYER1
  6
CONTINUOUS
 62
     6
 10
233.431221
 20
76.295919
 11
233.620366
 21
76.280647
  0
LINE
  8
CSLAYER1
  6
CONTINUOUS
 62
     6
 10
233.620366
 20
76.280647
 11
233.814106
 21
76.264821
  0
LINE
  8
CSLAYER1
  6
CONTINUOUS
 62
     6
 10
233.814106
 20
76.264821
 11
234.011408
 21
76.248354
  0
LINE
  8
CSLAYER1
  6
CONTINUOUS
 62
     6
 10
234.011408
 20
76.248354
 11
234.211237
 21
76.231153
  0
LINE
  8
CSLAYER1
  6
CONTINUOUS
 62
     6
 10
234.211237
 20
76.231153
 11
234.412558
 21
76.213129
  0
LINE
  8
CSLAYER1
  6
CONTINUOUS
 62
     6
 10
234.412558
 20
76.213129
 11
234.614336
 21
76.194192
  0
LINE
  8
CSLAYER1
  6
CONTINUOUS
 62
     6
 10
234.614336
 20
76.194192
 11
234.815538
 21
76.174252
  0
LINE
  8
CSLAYER1
  6
CONTINUOUS
 62
     6
 10
234.815538
 20
76.174252
 11
235.015128
 21
76.153219
  0
LINE
  8
CSLAYER1
  6
CONTINUOUS
 62
     6
 10
235.015128
 20
76.153219
 11
235.212072
 21
76.131002
  0
LINE
  8
CSLAYER1
  6
CONTINUOUS
 62
     6
 10
235.212072
 20
76.131002
 11
235.405336
 21
76.107511
  0
LINE
  8
CSLAYER1
  6
CONTINUOUS
 62
     6
 10
235.405336
 20
76.107511
 11
235.593885
 21
76.082657
  0
LINE
  8
CSLAYER1
  6
CONTINUOUS
 62
     6
 10
235.593885
 20
76.082657
 11
235.742505
 21
76.063006
  0
LINE
  8
CSLAYER1
  6
CONTINUOUS
 62
     6
 10
235.742505
 20
76.063006
 11
235.895223
 21
76.044390
  0
LINE
  8
CSLAYER1
  6
CONTINUOUS
 62
     6
 10
235.895223
 20
76.044390
 11
236.051097
 21
76.026953
  0
LINE
  8
CSLAYER1
  6
CONTINUOUS
 62
     6
 10
236.051097
 20
76.026953
 11
236.209185
 21
76.010841
  0
LINE
  8
CSLAYER1
  6
CONTINUOUS
 62
     6
 10
236.209185
 20
76.010841
 11
236.368547
 21
75.996199
  0
LINE
  8
CSLAYER1
  6
CONTINUOUS
 62
     6
 10
236.368547
 20
75.996199
 11
236.528242
 21
75.983171
  0
LINE
  8
CSLAYER1
  6
CONTINUOUS
 62
     6
 10
236.528242
 20
75.983171
 11
236.687328
 21
75.971903
  0
LINE
  8
CSLAYER1
  6
CONTINUOUS
 62
     6
 10
236.687328
 20
75.971903
 11
236.844864
 21
75.962540
  0
LINE
  8
CSLAYER1
  6
CONTINUOUS
 62
     6
 10
236.844864
 20
75.962540
 11
236.999910
 21
75.955227
  0
LINE
  8
CSLAYER1
  6
CONTINUOUS
 62
     6
 10
236.999910
 20
75.955227
 11
237.151523
 21
75.950109
  0
LINE
  8
CSLAYER1
  6
CONTINUOUS
 62
     6
 10
237.151523
 20
75.950109
 11
237.298764
 21
75.947331
  0
LINE
  8
CSLAYER1
  6
CONTINUOUS
 62
     6
 10
237.298764
 20
75.947331
 11
237.442738
 21
75.946738
  0
LINE
  8
CSLAYER1
  6
CONTINUOUS
 62
     6
 10
237.442738
 20
75.946738
 11
237.592723
 21
75.947934
  0
LINE
  8
CSLAYER1
  6
CONTINUOUS
 62
     6
 10
237.592723
 20
75.947934
 11
237.747165
 21
75.950840
  0
LINE
  8
CSLAYER1
  6
CONTINUOUS
 62
     6
 10
237.747165
 20
75.950840
 11
237.904506
 21
75.955376
  0
LINE
  8
CSLAYER1
  6
CONTINUOUS
 62
     6
 10
237.904506
 20
75.955376
 11
238.063192
 21
75.961463
  0
LINE
  8
CSLAYER1
  6
CONTINUOUS
 62
     6
 10
238.063192
 20
75.961463
 11
238.221667
 21
75.969021
  0
LINE
  8
CSLAYER1
  6
CONTINUOUS
 62
     6
 10
238.221667
 20
75.969021
 11
238.378376
 21
75.977970
  0
LINE
  8
CSLAYER1
  6
CONTINUOUS
 62
     6
 10
238.378376
 20
75.977970
 11
238.531763
 21
75.988230
  0
LINE
  8
CSLAYER1
  6
CONTINUOUS
 62
     6
 10
238.531763
 20
75.988230
 11
238.680273
 21
75.999724
  0
LINE
  8
CSLAYER1
  6
CONTINUOUS
 62
     6
 10
238.680273
 20
75.999724
 11
238.822350
 21
76.012369
  0
LINE
  8
CSLAYER1
  6
CONTINUOUS
 62
     6
 10
238.822350
 20
76.012369
 11
238.956439
 21
76.026088
  0
ARC
  8
CSLAYER1
  6
CONTINUOUS
 62
     6
 10
239.063157
 20
74.528665
 40
1.500000
 50
-88.640300
 51
91.359720
  0
LINE
  8
CSLAYER1
  6
CONTINUOUS
 62
     6
 10
239.098778
 20
73.029473
 11
238.949098
 21
73.014235
  0
LINE
  8
CSLAYER1
  6
CONTINUOUS
 62
     6
 10
238.949098
 20
73.014235
 11
238.790377
 21
73.000201
  0
LINE
  8
CSLAYER1
  6
CONTINUOUS
 62
     6
 10
238.790377
 20
73.000201
 11
238.624409
 21
72.987453
  0
LINE
  8
CSLAYER1
  6
CONTINUOUS
 62
     6
 10
238.624409
 20
72.987453
 11
238.452986
 21
72.976075
  0
LINE
  8
CSLAYER1
  6
CONTINUOUS
 62
     6
 10
238.452986
 20
72.976075
 11
238.277903
 21
72.966149
  0
LINE
  8
CSLAYER1
  6
CONTINUOUS
 62
     6
 10
238.277903
 20
72.966149
 11
238.100952
 21
72.957759
  0
LINE
  8
CSLAYER1
  6
CONTINUOUS
 62
     6
 10
238.100952
 20
72.957759
 11
237.923927
 21
72.950987
  0
LINE
  8
CSLAYER1
  6
CONTINUOUS
 62
     6
 10
237.923927
 20
72.950987
 11
237.748622
 21
72.945917
  0
LINE
  8
CSLAYER1
  6
CONTINUOUS
 62
     6
 10
237.748622
 20
72.945917
 11
237.576830
 21
72.942632
  0
LINE
  8
CSLAYER1
  6
CONTINUOUS
 62
     6
 10
237.576830
 20
72.942632
 11
237.410343
 21
72.941215
  0
LINE
  8
CSLAYER1
  6
CONTINUOUS
 62
     6
 10
237.410343
 20
72.941215
 11
237.250956
 21
72.941748
  0
LINE
  8
CSLAYER1
  6
CONTINUOUS
 62
     6
 10
237.250956
 20
72.941748
 11
237.085810
 21
72.944683
  0
LINE
  8
CSLAYER1
  6
CONTINUOUS
 62
     6
 10
237.085810
 20
72.944683
 11
236.915004
 21
72.950198
  0
LINE
  8
CSLAYER1
  6
CONTINUOUS
 62
     6
 10
236.915004
 20
72.950198
 11
236.739780
 21
72.958161
  0
LINE
  8
CSLAYER1
  6
CONTINUOUS
 62
     6
 10
236.739780
 20
72.958161
 11
236.561376
 21
72.968443
  0
LINE
  8
CSLAYER1
  6
CONTINUOUS
 62
     6
 10
236.561376
 20
72.968443
 11
236.381033
 21
72.980913
  0
LINE
  8
CSLAYER1
  6
CONTINUOUS
 62
     6
 10
236.381033
 20
72.980913
 11
236.199990
 21
72.995441
  0
LINE
  8
CSLAYER1
  6
CONTINUOUS
 62
     6
 10
236.199990
 20
72.995441
 11
236.019489
 21
73.011896
  0
LINE
  8
CSLAYER1
  6
CONTINUOUS
 62
     6
 10
236.019489
 20
73.011896
 11
235.840767
 21
73.030149
  0
LINE
  8
CSLAYER1
  6
CONTINUOUS
 62
     6
 10
235.840767
 20
73.030149
 11
235.665067
 21
73.050068
  0
LINE
  8
CSLAYER1
  6
CONTINUOUS
 62
     6
 10
235.665067
 20
73.050068
 11
235.493627
 21
73.071524
  0
LINE
  8
CSLAYER1
  6
CONTINUOUS
 62
     6
 10
235.493627
 20
73.071524
 11
235.327688
 21
73.094387
  0
LINE
  8
CSLAYER1
  6
CONTINUOUS
 62
     6
 10
235.327688
 20
73.094387
 11
235.161604
 21
73.117193
  0
LINE
  8
CSLAYER1
  6
CONTINUOUS
 62
     6
 10
235.161604
 20
73.117193
 11
234.990474
 21
73.138528
  0
LINE
  8
CSLAYER1
  6
CONTINUOUS
 62
     6
 10
234.990474
 20
73.138528
 11
234.815385
 21
73.158511
  0
LINE
  8
CSLAYER1
  6
CONTINUOUS
 62
     6
 10
234.815385
 20
73.158511
 11
234.637425
 21
73.177263
  0
LINE
  8
CSLAYER1
  6
CONTINUOUS
 62
     6
 10
234.637425
 20
73.177263
 11
234.457683
 21
73.194902
  0
LINE
  8
CSLAYER1
  6
CONTINUOUS
 62
     6
 10
234.457683
 20
73.194902
 11
234.277245
 21
73.211551
  0
LINE
  8
CSLAYER1
  6
CONTINUOUS
 62
     6
 10
234.277245
 20
73.211551
 11
234.097199
 21
73.227328
  0
LINE
  8
CSLAYER1
  6
CONTINUOUS
 62
     6
 10
234.097199
 20
73.227328
 11
233.918634
 21
73.242353
  0
LINE
  8
CSLAYER1
  6
CONTINUOUS
 62
     6
 10
233.918634
 20
73.242353
 11
233.742637
 21
73.256748
  0
LINE
  8
CSLAYER1
  6
CONTINUOUS
 62
     6
 10
233.742637
 20
73.256748
 11
233.570296
 21
73.270631
  0
LINE
  8
CSLAYER1
  6
CONTINUOUS
 62
     6
 10
233.570296
 20
73.270631
 11
233.402698
 21
73.284124
  0
LINE
  8
CSLAYER1
  6
CONTINUOUS
 62
     6
 10
233.402698
 20
73.284124
 11
233.211907
 21
73.295394
  0
LINE
  8
CSLAYER1
  6
CONTINUOUS
 62
     6
 10
233.211907
 20
73.295394
 11
233.015167
 21
73.299318
  0
LINE
  8
CSLAYER1
  6
CONTINUOUS
 62
     6
 10
233.015167
 20
73.299318
 11
232.813900
 21
73.296539
  0
LINE
  8
CSLAYER1
  6
CONTINUOUS
 62
     6
 10
232.813900
 20
73.296539
 11
232.609530
 21
73.287696
  0
LINE
  8
CSLAYER1
  6
CONTINUOUS
 62
     6
 10
232.609530
 20
73.287696
 11
232.403479
 21
73.273431
  0
LINE
  8
CSLAYER1
  6
CONTINUOUS
 62
     6
 10
232.403479
 20
73.273431
 11
232.197170
 21
73.254383
  0
LINE
  8
CSLAYER1
  6
CONTINUOUS
 62
     6
 10
232.197170
 20
73.254383
 11
231.992026
 21
73.231195
  0
LINE
  8
CSLAYER1
  6
CONTINUOUS
 62
     6
 10
231.992026
 20
73.231195
 11
231.789470
 21
73.204506
  0
LINE
  8
CSLAYER1
  6
CONTINUOUS
 62
     6
 10
231.789470
 20
73.204506
 11
231.590926
 21
73.174957
  0
LINE
  8
CSLAYER1
  6
CONTINUOUS
 62
     6
 10
231.590926
 20
73.174957
 11
231.397814
 21
73.143190
  0
LINE
  8
CSLAYER1
  6
CONTINUOUS
 62
     6
 10
231.397814
 20
73.143190
 11
231.211560
 21
73.109844
  0
LINE
  8
CSLAYER1
  6
CONTINUOUS
 62
     6
 10
231.211560
 20
73.109844
 11
231.050029
 21
73.076469
  0
LINE
  8
CSLAYER1
  6
CONTINUOUS
 62
     6
 10
231.050029
 20
73.076469
 11
230.885809
 21
73.036150
  0
LINE
  8
CSLAYER1
  6
CONTINUOUS
 62
     6
 10
230.885809
 20
73.036150
 11
230.719619
 21
72.989342
  0
LINE
  8
CSLAYER1
  6
CONTINUOUS
 62
     6
 10
230.719619
 20
72.989342
 11
230.552177
 21
72.936495
  0
LINE
  8
CSLAYER1
  6
CONTINUOUS
 62
     6
 10
230.552177
 20
72.936495
 11
230.384201
 21
72.878062
  0
LINE
  8
CSLAYER1
  6
CONTINUOUS
 62
     6
 10
230.384201
 20
72.878062
 11
230.216409
 21
72.814495
  0
LINE
  8
CSLAYER1
  6
CONTINUOUS
 62
     6
 10
230.216409
 20
72.814495
 11
230.049519
 21
72.746246
  0
LINE
  8
CSLAYER1
  6
CONTINUOUS
 62
     6
 10
230.049519
 20
72.746246
 11
229.884250
 21
72.673767
  0
LINE
  8
CSLAYER1
  6
CONTINUOUS
 62
     6
 10
229.884250
 20
72.673767
 11
229.721321
 21
72.597510
  0
LINE
  8
CSLAYER1
  6
CONTINUOUS
 62
     6
 10
229.721321
 20
72.597510
 11
229.561448
 21
72.517929
  0
LINE
  8
CSLAYER1
  6
CONTINUOUS
 62
     6
 10
229.561448
 20
72.517929
 11
229.405351
 21
72.435474
  0
LINE
  8
CSLAYER1
  6
CONTINUOUS
 62
     6
 10
229.405351
 20
72.435474
 11
229.276646
 21
72.363681
  0
LINE
  8
CSLAYER1
  6
CONTINUOUS
 62
     6
 10
229.276646
 20
72.363681
 11
229.149457
 21
72.289351
  0
LINE
  8
CSLAYER1
  6
CONTINUOUS
 62
     6
 10
229.149457
 20
72.289351
 11
229.023631
 21
72.212737
  0
LINE
  8
CSLAYER1
  6
CONTINUOUS
 62
     6
 10
229.023631
 20
72.212737
 11
228.899018
 21
72.134094
  0
LINE
  8
CSLAYER1
  6
CONTINUOUS
 62
     6
 10
228.899018
 20
72.134094
 11
228.775466
 21
72.053674
  0
LINE
  8
CSLAYER1
  6
CONTINUOUS
 62
     6
 10
228.775466
 20
72.053674
 11
228.652823
 21
71.971731
  0
LINE
  8
CSLAYER1
  6
CONTINUOUS
 62
     6
 10
228.652823
 20
71.971731
 11
228.530937
 21
71.888520
  0
LINE
  8
CSLAYER1
  6
CONTINUOUS
 62
     6
 10
228.530937
 20
71.888520
 11
228.409658
 21
71.804294
  0
LINE
  8
CSLAYER1
  6
CONTINUOUS
 62
     6
 10
228.409658
 20
71.804294
 11
228.288833
 21
71.719307
  0
LINE
  8
CSLAYER1
  6
CONTINUOUS
 62
     6
 10
228.288833
 20
71.719307
 11
228.168312
 21
71.633812
  0
LINE
  8
CSLAYER1
  6
CONTINUOUS
 62
     6
 10
228.168312
 20
71.633812
 11
228.047942
 21
71.548063
  0
ARC
  8
CSLAYER1
  6
CONTINUOUS
 62
     6
 10
226.550280
 20
71.464847
 40
1.500006
 50
3.178280
 51
63.178280
  0
ARC
  8
CSLAYER1
  6
CONTINUOUS
 62
     6
 10
228.724805
 20
72.886639
 40
1.500006
 50
183.178280
 51
243.178280
  0
LINE
  8
CSLAYER1
  6
CONTINUOUS
 62
     6
 10
226.885661
 20
73.099655
 11
226.885661
 21
31.159123
  0
LINE
  8
CSLAYER1
  6
CONTINUOUS
 62
     6
 10
226.885661
 20
31.159123
 11
166.885661
 21
31.159123
  0
LINE
  8
CSLAYER1
  6
CONTINUOUS
 62
     6
 10
166.885661
 20
31.159123
 11
166.885661
 21
121.159123
  0
LINE
  8
CSLAYER1
  6
CONTINUOUS
 62
     6
 10
166.885661
 20
121.159123
 11
226.885661
 21
121.159123
  0
ARC
  8
CSLAYER1
  6
CONTINUOUS
 62
     6
 10
228.099345
 20
113.730641
 40
1.000000
 50
270.000001
 51
353.999989
  0
LINE
  8
CSLAYER1
  6
CONTINUOUS
 62
     6
 10
171.885661
 20
121.159123
 11
171.885661
 21
31.159123
  0
ARC
  8
CSLAYER1
  6
CONTINUOUS
 62
     6
 10
166.764971
 20
36.279839
 40
0.120690
 50
270.000001
 51
359.942691
  0
LINE
  8
CSLAYER1
  6
CONTINUOUS
 62
     6
 10
166.764971
 20
36.159141
 11
166.161522
 21
36.159141
  0
ARC
  8
CSLAYER1
  6
CONTINUOUS
 62
     6
 10
166.161522
 20
36.279839
 40
0.120690
 50
180.000005
 51
270.000001
  0
LINE
  8
CSLAYER1
  6
CONTINUOUS
 62
     6
 10
166.040861
 20
36.279839
 11
166.040861
 21
43.038444
  0
ARC
  8
CSLAYER1
  6
CONTINUOUS
 62
     6
 10
166.161522
 20
43.038444
 40
0.120690
 50
90.000003
 51
180.000005
  0
LINE
  8
CSLAYER1
  6
CONTINUOUS
 62
     6
 10
166.161522
 20
43.159141
 11
166.764971
 21
43.159141
  0
ARC
  8
CSLAYER1
  6
CONTINUOUS
 62
     6
 10
166.764971
 20
43.038444
 40
0.120690
 50
0.000000
 51
90.000003
  0
ARC
  8
CSLAYER1
  6
CONTINUOUS
 62
     6
 10
165.799467
 20
42.714694
 40
0.241380
 50
0.000000
 51
95.000152
  0
LINE
  8
CSLAYER1
  6
CONTINUOUS
 62
     6
 10
165.778399
 20
42.955149
 11
165.018268
 21
42.888650
  0
ARC
  8
CSLAYER1
  6
CONTINUOUS
 62
     6
 10
165.123459
 20
41.686336
 40
1.206899
 50
95.000111
 51
163.742611
  0
ARC
  8
CSLAYER1
  6
CONTINUOUS
 62
     6
 10
172.075357
 20
39.659141
 40
8.448294
 50
163.742994
 51
196.257016
  0
ARC
  8
CSLAYER1
  6
CONTINUOUS
 62
     6
 10
165.123459
 20
37.631946
 40
1.206899
 50
196.257399
 51
264.999892
  0
LINE
  8
CSLAYER1
  6
CONTINUOUS
 62
     6
 10
165.018268
 20
36.429633
 11
165.778399
 21
36.363133
  0
ARC
  8
CSLAYER1
  6
CONTINUOUS
 62
     6
 10
165.799467
 20
36.603589
 40
0.241380
 50
264.999865
 51
359.942691
  0
LINE
  8
CSLAYER1
  6
CONTINUOUS
 62
     6
 10
166.040861
 20
38.939912
 11
166.885669
 21
39.475609
  0
LINE
  8
CSLAYER1
  6
CONTINUOUS
 62
     6
 10
166.885669
 20
40.079059
 11
166.040861
 21
39.543361
  0
LINE
  8
CSLAYER1
  6
CONTINUOUS
 62
     6
 10
166.885676
 20
48.659112
 11
143.885661
 21
48.659082
  0
ARC
  8
CSLAYER1
  6
CONTINUOUS
 62
     6
 10
143.885661
 20
50.659164
 40
2.000000
 50
180.000005
 51
270.000028
  0
LINE
  8
CSLAYER1
  6
CONTINUOUS
 62
     6
 10
141.885661
 20
50.659164
 11
141.885661
 21
101.659164
  0
ARC
  8
CSLAYER1
  6
CONTINUOUS
 62
     6
 10
143.885661
 20
101.659164
 40
2.000000
 50
89.999968
 51
180.000005
  0
LINE
  8
CSLAYER1
  6
CONTINUOUS
 62
     6
 10
143.885661
 20
103.659082
 11
157.885661
 21
103.659066
  0
ARC
  8
CSLAYER1
  6
CONTINUOUS
 62
     6
 10
159.135661
 20
105.378412
 40
2.500000
 50
240.000010
 51
300.000005
  0
ARC
  8
CSLAYER1
  6
CONTINUOUS
 62
     6
 10
161.635661
 20
105.378412
 40
2.500000
 50
240.000010
 51
300.000005
  0
ARC
  8
CSLAYER1
  6
CONTINUOUS
 62
     6
 10
146.617473
 20
104.605203
 40
16.327621
 50
-4.890180
 51
34.633093
  0
LINE
  8
CSLAYER1
  6
CONTINUOUS
 62
     6
 10
160.051982
 20
113.884500
 11
155.959498
 21
111.057794
  0
ARC
  8
CSLAYER1
  6
CONTINUOUS
 62
     6
 10
146.617473
 20
104.605203
 40
11.353822
 50
-7.041553
 51
34.633120
  0
ARC
  8
CSLAYER1
  6
CONTINUOUS
 62
     6
 10
159.135661
 20
101.048272
 40
2.500000
 50
60.000005
 51
119.999993
  0
ARC
  8
CSLAYER1
  6
CONTINUOUS
 62
     6
 10
161.635661
 20
103.006662
 40
2.500000
 50
239.999997
 51
299.999998
  0
LINE
  8
CSLAYER1
  6
CONTINUOUS
 62
     6
 10
162.885661
 20
100.841592
 11
162.885661
 21
89.069650
  0
ARC
  8
CSLAYER1
  6
CONTINUOUS
 62
     6
 10
160.385661
 20
89.069650
 40
2.500000
 50
179.999995
 51
360.000000
  0
LINE
  8
CSLAYER1
  6
CONTINUOUS
 62
     6
 10
157.885661
 20
89.069650
 11
157.885661
 21
100.841592
  0
ARC
  8
CSLAYER1
  6
CONTINUOUS
 62
     6
 10
159.135661
 20
98.676523
 40
2.500000
 50
60.000005
 51
119.999993
  0
ARC
  8
CSLAYER1
  6
CONTINUOUS
 62
     6
 10
161.635661
 20
98.676523
 40
2.500000
 50
60.000005
 51
119.999993
  0
LINE
  8
CSLAYER1
  6
CONTINUOUS
 62
     6
 10
162.885661
 20
103.659066
 11
166.885676
 21
103.659066
  0
LINE
  8
CSLAYER1
  6
CONTINUOUS
 62
     6
 10
166.764971
 20
97.909141
 11
166.161522
 21
97.909141
  0
ARC
  8
CSLAYER1
  6
CONTINUOUS
 62
     6
 10
166.161522
 20
97.788444
 40
0.120690
 50
90.000003
 51
180.000005
  0
LINE
  8
CSLAYER1
  6
CONTINUOUS
 62
     6
 10
166.040861
 20
97.788444
 11
166.040861
 21
91.029839
  0
ARC
  8
CSLAYER1
  6
CONTINUOUS
 62
     6
 10
166.161522
 20
91.029839
 40
0.120690
 50
180.000005
 51
270.000001
  0
LINE
  8
CSLAYER1
  6
CONTINUOUS
 62
     6
 10
166.161522
 20
90.909141
 11
166.764971
 21
90.909141
  0
ARC
  8
CSLAYER1
  6
CONTINUOUS
 62
     6
 10
166.764971
 20
91.029839
 40
0.120690
 50
270.000001
 51
359.942691
  0
ARC
  8
CSLAYER1
  6
CONTINUOUS
 62
     6
 10
165.799467
 20
91.353589
 40
0.241380
 50
264.999865
 51
359.942691
  0
LINE
  8
CSLAYER1
  6
CONTINUOUS
 62
     6
 10
165.778399
 20
91.113133
 11
165.018268
 21
91.179633
  0
ARC
  8
CSLAYER1
  6
CONTINUOUS
 62
     6
 10
165.123459
 20
92.381946
 40
1.206899
 50
196.257399
 51
264.999892
  0
ARC
  8
CSLAYER1
  6
CONTINUOUS
 62
     6
 10
172.075357
 20
94.409141
 40
8.448294
 50
163.742994
 51
196.257016
  0
ARC
  8
CSLAYER1
  6
CONTINUOUS
 62
     6
 10
165.123459
 20
96.436336
 40
1.206899
 50
95.000111
 51
163.742611
  0
LINE
  8
CSLAYER1
  6
CONTINUOUS
 62
     6
 10
165.018268
 20
97.638650
 11
165.778399
 21
97.705149
  0
ARC
  8
CSLAYER1
  6
CONTINUOUS
 62
     6
 10
165.799467
 20
97.464694
 40
0.241380
 50
0.000000
 51
95.000152
  0
ARC
  8
CSLAYER1
  6
CONTINUOUS
 62
     6
 10
166.764971
 20
97.788444
 40
0.120690
 50
0.000000
 51
90.000003
  0
LINE
  8
CSLAYER1
  6
CONTINUOUS
 62
     6
 10
166.885669
 20
94.829059
 11
166.040861
 21
94.293361
  0
LINE
  8
CSLAYER1
  6
CONTINUOUS
 62
     6
 10
166.040861
 20
93.689912
 11
166.885669
 21
94.225609
  0
LINE
  8
CSLAYER1
  6
CONTINUOUS
 62
     6
 10
165.636790
 20
89.069650
 11
165.636790
 21
87.569650
  0
LINE
  8
CSLAYER1
  6
CONTINUOUS
 62
     6
 10
155.134532
 20
87.569650
 11
155.134532
 21
89.069650
  0
LINE
  8
CSLAYER1
  6
CONTINUOUS
 62
     6
 10
198.267924
 20
71.771222
 11
198.232558
 21
71.681905
  0
LINE
  8
CSLAYER1
  6
CONTINUOUS
 62
     6
 10
198.232558
 20
71.681905
 11
198.200089
 21
71.589032
  0
LINE
  8
CSLAYER1
  6
CONTINUOUS
 62
     6
 10
198.200089
 20
71.589032
 11
198.170456
 21
71.493100
  0
LINE
  8
CSLAYER1
  6
CONTINUOUS
 62
     6
 10
198.170456
 20
71.493100
 11
198.143598
 21
71.394603
  0
LINE
  8
CSLAYER1
  6
CONTINUOUS
 62
     6
 10
198.143598
 20
71.394603
 11
198.119454
 21
71.294036
  0
LINE
  8
CSLAYER1
  6
CONTINUOUS
 62
     6
 10
198.119454
 20
71.294036
 11
198.097964
 21
71.191897
  0
LINE
  8
CSLAYER1
  6
CONTINUOUS
 62
     6
 10
198.097964
 20
71.191897
 11
198.079066
 21
71.088679
  0
LINE
  8
CSLAYER1
  6
CONTINUOUS
 62
     6
 10
198.079066
 20
71.088679
 11
198.062699
 21
70.984879
  0
LINE
  8
CSLAYER1
  6
CONTINUOUS
 62
     6
 10
198.062699
 20
70.984879
 11
198.048803
 21
70.880992
  0
LINE
  8
CSLAYER1
  6
CONTINUOUS
 62
     6
 10
198.048803
 20
70.880992
 11
198.037316
 21
70.777514
  0
LINE
  8
CSLAYER1
  6
CONTINUOUS
 62
     6
 10
198.037316
 20
70.777514
 11
198.028178
 21
70.674939
  0
LINE
  8
CSLAYER1
  6
CONTINUOUS
 62
     6
 10
198.028178
 20
70.674939
 11
198.021241
 21
70.571224
  0
LINE
  8
CSLAYER1
  6
CONTINUOUS
 62
     6
 10
198.021241
 20
70.571224
 11
198.016524
 21
70.467494
  0
LINE
  8
CSLAYER1
  6
CONTINUOUS
 62
     6
 10
198.016524
 20
70.467494
 11
198.013804
 21
70.363752
  0
LINE
  8
CSLAYER1
  6
CONTINUOUS
 62
     6
 10
198.013804
 20
70.363752
 11
198.012861
 21
70.259998
  0
LINE
  8
CSLAYER1
  6
CONTINUOUS
 62
     6
 10
198.012861
 20
70.259998
 11
198.013471
 21
70.156234
  0
LINE
  8
CSLAYER1
  6
CONTINUOUS
 62
     6
 10
198.013471
 20
70.156234
 11
198.015413
 21
70.052461
  0
LINE
  8
CSLAYER1
  6
CONTINUOUS
 62
     6
 10
198.015413
 20
70.052461
 11
198.018465
 21
69.948682
  0
LINE
  8
CSLAYER1
  6
CONTINUOUS
 62
     6
 10
198.018465
 20
69.948682
 11
198.022405
 21
69.844896
  0
LINE
  8
CSLAYER1
  6
CONTINUOUS
 62
     6
 10
198.022405
 20
69.844896
 11
198.027011
 21
69.741106
  0
LINE
  8
CSLAYER1
  6
CONTINUOUS
 62
     6
 10
198.027011
 20
69.741106
 11
198.032061
 21
69.637314
  0
LINE
  8
CSLAYER1
  6
CONTINUOUS
 62
     6
 10
198.032061
 20
69.637314
 11
198.037333
 21
69.533520
  0
ARC
  8
CSLAYER1
  6
CONTINUOUS
 62
     6
 10
198.429287
 20
70.225196
 40
0.794999
 50
240.461270
 51
300.461270
  0
ARC
  8
CSLAYER1
  6
CONTINUOUS
 62
     6
 10
199.235346
 20
68.854662
 40
0.794999
 50
60.461270
 51
120.461270
  0
LINE
  8
CSLAYER1
  6
CONTINUOUS
 62
     6
 10
199.627299
 20
69.546307
 11
199.622271
 21
69.633953
  0
LINE
  8
CSLAYER1
  6
CONTINUOUS
 62
     6
 10
199.622271
 20
69.633953
 11
199.617460
 21
69.721594
  0
LINE
  8
CSLAYER1
  6
CONTINUOUS
 62
     6
 10
199.617460
 20
69.721594
 11
199.613080
 21
69.809227
  0
LINE
  8
CSLAYER1
  6
CONTINUOUS
 62
     6
 10
199.613080
 20
69.809227
 11
199.609350
 21
69.896846
  0
LINE
  8
CSLAYER1
  6
CONTINUOUS
 62
     6
 10
199.609350
 20
69.896846
 11
199.606483
 21
69.984448
  0
LINE
  8
CSLAYER1
  6
CONTINUOUS
 62
     6
 10
199.606483
 20
69.984448
 11
199.604698
 21
70.072028
  0
LINE
  8
CSLAYER1
  6
CONTINUOUS
 62
     6
 10
199.604698
 20
70.072028
 11
199.604209
 21
70.159581
  0
LINE
  8
CSLAYER1
  6
CONTINUOUS
 62
     6
 10
199.604209
 20
70.159581
 11
199.605234
 21
70.247104
  0
LINE
  8
CSLAYER1
  6
CONTINUOUS
 62
     6
 10
199.605234
 20
70.247104
 11
199.607988
 21
70.334591
  0
LINE
  8
CSLAYER1
  6
CONTINUOUS
 62
     6
 10
199.607988
 20
70.334591
 11
199.612687
 21
70.422038
  0
LINE
  8
CSLAYER1
  6
CONTINUOUS
 62
     6
 10
199.612687
 20
70.422038
 11
199.619548
 21
70.509442
  0
LINE
  8
CSLAYER1
  6
CONTINUOUS
 62
     6
 10
199.619548
 20
70.509442
 11
199.626343
 21
70.576560
  0
LINE
  8
CSLAYER1
  6
CONTINUOUS
 62
     6
 10
199.626343
 20
70.576560
 11
199.634513
 21
70.644243
  0
LINE
  8
CSLAYER1
  6
CONTINUOUS
 62
     6
 10
199.634513
 20
70.644243
 11
199.644100
 21
70.712182
  0
LINE
  8
CSLAYER1
  6
CONTINUOUS
 62
     6
 10
199.644100
 20
70.712182
 11
199.655144
 21
70.780071
  0
LINE
  8
CSLAYER1
  6
CONTINUOUS
 62
     6
 10
199.655144
 20
70.780071
 11
199.667688
 21
70.847601
  0
LINE
  8
CSLAYER1
  6
CONTINUOUS
 62
     6
 10
199.667688
 20
70.847601
 11
199.681771
 21
70.914466
  0
LINE
  8
CSLAYER1
  6
CONTINUOUS
 62
     6
 10
199.681771
 20
70.914466
 11
199.697434
 21
70.980358
  0
LINE
  8
CSLAYER1
  6
CONTINUOUS
 62
     6
 10
199.697434
 20
70.980358
 11
199.714719
 21
71.044968
  0
LINE
  8
CSLAYER1
  6
CONTINUOUS
 62
     6
 10
199.714719
 20
71.044968
 11
199.733667
 21
71.107990
  0
LINE
  8
CSLAYER1
  6
CONTINUOUS
 62
     6
 10
199.733667
 20
71.107990
 11
199.754318
 21
71.169116
  0
LINE
  8
CSLAYER1
  6
CONTINUOUS
 62
     6
 10
199.754318
 20
71.169116
 11
199.776713
 21
71.228039
  0
LINE
  8
CSLAYER1
  6
CONTINUOUS
 62
     6
 10
199.776713
 20
71.228039
 11
199.806856
 21
71.301174
  0
LINE
  8
CSLAYER1
  6
CONTINUOUS
 62
     6
 10
199.806856
 20
71.301174
 11
199.839391
 21
71.376948
  0
LINE
  8
CSLAYER1
  6
CONTINUOUS
 62
     6
 10
199.839391
 20
71.376948
 11
199.874043
 21
71.454516
  0
LINE
  8
CSLAYER1
  6
CONTINUOUS
 62
     6
 10
199.874043
 20
71.454516
 11
199.910537
 21
71.533034
  0
LINE
  8
CSLAYER1
  6
CONTINUOUS
 62
     6
 10
199.910537
 20
71.533034
 11
199.948596
 21
71.611660
  0
LINE
  8
CSLAYER1
  6
CONTINUOUS
 62
     6
 10
199.948596
 20
71.611660
 11
199.987944
 21
71.689549
  0
LINE
  8
CSLAYER1
  6
CONTINUOUS
 62
     6
 10
199.987944
 20
71.689549
 11
200.028306
 21
71.765857
  0
LINE
  8
CSLAYER1
  6
CONTINUOUS
 62
     6
 10
200.028306
 20
71.765857
 11
200.069406
 21
71.839740
  0
LINE
  8
CSLAYER1
  6
CONTINUOUS
 62
     6
 10
200.069406
 20
71.839740
 11
200.110969
 21
71.910354
  0
LINE
  8
CSLAYER1
  6
CONTINUOUS
 62
     6
 10
200.110969
 20
71.910354
 11
200.152718
 21
71.976857
  0
LINE
  8
CSLAYER1
  6
CONTINUOUS
 62
     6
 10
200.152718
 20
71.976857
 11
200.194377
 21
72.038403
  0
ARC
  8
CSLAYER1
  6
CONTINUOUS
 62
     6
 10
199.525652
 20
71.608537
 40
0.794999
 50
32.735346
 51
92.735346
  0
ARC
  8
CSLAYER1
  6
CONTINUOUS
 62
     6
 10
199.449773
 20
73.196723
 40
0.794999
 50
212.735346
 51
272.735346
  0
ARC
  8
CSLAYER1
  6
CONTINUOUS
 62
     6
 10
198.818977
 20
71.972727
 40
0.794999
 50
32.735346
 51
92.735346
  0
LINE
  8
CSLAYER1
  6
CONTINUOUS
 62
     6
 10
198.780986
 20
72.766827
 11
198.730222
 21
72.689892
  0
LINE
  8
CSLAYER1
  6
CONTINUOUS
 62
     6
 10
198.730222
 20
72.689892
 11
198.679408
 21
72.607259
  0
LINE
  8
CSLAYER1
  6
CONTINUOUS
 62
     6
 10
198.679408
 20
72.607259
 11
198.628835
 21
72.519921
  0
LINE
  8
CSLAYER1
  6
CONTINUOUS
 62
     6
 10
198.628835
 20
72.519921
 11
198.578795
 21
72.428873
  0
LINE
  8
CSLAYER1
  6
CONTINUOUS
 62
     6
 10
198.578795
 20
72.428873
 11
198.529580
 21
72.335110
  0
LINE
  8
CSLAYER1
  6
CONTINUOUS
 62
     6
 10
198.529580
 20
72.335110
 11
198.481481
 21
72.239627
  0
LINE
  8
CSLAYER1
  6
CONTINUOUS
 62
     6
 10
198.481481
 20
72.239627
 11
198.434789
 21
72.143418
  0
LINE
  8
CSLAYER1
  6
CONTINUOUS
 62
     6
 10
198.434789
 20
72.143418
 11
198.389796
 21
72.047479
  0
LINE
  8
CSLAYER1
  6
CONTINUOUS
 62
     6
 10
198.389796
 20
72.047479
 11
198.346793
 21
71.952803
  0
LINE
  8
CSLAYER1
  6
CONTINUOUS
 62
     6
 10
198.346793
 20
71.952803
 11
198.306072
 21
71.860386
  0
LINE
  8
CSLAYER1
  6
CONTINUOUS
 62
     6
 10
198.306072
 20
71.860386
 11
198.267924
 21
71.771222
  0
LINE
  8
CSLAYER1
  6
CONTINUOUS
 62
     6
 10
199.093124
 20
69.636836
 11
199.597453
 21
67.726391
  0
LINE
  8
CSLAYER1
  6
CONTINUOUS
 62
     6
 10
199.124736
 20
67.629651
 11
198.757499
 21
69.501110
  0
LINE
  8
CSLAYER1
  6
CONTINUOUS
 62
     6
 10
198.408863
 20
69.430459
 11
198.570109
 21
67.644208
  0
ARC
  8
CSLAYER1
  6
CONTINUOUS
 62
     6
 10
201.027470
 20
68.953505
 40
0.795000
 50
252.897147
 51
312.897147
  0
ARC
  8
CSLAYER1
  6
CONTINUOUS
 62
     6
 10
202.109758
 20
67.788707
 40
0.795000
 50
72.897147
 51
132.897147
  0
LINE
  8
CSLAYER1
  6
CONTINUOUS
 62
     6
 10
202.343547
 20
68.548535
 11
202.326918
 21
68.617690
  0
LINE
  8
CSLAYER1
  6
CONTINUOUS
 62
     6
 10
202.326918
 20
68.617690
 11
202.310322
 21
68.686869
  0
LINE
  8
CSLAYER1
  6
CONTINUOUS
 62
     6
 10
202.310322
 20
68.686869
 11
202.293795
 21
68.756095
  0
LINE
  8
CSLAYER1
  6
CONTINUOUS
 62
     6
 10
202.293795
 20
68.756095
 11
202.277371
 21
68.825393
  0
LINE
  8
CSLAYER1
  6
CONTINUOUS
 62
     6
 10
202.277371
 20
68.825393
 11
202.261084
 21
68.894786
  0
LINE
  8
CSLAYER1
  6
CONTINUOUS
 62
     6
 10
202.261084
 20
68.894786
 11
202.244969
 21
68.964297
  0
LINE
  8
CSLAYER1
  6
CONTINUOUS
 62
     6
 10
202.244969
 20
68.964297
 11
202.229059
 21
69.033951
  0
LINE
  8
CSLAYER1
  6
CONTINUOUS
 62
     6
 10
202.229059
 20
69.033951
 11
202.213389
 21
69.103771
  0
LINE
  8
CSLAYER1
  6
CONTINUOUS
 62
     6
 10
202.213389
 20
69.103771
 11
202.197994
 21
69.173780
  0
LINE
  8
CSLAYER1
  6
CONTINUOUS
 62
     6
 10
202.197994
 20
69.173780
 11
202.182906
 21
69.244004
  0
LINE
  8
CSLAYER1
  6
CONTINUOUS
 62
     6
 10
202.182906
 20
69.244004
 11
202.168162
 21
69.314465
  0
LINE
  8
CSLAYER1
  6
CONTINUOUS
 62
     6
 10
202.168162
 20
69.314465
 11
202.157221
 21
69.368197
  0
LINE
  8
CSLAYER1
  6
CONTINUOUS
 62
     6
 10
202.157221
 20
69.368197
 11
202.146566
 21
69.422521
  0
LINE
  8
CSLAYER1
  6
CONTINUOUS
 62
     6
 10
202.146566
 20
69.422521
 11
202.136425
 21
69.477233
  0
LINE
  8
CSLAYER1
  6
CONTINUOUS
 62
     6
 10
202.136425
 20
69.477233
 11
202.127022
 21
69.532133
  0
LINE
  8
CSLAYER1
  6
CONTINUOUS
 62
     6
 10
202.127022
 20
69.532133
 11
202.118586
 21
69.587019
  0
LINE
  8
CSLAYER1
  6
CONTINUOUS
 62
     6
 10
202.118586
 20
69.587019
 11
202.111340
 21
69.641689
  0
LINE
  8
CSLAYER1
  6
CONTINUOUS
 62
     6
 10
202.111340
 20
69.641689
 11
202.105513
 21
69.695941
  0
LINE
  8
CSLAYER1
  6
CONTINUOUS
 62
     6
 10
202.105513
 20
69.695941
 11
202.101329
 21
69.749573
  0
LINE
  8
CSLAYER1
  6
CONTINUOUS
 62
     6
 10
202.101329
 20
69.749573
 11
202.099015
 21
69.802384
  0
LINE
  8
CSLAYER1
  6
CONTINUOUS
 62
     6
 10
202.099015
 20
69.802384
 11
202.098798
 21
69.854172
  0
LINE
  8
CSLAYER1
  6
CONTINUOUS
 62
     6
 10
202.098798
 20
69.854172
 11
202.100902
 21
69.904736
  0
LINE
  8
CSLAYER1
  6
CONTINUOUS
 62
     6
 10
202.100902
 20
69.904736
 11
202.105174
 21
69.957006
  0
LINE
  8
CSLAYER1
  6
CONTINUOUS
 62
     6
 10
202.105174
 20
69.957006
 11
202.111090
 21
70.011323
  0
LINE
  8
CSLAYER1
  6
CONTINUOUS
 62
     6
 10
202.111090
 20
70.011323
 11
202.118560
 21
70.067129
  0
LINE
  8
CSLAYER1
  6
CONTINUOUS
 62
     6
 10
202.118560
 20
70.067129
 11
202.127495
 21
70.123868
  0
LINE
  8
CSLAYER1
  6
CONTINUOUS
 62
     6
 10
202.127495
 20
70.123868
 11
202.137806
 21
70.180982
  0
LINE
  8
CSLAYER1
  6
CONTINUOUS
 62
     6
 10
202.137806
 20
70.180982
 11
202.149403
 21
70.237915
  0
LINE
  8
CSLAYER1
  6
CONTINUOUS
 62
     6
 10
202.149403
 20
70.237915
 11
202.162197
 21
70.294108
  0
LINE
  8
CSLAYER1
  6
CONTINUOUS
 62
     6
 10
202.162197
 20
70.294108
 11
202.176098
 21
70.349005
  0
LINE
  8
CSLAYER1
  6
CONTINUOUS
 62
     6
 10
202.176098
 20
70.349005
 11
202.191018
 21
70.402049
  0
LINE
  8
CSLAYER1
  6
CONTINUOUS
 62
     6
 10
202.191018
 20
70.402049
 11
202.206865
 21
70.452682
  0
LINE
  8
CSLAYER1
  6
CONTINUOUS
 62
     6
 10
202.206865
 20
70.452682
 11
202.223552
 21
70.500348
  0
ARC
  8
CSLAYER1
  6
CONTINUOUS
 62
     6
 10
201.695361
 20
69.906122
 40
0.795000
 50
48.366208
 51
108.366208
  0
ARC
  8
CSLAYER1
  6
CONTINUOUS
 62
     6
 10
201.194369
 20
71.415130
 40
0.795000
 50
228.366208
 51
288.366208
  0
ARC
  8
CSLAYER1
  6
CONTINUOUS
 62
     6
 10
200.916693
 20
70.066438
 40
0.795000
 50
48.366208
 51
108.366208
  0
LINE
  8
CSLAYER1
  6
CONTINUOUS
 62
     6
 10
200.666179
 20
70.820965
 11
200.642918
 21
70.752921
  0
LINE
  8
CSLAYER1
  6
CONTINUOUS
 62
     6
 10
200.642918
 20
70.752921
 11
200.620832
 21
70.680750
  0
LINE
  8
CSLAYER1
  6
CONTINUOUS
 62
     6
 10
200.620832
 20
70.680750
 11
200.600027
 21
70.605247
  0
LINE
  8
CSLAYER1
  6
CONTINUOUS
 62
     6
 10
200.600027
 20
70.605247
 11
200.580609
 21
70.527209
  0
LINE
  8
CSLAYER1
  6
CONTINUOUS
 62
     6
 10
200.580609
 20
70.527209
 11
200.562685
 21
70.447431
  0
LINE
  8
CSLAYER1
  6
CONTINUOUS
 62
     6
 10
200.562685
 20
70.447431
 11
200.546358
 21
70.366709
  0
LINE
  8
CSLAYER1
  6
CONTINUOUS
 62
     6
 10
200.546358
 20
70.366709
 11
200.531737
 21
70.285841
  0
LINE
  8
CSLAYER1
  6
CONTINUOUS
 62
     6
 10
200.531737
 20
70.285841
 11
200.518925
 21
70.205622
  0
LINE
  8
CSLAYER1
  6
CONTINUOUS
 62
     6
 10
200.518925
 20
70.205622
 11
200.508030
 21
70.126848
  0
LINE
  8
CSLAYER1
  6
CONTINUOUS
 62
     6
 10
200.508030
 20
70.126848
 11
200.499157
 21
70.050315
  0
LINE
  8
CSLAYER1
  6
CONTINUOUS
 62
     6
 10
200.499157
 20
70.050315
 11
200.492412
 21
69.976819
  0
LINE
  8
CSLAYER1
  6
CONTINUOUS
 62
     6
 10
200.492412
 20
69.976819
 11
200.488342
 21
69.897673
  0
LINE
  8
CSLAYER1
  6
CONTINUOUS
 62
     6
 10
200.488342
 20
69.897673
 11
200.488151
 21
69.816352
  0
LINE
  8
CSLAYER1
  6
CONTINUOUS
 62
     6
 10
200.488151
 20
69.816352
 11
200.491461
 21
69.733217
  0
LINE
  8
CSLAYER1
  6
CONTINUOUS
 62
     6
 10
200.491461
 20
69.733217
 11
200.497892
 21
69.648630
  0
LINE
  8
CSLAYER1
  6
CONTINUOUS
 62
     6
 10
200.497892
 20
69.648630
 11
200.507065
 21
69.562951
  0
LINE
  8
CSLAYER1
  6
CONTINUOUS
 62
     6
 10
200.507065
 20
69.562951
 11
200.518601
 21
69.476541
  0
LINE
  8
CSLAYER1
  6
CONTINUOUS
 62
     6
 10
200.518601
 20
69.476541
 11
200.532122
 21
69.389761
  0
LINE
  8
CSLAYER1
  6
CONTINUOUS
 62
     6
 10
200.532122
 20
69.389761
 11
200.547247
 21
69.302971
  0
LINE
  8
CSLAYER1
  6
CONTINUOUS
 62
     6
 10
200.547247
 20
69.302971
 11
200.563597
 21
69.216533
  0
LINE
  8
CSLAYER1
  6
CONTINUOUS
 62
     6
 10
200.563597
 20
69.216533
 11
200.580795
 21
69.130807
  0
LINE
  8
CSLAYER1
  6
CONTINUOUS
 62
     6
 10
200.580795
 20
69.130807
 11
200.598460
 21
69.046155
  0
LINE
  8
CSLAYER1
  6
CONTINUOUS
 62
     6
 10
200.598460
 20
69.046155
 11
200.615207
 21
68.967851
  0
LINE
  8
CSLAYER1
  6
CONTINUOUS
 62
     6
 10
200.615207
 20
68.967851
 11
200.632239
 21
68.889777
  0
LINE
  8
CSLAYER1
  6
CONTINUOUS
 62
     6
 10
200.632239
 20
68.889777
 11
200.649529
 21
68.811909
  0
LINE
  8
CSLAYER1
  6
CONTINUOUS
 62
     6
 10
200.649529
 20
68.811909
 11
200.667048
 21
68.734225
  0
LINE
  8
CSLAYER1
  6
CONTINUOUS
 62
     6
 10
200.667048
 20
68.734225
 11
200.684767
 21
68.656701
  0
LINE
  8
CSLAYER1
  6
CONTINUOUS
 62
     6
 10
200.684767
 20
68.656701
 11
200.702657
 21
68.579315
  0
LINE
  8
CSLAYER1
  6
CONTINUOUS
 62
     6
 10
200.702657
 20
68.579315
 11
200.720690
 21
68.502044
  0
LINE
  8
CSLAYER1
  6
CONTINUOUS
 62
     6
 10
200.720690
 20
68.502044
 11
200.738838
 21
68.424864
  0
LINE
  8
CSLAYER1
  6
CONTINUOUS
 62
     6
 10
200.738838
 20
68.424864
 11
200.757071
 21
68.347753
  0
LINE
  8
CSLAYER1
  6
CONTINUOUS
 62
     6
 10
200.757071
 20
68.347753
 11
200.775362
 21
68.270688
  0
LINE
  8
CSLAYER1
  6
CONTINUOUS
 62
     6
 10
200.775362
 20
68.270688
 11
200.793681
 21
68.193646
  0
LINE
  8
CSLAYER1
  6
CONTINUOUS
 62
     6
 10
201.213560
 20
68.180591
 11
201.499980
 21
66.780987
  0
LINE
  8
CSLAYER1
  6
CONTINUOUS
 62
     6
 10
201.967692
 20
66.733838
 11
201.528292
 21
68.336089
  0
LINE
  8
CSLAYER1
  6
CONTINUOUS
 62
     6
 10
201.912864
 20
68.558940
 11
202.463298
 21
66.790936
  0
ARC
  8
CSLAYER1
  6
CONTINUOUS
 62
     6
 10
201.019105
 20
73.839773
 40
0.794997
 50
198.245911
 51
258.245911
  0
ARC
  8
CSLAYER1
  6
CONTINUOUS
 62
     6
 10
205.885661
 20
76.159123
 40
4.000000
 50
205.580408
 51
211.043528
  0
LINE
  8
CSLAYER1
  6
CONTINUOUS
 62
     6
 10
202.681964
 20
74.288055
 11
202.513377
 21
74.580121
  0
ARC
  8
CSLAYER1
  6
CONTINUOUS
 62
     6
 10
205.885661
 20
76.159100
 40
2.120000
 50
-99.735526
 51
158.085512
  0
LINE
  8
CSLAYER1
  6
CONTINUOUS
 62
     6
 10
221.891894
 20
72.159123
 11
224.099282
 21
72.159123
  0
LINE
  8
CSLAYER1
  6
CONTINUOUS
 62
     6
 10
224.114600
 20
72.174226
 11
224.009376
 21
72.070480
  0
LINE
  8
CSLAYER1
  6
CONTINUOUS
 62
     6
 10
224.009376
 20
72.070480
 11
223.904026
 21
71.961283
  0
LINE
  8
CSLAYER1
  6
CONTINUOUS
 62
     6
 10
223.904026
 20
71.961283
 11
223.799474
 21
71.847836
  0
LINE
  8
CSLAYER1
  6
CONTINUOUS
 62
     6
 10
223.799474
 20
71.847836
 11
223.696645
 21
71.731338
  0
LINE
  8
CSLAYER1
  6
CONTINUOUS
 62
     6
 10
223.696645
 20
71.731338
 11
223.596462
 21
71.612993
  0
LINE
  8
CSLAYER1
  6
CONTINUOUS
 62
     6
 10
223.596462
 20
71.612993
 11
223.499850
 21
71.494000
  0
LINE
  8
CSLAYER1
  6
CONTINUOUS
 62
     6
 10
223.499850
 20
71.494000
 11
223.407732
 21
71.375560
  0
LINE
  8
CSLAYER1
  6
CONTINUOUS
 62
     6
 10
223.407732
 20
71.375560
 11
223.321032
 21
71.258875
  0
LINE
  8
CSLAYER1
  6
CONTINUOUS
 62
     6
 10
223.321032
 20
71.258875
 11
223.240675
 21
71.145146
  0
LINE
  8
CSLAYER1
  6
CONTINUOUS
 62
     6
 10
223.240675
 20
71.145146
 11
223.159358
 21
71.019660
  0
LINE
  8
CSLAYER1
  6
CONTINUOUS
 62
     6
 10
223.159358
 20
71.019660
 11
223.082329
 21
70.886961
  0
LINE
  8
CSLAYER1
  6
CONTINUOUS
 62
     6
 10
223.082329
 20
70.886961
 11
223.009308
 21
70.747996
  0
LINE
  8
CSLAYER1
  6
CONTINUOUS
 62
     6
 10
223.009308
 20
70.747996
 11
222.940017
 21
70.603713
  0
LINE
  8
CSLAYER1
  6
CONTINUOUS
 62
     6
 10
222.940017
 20
70.603713
 11
222.874177
 21
70.455058
  0
LINE
  8
CSLAYER1
  6
CONTINUOUS
 62
     6
 10
222.874177
 20
70.455058
 11
222.811508
 21
70.302980
  0
LINE
  8
CSLAYER1
  6
CONTINUOUS
 62
     6
 10
222.811508
 20
70.302980
 11
222.751732
 21
70.148425
  0
LINE
  8
CSLAYER1
  6
CONTINUOUS
 62
     6
 10
222.751732
 20
70.148425
 11
222.694570
 21
69.992341
  0
LINE
  8
CSLAYER1
  6
CONTINUOUS
 62
     6
 10
222.694570
 20
69.992341
 11
222.639742
 21
69.835675
  0
LINE
  8
CSLAYER1
  6
CONTINUOUS
 62
     6
 10
222.639742
 20
69.835675
 11
222.586969
 21
69.679374
  0
LINE
  8
CSLAYER1
  6
CONTINUOUS
 62
     6
 10
222.586969
 20
69.679374
 11
222.535974
 21
69.524386
  0
LINE
  8
CSLAYER1
  6
CONTINUOUS
 62
     6
 10
222.535974
 20
69.524386
 11
222.489467
 21
69.380639
  0
LINE
  8
CSLAYER1
  6
CONTINUOUS
 62
     6
 10
222.489467
 20
69.380639
 11
222.443643
 21
69.236996
  0
LINE
  8
CSLAYER1
  6
CONTINUOUS
 62
     6
 10
222.443643
 20
69.236996
 11
222.398435
 21
69.093448
  0
LINE
  8
CSLAYER1
  6
CONTINUOUS
 62
     6
 10
222.398435
 20
69.093448
 11
222.353773
 21
68.949984
  0
LINE
  8
CSLAYER1
  6
CONTINUOUS
 62
     6
 10
222.353773
 20
68.949984
 11
222.309590
 21
68.806594
  0
LINE
  8
CSLAYER1
  6
CONTINUOUS
 62
     6
 10
222.309590
 20
68.806594
 11
222.265817
 21
68.663266
  0
LINE
  8
CSLAYER1
  6
CONTINUOUS
 62
     6
 10
222.265817
 20
68.663266
 11
222.222386
 21
68.519991
  0
LINE
  8
CSLAYER1
  6
CONTINUOUS
 62
     6
 10
222.222386
 20
68.519991
 11
222.179229
 21
68.376759
  0
LINE
  8
CSLAYER1
  6
CONTINUOUS
 62
     6
 10
222.179229
 20
68.376759
 11
222.136276
 21
68.233557
  0
LINE
  8
CSLAYER1
  6
CONTINUOUS
 62
     6
 10
222.136276
 20
68.233557
 11
222.093460
 21
68.090377
  0
LINE
  8
CSLAYER1
  6
CONTINUOUS
 62
     6
 10
222.093460
 20
68.090377
 11
222.050713
 21
67.947207
  0
LINE
  8
CSLAYER1
  6
CONTINUOUS
 62
     6
 10
222.724484
 20
67.529762
 11
221.872116
 21
64.972588
  0
LINE
  8
CSLAYER1
  6
CONTINUOUS
 62
     6
 10
222.591882
 20
64.454308
 11
223.385455
 21
67.486931
  0
LINE
  8
CSLAYER1
  6
CONTINUOUS
 62
     6
 10
224.224086
 20
67.488268
 11
223.455573
 21
64.080054
  0
LINE
  8
CSLAYER1
  6
CONTINUOUS
 62
     6
 10
224.114600
 20
72.174226
 11
224.218775
 21
72.271319
  0
LINE
  8
CSLAYER1
  6
CONTINUOUS
 62
     6
 10
224.218775
 20
72.271319
 11
224.320976
 21
72.360558
  0
LINE
  8
CSLAYER1
  6
CONTINUOUS
 62
     6
 10
226.885661
 20
74.354228
 11
226.885661
 21
75.872916
  0
LINE
  8
CSLAYER1
  6
CONTINUOUS
 62
     6
 10
230.885661
 20
76.124140
 11
230.885661
 21
76.761752
  0
LINE
  8
CSLAYER1
  6
CONTINUOUS
 62
     6
 10
230.885690
 20
76.760418
 11
230.885633
 21
76.159065
  0
ARC
  8
CSLAYER1
  6
CONTINUOUS
 62
     6
 10
237.885640
 20
76.159085
 40
6.750000
 50
174.942367
 51
179.961149
  0
ARC
  8
CSLAYER1
  6
CONTINUOUS
 62
     6
 10
237.885640
 20
76.159085
 40
4.000000
 50
176.007555
 51
178.572301
  0
ARC
  8
CSLAYER1
  6
CONTINUOUS
 62
     6
 10
237.885640
 20
76.159085
 40
4.000000
 50
-129.735526
 51
128.465835
  0
ARC
  8
CSLAYER1
  6
CONTINUOUS
 62
     6
 10
237.885640
 20
76.159085
 40
6.750000
 50
-154.073524
 51
148.329015
  0
LINE
  8
CSLAYER1
  6
CONTINUOUS
 62
     6
 10
230.885661
 20
79.787483
 11
230.885661
 21
92.159123
  0
ARC
  8
CSLAYER1
  6
CONTINUOUS
 62
     6
 10
232.885661
 20
92.159123
 40
2.000000
 50
90.000000
 51
180.000000
  0
LINE
  8
CSLAYER1
  6
CONTINUOUS
 62
     6
 10
232.885661
 20
94.159123
 11
254.885661
 21
94.159123
  0
ARC
  8
CSLAYER1
  6
CONTINUOUS
 62
     6
 10
254.885661
 20
92.159123
 40
2.000000
 50
0.000000
 51
90.000000
  0
LINE
  8
CSLAYER1
  6
CONTINUOUS
 62
     6
 10
256.885661
 20
92.159123
 11
256.885661
 21
60.159123
  0
ARC
  8
CSLAYER1
  6
CONTINUOUS
 62
     6
 10
254.885661
 20
60.159123
 40
2.000000
 50
270.000000
 51
360.000000
  0
LINE
  8
CSLAYER1
  6
CONTINUOUS
 62
     6
 10
254.885661
 20
58.159123
 11
232.885661
 21
58.159123
  0
ARC
  8
CSLAYER1
  6
CONTINUOUS
 62
     6
 10
232.885661
 20
60.159123
 40
2.000000
 50
180.000000
 51
270.000000
  0
LINE
  8
CSLAYER1
  6
CONTINUOUS
 62
     6
 10
230.885661
 20
60.159123
 11
230.885661
 21
73.036150
  0
ARC
  8
CSLAYER1
  6
CONTINUOUS
 62
     6
 10
243.885658
 20
61.159111
 40
1.527778
 50
163.398423
 51
196.601584
  0
LINE
  8
CSLAYER1
  6
CONTINUOUS
 62
     6
 10
242.421572
 20
60.722597
 11
243.012631
 21
60.722597
  0
ARC
  8
CSLAYER1
  6
CONTINUOUS
 62
     6
 10
243.012631
 20
60.286107
 40
0.436508
 50
-0.000005
 51
89.999984
  0
LINE
  8
CSLAYER1
  6
CONTINUOUS
 62
     6
 10
243.449144
 20
60.286107
 11
243.449144
 21
59.695003
  0
ARC
  8
CSLAYER1
  6
CONTINUOUS
 62
     6
 10
243.885658
 20
61.159111
 40
1.527778
 50
253.398405
 51
286.601594
  0
LINE
  8
CSLAYER1
  6
CONTINUOUS
 62
     6
 10
244.322171
 20
59.695003
 11
244.322171
 21
60.286107
  0
ARC
  8
CSLAYER1
  6
CONTINUOUS
 62
     6
 10
244.758684
 20
60.286107
 40
0.436508
 50
89.999984
 51
179.999990
  0
LINE
  8
CSLAYER1
  6
CONTINUOUS
 62
     6
 10
244.758684
 20
60.722597
 11
245.349743
 21
60.722597
  0
ARC
  8
CSLAYER1
  6
CONTINUOUS
 62
     6
 10
243.885658
 20
61.159111
 40
1.527778
 50
-16.601572
 51
16.601562
  0
LINE
  8
CSLAYER1
  6
CONTINUOUS
 62
     6
 10
245.349743
 20
61.595624
 11
244.758684
 21
61.595624
  0
ARC
  8
CSLAYER1
  6
CONTINUOUS
 62
     6
 10
244.758684
 20
62.032115
 40
0.436508
 50
180.057309
 51
269.999999
  0
LINE
  8
CSLAYER1
  6
CONTINUOUS
 62
     6
 10
244.322171
 20
62.032115
 11
244.322171
 21
62.623219
  0
ARC
  8
CSLAYER1
  6
CONTINUOUS
 62
     6
 10
243.885658
 20
61.159111
 40
1.527778
 50
73.398417
 51
106.601578
  0
LINE
  8
CSLAYER1
  6
CONTINUOUS
 62
     6
 10
243.449144
 20
62.623219
 11
243.449144
 21
62.032115
  0
ARC
  8
CSLAYER1
  6
CONTINUOUS
 62
     6
 10
243.012631
 20
62.032115
 40
0.436508
 50
270.057346
 51
359.999995
  0
LINE
  8
CSLAYER1
  6
CONTINUOUS
 62
     6
 10
243.012631
 20
61.595624
 11
242.421572
 21
61.595624
  0
CIRCLE
  8
CSLAYER1
  6
CONTINUOUS
 62
     6
 10
243.885668
 20
61.159111
 40
2.750000
  0
LINE
  8
CSLAYER1
  6
CONTINUOUS
 62
     6
 10
232.571635
 20
39.765919
 11
264.528728
 21
39.765919
  0
ARC
  8
CSLAYER1
  6
CONTINUOUS
 62
     6
 10
269.671916
 20
38.587513
 40
1.000000
 50
90.000009
 51
173.999984
  0
LINE
  8
CSLAYER1
  6
CONTINUOUS
 62
     6
 10
268.677409
 20
38.692067
 11
267.979777
 21
32.054554
  0
ARC
  8
CSLAYER1
  6
CONTINUOUS
 62
     6
 10
266.985210
 20
32.159108
 40
1.000000
 50
270.000001
 51
354.000017
  0
LINE
  8
CSLAYER1
  6
CONTINUOUS
 62
     6
 10
266.985210
 20
31.159108
 11
230.786052
 21
31.159108
  0
ARC
  8
CSLAYER1
  6
CONTINUOUS
 62
     6
 10
230.786052
 20
32.159108
 40
1.000000
 50
186.000012
 51
270.000001
  0
LINE
  8
CSLAYER1
  6
CONTINUOUS
 62
     6
 10
229.791545
 20
32.054554
 11
229.093913
 21
38.692067
  0
ARC
  8
CSLAYER1
  6
CONTINUOUS
 62
     6
 10
228.099345
 20
38.587513
 40
1.000000
 50
6.000021
 51
90.000009
  0
ARC
  8
CSLAYER1
  6
CONTINUOUS
 62
     6
 10
228.149028
 20
34.115284
 40
1.000000
 50
6.000021
 51
90.000009
  0
LINE
  8
CSLAYER1
  6
CONTINUOUS
 62
     6
 10
229.143535
 20
34.219838
 11
229.791545
 21
28.054554
  0
ARC
  8
CSLAYER1
  6
CONTINUOUS
 62
     6
 10
230.786052
 20
28.159108
 40
1.000000
 50
186.000012
 51
270.000001
  0
LINE
  8
CSLAYER1
  6
CONTINUOUS
 62
     6
 10
230.786052
 20
27.159108
 11
266.985210
 21
27.159108
  0
ARC
  8
CSLAYER1
  6
CONTINUOUS
 62
     6
 10
266.985210
 20
28.159108
 40
1.000000
 50
270.000001
 51
354.000017
  0
LINE
  8
CSLAYER1
  6
CONTINUOUS
 62
     6
 10
267.979777
 20
28.054554
 11
268.627727
 21
34.219838
  0
ARC
  8
CSLAYER1
  6
CONTINUOUS
 62
     6
 10
269.622295
 20
34.115284
 40
1.000000
 50
90.000009
 51
173.999984
  0
LINE
  8
CSLAYER1
  6
CONTINUOUS
 62
     6
 10
269.885661
 20
32.159108
 11
268.410625
 21
32.159108
  0
LINE
  8
CSLAYER1
  6
CONTINUOUS
 62
     6
 10
405.885539
 20
26.159123
 11
415.885600
 21
26.159123
  0
LINE
  8
CSLAYER1
  6
CONTINUOUS
 62
     6
 10
415.885631
 20
26.159123
 11
415.885631
 21
126.159123
  0
LINE
  8
CSLAYER1
  6
CONTINUOUS
 62
     6
 10
415.885600
 20
126.159123
 11
405.885539
 21
126.159123
  0
LINE
  8
CSLAYER1
  6
CONTINUOUS
 62
     6
 10
405.885631
 20
126.159123
 11
405.885631
 21
103.220372
  0
LINE
  8
CSLAYER1
  6
CONTINUOUS
 62
     6
 10
418.885631
 20
82.159123
 11
455.885631
 21
82.159123
  0
LINE
  8
CSLAYER1
  6
CONTINUOUS
 62
     6
 10
455.885631
 20
82.159123
 11
455.885631
 21
70.159123
  0
LINE
  8
CSLAYER1
  6
CONTINUOUS
 62
     6
 10
455.885631
 20
70.159123
 11
418.885631
 21
70.159123
  0
LINE
  8
CSLAYER1
  6
CONTINUOUS
 62
     6
 10
418.885631
 20
46.159123
 11
418.885631
 21
106.159123
  0
LINE
  8
CSLAYER1
  6
CONTINUOUS
 62
     6
 10
418.885631
 20
106.159123
 11
415.885631
 21
106.159123
  0
LINE
  8
CSLAYER1
  6
CONTINUOUS
 62
     6
 10
411.885631
 20
116.159123
 11
411.885631
 21
36.159123
  0
LINE
  8
CSLAYER1
  6
CONTINUOUS
 62
     6
 10
415.885631
 20
46.159123
 11
418.885631
 21
46.159123
  0
LINE
  8
CSLAYER1
  6
CONTINUOUS
 62
     6
 10
405.885631
 20
49.097905
 11
405.885631
 21
26.159123
  0
LINE
  8
CSLAYER1
  6
CONTINUOUS
 62
     6
 10
229.360087
 20
32.159108
 11
226.885661
 21
32.159108
  0
LINE
  8
CSLAYER1
  6
CONTINUOUS
 62
     6
 10
243.449144
 20
89.695027
 11
243.449144
 21
90.286131
  0
ARC
  8
CSLAYER1
  6
CONTINUOUS
 62
     6
 10
243.012631
 20
90.286131
 40
0.436508
 50
0.000005
 51
89.942654
  0
LINE
  8
CSLAYER1
  6
CONTINUOUS
 62
     6
 10
243.012631
 20
90.722622
 11
242.421572
 21
90.722622
  0
ARC
  8
CSLAYER1
  6
CONTINUOUS
 62
     6
 10
243.885658
 20
91.159135
 40
1.527778
 50
163.398416
 51
196.601577
  0
LINE
  8
CSLAYER1
  6
CONTINUOUS
 62
     6
 10
242.421572
 20
91.595649
 11
243.012631
 21
91.595649
  0
ARC
  8
CSLAYER1
  6
CONTINUOUS
 62
     6
 10
243.012631
 20
92.032139
 40
0.436508
 50
-89.999984
 51
0.000005
  0
LINE
  8
CSLAYER1
  6
CONTINUOUS
 62
     6
 10
243.449144
 20
92.032139
 11
243.449144
 21
92.623243
  0
ARC
  8
CSLAYER1
  6
CONTINUOUS
 62
     6
 10
243.885658
 20
91.159135
 40
1.527778
 50
73.398406
 51
106.601595
  0
LINE
  8
CSLAYER1
  6
CONTINUOUS
 62
     6
 10
244.322171
 20
92.623243
 11
244.322171
 21
92.032139
  0
ARC
  8
CSLAYER1
  6
CONTINUOUS
 62
     6
 10
244.758684
 20
92.032139
 40
0.436508
 50
180.000010
 51
270.000016
  0
LINE
  8
CSLAYER1
  6
CONTINUOUS
 62
     6
 10
244.758684
 20
91.595649
 11
245.349743
 21
91.595649
  0
ARC
  8
CSLAYER1
  6
CONTINUOUS
 62
     6
 10
243.885658
 20
91.159135
 40
1.527778
 50
-16.601562
 51
16.601572
  0
LINE
  8
CSLAYER1
  6
CONTINUOUS
 62
     6
 10
245.349743
 20
90.722622
 11
244.758684
 21
90.722622
  0
ARC
  8
CSLAYER1
  6
CONTINUOUS
 62
     6
 10
244.758684
 20
90.286131
 40
0.436508
 50
90.000001
 51
179.942691
  0
LINE
  8
CSLAYER1
  6
CONTINUOUS
 62
     6
 10
244.322171
 20
90.286131
 11
244.322171
 21
89.695027
  0
ARC
  8
CSLAYER1
  6
CONTINUOUS
 62
     6
 10
243.885658
 20
91.159135
 40
1.527778
 50
253.398422
 51
286.601583
  0
CIRCLE
  8
CSLAYER1
  6
CONTINUOUS
 62
     6
 10
243.885668
 20
91.159135
 40
2.750000
  0
LINE
  8
CSLAYER1
  6
CONTINUOUS
 62
     6
 10
159.369899
 20
113.413385
 11
158.151103
 21
116.342569
  0
LINE
  8
CSLAYER1
  6
CONTINUOUS
 62
     6
 10
157.560908
 20
116.244195
 11
157.233012
 21
117.195092
  0
LINE
  8
CSLAYER1
  6
CONTINUOUS
 62
     6
 10
157.003490
 20
115.949106
 11
158.687800
 21
112.942270
  0
LINE
  8
CSLAYER1
  6
CONTINUOUS
 62
     6
 10
158.005733
 20
112.471154
 11
156.150981
 21
115.096597
  0
LINE
  8
CSLAYER1
  6
CONTINUOUS
 62
     6
 10
155.757518
 20
115.031015
 11
155.036159
 21
115.850732
  0
LINE
  8
CSLAYER1
  6
CONTINUOUS
 62
     6
 10
154.544337
 20
115.621209
 11
155.462413
 21
114.834283
  0
LINE
  8
CSLAYER1
  6
CONTINUOUS
 62
     6
 10
155.167323
 20
114.539178
 11
157.323634
 21
112.000039
  0
LINE
  8
CSLAYER1
  6
CONTINUOUS
 62
     6
 10
156.641566
 20
111.528924
 11
154.282008
 21
113.817834
  0
LINE
  8
CSLAYER1
  6
CONTINUOUS
 62
     6
 10
154.511531
 20
114.276880
 11
153.691829
 21
114.834283
  0
LINE
  8
CSLAYER1
  6
CONTINUOUS
 62
     6
 10
153.855769
 20
115.194955
 11
154.839427
 21
114.309655
  0
LINE
  8
CSLAYER1
  6
CONTINUOUS
 62
     6
 10
156.773967
 20
115.490060
 11
155.954249
 21
116.440942
  0
ARC
  8
CSLAYER1
  6
CONTINUOUS
 62
     6
 10
165.799467
 20
239.713503
 40
0.241380
 50
264.999865
 51
359.942691
  0
LINE
  8
CSLAYER1
  6
CONTINUOUS
 62
     6
 10
165.778399
 20
239.473048
 11
165.018268
 21
239.539547
  0
ARC
  8
CSLAYER1
  6
CONTINUOUS
 62
     6
 10
165.123459
 20
240.741861
 40
1.206899
 50
196.257399
 51
264.999892
  0
ARC
  8
CSLAYER1
  6
CONTINUOUS
 62
     6
 10
172.075357
 20
242.769056
 40
8.448294
 50
163.742994
 51
196.257016
  0
ARC
  8
CSLAYER1
  6
CONTINUOUS
 62
     6
 10
165.123459
 20
244.796251
 40
1.206899
 50
95.000111
 51
163.742611
  0
LINE
  8
CSLAYER1
  6
CONTINUOUS
 62
     6
 10
165.018268
 20
245.998564
 11
165.778399
 21
246.065064
  0
ARC
  8
CSLAYER1
  6
CONTINUOUS
 62
     6
 10
165.799467
 20
245.824608
 40
0.241380
 50
0.000000
 51
95.000152
  0
ARC
  8
CSLAYER1
  6
CONTINUOUS
 62
     6
 10
166.764971
 20
246.148358
 40
0.120690
 50
0.000000
 51
90.000003
  0
LINE
  8
CSLAYER1
  6
CONTINUOUS
 62
     6
 10
166.885669
 20
243.188973
 11
166.040861
 21
242.653275
  0
LINE
  8
CSLAYER1
  6
CONTINUOUS
 62
     6
 10
166.040861
 20
242.049826
 11
166.885669
 21
242.585524
  0
LINE
  8
CSLAYER1
  6
CONTINUOUS
 62
     6
 10
166.885661
 20
301.159123
 11
166.885661
 21
391.159123
  0
LINE
  8
CSLAYER1
  6
CONTINUOUS
 62
     6
 10
166.885661
 20
391.159123
 11
226.885661
 21
391.159123
  0
LINE
  8
CSLAYER1
  6
CONTINUOUS
 62
     6
 10
226.885661
 20
391.159123
 11
226.885661
 21
301.159123
  0
LINE
  8
CSLAYER1
  6
CONTINUOUS
 62
     6
 10
226.885661
 20
301.159123
 11
166.885661
 21
301.159123
  0
LINE
  8
CSLAYER1
  6
CONTINUOUS
 62
     6
 10
171.885661
 20
301.159123
 11
171.885661
 21
391.159123
  0
LINE
  8
CSLAYER1
  6
CONTINUOUS
 62
     6
 10
166.764971
 20
386.159128
 11
166.161522
 21
386.159128
  0
ARC
  8
CSLAYER1
  6
CONTINUOUS
 62
     6
 10
166.161522
 20
386.038431
 40
0.120690
 50
90.000003
 51
180.000005
  0
LINE
  8
CSLAYER1
  6
CONTINUOUS
 62
     6
 10
166.040861
 20
386.038431
 11
166.040861
 21
379.279826
  0
ARC
  8
CSLAYER1
  6
CONTINUOUS
 62
     6
 10
166.161522
 20
379.279826
 40
0.120690
 50
180.000005
 51
270.000001
  0
LINE
  8
CSLAYER1
  6
CONTINUOUS
 62
     6
 10
166.161522
 20
379.159128
 11
166.764971
 21
379.159128
  0
ARC
  8
CSLAYER1
  6
CONTINUOUS
 62
     6
 10
166.764971
 20
379.279826
 40
0.120690
 50
270.000001
 51
359.942691
  0
ARC
  8
CSLAYER1
  6
CONTINUOUS
 62
     6
 10
165.799467
 20
379.603576
 40
0.241380
 50
264.999865
 51
359.942691
  0
LINE
  8
CSLAYER1
  6
CONTINUOUS
 62
     6
 10
165.778399
 20
379.363120
 11
165.018268
 21
379.429620
  0
ARC
  8
CSLAYER1
  6
CONTINUOUS
 62
     6
 10
165.123459
 20
380.631934
 40
1.206899
 50
196.257399
 51
264.999892
  0
ARC
  8
CSLAYER1
  6
CONTINUOUS
 62
     6
 10
172.075357
 20
382.659128
 40
8.448294
 50
163.742994
 51
196.257016
  0
ARC
  8
CSLAYER1
  6
CONTINUOUS
 62
     6
 10
165.123459
 20
384.686323
 40
1.206899
 50
95.000111
 51
163.742611
  0
LINE
  8
CSLAYER1
  6
CONTINUOUS
 62
     6
 10
165.018268
 20
385.888637
 11
165.778399
 21
385.955136
  0
ARC
  8
CSLAYER1
  6
CONTINUOUS
 62
     6
 10
165.799467
 20
385.714681
 40
0.241380
 50
0.000000
 51
95.000152
  0
ARC
  8
CSLAYER1
  6
CONTINUOUS
 62
     6
 10
166.764971
 20
386.038431
 40
0.120690
 50
0.000000
 51
90.000003
  0
LINE
  8
CSLAYER1
  6
CONTINUOUS
 62
     6
 10
166.885669
 20
383.079046
 11
166.040861
 21
382.543348
  0
LINE
  8
CSLAYER1
  6
CONTINUOUS
 62
     6
 10
166.040861
 20
381.939899
 11
166.885669
 21
382.475596
  0
LINE
  8
CSLAYER1
  6
CONTINUOUS
 62
     6
 10
166.885661
 20
373.659057
 11
143.885661
 21
373.659082
  0
ARC
  8
CSLAYER1
  6
CONTINUOUS
 62
     6
 10
143.885661
 20
371.659164
 40
2.000000
 50
89.999968
 51
180.000005
  0
LINE
  8
CSLAYER1
  6
CONTINUOUS
 62
     6
 10
141.885661
 20
371.659164
 11
141.885661
 21
320.659164
  0
ARC
  8
CSLAYER1
  6
CONTINUOUS
 62
     6
 10
143.885661
 20
320.659164
 40
2.000000
 50
180.000005
 51
270.000028
  0
LINE
  8
CSLAYER1
  6
CONTINUOUS
 62
     6
 10
143.885661
 20
318.659082
 11
166.885676
 21
318.659112
  0
ARC
  8
CSLAYER1
  6
CONTINUOUS
 62
     6
 10
146.617473
 20
317.713043
 40
16.327621
 50
-34.633093
 51
3.321724
  0
LINE
  8
CSLAYER1
  6
CONTINUOUS
 62
     6
 10
160.051982
 20
308.433746
 11
155.959498
 21
311.260452
  0
ARC
  8
CSLAYER1
  6
CONTINUOUS
 62
     6
 10
146.617473
 20
317.713043
 40
11.353822
 50
-34.633120
 51
4.779714
  0
ARC
  8
CSLAYER1
  6
CONTINUOUS
 62
     6
 10
165.123459
 20
325.881958
 40
1.206899
 50
196.257399
 51
264.999892
  0
LINE
  8
CSLAYER1
  6
CONTINUOUS
 62
     6
 10
165.018268
 20
324.679645
 11
165.778399
 21
324.613145
  0
ARC
  8
CSLAYER1
  6
CONTINUOUS
 62
     6
 10
165.799467
 20
324.853601
 40
0.241380
 50
264.999865
 51
359.942691
  0
LINE
  8
CSLAYER1
  6
CONTINUOUS
 62
     6
 10
166.040861
 20
324.529851
 11
166.040861
 21
331.288456
  0
ARC
  8
CSLAYER1
  6
CONTINUOUS
 62
     6
 10
166.161522
 20
331.288456
 40
0.120690
 50
90.000003
 51
180.000005
  0
LINE
  8
CSLAYER1
  6
CONTINUOUS
 62
     6
 10
166.161522
 20
331.409153
 11
166.764971
 21
331.409153
  0
ARC
  8
CSLAYER1
  6
CONTINUOUS
 62
     6
 10
166.764971
 20
331.288456
 40
0.120690
 50
0.000000
 51
90.000003
  0
ARC
  8
CSLAYER1
  6
CONTINUOUS
 62
     6
 10
165.799467
 20
330.964706
 40
0.241380
 50
0.000000
 51
95.000152
  0
LINE
  8
CSLAYER1
  6
CONTINUOUS
 62
     6
 10
165.778399
 20
331.205161
 11
165.018268
 21
331.138662
  0
ARC
  8
CSLAYER1
  6
CONTINUOUS
 62
     6
 10
165.123459
 20
329.936348
 40
1.206899
 50
95.000111
 51
163.742611
  0
ARC
  8
CSLAYER1
  6
CONTINUOUS
 62
     6
 10
172.075357
 20
327.909153
 40
8.448294
 50
163.742994
 51
196.257016
  0
ARC
  8
CSLAYER1
  6
CONTINUOUS
 62
     6
 10
166.161522
 20
324.529851
 40
0.120690
 50
180.000005
 51
270.000001
  0
LINE
  8
CSLAYER1
  6
CONTINUOUS
 62
     6
 10
166.161522
 20
324.409153
 11
166.764971
 21
324.409153
  0
ARC
  8
CSLAYER1
  6
CONTINUOUS
 62
     6
 10
166.764971
 20
324.529851
 40
0.120690
 50
270.000001
 51
359.942691
  0
LINE
  8
CSLAYER1
  6
CONTINUOUS
 62
     6
 10
166.040861
 20
327.189924
 11
166.885669
 21
327.725621
  0
LINE
  8
CSLAYER1
  6
CONTINUOUS
 62
     6
 10
166.885669
 20
328.329071
 11
166.040861
 21
327.793373
  0
ARC
  8
CSLAYER1
  6
CONTINUOUS
 62
     6
 10
228.099345
 20
383.730641
 40
1.000000
 50
270.000001
 51
353.999989
  0
LINE
  8
CSLAYER1
  6
CONTINUOUS
 62
     6
 10
229.093913
 20
383.626149
 11
229.791545
 21
390.263600
  0
ARC
  8
CSLAYER1
  6
CONTINUOUS
 62
     6
 10
230.786052
 20
390.159108
 40
1.000000
 50
90.000003
 51
173.999998
  0
LINE
  8
CSLAYER1
  6
CONTINUOUS
 62
     6
 10
230.786052
 20
391.159108
 11
266.985210
 21
391.159108
  0
ARC
  8
CSLAYER1
  6
CONTINUOUS
 62
     6
 10
266.985210
 20
390.159108
 40
1.000000
 50
6.000003
 51
90.000016
  0
LINE
  8
CSLAYER1
  6
CONTINUOUS
 62
     6
 10
267.979777
 20
390.263600
 11
268.677409
 21
383.626149
  0
ARC
  8
CSLAYER1
  6
CONTINUOUS
 62
     6
 10
269.671916
 20
383.730641
 40
1.000000
 50
186.000026
 51
270.000001
  0
ARC
  8
CSLAYER1
  6
CONTINUOUS
 62
     6
 10
269.622295
 20
388.202931
 40
1.000000
 50
186.000026
 51
270.000001
  0
LINE
  8
CSLAYER1
  6
CONTINUOUS
 62
     6
 10
268.627727
 20
388.098378
 11
267.979777
 21
394.263600
  0
ARC
  8
CSLAYER1
  6
CONTINUOUS
 62
     6
 10
266.985210
 20
394.159108
 40
1.000000
 50
6.000003
 51
90.000016
  0
LINE
  8
CSLAYER1
  6
CONTINUOUS
 62
     6
 10
266.985210
 20
395.159108
 11
230.786052
 21
395.159108
  0
ARC
  8
CSLAYER1
  6
CONTINUOUS
 62
     6
 10
230.786052
 20
394.159108
 40
1.000000
 50
90.000003
 51
173.999998
  0
LINE
  8
CSLAYER1
  6
CONTINUOUS
 62
     6
 10
229.791545
 20
394.263600
 11
229.143535
 21
388.098378
  0
ARC
  8
CSLAYER1
  6
CONTINUOUS
 62
     6
 10
228.149028
 20
388.202931
 40
1.000000
 50
270.000001
 51
353.999989
  0
LINE
  8
CSLAYER1
  6
CONTINUOUS
 62
     6
 10
229.360087
 20
390.159108
 11
226.885661
 21
390.159108
  0
LINE
  8
CSLAYER1
  6
CONTINUOUS
 62
     6
 10
232.571635
 20
382.552296
 11
264.528728
 21
382.552296
  0
LINE
  8
CSLAYER1
  6
CONTINUOUS
 62
     6
 10
268.410625
 20
390.159108
 11
269.885661
 21
390.159108
  0
LINE
  8
CSLAYER1
  6
CONTINUOUS
 62
     6
 10
269.885661
 20
391.159123
 11
269.885661
 21
301.159123
  0
LINE
  8
CSLAYER1
  6
CONTINUOUS
 62
     6
 10
269.885661
 20
301.159123
 11
405.885631
 21
301.159123
  0
LINE
  8
CSLAYER1
  6
CONTINUOUS
 62
     6
 10
404.885631
 20
301.159123
 11
404.885631
 21
391.159123
  0
LINE
  8
CSLAYER1
  6
CONTINUOUS
 62
     6
 10
405.885631
 20
391.159123
 11
269.885661
 21
391.159123
  0
LINE
  8
CSLAYER1
  6
CONTINUOUS
 62
     6
 10
405.885539
 20
396.159123
 11
415.885600
 21
396.159123
  0
LINE
  8
CSLAYER1
  6
CONTINUOUS
 62
     6
 10
415.885631
 20
396.159123
 11
415.885631
 21
296.159123
  0
LINE
  8
CSLAYER1
  6
CONTINUOUS
 62
     6
 10
415.885600
 20
296.159123
 11
405.885539
 21
296.159123
  0
LINE
  8
CSLAYER1
  6
CONTINUOUS
 62
     6
 10
405.885631
 20
296.159123
 11
405.885631
 21
319.097905
  0
LINE
  8
CSLAYER1
  6
CONTINUOUS
 62
     6
 10
415.885631
 20
316.159123
 11
418.885631
 21
316.159123
  0
LINE
  8
CSLAYER1
  6
CONTINUOUS
 62
     6
 10
418.885631
 20
316.159123
 11
418.885631
 21
376.159123
  0
LINE
  8
CSLAYER1
  6
CONTINUOUS
 62
     6
 10
418.885631
 20
376.159123
 11
415.885631
 21
376.159123
  0
LINE
  8
CSLAYER1
  6
CONTINUOUS
 62
     6
 10
405.885631
 20
373.220372
 11
405.885631
 21
396.159123
  0
LINE
  8
CSLAYER1
  6
CONTINUOUS
 62
     6
 10
411.885631
 20
386.159123
 11
411.885631
 21
306.159123
  0
LINE
  8
CSLAYER1
  6
CONTINUOUS
 62
     6
 10
415.885631
 20
261.159123
 11
405.885570
 21
261.159123
  0
LINE
  8
CSLAYER1
  6
CONTINUOUS
 62
     6
 10
405.885661
 20
261.159123
 11
405.885661
 21
238.220372
  0
LINE
  8
CSLAYER1
  6
CONTINUOUS
 62
     6
 10
415.885661
 20
241.159123
 11
418.885661
 21
241.159123
  0
LINE
  8
CSLAYER1
  6
CONTINUOUS
 62
     6
 10
418.885661
 20
241.159123
 11
418.885661
 21
181.159123
  0
LINE
  8
CSLAYER1
  6
CONTINUOUS
 62
     6
 10
418.885661
 20
181.159123
 11
415.885661
 21
181.159123
  0
LINE
  8
CSLAYER1
  6
CONTINUOUS
 62
     6
 10
405.885661
 20
184.097905
 11
405.885661
 21
161.159123
  0
LINE
  8
CSLAYER1
  6
CONTINUOUS
 62
     6
 10
405.885570
 20
161.159123
 11
415.885631
 21
161.159123
  0
LINE
  8
CSLAYER1
  6
CONTINUOUS
 62
     6
 10
415.885661
 20
161.159123
 11
415.885661
 21
261.159123
  0
LINE
  8
CSLAYER1
  6
CONTINUOUS
 62
     6
 10
411.885661
 20
251.159123
 11
411.885661
 21
171.159123
  0
LINE
  8
CSLAYER1
  6
CONTINUOUS
 62
     6
 10
418.885661
 20
205.159123
 11
455.885661
 21
205.159123
  0
LINE
  8
CSLAYER1
  6
CONTINUOUS
 62
     6
 10
455.885661
 20
205.159123
 11
455.885661
 21
217.159123
  0
LINE
  8
CSLAYER1
  6
CONTINUOUS
 62
     6
 10
455.885661
 20
217.159123
 11
418.885661
 21
217.159123
  0
ARC
  8
CSLAYER1
  6
CONTINUOUS
 62
     6
 10
266.885661
 20
235.159123
 40
1.000000
 50
270.000001
 51
359.942691
  0
LINE
  8
CSLAYER1
  6
CONTINUOUS
 62
     6
 10
266.885661
 20
234.159123
 11
230.885661
 21
234.159123
  0
ARC
  8
CSLAYER1
  6
CONTINUOUS
 62
     6
 10
230.885661
 20
235.159123
 40
1.000000
 50
180.000019
 51
270.000001
  0
LINE
  8
CSLAYER1
  6
CONTINUOUS
 62
     6
 10
229.885661
 20
235.159123
 11
229.885661
 21
236.159123
  0
ARC
  8
CSLAYER1
  6
CONTINUOUS
 62
     6
 10
230.885661
 20
236.159123
 40
1.000000
 50
90.000016
 51
180.000005
  0
LINE
  8
CSLAYER1
  6
CONTINUOUS
 62
     6
 10
230.885661
 20
237.159123
 11
266.885661
 21
237.159123
  0
ARC
  8
CSLAYER1
  6
CONTINUOUS
 62
     6
 10
266.885661
 20
236.159123
 40
1.000000
 50
0.000000
 51
90.000003
  0
LINE
  8
CSLAYER1
  6
CONTINUOUS
 62
     6
 10
267.885661
 20
236.159123
 11
267.885661
 21
235.159123
  0
LINE
  8
CSLAYER1
  6
CONTINUOUS
 62
     6
 10
269.885661
 20
255.047581
 11
226.885661
 21
255.047581
  0
LINE
  8
CSLAYER1
  6
CONTINUOUS
 62
     6
 10
230.786052
 20
297.159108
 11
266.985210
 21
297.159108
  0
ARC
  8
CSLAYER1
  6
CONTINUOUS
 62
     6
 10
266.985210
 20
298.159108
 40
1.000000
 50
270.000001
 51
354.000017
  0
LINE
  8
CSLAYER1
  6
CONTINUOUS
 62
     6
 10
267.979777
 20
298.054554
 11
268.627727
 21
304.219838
  0
ARC
  8
CSLAYER1
  6
CONTINUOUS
 62
     6
 10
269.622295
 20
304.115284
 40
1.000000
 50
90.000009
 51
173.999984
  0
LINE
  8
CSLAYER1
  6
CONTINUOUS
 62
     6
 10
269.885661
 20
302.159108
 11
268.410625
 21
302.159108
  0
LINE
  8
CSLAYER1
  6
CONTINUOUS
 62
     6
 10
267.979777
 20
302.054554
 11
268.677409
 21
308.692067
  0
ARC
  8
CSLAYER1
  6
CONTINUOUS
 62
     6
 10
269.671916
 20
308.587513
 40
1.000000
 50
90.000009
 51
173.999984
  0
LINE
  8
CSLAYER1
  6
CONTINUOUS
 62
     6
 10
264.528728
 20
309.765919
 11
232.571635
 21
309.765919
  0
LINE
  8
CSLAYER1
  6
CONTINUOUS
 62
     6
 10
229.093913
 20
308.692067
 11
229.791545
 21
302.054554
  0
ARC
  8
CSLAYER1
  6
CONTINUOUS
 62
     6
 10
230.786052
 20
302.159108
 40
1.000000
 50
186.000012
 51
270.000001
  0
LINE
  8
CSLAYER1
  6
CONTINUOUS
 62
     6
 10
230.786052
 20
301.159108
 11
266.985210
 21
301.159108
  0
ARC
  8
CSLAYER1
  6
CONTINUOUS
 62
     6
 10
266.985210
 20
302.159108
 40
1.000000
 50
270.000001
 51
354.000017
  0
ARC
  8
CSLAYER1
  6
CONTINUOUS
 62
     6
 10
230.786052
 20
298.159108
 40
1.000000
 50
186.000012
 51
270.000001
  0
LINE
  8
CSLAYER1
  6
CONTINUOUS
 62
     6
 10
229.791545
 20
298.054554
 11
229.143535
 21
304.219838
  0
ARC
  8
CSLAYER1
  6
CONTINUOUS
 62
     6
 10
228.149028
 20
304.115284
 40
1.000000
 50
6.000021
 51
90.000009
  0
LINE
  8
CSLAYER1
  6
CONTINUOUS
 62
     6
 10
229.360087
 20
302.159108
 11
226.885661
 21
302.159108
  0
ARC
  8
CSLAYER1
  6
CONTINUOUS
 62
     6
 10
228.099345
 20
308.587513
 40
1.000000
 50
6.000021
 51
90.000009
  0
LINE
  8
CSLAYER1
  6
CONTINUOUS
 62
     6
 10
159.369899
 20
308.904861
 11
158.151103
 21
305.975677
  0
LINE
  8
CSLAYER1
  6
CONTINUOUS
 62
     6
 10
157.560908
 20
306.074051
 11
157.233012
 21
305.123153
  0
LINE
  8
CSLAYER1
  6
CONTINUOUS
 62
     6
 10
157.003490
 20
306.369140
 11
158.687800
 21
309.375976
  0
LINE
  8
CSLAYER1
  6
CONTINUOUS
 62
     6
 10
158.005733
 20
309.847091
 11
156.150981
 21
307.221649
  0
LINE
  8
CSLAYER1
  6
CONTINUOUS
 62
     6
 10
155.757518
 20
307.287231
 11
155.036159
 21
306.467514
  0
LINE
  8
CSLAYER1
  6
CONTINUOUS
 62
     6
 10
154.544337
 20
306.697037
 11
155.462413
 21
307.483963
  0
LINE
  8
CSLAYER1
  6
CONTINUOUS
 62
     6
 10
155.167323
 20
307.779068
 11
157.323634
 21
310.318207
  0
LINE
  8
CSLAYER1
  6
CONTINUOUS
 62
     6
 10
156.641566
 20
310.789322
 11
154.282008
 21
308.500412
  0
LINE
  8
CSLAYER1
  6
CONTINUOUS
 62
     6
 10
154.511531
 20
308.041366
 11
153.691829
 21
307.483963
  0
LINE
  8
CSLAYER1
  6
CONTINUOUS
 62
     6
 10
153.855769
 20
307.123291
 11
154.839427
 21
308.008590
  0
LINE
  8
CSLAYER1
  6
CONTINUOUS
 62
     6
 10
156.773967
 20
306.828186
 11
155.954249
 21
305.877304
  0
LINE
  8
CSLAYER1
  6
CONTINUOUS
 62
     6
 10
242.885661
 20
212.059117
 11
254.885661
 21
212.059117
  0
LINE
  8
CSLAYER1
  6
CONTINUOUS
 62
     6
 10
254.885661
 20
212.059117
 11
254.885661
 21
210.259129
  0
LINE
  8
CSLAYER1
  6
CONTINUOUS
 62
     6
 10
254.885661
 20
210.259129
 11
242.885661
 21
210.259129
  0
LINE
  8
CSLAYER1
  6
CONTINUOUS
 62
     6
 10
242.885661
 20
210.259129
 11
242.885661
 21
212.059117
  0
CIRCLE
  8
CSLAYER1
  6
CONTINUOUS
 62
     6
 10
248.885661
 20
211.159123
 40
12.000000
  0
CIRCLE
  8
CSLAYER1
  6
CONTINUOUS
 62
     6
 10
248.885661
 20
211.159123
 40
15.000000
  0
CIRCLE
  8
CSLAYER1
  6
CONTINUOUS
 62
     6
 10
248.885661
 20
211.159123
 40
16.000000
  0
LINE
  8
CSLAYER1
  6
CONTINUOUS
 62
     6
 10
418.885631
 20
340.159123
 11
455.885631
 21
340.159123
  0
LINE
  8
CSLAYER1
  6
CONTINUOUS
 62
     6
 10
455.885631
 20
340.159123
 11
455.885631
 21
352.159123
  0
LINE
  8
CSLAYER1
  6
CONTINUOUS
 62
     6
 10
455.885631
 20
352.159123
 11
418.885631
 21
352.159123
  0
LINE
  8
CSLAYER1
  6
CONTINUOUS
 62
     6
 10
480.474485
 20
261.159123
 11
565.474485
 21
261.159123
  0
ARC
  8
CSLAYER1
  6
CONTINUOUS
 62
     6
 10
565.474485
 20
253.659123
 40
7.500000
 50
0.000000
 51
90.000000
  0
LINE
  8
CSLAYER1
  6
CONTINUOUS
 62
     6
 10
572.974485
 20
253.659123
 11
572.974485
 21
168.659123
  0
ARC
  8
CSLAYER1
  6
CONTINUOUS
 62
     6
 10
565.474485
 20
168.659123
 40
7.500000
 50
270.000000
 51
360.000000
  0
LINE
  8
CSLAYER1
  6
CONTINUOUS
 62
     6
 10
565.474485
 20
161.159123
 11
480.474485
 21
161.159123
  0
ARC
  8
CSLAYER1
  6
CONTINUOUS
 62
     6
 10
480.474485
 20
168.659123
 40
7.500000
 50
180.000000
 51
270.000000
  0
LINE
  8
CSLAYER1
  6
CONTINUOUS
 62
     6
 10
472.974485
 20
168.659123
 11
472.974485
 21
253.659123
  0
ARC
  8
CSLAYER1
  6
CONTINUOUS
 62
     6
 10
480.474485
 20
253.659123
 40
7.500000
 50
90.000000
 51
180.000000
  0
CIRCLE
  8
CSLAYER1
  6
CONTINUOUS
 62
     6
 10
480.474485
 20
253.659123
 40
3.500000
  0
ARC
  8
CSLAYER1
  6
CONTINUOUS
 62
     6
 10
522.974478
 20
248.159146
 40
2.916667
 50
163.398416
 51
196.601577
  0
LINE
  8
CSLAYER1
  6
CONTINUOUS
 62
     6
 10
520.179406
 20
247.325803
 11
521.307791
 21
247.325803
  0
ARC
  8
CSLAYER1
  6
CONTINUOUS
 62
     6
 10
521.307791
 20
246.492503
 40
0.833333
 50
0.000005
 51
89.942654
  0
LINE
  8
CSLAYER1
  6
CONTINUOUS
 62
     6
 10
522.141135
 20
246.492503
 11
522.141135
 21
245.364031
  0
ARC
  8
CSLAYER1
  6
CONTINUOUS
 62
     6
 10
522.974478
 20
248.159146
 40
2.916667
 50
253.398422
 51
286.601583
  0
LINE
  8
CSLAYER1
  6
CONTINUOUS
 62
     6
 10
523.807822
 20
245.364031
 11
523.807822
 21
246.492503
  0
ARC
  8
CSLAYER1
  6
CONTINUOUS
 62
     6
 10
524.641165
 20
246.492503
 40
0.833333
 50
90.000001
 51
179.942691
  0
LINE
  8
CSLAYER1
  6
CONTINUOUS
 62
     6
 10
524.641165
 20
247.325803
 11
525.769550
 21
247.325803
  0
ARC
  8
CSLAYER1
  6
CONTINUOUS
 62
     6
 10
522.974478
 20
248.159146
 40
2.916667
 50
-16.601562
 51
16.601572
  0
LINE
  8
CSLAYER1
  6
CONTINUOUS
 62
     6
 10
525.769550
 20
248.992490
 11
524.641165
 21
248.992490
  0
ARC
  8
CSLAYER1
  6
CONTINUOUS
 62
     6
 10
524.641165
 20
249.825790
 40
0.833333
 50
180.000010
 51
270.000016
  0
LINE
  8
CSLAYER1
  6
CONTINUOUS
 62
     6
 10
523.807822
 20
249.825790
 11
523.807822
 21
250.954262
  0
ARC
  8
CSLAYER1
  6
CONTINUOUS
 62
     6
 10
522.974478
 20
248.159146
 40
2.916667
 50
73.398406
 51
106.601595
  0
LINE
  8
CSLAYER1
  6
CONTINUOUS
 62
     6
 10
522.141135
 20
250.954262
 11
522.141135
 21
249.825790
  0
ARC
  8
CSLAYER1
  6
CONTINUOUS
 62
     6
 10
521.307791
 20
249.825790
 40
0.833333
 50
-89.999984
 51
0.000005
  0
LINE
  8
CSLAYER1
  6
CONTINUOUS
 62
     6
 10
521.307791
 20
248.992490
 11
520.179406
 21
248.992490
  0
CIRCLE
  8
CSLAYER1
  6
CONTINUOUS
 62
     6
 10
522.974485
 20
248.159123
 40
7.500000
  0
CIRCLE
  8
CSLAYER1
  6
CONTINUOUS
 62
     6
 10
522.974498
 20
248.159145
 40
5.250000
  0
ARC
  8
CSLAYER1
  6
CONTINUOUS
 62
     6
 10
522.974485
 20
211.159123
 40
30.000000
 50
-85.368215
 51
85.368215
  0
LINE
  8
CSLAYER1
  6
CONTINUOUS
 62
     6
 10
523.807822
 20
176.954215
 11
523.807822
 21
175.825743
  0
ARC
  8
CSLAYER1
  6
CONTINUOUS
 62
     6
 10
524.641165
 20
175.825743
 40
0.833333
 50
180.057309
 51
269.999999
  0
LINE
  8
CSLAYER1
  6
CONTINUOUS
 62
     6
 10
524.641165
 20
174.992443
 11
525.769550
 21
174.992443
  0
ARC
  8
CSLAYER1
  6
CONTINUOUS
 62
     6
 10
522.974478
 20
174.159099
 40
2.916667
 50
-16.601572
 51
16.601562
  0
LINE
  8
CSLAYER1
  6
CONTINUOUS
 62
     6
 10
525.769550
 20
173.325756
 11
524.641165
 21
173.325756
  0
ARC
  8
CSLAYER1
  6
CONTINUOUS
 62
     6
 10
524.641165
 20
172.492456
 40
0.833333
 50
89.999984
 51
179.999990
  0
LINE
  8
CSLAYER1
  6
CONTINUOUS
 62
     6
 10
523.807822
 20
172.492456
 11
523.807822
 21
171.363984
  0
ARC
  8
CSLAYER1
  6
CONTINUOUS
 62
     6
 10
522.974478
 20
174.159099
 40
2.916667
 50
253.398405
 51
286.601594
  0
LINE
  8
CSLAYER1
  6
CONTINUOUS
 62
     6
 10
522.141135
 20
171.363984
 11
522.141135
 21
172.492456
  0
ARC
  8
CSLAYER1
  6
CONTINUOUS
 62
     6
 10
521.307791
 20
172.492456
 40
0.833333
 50
-0.000005
 51
89.999984
  0
LINE
  8
CSLAYER1
  6
CONTINUOUS
 62
     6
 10
521.307791
 20
173.325756
 11
520.179406
 21
173.325756
  0
ARC
  8
CSLAYER1
  6
CONTINUOUS
 62
     6
 10
522.974478
 20
174.159099
 40
2.916667
 50
163.398423
 51
196.601584
  0
LINE
  8
CSLAYER1
  6
CONTINUOUS
 62
     6
 10
520.179406
 20
174.992443
 11
521.307791
 21
174.992443
  0
ARC
  8
CSLAYER1
  6
CONTINUOUS
 62
     6
 10
521.307791
 20
175.825743
 40
0.833333
 50
270.057346
 51
359.999995
  0
LINE
  8
CSLAYER1
  6
CONTINUOUS
 62
     6
 10
522.141135
 20
175.825743
 11
522.141135
 21
176.954215
  0
ARC
  8
CSLAYER1
  6
CONTINUOUS
 62
     6
 10
522.974478
 20
174.159099
 40
2.916667
 50
73.398417
 51
106.601578
  0
CIRCLE
  8
CSLAYER1
  6
CONTINUOUS
 62
     6
 10
522.974485
 20
174.159123
 40
7.500000
  0
CIRCLE
  8
CSLAYER1
  6
CONTINUOUS
 62
     6
 10
522.974498
 20
174.159100
 40
5.250000
  0
ARC
  8
CSLAYER1
  6
CONTINUOUS
 62
     6
 10
522.974485
 20
211.159123
 40
30.000000
 50
94.631785
 51
265.368215
  0
CIRCLE
  8
CSLAYER1
  6
CONTINUOUS
 62
     6
 10
522.974485
 20
211.159123
 40
6.000000
  0
CIRCLE
  8
CSLAYER1
  6
CONTINUOUS
 62
     6
 10
522.974485
 20
211.159123
 40
16.000000
  0
CIRCLE
  8
CSLAYER1
  6
CONTINUOUS
 62
     6
 10
522.974485
 20
211.159123
 40
7.500000
  0
CIRCLE
  8
CSLAYER1
  6
CONTINUOUS
 62
     6
 10
565.474485
 20
253.659123
 40
3.500000
  0
ARC
  8
CSLAYER1
  6
CONTINUOUS
 62
     6
 10
532.823679
 20
202.644912
 40
1.454544
 50
230.236329
 51
322.096590
  0
ARC
  8
CSLAYER1
  6
CONTINUOUS
 62
     6
 10
529.899413
 20
199.130605
 40
3.117293
 50
50.235851
 51
203.481549
  0
LINE
  8
CSLAYER1
  6
CONTINUOUS
 62
     6
 10
527.040267
 20
197.888515
 11
527.661435
 21
195.861027
  0
CIRCLE
  8
CSLAYER1
  6
CONTINUOUS
 62
     6
 10
529.899413
 20
199.130605
 40
1.454544
  0
ARC
  8
CSLAYER1
  6
CONTINUOUS
 62
     6
 10
522.974485
 20
210.313126
 40
13.936877
 50
-37.903067
 51
217.903051
  0
ARC
  8
CSLAYER1
  6
CONTINUOUS
 62
     6
 10
513.125279
 20
202.644912
 40
1.454544
 50
217.903413
 51
309.763730
  0
ARC
  8
CSLAYER1
  6
CONTINUOUS
 62
     6
 10
516.049547
 20
199.130605
 40
3.117293
 50
-23.481547
 51
129.764151
  0
LINE
  8
CSLAYER1
  6
CONTINUOUS
 62
     6
 10
518.908690
 20
197.888515
 11
518.287522
 21
195.861027
  0
CIRCLE
  8
CSLAYER1
  6
CONTINUOUS
 62
     6
 10
516.049547
 20
199.130605
 40
1.454544
  0
CIRCLE
  8
CSLAYER1
  6
CONTINUOUS
 62
     6
 10
480.474485
 20
168.659123
 40
3.500000
  0
CIRCLE
  8
CSLAYER1
  6
CONTINUOUS
 62
     6
 10
565.474485
 20
168.659123
 40
3.500000
  0
POLYLINE
  8
CSLAYER1
  6
CONTINUOUS
 62
     6
 66
     1
 10
0.0
 20
0.0
 30
0.0
  0
VERTEX
  8
CSLAYER1
  6
CONTINUOUS
 62
     6
 10
157.885661
 20
92.587019
 30
0.0
  0
VERTEX
  8
CSLAYER1
  6
CONTINUOUS
 62
     6
 10
157.492816
 20
92.407623
 30
0.0
  0
VERTEX
  8
CSLAYER1
  6
CONTINUOUS
 62
     6
 10
157.121987
 20
92.202823
 30
0.0
  0
VERTEX
  8
CSLAYER1
  6
CONTINUOUS
 62
     6
 10
156.775997
 20
91.974178
 30
0.0
  0
VERTEX
  8
CSLAYER1
  6
CONTINUOUS
 62
     6
 10
156.457478
 20
91.723428
 30
0.0
  0
VERTEX
  8
CSLAYER1
  6
CONTINUOUS
 62
     6
 10
156.168855
 20
91.452481
 30
0.0
  0
VERTEX
  8
CSLAYER1
  6
CONTINUOUS
 62
     6
 10
155.912325
 20
91.163400
 30
0.0
  0
VERTEX
  8
CSLAYER1
  6
CONTINUOUS
 62
     6
 10
155.689839
 20
90.858383
 30
0.0
  0
VERTEX
  8
CSLAYER1
  6
CONTINUOUS
 62
     6
 10
155.503091
 20
90.539753
 30
0.0
  0
VERTEX
  8
CSLAYER1
  6
CONTINUOUS
 62
     6
 10
155.353503
 20
90.209935
 30
0.0
  0
VERTEX
  8
CSLAYER1
  6
CONTINUOUS
 62
     6
 10
155.242213
 20
89.871439
 30
0.0
  0
VERTEX
  8
CSLAYER1
  6
CONTINUOUS
 62
     6
 10
155.170067
 20
89.526840
 30
0.0
  0
VERTEX
  8
CSLAYER1
  6
CONTINUOUS
 62
     6
 10
155.137615
 20
89.178762
 30
0.0
  0
VERTEX
  8
CSLAYER1
  6
CONTINUOUS
 62
     6
 10
155.145104
 20
88.829854
 30
0.0
  0
VERTEX
  8
CSLAYER1
  6
CONTINUOUS
 62
     6
 10
155.192476
 20
88.482770
 30
0.0
  0
VERTEX
  8
CSLAYER1
  6
CONTINUOUS
 62
     6
 10
155.279372
 20
88.140153
 30
0.0
  0
VERTEX
  8
CSLAYER1
  6
CONTINUOUS
 62
     6
 10
155.405130
 20
87.804610
 30
0.0
  0
VERTEX
  8
CSLAYER1
  6
CONTINUOUS
 62
     6
 10
155.568793
 20
87.478695
 30
0.0
  0
VERTEX
  8
CSLAYER1
  6
CONTINUOUS
 62
     6
 10
155.769115
 20
87.164888
 30
0.0
  0
VERTEX
  8
CSLAYER1
  6
CONTINUOUS
 62
     6
 10
156.004572
 20
86.865577
 30
0.0
  0
VERTEX
  8
CSLAYER1
  6
CONTINUOUS
 62
     6
 10
156.273371
 20
86.583041
 30
0.0
  0
VERTEX
  8
CSLAYER1
  6
CONTINUOUS
 62
     6
 10
156.573467
 20
86.319429
 30
0.0
  0
VERTEX
  8
CSLAYER1
  6
CONTINUOUS
 62
     6
 10
156.902577
 20
86.076748
 30
0.0
  0
VERTEX
  8
CSLAYER1
  6
CONTINUOUS
 62
     6
 10
157.258195
 20
85.856845
 30
0.0
  0
VERTEX
  8
CSLAYER1
  6
CONTINUOUS
 62
     6
 10
157.637615
 20
85.661393
 30
0.0
  0
VERTEX
  8
CSLAYER1
  6
CONTINUOUS
 62
     6
 10
158.037949
 20
85.491881
 30
0.0
  0
VERTEX
  8
CSLAYER1
  6
CONTINUOUS
 62
     6
 10
158.456151
 20
85.349597
 30
0.0
  0
VERTEX
  8
CSLAYER1
  6
CONTINUOUS
 62
     6
 10
158.889037
 20
85.235625
 30
0.0
  0
VERTEX
  8
CSLAYER1
  6
CONTINUOUS
 62
     6
 10
159.333314
 20
85.150832
 30
0.0
  0
VERTEX
  8
CSLAYER1
  6
CONTINUOUS
 62
     6
 10
159.785599
 20
85.095864
 30
0.0
  0
VERTEX
  8
CSLAYER1
  6
CONTINUOUS
 62
     6
 10
160.242452
 20
85.071138
 30
0.0
  0
VERTEX
  8
CSLAYER1
  6
CONTINUOUS
 62
     6
 10
160.700394
 20
85.076844
 30
0.0
  0
VERTEX
  8
CSLAYER1
  6
CONTINUOUS
 62
     6
 10
161.155941
 20
85.112938
 30
0.0
  0
VERTEX
  8
CSLAYER1
  6
CONTINUOUS
 62
     6
 10
161.605626
 20
85.179144
 30
0.0
  0
VERTEX
  8
CSLAYER1
  6
CONTINUOUS
 62
     6
 10
162.046026
 20
85.274960
 30
0.0
  0
VERTEX
  8
CSLAYER1
  6
CONTINUOUS
 62
     6
 10
162.473789
 20
85.399655
 30
0.0
  0
VERTEX
  8
CSLAYER1
  6
CONTINUOUS
 62
     6
 10
162.885661
 20
85.552281
 30
0.0
  0
VERTEX
  8
CSLAYER1
  6
CONTINUOUS
 62
     6
 10
163.278506
 20
85.731677
 30
0.0
  0
VERTEX
  8
CSLAYER1
  6
CONTINUOUS
 62
     6
 10
163.649335
 20
85.936476
 30
0.0
  0
VERTEX
  8
CSLAYER1
  6
CONTINUOUS
 62
     6
 10
163.995326
 20
86.165121
 30
0.0
  0
VERTEX
  8
CSLAYER1
  6
CONTINUOUS
 62
     6
 10
164.313845
 20
86.415872
 30
0.0
  0
VERTEX
  8
CSLAYER1
  6
CONTINUOUS
 62
     6
 10
164.602467
 20
86.686819
 30
0.0
  0
VERTEX
  8
CSLAYER1
  6
CONTINUOUS
 62
     6
 10
164.858998
 20
86.975900
 30
0.0
  0
VERTEX
  8
CSLAYER1
  6
CONTINUOUS
 62
     6
 10
165.081484
 20
87.280917
 30
0.0
  0
VERTEX
  8
CSLAYER1
  6
CONTINUOUS
 62
     6
 10
165.268231
 20
87.599547
 30
0.0
  0
VERTEX
  8
CSLAYER1
  6
CONTINUOUS
 62
     6
 10
165.417819
 20
87.929365
 30
0.0
  0
VERTEX
  8
CSLAYER1
  6
CONTINUOUS
 62
     6
 10
165.529110
 20
88.267861
 30
0.0
  0
VERTEX
  8
CSLAYER1
  6
CONTINUOUS
 62
     6
 10
165.601256
 20
88.612460
 30
0.0
  0
VERTEX
  8
CSLAYER1
  6
CONTINUOUS
 62
     6
 10
165.633708
 20
88.960538
 30
0.0
  0
VERTEX
  8
CSLAYER1
  6
CONTINUOUS
 62
     6
 10
165.626219
 20
89.309446
 30
0.0
  0
VERTEX
  8
CSLAYER1
  6
CONTINUOUS
 62
     6
 10
165.578846
 20
89.656530
 30
0.0
  0
VERTEX
  8
CSLAYER1
  6
CONTINUOUS
 62
     6
 10
165.491950
 20
89.999147
 30
0.0
  0
VERTEX
  8
CSLAYER1
  6
CONTINUOUS
 62
     6
 10
165.366192
 20
90.334690
 30
0.0
  0
VERTEX
  8
CSLAYER1
  6
CONTINUOUS
 62
     6
 10
165.202530
 20
90.660605
 30
0.0
  0
VERTEX
  8
CSLAYER1
  6
CONTINUOUS
 62
     6
 10
165.002208
 20
90.974412
 30
0.0
  0
VERTEX
  8
CSLAYER1
  6
CONTINUOUS
 62
     6
 10
164.817013
 20
91.214601
 30
0.0
  0
SEQEND
  0
POLYLINE
  8
CSLAYER1
  6
CONTINUOUS
 62
     6
 66
     1
 10
0.0
 20
0.0
 30
0.0
  0
VERTEX
  8
CSLAYER1
  6
CONTINUOUS
 62
     6
 10
155.135661
 20
87.569650
 30
0.0
  0
VERTEX
  8
CSLAYER1
  6
CONTINUOUS
 62
     6
 10
155.155639
 20
87.221027
 30
0.0
  0
VERTEX
  8
CSLAYER1
  6
CONTINUOUS
 62
     6
 10
155.215420
 20
86.875057
 30
0.0
  0
VERTEX
  8
CSLAYER1
  6
CONTINUOUS
 62
     6
 10
155.314551
 20
86.534374
 30
0.0
  0
VERTEX
  8
CSLAYER1
  6
CONTINUOUS
 62
     6
 10
155.452275
 20
86.201569
 30
0.0
  0
VERTEX
  8
CSLAYER1
  6
CONTINUOUS
 62
     6
 10
155.627545
 20
85.879177
 30
0.0
  0
VERTEX
  8
CSLAYER1
  6
CONTINUOUS
 62
     6
 10
155.839028
 20
85.569650
 30
0.0
  0
VERTEX
  8
CSLAYER1
  6
CONTINUOUS
 62
     6
 10
156.085113
 20
85.275344
 30
0.0
  0
VERTEX
  8
CSLAYER1
  6
CONTINUOUS
 62
     6
 10
156.363928
 20
84.998500
 30
0.0
  0
VERTEX
  8
CSLAYER1
  6
CONTINUOUS
 62
     6
 10
156.673351
 20
84.741223
 30
0.0
  0
VERTEX
  8
CSLAYER1
  6
CONTINUOUS
 62
     6
 10
157.011026
 20
84.505472
 30
0.0
  0
VERTEX
  8
CSLAYER1
  6
CONTINUOUS
 62
     6
 10
157.374385
 20
84.293042
 30
0.0
  0
VERTEX
  8
CSLAYER1
  6
CONTINUOUS
 62
     6
 10
157.760661
 20
84.105548
 30
0.0
  0
VERTEX
  8
CSLAYER1
  6
CONTINUOUS
 62
     6
 10
158.166915
 20
83.944419
 30
0.0
  0
VERTEX
  8
CSLAYER1
  6
CONTINUOUS
 62
     6
 10
158.590055
 20
83.810879
 30
0.0
  0
VERTEX
  8
CSLAYER1
  6
CONTINUOUS
 62
     6
 10
159.026861
 20
83.705947
 30
0.0
  0
VERTEX
  8
CSLAYER1
  6
CONTINUOUS
 62
     6
 10
159.474008
 20
83.630419
 30
0.0
  0
VERTEX
  8
CSLAYER1
  6
CONTINUOUS
 62
     6
 10
159.928094
 20
83.584871
 30
0.0
  0
VERTEX
  8
CSLAYER1
  6
CONTINUOUS
 62
     6
 10
160.385661
 20
83.569650
 30
0.0
  0
VERTEX
  8
CSLAYER1
  6
CONTINUOUS
 62
     6
 10
160.843229
 20
83.584871
 30
0.0
  0
VERTEX
  8
CSLAYER1
  6
CONTINUOUS
 62
     6
 10
161.297314
 20
83.630419
 30
0.0
  0
VERTEX
  8
CSLAYER1
  6
CONTINUOUS
 62
     6
 10
161.744461
 20
83.705947
 30
0.0
  0
VERTEX
  8
CSLAYER1
  6
CONTINUOUS
 62
     6
 10
162.181267
 20
83.810879
 30
0.0
  0
VERTEX
  8
CSLAYER1
  6
CONTINUOUS
 62
     6
 10
162.604407
 20
83.944419
 30
0.0
  0
VERTEX
  8
CSLAYER1
  6
CONTINUOUS
 62
     6
 10
163.010661
 20
84.105548
 30
0.0
  0
VERTEX
  8
CSLAYER1
  6
CONTINUOUS
 62
     6
 10
163.396937
 20
84.293042
 30
0.0
  0
VERTEX
  8
CSLAYER1
  6
CONTINUOUS
 62
     6
 10
163.760296
 20
84.505472
 30
0.0
  0
VERTEX
  8
CSLAYER1
  6
CONTINUOUS
 62
     6
 10
164.097972
 20
84.741223
 30
0.0
  0
VERTEX
  8
CSLAYER1
  6
CONTINUOUS
 62
     6
 10
164.407395
 20
84.998500
 30
0.0
  0
VERTEX
  8
CSLAYER1
  6
CONTINUOUS
 62
     6
 10
164.686209
 20
85.275344
 30
0.0
  0
VERTEX
  8
CSLAYER1
  6
CONTINUOUS
 62
     6
 10
164.932295
 20
85.569650
 30
0.0
  0
VERTEX
  8
CSLAYER1
  6
CONTINUOUS
 62
     6
 10
165.143777
 20
85.879177
 30
0.0
  0
VERTEX
  8
CSLAYER1
  6
CONTINUOUS
 62
     6
 10
165.319047
 20
86.201569
 30
0.0
  0
VERTEX
  8
CSLAYER1
  6
CONTINUOUS
 62
     6
 10
165.456772
 20
86.534374
 30
0.0
  0
VERTEX
  8
CSLAYER1
  6
CONTINUOUS
 62
     6
 10
165.555902
 20
86.875057
 30
0.0
  0
VERTEX
  8
CSLAYER1
  6
CONTINUOUS
 62
     6
 10
165.615683
 20
87.221027
 30
0.0
  0
VERTEX
  8
CSLAYER1
  6
CONTINUOUS
 62
     6
 10
165.635661
 20
87.569650
 30
0.0
  0
SEQEND
  0
POLYLINE
  8
CSLAYER1
  6
CONTINUOUS
 62
     6
 66
     1
 10
0.0
 20
0.0
 30
0.0
  0
VERTEX
  8
CSLAYER1
  6
CONTINUOUS
 62
     6
 10
163.984856
 20
91.981711
 30
0.0
  0
VERTEX
  8
CSLAYER1
  6
CONTINUOUS
 62
     6
 10
163.638043
 20
92.209632
 30
0.0
  0
VERTEX
  8
CSLAYER1
  6
CONTINUOUS
 62
     6
 10
163.266479
 20
92.413656
 30
0.0
  0
VERTEX
  8
CSLAYER1
  6
CONTINUOUS
 62
     6
 10
162.885661
 20
92.587019
 30
0.0
  0
SEQEND
  0
POLYLINE
  8
CSLAYER1
  6
CONTINUOUS
 62
     6
 66
     1
 10
0.0
 20
0.0
 30
0.0
  0
VERTEX
  8
CSLAYER1
  6
CONTINUOUS
 62
     6
 10
162.885661
 20
183.386310
 30
0.0
  0
VERTEX
  8
CSLAYER1
  6
CONTINUOUS
 62
     6
 10
163.278506
 20
183.496850
 30
0.0
  0
VERTEX
  8
CSLAYER1
  6
CONTINUOUS
 62
     6
 10
163.649335
 20
183.623044
 30
0.0
  0
VERTEX
  8
CSLAYER1
  6
CONTINUOUS
 62
     6
 10
163.995326
 20
183.763931
 30
0.0
  0
VERTEX
  8
CSLAYER1
  6
CONTINUOUS
 62
     6
 10
164.313845
 20
183.918439
 30
0.0
  0
VERTEX
  8
CSLAYER1
  6
CONTINUOUS
 62
     6
 10
164.602467
 20
184.085391
 30
0.0
  0
VERTEX
  8
CSLAYER1
  6
CONTINUOUS
 62
     6
 10
164.858998
 20
184.263519
 30
0.0
  0
VERTEX
  8
CSLAYER1
  6
CONTINUOUS
 62
     6
 10
165.081484
 20
184.451464
 30
0.0
  0
VERTEX
  8
CSLAYER1
  6
CONTINUOUS
 62
     6
 10
165.268231
 20
184.647799
 30
0.0
  0
VERTEX
  8
CSLAYER1
  6
CONTINUOUS
 62
     6
 10
165.417819
 20
184.851027
 30
0.0
  0
VERTEX
  8
CSLAYER1
  6
CONTINUOUS
 62
     6
 10
165.529110
 20
185.059602
 30
0.0
  0
VERTEX
  8
CSLAYER1
  6
CONTINUOUS
 62
     6
 10
165.601256
 20
185.271938
 30
0.0
  0
VERTEX
  8
CSLAYER1
  6
CONTINUOUS
 62
     6
 10
165.633708
 20
185.486418
 30
0.0
  0
VERTEX
  8
CSLAYER1
  6
CONTINUOUS
 62
     6
 10
165.626219
 20
185.701409
 30
0.0
  0
VERTEX
  8
CSLAYER1
  6
CONTINUOUS
 62
     6
 10
165.578846
 20
185.915276
 30
0.0
  0
VERTEX
  8
CSLAYER1
  6
CONTINUOUS
 62
     6
 10
165.491950
 20
186.126390
 30
0.0
  0
VERTEX
  8
CSLAYER1
  6
CONTINUOUS
 62
     6
 10
165.366192
 20
186.333146
 30
0.0
  0
VERTEX
  8
CSLAYER1
  6
CONTINUOUS
 62
     6
 10
165.202530
 20
186.533969
 30
0.0
  0
VERTEX
  8
CSLAYER1
  6
CONTINUOUS
 62
     6
 10
165.002208
 20
186.727331
 30
0.0
  0
VERTEX
  8
CSLAYER1
  6
CONTINUOUS
 62
     6
 10
164.766751
 20
186.911761
 30
0.0
  0
VERTEX
  8
CSLAYER1
  6
CONTINUOUS
 62
     6
 10
164.497951
 20
187.085855
 30
0.0
  0
VERTEX
  8
CSLAYER1
  6
CONTINUOUS
 62
     6
 10
164.197855
 20
187.248288
 30
0.0
  0
VERTEX
  8
CSLAYER1
  6
CONTINUOUS
 62
     6
 10
163.868745
 20
187.397824
 30
0.0
  0
VERTEX
  8
CSLAYER1
  6
CONTINUOUS
 62
     6
 10
163.513127
 20
187.533325
 30
0.0
  0
VERTEX
  8
CSLAYER1
  6
CONTINUOUS
 62
     6
 10
163.133708
 20
187.653759
 30
0.0
  0
VERTEX
  8
CSLAYER1
  6
CONTINUOUS
 62
     6
 10
162.733373
 20
187.758209
 30
0.0
  0
VERTEX
  8
CSLAYER1
  6
CONTINUOUS
 62
     6
 10
162.315172
 20
187.845882
 30
0.0
  0
VERTEX
  8
CSLAYER1
  6
CONTINUOUS
 62
     6
 10
161.882285
 20
187.916110
 30
0.0
  0
VERTEX
  8
CSLAYER1
  6
CONTINUOUS
 62
     6
 10
161.438009
 20
187.968358
 30
0.0
  0
VERTEX
  8
CSLAYER1
  6
CONTINUOUS
 62
     6
 10
160.985723
 20
188.002228
 30
0.0
  0
VERTEX
  8
CSLAYER1
  6
CONTINUOUS
 62
     6
 10
160.528871
 20
188.017463
 30
0.0
  0
VERTEX
  8
CSLAYER1
  6
CONTINUOUS
 62
     6
 10
160.070929
 20
188.013948
 30
0.0
  0
VERTEX
  8
CSLAYER1
  6
CONTINUOUS
 62
     6
 10
159.615381
 20
187.991707
 30
0.0
  0
VERTEX
  8
CSLAYER1
  6
CONTINUOUS
 62
     6
 10
159.165697
 20
187.950912
 30
0.0
  0
VERTEX
  8
CSLAYER1
  6
CONTINUOUS
 62
     6
 10
158.725297
 20
187.891872
 30
0.0
  0
VERTEX
  8
CSLAYER1
  6
CONTINUOUS
 62
     6
 10
158.297533
 20
187.815037
 30
0.0
  0
VERTEX
  8
CSLAYER1
  6
CONTINUOUS
 62
     6
 10
157.885661
 20
187.720992
 30
0.0
  0
VERTEX
  8
CSLAYER1
  6
CONTINUOUS
 62
     6
 10
157.492816
 20
187.610451
 30
0.0
  0
VERTEX
  8
CSLAYER1
  6
CONTINUOUS
 62
     6
 10
157.121987
 20
187.484257
 30
0.0
  0
VERTEX
  8
CSLAYER1
  6
CONTINUOUS
 62
     6
 10
156.775997
 20
187.343370
 30
0.0
  0
VERTEX
  8
CSLAYER1
  6
CONTINUOUS
 62
     6
 10
156.457478
 20
187.188862
 30
0.0
  0
VERTEX
  8
CSLAYER1
  6
CONTINUOUS
 62
     6
 10
156.168855
 20
187.021910
 30
0.0
  0
VERTEX
  8
CSLAYER1
  6
CONTINUOUS
 62
     6
 10
155.912325
 20
186.843782
 30
0.0
  0
VERTEX
  8
CSLAYER1
  6
CONTINUOUS
 62
     6
 10
155.689839
 20
186.655837
 30
0.0
  0
VERTEX
  8
CSLAYER1
  6
CONTINUOUS
 62
     6
 10
155.503091
 20
186.459502
 30
0.0
  0
VERTEX
  8
CSLAYER1
  6
CONTINUOUS
 62
     6
 10
155.353503
 20
186.256274
 30
0.0
  0
VERTEX
  8
CSLAYER1
  6
CONTINUOUS
 62
     6
 10
155.242213
 20
186.047699
 30
0.0
  0
VERTEX
  8
CSLAYER1
  6
CONTINUOUS
 62
     6
 10
155.170067
 20
185.835363
 30
0.0
  0
VERTEX
  8
CSLAYER1
  6
CONTINUOUS
 62
     6
 10
155.137615
 20
185.620883
 30
0.0
  0
VERTEX
  8
CSLAYER1
  6
CONTINUOUS
 62
     6
 10
155.145104
 20
185.405892
 30
0.0
  0
VERTEX
  8
CSLAYER1
  6
CONTINUOUS
 62
     6
 10
155.192476
 20
185.192025
 30
0.0
  0
VERTEX
  8
CSLAYER1
  6
CONTINUOUS
 62
     6
 10
155.279372
 20
184.980911
 30
0.0
  0
VERTEX
  8
CSLAYER1
  6
CONTINUOUS
 62
     6
 10
155.405130
 20
184.774155
 30
0.0
  0
VERTEX
  8
CSLAYER1
  6
CONTINUOUS
 62
     6
 10
155.568793
 20
184.573332
 30
0.0
  0
VERTEX
  8
CSLAYER1
  6
CONTINUOUS
 62
     6
 10
155.769115
 20
184.379970
 30
0.0
  0
VERTEX
  8
CSLAYER1
  6
CONTINUOUS
 62
     6
 10
156.004572
 20
184.195540
 30
0.0
  0
VERTEX
  8
CSLAYER1
  6
CONTINUOUS
 62
     6
 10
156.273371
 20
184.021446
 30
0.0
  0
VERTEX
  8
CSLAYER1
  6
CONTINUOUS
 62
     6
 10
156.573467
 20
183.859013
 30
0.0
  0
VERTEX
  8
CSLAYER1
  6
CONTINUOUS
 62
     6
 10
156.902577
 20
183.709477
 30
0.0
  0
VERTEX
  8
CSLAYER1
  6
CONTINUOUS
 62
     6
 10
157.258195
 20
183.573976
 30
0.0
  0
VERTEX
  8
CSLAYER1
  6
CONTINUOUS
 62
     6
 10
157.637615
 20
183.453542
 30
0.0
  0
VERTEX
  8
CSLAYER1
  6
CONTINUOUS
 62
     6
 10
157.885661
 20
183.386310
 30
0.0
  0
SEQEND
  0
POLYLINE
  8
CSLAYER1
  6
CONTINUOUS
 62
     6
 66
     1
 10
0.0
 20
0.0
 30
0.0
  0
VERTEX
  8
CSLAYER1
  6
CONTINUOUS
 62
     6
 10
162.885661
 20
185.553651
 30
0.0
  0
VERTEX
  8
CSLAYER1
  6
CONTINUOUS
 62
     6
 10
162.876148
 20
185.655943
 30
0.0
  0
VERTEX
  8
CSLAYER1
  6
CONTINUOUS
 62
     6
 10
162.847681
 20
185.757458
 30
0.0
  0
VERTEX
  8
CSLAYER1
  6
CONTINUOUS
 62
     6
 10
162.800476
 20
185.857421
 30
0.0
  0
VERTEX
  8
CSLAYER1
  6
CONTINUOUS
 62
     6
 10
162.734893
 20
185.955073
 30
0.0
  0
VERTEX
  8
CSLAYER1
  6
CONTINUOUS
 62
     6
 10
162.651431
 20
186.049669
 30
0.0
  0
VERTEX
  8
CSLAYER1
  6
CONTINUOUS
 62
     6
 10
162.550725
 20
186.140491
 30
0.0
  0
VERTEX
  8
CSLAYER1
  6
CONTINUOUS
 62
     6
 10
162.433541
 20
186.226846
 30
0.0
  0
VERTEX
  8
CSLAYER1
  6
CONTINUOUS
 62
     6
 10
162.300772
 20
186.308077
 30
0.0
  0
VERTEX
  8
CSLAYER1
  6
CONTINUOUS
 62
     6
 10
162.153428
 20
186.383568
 30
0.0
  0
VERTEX
  8
CSLAYER1
  6
CONTINUOUS
 62
     6
 10
161.992630
 20
186.452742
 30
0.0
  0
VERTEX
  8
CSLAYER1
  6
CONTINUOUS
 62
     6
 10
161.819602
 20
186.515073
 30
0.0
  0
VERTEX
  8
CSLAYER1
  6
CONTINUOUS
 62
     6
 10
161.635661
 20
186.570087
 30
0.0
  0
VERTEX
  8
CSLAYER1
  6
CONTINUOUS
 62
     6
 10
161.442207
 20
186.617366
 30
0.0
  0
VERTEX
  8
CSLAYER1
  6
CONTINUOUS
 62
     6
 10
161.240712
 20
186.656549
 30
0.0
  0
VERTEX
  8
CSLAYER1
  6
CONTINUOUS
 62
     6
 10
161.032709
 20
186.687338
 30
0.0
  0
VERTEX
  8
CSLAYER1
  6
CONTINUOUS
 62
     6
 10
160.819782
 20
186.709500
 30
0.0
  0
VERTEX
  8
CSLAYER1
  6
CONTINUOUS
 62
     6
 10
160.603551
 20
186.722864
 30
0.0
  0
VERTEX
  8
CSLAYER1
  6
CONTINUOUS
 62
     6
 10
160.385661
 20
186.727331
 30
0.0
  0
VERTEX
  8
CSLAYER1
  6
CONTINUOUS
 62
     6
 10
160.167772
 20
186.722864
 30
0.0
  0
VERTEX
  8
CSLAYER1
  6
CONTINUOUS
 62
     6
 10
159.951541
 20
186.709500
 30
0.0
  0
VERTEX
  8
CSLAYER1
  6
CONTINUOUS
 62
     6
 10
159.738614
 20
186.687338
 30
0.0
  0
VERTEX
  8
CSLAYER1
  6
CONTINUOUS
 62
     6
 10
159.530611
 20
186.656549
 30
0.0
  0
VERTEX
  8
CSLAYER1
  6
CONTINUOUS
 62
     6
 10
159.329116
 20
186.617366
 30
0.0
  0
VERTEX
  8
CSLAYER1
  6
CONTINUOUS
 62
     6
 10
159.135661
 20
186.570087
 30
0.0
  0
VERTEX
  8
CSLAYER1
  6
CONTINUOUS
 62
     6
 10
158.951720
 20
186.515073
 30
0.0
  0
VERTEX
  8
CSLAYER1
  6
CONTINUOUS
 62
     6
 10
158.778692
 20
186.452742
 30
0.0
  0
VERTEX
  8
CSLAYER1
  6
CONTINUOUS
 62
     6
 10
158.617894
 20
186.383568
 30
0.0
  0
VERTEX
  8
CSLAYER1
  6
CONTINUOUS
 62
     6
 10
158.470550
 20
186.308077
 30
0.0
  0
VERTEX
  8
CSLAYER1
  6
CONTINUOUS
 62
     6
 10
158.337781
 20
186.226846
 30
0.0
  0
VERTEX
  8
CSLAYER1
  6
CONTINUOUS
 62
     6
 10
158.220598
 20
186.140491
 30
0.0
  0
VERTEX
  8
CSLAYER1
  6
CONTINUOUS
 62
     6
 10
158.119892
 20
186.049669
 30
0.0
  0
VERTEX
  8
CSLAYER1
  6
CONTINUOUS
 62
     6
 10
158.036430
 20
185.955073
 30
0.0
  0
VERTEX
  8
CSLAYER1
  6
CONTINUOUS
 62
     6
 10
157.970847
 20
185.857421
 30
0.0
  0
VERTEX
  8
CSLAYER1
  6
CONTINUOUS
 62
     6
 10
157.923642
 20
185.757458
 30
0.0
  0
VERTEX
  8
CSLAYER1
  6
CONTINUOUS
 62
     6
 10
157.895174
 20
185.655943
 30
0.0
  0
VERTEX
  8
CSLAYER1
  6
CONTINUOUS
 62
     6
 10
157.885661
 20
185.553651
 30
0.0
  0
SEQEND
  0
POLYLINE
  8
CSLAYER1
  6
CONTINUOUS
 62
     6
 66
     1
 10
0.0
 20
0.0
 30
0.0
  0
VERTEX
  8
CSLAYER1
  6
CONTINUOUS
 62
     6
 10
165.635661
 20
186.878071
 30
0.0
  0
VERTEX
  8
CSLAYER1
  6
CONTINUOUS
 62
     6
 10
165.615683
 20
187.092886
 30
0.0
  0
VERTEX
  8
CSLAYER1
  6
CONTINUOUS
 62
     6
 10
165.555902
 20
187.306066
 30
0.0
  0
VERTEX
  8
CSLAYER1
  6
CONTINUOUS
 62
     6
 10
165.456772
 20
187.515990
 30
0.0
  0
VERTEX
  8
CSLAYER1
  6
CONTINUOUS
 62
     6
 10
165.319047
 20
187.721058
 30
0.0
  0
VERTEX
  8
CSLAYER1
  6
CONTINUOUS
 62
     6
 10
165.143777
 20
187.919710
 30
0.0
  0
VERTEX
  8
CSLAYER1
  6
CONTINUOUS
 62
     6
 10
164.932295
 20
188.110436
 30
0.0
  0
VERTEX
  8
CSLAYER1
  6
CONTINUOUS
 62
     6
 10
164.686209
 20
188.291782
 30
0.0
  0
VERTEX
  8
CSLAYER1
  6
CONTINUOUS
 62
     6
 10
164.407395
 20
188.462368
 30
0.0
  0
VERTEX
  8
CSLAYER1
  6
CONTINUOUS
 62
     6
 10
164.097972
 20
188.620898
 30
0.0
  0
VERTEX
  8
CSLAYER1
  6
CONTINUOUS
 62
     6
 10
163.760296
 20
188.766163
 30
0.0
  0
VERTEX
  8
CSLAYER1
  6
CONTINUOUS
 62
     6
 10
163.396937
 20
188.897059
 30
0.0
  0
VERTEX
  8
CSLAYER1
  6
CONTINUOUS
 62
     6
 10
163.010661
 20
189.012589
 30
0.0
  0
VERTEX
  8
CSLAYER1
  6
CONTINUOUS
 62
     6
 10
162.604407
 20
189.111875
 30
0.0
  0
VERTEX
  8
CSLAYER1
  6
CONTINUOUS
 62
     6
 10
162.181267
 20
189.194159
 30
0.0
  0
VERTEX
  8
CSLAYER1
  6
CONTINUOUS
 62
     6
 10
161.744461
 20
189.258817
 30
0.0
  0
VERTEX
  8
CSLAYER1
  6
CONTINUOUS
 62
     6
 10
161.297314
 20
189.305356
 30
0.0
  0
VERTEX
  8
CSLAYER1
  6
CONTINUOUS
 62
     6
 10
160.843229
 20
189.333421
 30
0.0
  0
VERTEX
  8
CSLAYER1
  6
CONTINUOUS
 62
     6
 10
160.385661
 20
189.342801
 30
0.0
  0
VERTEX
  8
CSLAYER1
  6
CONTINUOUS
 62
     6
 10
159.928094
 20
189.333421
 30
0.0
  0
VERTEX
  8
CSLAYER1
  6
CONTINUOUS
 62
     6
 10
159.474008
 20
189.305356
 30
0.0
  0
VERTEX
  8
CSLAYER1
  6
CONTINUOUS
 62
     6
 10
159.026861
 20
189.258817
 30
0.0
  0
VERTEX
  8
CSLAYER1
  6
CONTINUOUS
 62
     6
 10
158.590055
 20
189.194159
 30
0.0
  0
VERTEX
  8
CSLAYER1
  6
CONTINUOUS
 62
     6
 10
158.166915
 20
189.111875
 30
0.0
  0
VERTEX
  8
CSLAYER1
  6
CONTINUOUS
 62
     6
 10
157.760661
 20
189.012589
 30
0.0
  0
VERTEX
  8
CSLAYER1
  6
CONTINUOUS
 62
     6
 10
157.374385
 20
188.897059
 30
0.0
  0
VERTEX
  8
CSLAYER1
  6
CONTINUOUS
 62
     6
 10
157.011026
 20
188.766163
 30
0.0
  0
VERTEX
  8
CSLAYER1
  6
CONTINUOUS
 62
     6
 10
156.673351
 20
188.620898
 30
0.0
  0
VERTEX
  8
CSLAYER1
  6
CONTINUOUS
 62
     6
 10
156.363928
 20
188.462368
 30
0.0
  0
VERTEX
  8
CSLAYER1
  6
CONTINUOUS
 62
     6
 10
156.085113
 20
188.291782
 30
0.0
  0
VERTEX
  8
CSLAYER1
  6
CONTINUOUS
 62
     6
 10
155.839028
 20
188.110436
 30
0.0
  0
VERTEX
  8
CSLAYER1
  6
CONTINUOUS
 62
     6
 10
155.627545
 20
187.919710
 30
0.0
  0
VERTEX
  8
CSLAYER1
  6
CONTINUOUS
 62
     6
 10
155.452275
 20
187.721058
 30
0.0
  0
VERTEX
  8
CSLAYER1
  6
CONTINUOUS
 62
     6
 10
155.314551
 20
187.515990
 30
0.0
  0
VERTEX
  8
CSLAYER1
  6
CONTINUOUS
 62
     6
 10
155.215420
 20
187.306066
 30
0.0
  0
VERTEX
  8
CSLAYER1
  6
CONTINUOUS
 62
     6
 10
155.155639
 20
187.092886
 30
0.0
  0
VERTEX
  8
CSLAYER1
  6
CONTINUOUS
 62
     6
 10
155.135661
 20
186.878071
 30
0.0
  0
SEQEND
  0
ENDSEC
  0
EOF
