  0
SECTION
  2
HEADER
  9
$ACADVER
  1
AC1006
  9
$INSBASE
 10
0.000000
 20
0.000000
 30
0.0
  9
$EXTMIN
 10
0.000000
 20
0.000000
  9
$EXTMAX
 10
841.000000
 20
594.000000
  9
$LIMMIN
 10
0.000000
 20
0.000000
  9
$LIMMAX
 10
841.000000
 20
594.000000
  9
$VIEWCTR
 10
420.500000
 20
297.000000
  9
$VIEWSIZE
 40
594.000000
  9
$SNAPMODE
 70
     0
  9
$SNAPUNIT
 10
1.0
 20
1.0
  9
$SNAPBASE
 10
0.0
 20
0.0
  9
$SNAPANG
 50
0.0
  9
$SNAPSTYLE
 70
     0
  9
$SNAPISOPAIR
 70
     0
  9
$GRIDMODE
 70
     0
  9
$GRIDUNIT
 10
0.0
 20
0.0
  9
$ORTHOMODE
 70
     0
  9
$REGENMODE
 70
     1
  9
$FILLMODE
 70
     1
  9
$QTEXTMODE
 70
     0
  9
$DRAGMODE
 70
     2
  9
$LTSCALE
 40
15.000000
  9
$OSMODE
 70
     0
  9
$ATTMODE
 70
     1
  9
$TEXTSIZE
 40
0.2
  9
$TRACEWID
 40
0.05
  9
$TEXTSTYLE
  7
STANDARD
  9
$CLAYER
  8
CSLAYER1
  9
$CELTYPE
  6
BYLAYER
  9
$CECOLOR
 62
   256
  9
$DIMSCALE
 40
1.0
  9
$DIMASZ
 40
0.18
  9
$DIMEXO
 40
0.0625
  9
$DIMDLI
 40
0.38
  9
$DIMRND
 40
0.0
  9
$DIMDLE
 40
0.0
  9
$DIMEXE
 40
0.18
  9
$DIMTP
 40
0.0
  9
$DIMTM
 40
0.0
  9
$DIMTXT
 40
0.18
  9
$DIMCEN
 40
0.09
  9
$DIMTSZ
 40
0.0
  9
$DIMTOL
 70
     0
  9
$DIMLIM
 70
     0
  9
$DIMTIH
 70
     1
  9
$DIMTOH
 70
     1
  9
$DIMSE1
 70
     0
  9
$DIMSE2
 70
     0
  9
$DIMTAD
 70
     0
  9
$DIMZIN
 70
     0
  9
$DIMBLK
  1

  9
$LUNITS
 70
     2
  9
$LUPREC
 70
     4
  9
$AXISMODE
 70
     0
  9
$AXISUNIT
 10
0.0
 20
0.0
  9
$SKETCHINC
 40
0.1
  9
$FILLETRAD
 40
0.0
  9
$AUNITS
 70
     0
  9
$AUPREC
 70
     0
  9
$MENU
  1
ACAD
  9
$ELEVATION
 40
0.0
  9
$THICKNESS
 40
0.0
  9
$VIEWDIR
 10
0.0
 20
0.0
 30
1.0
  9
$LIMCHECK
 70
     0
  9
$BLIPMODE
 70
     1
  9
$CHAMFERA
 40
0.0
  9
$CHAMFERB
 40
0.0
  9
$FASTZOOM
 70
     1
  9
$SKPOLY
 70
     0
  9
$TDCREATE
 40
0.000000
  9
$TDUPDATE
 40
0.000000
  9
$TDINDWG
 40
0.0
  9
$TDUSRTIMER
 40
0.0
  9
$USRTIMER
 70
     1
  9
$ANGBASE
 50
0.0
  9
$ANGDIR
 70
     0
  9
$PDMODE
 70
     0
  9
$PDSIZE
 40
0.0
  9
$PLINEWID
 40
0.0
  9
$COORDS
 70
     0
  9
$USERI1
 70
     0
  9
$USERI2
 70
     0
  9
$USERI3
 70
     0
  9
$USERI4
 70
     0
  9
$USERI5
 70
     0
  9
$USERR1
 40
0.0
  9
$USERR2
 40
0.0
  9
$USERR3
 40
0.0
  9
$USERR4
 40
0.0
  9
$USERR5
 40
0.0
  0
ENDSEC
  0
SECTION
  2
TABLES
  0
TABLE
  2
LTYPE
 70
     9
  0
LTYPE
  2
CONTINUOUS
 70
    64
  3
Solid line
 72
    65
 73
     0
 40
0.0
  0
LTYPE
  2
DASHED
 70
    64
  3
__ __ __ __ __ __ __ __ __ __ __ __ __ __ __
 72
    65
 73
     2
 40
0.75
 49
0.5
 49
-0.25
  0
LTYPE
  2
HIDDEN
 70
    64
  3
_ _ _ _ _ _ _ _ _ _ _ _ _ _ _ _ _ _ _ _ _ _ _
 72
    65
 73
     2
 40
0.375
 49
0.25
 49
-0.125
  0
LTYPE
  2
DOT
 70
    64
  3
...............................................
 72
    65
 73
     2
 40
0.25
 49
0.0
 49
-0.25
  0
LTYPE
  2
DASHDOT
 70
    64
  3
__ . __ . __ . __ . __ . __ . __ . __ . __ . __
 72
    65
 73
     4
 40
1.0
 49
0.5
 49
-0.25
 49
0.0
 49
-0.25
  0
LTYPE
  2
DIVIDE
 70
    64
  3
__ . . __ . . __ . . __ . . __ . . __ . . __
 72
    65
 73
     6
 40
1.25
 49
0.5
 49
-0.25
 49
0.0
 49
-0.25
 49
0.0
 49
-0.25
  0
LTYPE
  2
CENTER
 70
    64
  3
____ _ ____ _ ____ _ ____ _ ____ _ ____ _ ____ 
 72
    65
 73
     4
 40
2.0
 49
1.25
 49
-0.25
 49
0.25
 49
-0.25
  0
LTYPE
  2
PHANTOM
 70
    64
  3
______  __  __  ______  __  __  ______  __  __ 
 72
    65
 73
     6
 40
2.5
 49
1.25
 49
-0.25
 49
0.25
 49
-0.25
 49
0.25
 49
-0.25
  0
LTYPE
  2
BORDER
 70
    64
  3
__ __ . __ __ . __ __ . __ __ . __ __ . __ __ .
 72
    65
 73
     6
 40
1.75
 49
0.5
 49
-0.25
 49
0.5
 49
-0.25
 49
0.0
 49
-0.25
  0
ENDTAB
  0
TABLE
  2
LAYER
 70
    16
  0
LAYER
  2
CSLAYER1
 70
    64
 62
     7
  6
CONTINUOUS
  0
LAYER
  2
CSLAYER2
 70
    64
 62
     7
  6
CONTINUOUS
  0
LAYER
  2
CSLAYER3
 70
    64
 62
     7
  6
CONTINUOUS
  0
LAYER
  2
CSLAYER4
 70
    64
 62
     7
  6
CONTINUOUS
  0
LAYER
  2
CSLAYER5
 70
    64
 62
     7
  6
CONTINUOUS
  0
LAYER
  2
CSLAYER6
 70
    64
 62
     7
  6
CONTINUOUS
  0
LAYER
  2
CSLAYER7
 70
    64
 62
     7
  6
CONTINUOUS
  0
LAYER
  2
CSLAYER8
 70
    64
 62
     7
  6
CONTINUOUS
  0
LAYER
  2
CSLAYER9
 70
    64
 62
     7
  6
CONTINUOUS
  0
LAYER
  2
CSLAYER10
 70
    64
 62
     7
  6
CONTINUOUS
  0
LAYER
  2
CSLAYER11
 70
    64
 62
     7
  6
CONTINUOUS
  0
LAYER
  2
CSLAYER12
 70
    64
 62
     7
  6
CONTINUOUS
  0
LAYER
  2
CSLAYER13
 70
    64
 62
     7
  6
CONTINUOUS
  0
LAYER
  2
CSLAYER14
 70
    64
 62
     7
  6
CONTINUOUS
  0
LAYER
  2
CSLAYER15
 70
    64
 62
     7
  6
CONTINUOUS
  0
LAYER
  2
CSLAYER16
 70
    64
 62
     7
  6
CONTINUOUS
  0
ENDTAB
  0
TABLE
  2
STYLE
 70
     1
  0
STYLE
  2
JX_FONT
 70
     0
 40
1.0
 41
1.0
 50
0.0
 71
     0
 42
1.0
  3
monotxt
  4
bigfont
  0
ENDTAB
  0
TABLE
  2
VIEW
 70
     0
  0
ENDTAB
  0
ENDSEC
  0
SECTION
  2
BLOCKS
  0
ENDSEC
  0
SECTION
  2
ENTITIES
  0
LINE
  8
CSLAYER1
  6
CENTER
 62
     3
 10
77.109381
 20
132.682595
 11
77.109381
 21
150.738793
  0
LINE
  8
CSLAYER1
  6
CENTER
 62
     3
 10
76.473542
 20
149.606760
 11
95.821766
 21
168.954984
  0
ARC
  8
CSLAYER1
  6
CENTER
 62
     3
 10
132.109595
 20
205.242813
 40
65.000000
 50
212.917958
 51
237.082042
  0
LINE
  8
CSLAYER1
  6
CENTER
 62
     3
 10
46.109426
 20
205.243012
 11
218.109365
 21
205.243012
  0
LINE
  8
CSLAYER1
  6
CENTER
 62
     3
 10
240.774003
 20
205.243012
 11
559.773973
 21
205.243012
  0
LINE
  8
CSLAYER1
  6
CENTER
 62
     3
 10
548.047055
 20
221.743012
 11
592.773973
 21
221.743012
  0
LINE
  8
CSLAYER1
  6
CENTER
 62
     3
 10
625.223985
 20
205.243012
 11
797.223985
 21
205.243012
  0
LINE
  8
CSLAYER1
  6
CENTER
 62
     3
 10
738.723985
 20
221.743012
 11
683.723985
 21
221.743012
  0
LINE
  8
CSLAYER1
  6
CENTER
 62
     3
 10
669.113185
 20
247.354232
 11
650.412956
 21
266.054349
  0
LINE
  8
CSLAYER1
  6
CENTER
 62
     3
 10
711.223985
 20
291.243012
 11
711.223985
 21
131.243012
  0
LINE
  8
CSLAYER1
  6
CENTER
 62
     3
 10
656.223985
 20
132.682732
 11
656.223985
 21
150.738930
  0
LINE
  8
CSLAYER1
  6
CENTER
 62
     3
 10
766.224000
 20
150.738793
 11
766.224000
 21
132.682595
  0
LINE
  8
CSLAYER1
  6
CENTER
 62
     3
 10
751.107393
 20
245.127061
 11
772.034984
 21
266.054379
  0
LINE
  8
CSLAYER1
  6
CENTER
 62
     3
 10
592.773973
 20
434.742831
 11
240.774003
 21
434.742831
  0
LINE
  8
CSLAYER1
  6
CENTER
 62
     3
 10
278.773973
 20
403.349627
 11
278.773973
 21
380.742815
  0
ARC
  8
CSLAYER1
  6
CONTINUOUS
 62
     3
 10
342.762620
 20
411.242831
 40
2.000000
 50
180.000000
 51
270.000000
  0
LINE
  8
CSLAYER1
  6
CONTINUOUS
 62
     3
 10
342.762620
 20
409.242831
 11
370.762620
 21
409.242831
  0
ARC
  8
CSLAYER1
  6
CONTINUOUS
 62
     3
 10
370.762620
 20
411.242831
 40
2.000000
 50
270.000000
 51
360.000000
  0
LINE
  8
CSLAYER1
  6
CONTINUOUS
 62
     3
 10
372.762620
 20
411.242831
 11
372.762620
 21
458.242831
  0
ARC
  8
CSLAYER1
  6
CONTINUOUS
 62
     3
 10
370.762620
 20
458.242831
 40
2.000000
 50
0.000000
 51
90.000000
  0
LINE
  8
CSLAYER1
  6
CONTINUOUS
 62
     3
 10
370.762620
 20
460.242831
 11
342.762620
 21
460.242831
  0
ARC
  8
CSLAYER1
  6
CONTINUOUS
 62
     3
 10
342.762620
 20
458.242831
 40
2.000000
 50
90.000000
 51
180.000000
  0
LINE
  8
CSLAYER1
  6
CONTINUOUS
 62
     3
 10
340.762620
 20
458.242831
 11
340.762620
 21
411.242831
  0
LINE
  8
CSLAYER1
  6
CENTER
 62
     3
 10
401.474023
 20
388.780795
 11
444.774023
 21
388.780795
  0
LINE
  8
CSLAYER1
  6
CENTER
 62
     3
 10
494.273973
 20
379.742816
 11
509.273973
 21
379.742816
  0
LINE
  8
CSLAYER1
  6
CENTER
 62
     3
 10
501.773973
 20
387.242816
 11
501.773973
 21
372.242816
  0
LINE
  8
CSLAYER1
  6
CENTER
 62
     3
 10
534.273973
 20
379.742816
 11
549.273973
 21
379.742816
  0
LINE
  8
CSLAYER1
  6
CENTER
 62
     3
 10
541.773973
 20
387.242816
 11
541.773973
 21
372.242816
  0
LINE
  8
CSLAYER1
  6
CENTER
 62
     3
 10
541.773973
 20
482.242831
 11
541.773973
 21
497.242831
  0
LINE
  8
CSLAYER1
  6
CENTER
 62
     3
 10
534.273973
 20
489.742831
 11
549.273973
 21
489.742831
  0
LINE
  8
CSLAYER1
  6
CENTER
 62
     3
 10
509.273973
 20
489.742831
 11
494.273973
 21
489.742831
  0
LINE
  8
CSLAYER1
  6
CENTER
 62
     3
 10
501.773973
 20
497.242831
 11
501.773973
 21
482.242831
  0
LINE
  8
CSLAYER1
  6
CENTER
 62
     3
 10
444.773973
 20
480.704806
 11
401.697475
 21
480.704806
  0
LINE
  8
CSLAYER1
  6
CENTER
 62
     3
 10
278.773973
 20
488.742815
 11
278.773973
 21
466.136004
  0
LINE
  8
CSLAYER1
  6
CENTER
 62
     3
 10
187.745250
 20
260.879263
 11
168.397026
 21
241.531039
  0
ARC
  8
CSLAYER1
  6
CENTER
 62
     3
 10
132.109197
 20
205.243210
 40
65.000000
 50
32.917958
 51
57.082042
  0
ARC
  8
CSLAYER1
  6
CENTER
 62
     3
 10
132.109197
 20
205.242813
 40
65.000000
 50
302.917958
 51
327.082042
  0
LINE
  8
CSLAYER1
  6
CENTER
 62
     3
 10
168.397026
 20
168.954984
 11
187.745250
 21
149.606760
  0
LINE
  8
CSLAYER1
  6
CENTER
 62
     3
 10
187.109396
 20
150.738930
 11
187.109396
 21
132.682732
  0
LINE
  8
CSLAYER1
  6
CENTER
 62
     3
 10
132.109396
 20
131.243042
 11
132.109396
 21
291.242981
  0
ARC
  8
CSLAYER1
  6
CENTER
 62
     3
 10
132.109595
 20
205.243210
 40
65.000000
 50
122.917958
 51
147.082042
  0
LINE
  8
CSLAYER1
  6
CENTER
 62
     3
 10
95.821766
 20
241.531039
 11
76.473542
 21
260.879263
  0
LINE
  8
CSLAYER1
  6
CENTER
 62
     3
 10
278.773973
 20
237.243012
 11
278.773973
 21
173.243012
  0
LINE
  8
CSLAYER1
  6
CENTER
 62
     3
 10
273.773973
 20
168.243012
 11
273.773973
 21
157.543000
  0
LINE
  8
CSLAYER1
  6
CONTINUOUS
 62
     3
 10
348.773942
 20
241.648776
 11
376.773942
 21
241.648746
  0
ARC
  8
CSLAYER1
  6
CONTINUOUS
 62
     3
 10
376.773942
 20
243.648746
 40
2.000000
 50
270.000001
 51
359.942691
  0
LINE
  8
CSLAYER1
  6
CONTINUOUS
 62
     3
 10
378.773942
 20
243.648746
 11
378.773942
 21
250.243012
  0
LINE
  8
CSLAYER1
  6
CENTER
 62
     3
 10
401.697475
 20
251.204987
 11
444.773973
 21
251.204987
  0
LINE
  8
CSLAYER1
  6
CENTER
 62
     3
 10
444.773973
 20
159.280976
 11
401.619847
 21
159.280976
  0
ARC
  8
CSLAYER1
  6
CONTINUOUS
 62
     3
 10
348.773942
 20
243.648776
 40
2.000000
 50
180.000005
 51
270.000001
  0
LINE
  8
CSLAYER1
  6
CONTINUOUS
 62
     3
 10
346.773942
 20
243.648776
 11
346.773942
 21
250.243012
  0
LINE
  8
CSLAYER1
  6
CENTER
 62
     3
 10
501.773973
 20
152.743012
 11
501.773973
 21
130.743012
  0
LINE
  8
CSLAYER1
  6
CENTER
 62
     3
 10
541.773973
 20
130.743012
 11
541.773973
 21
152.743012
  0
TEXT
  8
CSLAYER1
 62
     3
 10
354.819366
 20
439.992828
 40
3.500000
 41
1.125000
  1
N P
 50
-90.000000
 51
10.000000
  7
JX_FONT
 72
     5
 11
354.819366
 21
429.492828
  0
LINE
  8
CSLAYER1
  6
CONTINUOUS
 62
     6
 10
65.109381
 20
136.743012
 11
67.414853
 21
158.183303
  0
LINE
  8
CSLAYER1
  6
CONTINUOUS
 62
     6
 10
79.647654
 20
155.528096
 11
86.147654
 21
151.775319
  0
LINE
  8
CSLAYER1
  6
CONTINUOUS
 62
     6
 10
86.147654
 20
151.775319
 11
92.647654
 21
155.528096
  0
LINE
  8
CSLAYER1
  6
CONTINUOUS
 62
     6
 10
92.647654
 20
155.528096
 11
92.647654
 21
163.033649
  0
LINE
  8
CSLAYER1
  6
CONTINUOUS
 62
     6
 10
92.647654
 20
163.033649
 11
86.147654
 21
166.786426
  0
LINE
  8
CSLAYER1
  6
CONTINUOUS
 62
     6
 10
86.147654
 20
166.786426
 11
79.647654
 21
163.033649
  0
LINE
  8
CSLAYER1
  6
CONTINUOUS
 62
     6
 10
79.647654
 20
163.033649
 11
79.647654
 21
155.528096
  0
CIRCLE
  8
CSLAYER1
  6
CONTINUOUS
 62
     6
 10
86.147654
 20
159.280872
 40
7.700000
  0
CIRCLE
  8
CSLAYER1
  6
CONTINUOUS
 62
     6
 10
86.147654
 20
159.280872
 40
6.305000
  0
LINE
  8
CSLAYER1
  6
CONTINUOUS
 62
     6
 10
88.109396
 20
179.243012
 11
96.957244
 21
178.779334
  0
ARC
  8
CSLAYER1
  6
CONTINUOUS
 62
     6
 10
132.109396
 20
205.243012
 40
45.000000
 50
215.914393
 51
324.085608
  0
LINE
  8
CSLAYER1
  6
CONTINUOUS
 62
     6
 10
167.261548
 20
178.779335
 11
176.109396
 21
179.243012
  0
ARC
  8
CSLAYER1
  6
CONTINUOUS
 62
     6
 10
176.109396
 20
180.243012
 40
1.000000
 50
270.000019
 51
360.000000
  0
LINE
  8
CSLAYER1
  6
CONTINUOUS
 62
     6
 10
177.109396
 20
180.243012
 11
177.109396
 21
181.243012
  0
ARC
  8
CSLAYER1
  6
CONTINUOUS
 62
     6
 10
176.124441
 20
181.243012
 40
1.000000
 50
0.000018
 51
89.999999
  0
LINE
  8
CSLAYER1
  6
CONTINUOUS
 62
     6
 10
176.124441
 20
182.243012
 11
172.550121
 21
182.430371
  0
ARC
  8
CSLAYER1
  6
CONTINUOUS
 62
     6
 10
172.639113
 20
184.128115
 40
1.700075
 50
92.999690
 51
266.999412
  0
LINE
  8
CSLAYER1
  6
CONTINUOUS
 62
     6
 10
172.550147
 20
185.825861
 11
180.129812
 21
186.223053
  0
ARC
  8
CSLAYER1
  6
CONTINUOUS
 62
     6
 10
180.109396
 20
187.222809
 40
1.000000
 50
271.169236
 51
359.999982
  0
LINE
  8
CSLAYER1
  6
CONTINUOUS
 62
     6
 10
181.109396
 20
187.222809
 11
181.109396
 21
223.263215
  0
ARC
  8
CSLAYER1
  6
CONTINUOUS
 62
     6
 10
180.109396
 20
223.263215
 40
1.000000
 50
0.000000
 51
88.830746
  0
LINE
  8
CSLAYER1
  6
CONTINUOUS
 62
     6
 10
180.129812
 20
224.262971
 11
172.550147
 21
224.660163
  0
ARC
  8
CSLAYER1
  6
CONTINUOUS
 62
     6
 10
172.639113
 20
226.357909
 40
1.700075
 50
93.000588
 51
267.000310
  0
LINE
  8
CSLAYER1
  6
CONTINUOUS
 62
     6
 10
172.550121
 20
228.055653
 11
176.124441
 21
228.243012
  0
ARC
  8
CSLAYER1
  6
CONTINUOUS
 62
     6
 10
176.124441
 20
229.243012
 40
1.000000
 50
270.000001
 51
359.999982
  0
LINE
  8
CSLAYER1
  6
CONTINUOUS
 62
     6
 10
177.109396
 20
229.243012
 11
177.109396
 21
230.243012
  0
ARC
  8
CSLAYER1
  6
CONTINUOUS
 62
     6
 10
176.109396
 20
230.243012
 40
1.000000
 50
0.000000
 51
89.999981
  0
LINE
  8
CSLAYER1
  6
CONTINUOUS
 62
     6
 10
176.109396
 20
231.243012
 11
167.261548
 21
231.706689
  0
ARC
  8
CSLAYER1
  6
CONTINUOUS
 62
     6
 10
132.109396
 20
205.243012
 40
45.000000
 50
35.914392
 51
144.085607
  0
LINE
  8
CSLAYER1
  6
CONTINUOUS
 62
     6
 10
96.957244
 20
231.706690
 11
88.109396
 21
231.243012
  0
ARC
  8
CSLAYER1
  6
CONTINUOUS
 62
     6
 10
88.109396
 20
230.243012
 40
1.000000
 50
90.000039
 51
180.000020
  0
LINE
  8
CSLAYER1
  6
CONTINUOUS
 62
     6
 10
87.109396
 20
230.243012
 11
87.109396
 21
229.243012
  0
ARC
  8
CSLAYER1
  6
CONTINUOUS
 62
     6
 10
88.094351
 20
229.243012
 40
1.000000
 50
180.000020
 51
270.000001
  0
LINE
  8
CSLAYER1
  6
CONTINUOUS
 62
     6
 10
88.094351
 20
228.243012
 11
91.668671
 21
228.055653
  0
ARC
  8
CSLAYER1
  6
CONTINUOUS
 62
     6
 10
91.579679
 20
226.357909
 40
1.700075
 50
-87.000310
 51
86.999412
  0
LINE
  8
CSLAYER1
  6
CONTINUOUS
 62
     6
 10
91.668644
 20
224.660163
 11
84.088980
 21
224.262971
  0
ARC
  8
CSLAYER1
  6
CONTINUOUS
 62
     6
 10
84.109396
 20
223.263215
 40
1.000000
 50
91.169216
 51
180.000020
  0
LINE
  8
CSLAYER1
  6
CONTINUOUS
 62
     6
 10
83.109396
 20
223.263215
 11
83.109396
 21
187.222809
  0
ARC
  8
CSLAYER1
  6
CONTINUOUS
 62
     6
 10
84.109396
 20
187.222809
 40
1.000000
 50
180.000020
 51
268.830766
  0
LINE
  8
CSLAYER1
  6
CONTINUOUS
 62
     6
 10
84.088980
 20
186.223053
 11
91.668644
 21
185.825861
  0
ARC
  8
CSLAYER1
  6
CONTINUOUS
 62
     6
 10
91.579679
 20
184.128115
 40
1.700075
 50
-86.999412
 51
87.000310
  0
LINE
  8
CSLAYER1
  6
CONTINUOUS
 62
     6
 10
91.668671
 20
182.430371
 11
88.094351
 21
182.243012
  0
ARC
  8
CSLAYER1
  6
CONTINUOUS
 62
     6
 10
88.094351
 20
181.243012
 40
1.000000
 50
90.000039
 51
180.000020
  0
LINE
  8
CSLAYER1
  6
CONTINUOUS
 62
     6
 10
87.109396
 20
181.243012
 11
87.109396
 21
180.243012
  0
ARC
  8
CSLAYER1
  6
CONTINUOUS
 62
     6
 10
88.109396
 20
180.243012
 40
1.000000
 50
180.000020
 51
270.000001
  0
ARC
  8
CSLAYER1
  6
CONTINUOUS
 62
     6
 10
132.109396
 20
205.243012
 40
45.000000
 50
205.543092
 51
209.475790
  0
ARC
  8
CSLAYER1
  6
CONTINUOUS
 62
     6
 10
132.109396
 20
205.243012
 40
37.000000
 50
210.132722
 51
228.917667
  0
ARC
  8
CSLAYER1
  6
CONTINUOUS
 62
     6
 10
109.109396
 20
178.861200
 40
2.000000
 50
228.917667
 51
360.000000
  0
LINE
  8
CSLAYER1
  6
CONTINUOUS
 62
     6
 10
111.109396
 20
178.861200
 11
111.109396
 21
192.243012
  0
ARC
  8
CSLAYER1
  6
CONTINUOUS
 62
     6
 10
108.109396
 20
192.243012
 40
3.000000
 50
0.000000
 51
90.000000
  0
LINE
  8
CSLAYER1
  6
CONTINUOUS
 62
     6
 10
108.109396
 20
195.243012
 11
102.109396
 21
195.243012
  0
ARC
  8
CSLAYER1
  6
CONTINUOUS
 62
     6
 10
102.109396
 20
193.243012
 40
2.000000
 50
90.000000
 51
180.000000
  0
LINE
  8
CSLAYER1
  6
CONTINUOUS
 62
     6
 10
100.109396
 20
193.243012
 11
100.109396
 21
186.668836
  0
LINE
  8
CSLAYER1
  6
CONTINUOUS
 62
     6
 10
118.109396
 20
185.621595
 11
118.109396
 21
175.243012
  0
ARC
  8
CSLAYER1
  6
CONTINUOUS
 62
     6
 10
120.109396
 20
175.243012
 40
2.000000
 50
180.000000
 51
270.000000
  0
LINE
  8
CSLAYER1
  6
CONTINUOUS
 62
     6
 10
120.109396
 20
173.243012
 11
125.109396
 21
173.243012
  0
ARC
  8
CSLAYER1
  6
CONTINUOUS
 62
     6
 10
125.109396
 20
175.243012
 40
2.000000
 50
270.000000
 51
360.000000
  0
LINE
  8
CSLAYER1
  6
CONTINUOUS
 62
     6
 10
127.109396
 20
175.243012
 11
127.109396
 21
183.334109
  0
ARC
  8
CSLAYER1
  6
CONTINUOUS
 62
     6
 10
125.109396
 20
183.334109
 40
2.000000
 50
0.000000
 51
72.281068
  0
ARC
  8
CSLAYER1
  6
CONTINUOUS
 62
     6
 10
132.109396
 20
205.243012
 40
21.000000
 50
238.551019
 51
252.281068
  0
ARC
  8
CSLAYER1
  6
CONTINUOUS
 62
     6
 10
120.109396
 20
185.621595
 40
2.000000
 50
58.551019
 51
180.000000
  0
LINE
  8
CSLAYER1
  6
CONTINUOUS
 62
     6
 10
127.715368
 20
190.901047
 11
128.297713
 21
192.801817
  0
ARC
  8
CSLAYER1
  6
CONTINUOUS
 62
     6
 10
125.617267
 20
193.966276
 40
2.922462
 50
-23.481547
 51
129.764151
  0
ARC
  8
CSLAYER1
  6
CONTINUOUS
 62
     6
 10
122.875765
 20
197.260939
 40
1.363635
 50
217.903413
 51
309.763730
  0
ARC
  8
CSLAYER1
  6
CONTINUOUS
 62
     6
 10
132.109396
 20
204.449890
 40
13.065822
 50
-37.903067
 51
217.903051
  0
ARC
  8
CSLAYER1
  6
CONTINUOUS
 62
     6
 10
141.343015
 20
197.260939
 40
1.363635
 50
230.236329
 51
322.096590
  0
ARC
  8
CSLAYER1
  6
CONTINUOUS
 62
     6
 10
138.601516
 20
193.966276
 40
2.922462
 50
50.235851
 51
203.481549
  0
LINE
  8
CSLAYER1
  6
CONTINUOUS
 62
     6
 10
135.921067
 20
192.801817
 11
136.503412
 21
190.901047
  0
CIRCLE
  8
CSLAYER1
  6
CONTINUOUS
 62
     6
 10
138.601516
 20
193.966276
 40
1.363635
  0
ARC
  8
CSLAYER1
  6
CONTINUOUS
 62
     6
 10
132.109396
 20
205.243012
 40
21.000000
 50
287.718932
 51
301.448981
  0
ARC
  8
CSLAYER1
  6
CONTINUOUS
 62
     6
 10
139.109396
 20
183.334109
 40
2.000000
 50
107.718932
 51
180.000000
  0
LINE
  8
CSLAYER1
  6
CONTINUOUS
 62
     6
 10
137.109396
 20
183.334109
 11
137.109396
 21
175.243012
  0
ARC
  8
CSLAYER1
  6
CONTINUOUS
 62
     6
 10
139.109396
 20
175.243012
 40
2.000000
 50
180.000000
 51
270.000000
  0
LINE
  8
CSLAYER1
  6
CONTINUOUS
 62
     6
 10
139.109396
 20
173.243012
 11
144.109396
 21
173.243012
  0
ARC
  8
CSLAYER1
  6
CONTINUOUS
 62
     6
 10
144.109396
 20
175.243012
 40
2.000000
 50
270.000000
 51
360.000000
  0
LINE
  8
CSLAYER1
  6
CONTINUOUS
 62
     6
 10
146.109396
 20
175.243012
 11
146.109396
 21
185.621595
  0
ARC
  8
CSLAYER1
  6
CONTINUOUS
 62
     6
 10
144.109396
 20
185.621595
 40
2.000000
 50
0.000000
 51
121.448981
  0
LINE
  8
CSLAYER1
  6
CONTINUOUS
 62
     6
 10
153.109396
 20
192.243012
 11
153.109396
 21
178.861200
  0
ARC
  8
CSLAYER1
  6
CONTINUOUS
 62
     6
 10
155.109396
 20
178.861200
 40
2.000000
 50
180.000000
 51
311.082333
  0
ARC
  8
CSLAYER1
  6
CONTINUOUS
 62
     6
 10
132.109396
 20
205.243012
 40
37.000000
 50
311.082333
 51
329.867278
  0
LINE
  8
CSLAYER1
  6
CONTINUOUS
 62
     6
 10
164.109396
 20
186.668836
 11
164.109396
 21
193.243012
  0
ARC
  8
CSLAYER1
  6
CONTINUOUS
 62
     6
 10
162.109396
 20
193.243012
 40
2.000000
 50
0.000000
 51
90.000000
  0
LINE
  8
CSLAYER1
  6
CONTINUOUS
 62
     6
 10
162.109396
 20
195.243012
 11
156.109396
 21
195.243012
  0
ARC
  8
CSLAYER1
  6
CONTINUOUS
 62
     6
 10
156.109396
 20
192.243012
 40
3.000000
 50
90.000000
 51
180.000000
  0
ARC
  8
CSLAYER1
  6
CONTINUOUS
 62
     6
 10
132.109396
 20
205.243012
 40
45.000000
 50
330.524210
 51
334.456908
  0
LINE
  8
CSLAYER1
  6
CONTINUOUS
 62
     6
 10
178.071138
 20
166.786426
 11
171.571138
 21
163.033649
  0
LINE
  8
CSLAYER1
  6
CONTINUOUS
 62
     6
 10
171.571138
 20
163.033649
 11
171.571138
 21
155.528096
  0
LINE
  8
CSLAYER1
  6
CONTINUOUS
 62
     6
 10
171.571138
 20
155.528096
 11
178.071138
 21
151.775319
  0
LINE
  8
CSLAYER1
  6
CONTINUOUS
 62
     6
 10
178.071138
 20
151.775319
 11
184.571138
 21
155.528096
  0
LINE
  8
CSLAYER1
  6
CONTINUOUS
 62
     6
 10
184.571138
 20
155.528096
 11
184.571138
 21
163.033649
  0
LINE
  8
CSLAYER1
  6
CONTINUOUS
 62
     6
 10
184.571138
 20
163.033649
 11
178.071138
 21
166.786426
  0
CIRCLE
  8
CSLAYER1
  6
CONTINUOUS
 62
     6
 10
178.071138
 20
159.280872
 40
7.700000
  0
CIRCLE
  8
CSLAYER1
  6
CONTINUOUS
 62
     6
 10
178.071138
 20
159.280872
 40
6.305000
  0
LINE
  8
CSLAYER1
  6
CONTINUOUS
 62
     6
 10
196.803896
 20
158.183244
 11
199.109396
 21
136.743149
  0
LINE
  8
CSLAYER1
  6
CONTINUOUS
 62
     6
 10
199.109411
 20
136.743012
 11
162.051794
 21
136.743012
  0
LINE
  8
CSLAYER1
  6
CONTINUOUS
 62
     6
 10
162.051794
 20
136.743012
 11
162.109398
 21
137.243012
  0
ARC
  8
CSLAYER1
  6
CONTINUOUS
 62
     6
 10
132.109396
 20
205.243012
 40
80.000000
 50
-58.211669
 51
238.211669
  0
LINE
  8
CSLAYER1
  6
CONTINUOUS
 62
     6
 10
89.966781
 20
137.243012
 11
174.252011
 21
137.243012
  0
LINE
  8
CSLAYER1
  6
DASHED
 62
     6
 10
182.609411
 20
136.742913
 11
182.609411
 21
143.196670
  0
LINE
  8
CSLAYER1
  6
CONTINUOUS
 62
     6
 10
186.678164
 20
146.743016
 11
195.474585
 21
146.743016
  0
ARC
  8
CSLAYER1
  6
CONTINUOUS
 62
     6
 10
195.339392
 20
143.743016
 40
3.000000
 50
6.137664
 51
90.000000
  0
LINE
  8
CSLAYER1
  6
DASHED
 62
     6
 10
191.609411
 20
146.743016
 11
191.609411
 21
136.742913
  0
LINE
  8
CSLAYER1
  6
CONTINUOUS
 62
     6
 10
137.623318
 20
138.369598
 11
135.809122
 21
141.361806
  0
ARC
  8
CSLAYER1
  6
CONTINUOUS
 62
     6
 10
150.017295
 20
148.746718
 40
15.407880
 50
179.999963
 51
207.463892
  0
LINE
  8
CSLAYER1
  6
CONTINUOUS
 62
     6
 10
134.609423
 20
148.746775
 11
134.609423
 21
150.193589
  0
ARC
  8
CSLAYER1
  6
CONTINUOUS
 62
     6
 10
133.984416
 20
149.111054
 40
1.250008
 50
60.000345
 51
120.000345
  0
ARC
  8
CSLAYER1
  6
CONTINUOUS
 62
     6
 10
132.734408
 20
149.111047
 40
1.250008
 50
60.000345
 51
120.000345
  0
LINE
  8
CSLAYER1
  6
CONTINUOUS
 62
     6
 10
132.109397
 20
150.193582
 11
132.109367
 21
148.728805
  0
ARC
  8
CSLAYER1
  6
CONTINUOUS
 62
     6
 10
114.201497
 20
148.746718
 40
17.907879
 50
332.536225
 51
359.942687
  0
LINE
  8
CSLAYER1
  6
CONTINUOUS
 62
     6
 10
130.091203
 20
140.487836
 11
127.872926
 21
141.640829
  0
ARC
  8
CSLAYER1
  6
CONTINUOUS
 62
     6
 10
114.201497
 20
148.746718
 40
15.407880
 50
332.536225
 51
359.942687
  0
LINE
  8
CSLAYER1
  6
CONTINUOUS
 62
     6
 10
129.609370
 20
148.746775
 11
129.609370
 21
150.193589
  0
ARC
  8
CSLAYER1
  6
CONTINUOUS
 62
     6
 10
130.234372
 20
149.111047
 40
1.250008
 50
60.000345
 51
120.000345
  0
ARC
  8
CSLAYER1
  6
CONTINUOUS
 62
     6
 10
130.234359
 20
151.276124
 40
1.250008
 50
240.000345
 51
300.000345
  0
ARC
  8
CSLAYER1
  6
CONTINUOUS
 62
     6
 10
131.484380
 20
149.111054
 40
1.250008
 50
60.000345
 51
120.000345
  0
ARC
  8
CSLAYER1
  6
CONTINUOUS
 62
     6
 10
132.734395
 20
151.276124
 40
1.250008
 50
240.000345
 51
300.000345
  0
ARC
  8
CSLAYER1
  6
CONTINUOUS
 62
     6
 10
132.734435
 20
153.138625
 40
1.250017
 50
239.999981
 51
299.999981
  0
LINE
  8
CSLAYER1
  6
CONTINUOUS
 62
     6
 10
132.109423
 20
152.056078
 11
132.109396
 21
160.243012
  0
LINE
  8
CSLAYER1
  6
CONTINUOUS
 62
     6
 10
134.609413
 20
160.298651
 11
134.609423
 21
152.056078
  0
ARC
  8
CSLAYER1
  6
CONTINUOUS
 62
     6
 10
133.984452
 20
153.138625
 40
1.250017
 50
239.999981
 51
299.999981
  0
ARC
  8
CSLAYER1
  6
CONTINUOUS
 62
     6
 10
133.984451
 20
150.973532
 40
1.250017
 50
59.999981
 51
119.999981
  0
ARC
  8
CSLAYER1
  6
CONTINUOUS
 62
     6
 10
131.484415
 20
153.138625
 40
1.250017
 50
239.999981
 51
299.999981
  0
ARC
  8
CSLAYER1
  6
CONTINUOUS
 62
     6
 10
131.484415
 20
150.973532
 40
1.250017
 50
59.999981
 51
119.999981
  0
ARC
  8
CSLAYER1
  6
CONTINUOUS
 62
     6
 10
130.234398
 20
153.138625
 40
1.250017
 50
239.999981
 51
299.999981
  0
LINE
  8
CSLAYER1
  6
CONTINUOUS
 62
     6
 10
129.609388
 20
152.056078
 11
129.609378
 21
160.298651
  0
ARC
  8
CSLAYER1
  6
CONTINUOUS
 62
     6
 10
150.017295
 20
148.746775
 40
17.907879
 50
180.000020
 51
207.463892
  0
LINE
  8
CSLAYER1
  6
CONTINUOUS
 62
     6
 10
134.127609
 20
140.487836
 11
136.345886
 21
141.640791
  0
LINE
  8
CSLAYER1
  6
CONTINUOUS
 62
     6
 10
135.236748
 20
141.064313
 11
136.886550
 21
137.857607
  0
LINE
  8
CSLAYER1
  6
CONTINUOUS
 62
     6
 10
136.041623
 20
137.555840
 11
134.661920
 21
140.771588
  0
LINE
  8
CSLAYER1
  6
CONTINUOUS
 62
     6
 10
129.574650
 20
140.756325
 11
128.007862
 21
137.345615
  0
LINE
  8
CSLAYER1
  6
CONTINUOUS
 62
     6
 10
127.221143
 20
137.632830
 11
128.982064
 21
141.064333
  0
LINE
  8
CSLAYER1
  6
CONTINUOUS
 62
     6
 10
128.386298
 20
141.366143
 11
126.529068
 21
138.104478
  0
LINE
  8
CSLAYER1
  6
CONTINUOUS
 62
     6
 10
102.166998
 20
136.743012
 11
102.109394
 21
137.243012
  0
LINE
  8
CSLAYER1
  6
CONTINUOUS
 62
     6
 10
102.166998
 20
136.743012
 11
65.109381
 21
136.743012
  0
ARC
  8
CSLAYER1
  6
CONTINUOUS
 62
     6
 10
68.879400
 20
143.743016
 40
3.000000
 50
90.000000
 51
173.862336
  0
LINE
  8
CSLAYER1
  6
CONTINUOUS
 62
     6
 10
68.744207
 20
146.743016
 11
77.540628
 21
146.743016
  0
LINE
  8
CSLAYER1
  6
DASHED
 62
     6
 10
72.609381
 20
146.743016
 11
72.609381
 21
136.742913
  0
LINE
  8
CSLAYER1
  6
DASHED
 62
     6
 10
81.609381
 20
136.742913
 11
81.609381
 21
143.196670
  0
CIRCLE
  8
CSLAYER1
  6
CONTINUOUS
 62
     6
 10
125.617267
 20
193.966276
 40
1.363635
  0
CIRCLE
  8
CSLAYER1
  6
CONTINUOUS
 62
     6
 10
132.109396
 20
205.243012
 40
44.000000
  0
CIRCLE
  8
CSLAYER1
  6
CONTINUOUS
 62
     6
 10
132.109396
 20
205.243012
 40
15.000000
  0
ARC
  8
CSLAYER1
  6
CONTINUOUS
 62
     6
 10
132.109396
 20
205.243012
 40
21.000000
 50
107.718932
 51
121.448981
  0
ARC
  8
CSLAYER1
  6
CONTINUOUS
 62
     6
 10
120.109396
 20
224.864429
 40
2.000000
 50
180.000000
 51
301.448981
  0
LINE
  8
CSLAYER1
  6
CONTINUOUS
 62
     6
 10
118.109396
 20
224.864429
 11
118.109396
 21
235.243012
  0
ARC
  8
CSLAYER1
  6
CONTINUOUS
 62
     6
 10
120.109396
 20
235.243012
 40
2.000000
 50
90.000000
 51
180.000000
  0
LINE
  8
CSLAYER1
  6
CONTINUOUS
 62
     6
 10
120.109396
 20
237.243012
 11
125.109396
 21
237.243012
  0
ARC
  8
CSLAYER1
  6
CONTINUOUS
 62
     6
 10
125.109396
 20
235.243012
 40
2.000000
 50
0.000000
 51
90.000000
  0
LINE
  8
CSLAYER1
  6
CONTINUOUS
 62
     6
 10
127.109396
 20
235.243012
 11
127.109396
 21
227.151914
  0
ARC
  8
CSLAYER1
  6
CONTINUOUS
 62
     6
 10
125.109396
 20
227.151914
 40
2.000000
 50
287.718932
 51
360.000000
  0
LINE
  8
CSLAYER1
  6
CONTINUOUS
 62
     6
 10
137.109396
 20
227.151914
 11
137.109396
 21
235.243012
  0
ARC
  8
CSLAYER1
  6
CONTINUOUS
 62
     6
 10
139.109396
 20
235.243012
 40
2.000000
 50
90.000000
 51
180.000000
  0
LINE
  8
CSLAYER1
  6
CONTINUOUS
 62
     6
 10
139.109396
 20
237.243012
 11
144.109396
 21
237.243012
  0
ARC
  8
CSLAYER1
  6
CONTINUOUS
 62
     6
 10
144.109396
 20
235.243012
 40
2.000000
 50
0.000000
 51
90.000000
  0
LINE
  8
CSLAYER1
  6
CONTINUOUS
 62
     6
 10
146.109396
 20
235.243012
 11
146.109396
 21
224.864429
  0
ARC
  8
CSLAYER1
  6
CONTINUOUS
 62
     6
 10
144.109396
 20
224.864429
 40
2.000000
 50
238.551019
 51
360.000000
  0
ARC
  8
CSLAYER1
  6
CONTINUOUS
 62
     6
 10
132.109396
 20
205.243012
 40
21.000000
 50
58.551019
 51
72.281068
  0
ARC
  8
CSLAYER1
  6
CONTINUOUS
 62
     6
 10
139.109396
 20
227.151914
 40
2.000000
 50
180.000000
 51
252.281068
  0
LINE
  8
CSLAYER1
  6
CONTINUOUS
 62
     6
 10
153.109396
 20
231.624824
 11
153.109396
 21
218.243012
  0
ARC
  8
CSLAYER1
  6
CONTINUOUS
 62
     6
 10
156.109396
 20
218.243012
 40
3.000000
 50
180.000000
 51
270.000000
  0
LINE
  8
CSLAYER1
  6
CONTINUOUS
 62
     6
 10
156.109396
 20
215.243012
 11
162.109396
 21
215.243012
  0
ARC
  8
CSLAYER1
  6
CONTINUOUS
 62
     6
 10
162.109396
 20
217.243012
 40
2.000000
 50
270.000000
 51
360.000000
  0
LINE
  8
CSLAYER1
  6
CONTINUOUS
 62
     6
 10
164.109396
 20
217.243012
 11
164.109396
 21
223.817187
  0
ARC
  8
CSLAYER1
  6
CONTINUOUS
 62
     6
 10
132.109396
 20
205.243012
 40
37.000000
 50
30.132722
 51
48.917667
  0
ARC
  8
CSLAYER1
  6
CONTINUOUS
 62
     6
 10
155.109396
 20
231.624824
 40
2.000000
 50
48.917667
 51
180.000000
  0
ARC
  8
CSLAYER1
  6
CONTINUOUS
 62
     6
 10
132.109396
 20
205.243012
 40
45.000000
 50
25.550580
 51
29.475790
  0
LINE
  8
CSLAYER1
  6
CONTINUOUS
 62
     6
 10
178.071138
 20
243.699598
 11
171.571138
 21
247.452374
  0
LINE
  8
CSLAYER1
  6
CONTINUOUS
 62
     6
 10
171.571138
 20
247.452374
 11
171.571138
 21
254.957928
  0
LINE
  8
CSLAYER1
  6
CONTINUOUS
 62
     6
 10
171.571138
 20
254.957928
 11
178.071138
 21
258.710705
  0
LINE
  8
CSLAYER1
  6
CONTINUOUS
 62
     6
 10
178.071138
 20
258.710705
 11
184.571138
 21
254.957928
  0
LINE
  8
CSLAYER1
  6
CONTINUOUS
 62
     6
 10
184.571138
 20
254.957928
 11
184.571138
 21
247.452374
  0
LINE
  8
CSLAYER1
  6
CONTINUOUS
 62
     6
 10
184.571138
 20
247.452374
 11
178.071138
 21
243.699598
  0
CIRCLE
  8
CSLAYER1
  6
CONTINUOUS
 62
     6
 10
178.071138
 20
251.205151
 40
7.700000
  0
CIRCLE
  8
CSLAYER1
  6
CONTINUOUS
 62
     6
 10
178.071138
 20
251.205151
 40
6.305000
  0
LINE
  8
CSLAYER1
  6
CONTINUOUS
 62
     6
 10
111.109396
 20
231.624824
 11
111.109396
 21
218.243012
  0
ARC
  8
CSLAYER1
  6
CONTINUOUS
 62
     6
 10
108.109396
 20
218.243012
 40
3.000000
 50
270.000000
 51
360.000000
  0
LINE
  8
CSLAYER1
  6
CONTINUOUS
 62
     6
 10
108.109396
 20
215.243012
 11
102.109396
 21
215.243012
  0
ARC
  8
CSLAYER1
  6
CONTINUOUS
 62
     6
 10
102.109396
 20
217.243012
 40
2.000000
 50
180.000000
 51
270.000000
  0
LINE
  8
CSLAYER1
  6
CONTINUOUS
 62
     6
 10
100.109396
 20
217.243012
 11
100.109396
 21
223.817187
  0
ARC
  8
CSLAYER1
  6
CONTINUOUS
 62
     6
 10
132.109396
 20
205.243012
 40
37.000000
 50
131.082333
 51
149.867278
  0
ARC
  8
CSLAYER1
  6
CONTINUOUS
 62
     6
 10
109.109396
 20
231.624824
 40
2.000000
 50
0.000000
 51
131.082333
  0
ARC
  8
CSLAYER1
  6
CONTINUOUS
 62
     6
 10
132.109396
 20
205.243012
 40
45.000000
 50
150.524210
 51
154.449420
  0
LINE
  8
CSLAYER1
  6
CONTINUOUS
 62
     6
 10
86.147654
 20
243.699598
 11
92.647654
 21
247.452374
  0
LINE
  8
CSLAYER1
  6
CONTINUOUS
 62
     6
 10
92.647654
 20
247.452374
 11
92.647654
 21
254.957928
  0
LINE
  8
CSLAYER1
  6
CONTINUOUS
 62
     6
 10
92.647654
 20
254.957928
 11
86.147654
 21
258.710705
  0
LINE
  8
CSLAYER1
  6
CONTINUOUS
 62
     6
 10
86.147654
 20
258.710705
 11
79.647654
 21
254.957928
  0
LINE
  8
CSLAYER1
  6
CONTINUOUS
 62
     6
 10
79.647654
 20
254.957928
 11
79.647654
 21
247.452374
  0
LINE
  8
CSLAYER1
  6
CONTINUOUS
 62
     6
 10
79.647654
 20
247.452374
 11
86.147654
 21
243.699598
  0
CIRCLE
  8
CSLAYER1
  6
CONTINUOUS
 62
     6
 10
86.147654
 20
251.205151
 40
7.700000
  0
CIRCLE
  8
CSLAYER1
  6
CONTINUOUS
 62
     6
 10
86.147654
 20
251.205151
 40
6.305000
  0
LINE
  8
CSLAYER1
  6
CONTINUOUS
 62
     6
 10
246.773973
 20
248.131470
 11
247.773973
 21
249.131470
  0
LINE
  8
CSLAYER1
  6
CONTINUOUS
 62
     6
 10
247.773973
 20
249.131470
 11
299.773973
 21
249.131470
  0
LINE
  8
CSLAYER1
  6
CONTINUOUS
 62
     6
 10
299.773973
 20
250.243012
 11
407.473988
 21
250.243012
  0
ARC
  8
CSLAYER1
  6
CONTINUOUS
 62
     6
 10
411.226765
 20
245.575822
 40
3.752777
 50
150.000000
 51
195.446648
  0
LINE
  8
CSLAYER1
  6
CONTINUOUS
 62
     6
 10
407.473988
 20
244.899987
 11
407.473988
 21
257.509987
  0
LINE
  8
CSLAYER1
  6
CONTINUOUS
 62
     6
 10
407.473988
 20
257.509987
 11
407.976765
 21
258.710540
  0
LINE
  8
CSLAYER1
  6
CONTINUOUS
 62
     6
 10
407.976765
 20
258.710540
 11
412.773988
 21
258.710540
  0
LINE
  8
CSLAYER1
  6
CONTINUOUS
 62
     6
 10
412.773988
 20
258.904987
 11
412.773988
 21
243.504987
  0
LINE
  8
CSLAYER1
  6
CONTINUOUS
 62
     6
 10
412.773988
 20
243.504987
 11
414.773988
 21
243.504987
  0
LINE
  8
CSLAYER1
  6
CONTINUOUS
 62
     6
 10
414.773988
 20
243.504987
 11
414.773988
 21
258.904987
  0
LINE
  8
CSLAYER1
  6
CONTINUOUS
 62
     6
 10
414.773988
 20
258.904987
 11
412.773988
 21
258.904987
  0
LINE
  8
CSLAYER1
  6
CONTINUOUS
 62
     6
 10
412.773988
 20
254.957764
 11
407.976765
 21
254.957764
  0
ARC
  8
CSLAYER1
  6
CONTINUOUS
 62
     6
 10
411.226765
 20
256.834152
 40
3.752777
 50
164.553352
 51
210.000000
  0
ARC
  8
CSLAYER1
  6
CONTINUOUS
 62
     6
 10
421.730930
 20
251.204987
 40
14.256942
 50
164.738520
 51
195.261480
  0
LINE
  8
CSLAYER1
  6
CONTINUOUS
 62
     6
 10
407.976765
 20
247.452210
 11
412.773988
 21
247.452210
  0
LINE
  8
CSLAYER1
  6
CONTINUOUS
 62
     6
 10
412.773988
 20
249.972987
 11
414.773988
 21
250.588987
  0
LINE
  8
CSLAYER1
  6
CONTINUOUS
 62
     6
 10
414.773988
 20
252.436987
 11
412.773988
 21
251.820987
  0
LINE
  8
CSLAYER1
  6
CONTINUOUS
 62
     6
 10
412.773988
 20
243.699433
 11
407.976765
 21
243.699433
  0
LINE
  8
CSLAYER1
  6
CONTINUOUS
 62
     6
 10
407.976765
 20
243.699433
 11
407.473988
 21
244.899987
  0
LINE
  8
CSLAYER1
  6
CONTINUOUS
 62
     6
 10
414.773973
 20
285.243012
 11
427.773973
 21
285.243012
  0
LINE
  8
CSLAYER1
  6
CONTINUOUS
 62
     6
 10
427.773973
 20
285.243012
 11
427.773973
 21
137.242981
  0
LINE
  8
CSLAYER1
  6
CONTINUOUS
 62
     6
 10
427.773973
 20
137.243012
 11
435.773973
 21
137.243012
  0
LINE
  8
CSLAYER1
  6
CONTINUOUS
 62
     6
 10
435.773973
 20
137.243012
 11
435.773973
 21
282.111054
  0
ARC
  8
CSLAYER1
  6
CONTINUOUS
 62
     6
 10
432.773973
 20
282.111054
 40
3.000000
 50
0.000000
 51
88.500130
  0
LINE
  8
CSLAYER1
  6
CONTINUOUS
 62
     6
 10
432.852587
 20
285.110032
 11
427.773973
 21
285.243012
  0
ARC
  8
CSLAYER1
  6
CONTINUOUS
 62
     6
 10
440.773973
 20
276.388733
 40
5.000000
 50
180.000000
 51
268.500702
  0
LINE
  8
CSLAYER1
  6
CONTINUOUS
 62
     6
 10
440.643175
 20
271.390412
 11
443.352587
 21
271.319512
  0
ARC
  8
CSLAYER1
  6
CONTINUOUS
 62
     6
 10
443.274187
 20
268.320511
 40
3.000000
 50
31.409821
 51
88.500702
  0
ARC
  8
CSLAYER1
  6
CONTINUOUS
 62
     6
 10
448.394973
 20
271.447472
 40
3.000000
 50
211.410294
 51
268.501099
  0
LINE
  8
CSLAYER1
  6
CONTINUOUS
 62
     6
 10
448.316574
 20
268.448533
 11
472.352373
 21
267.819512
  0
ARC
  8
CSLAYER1
  6
CONTINUOUS
 62
     6
 10
472.273973
 20
264.820511
 40
3.000000
 50
8.844748
 51
88.500671
  0
ARC
  8
CSLAYER1
  6
CONTINUOUS
 62
     6
 10
478.202592
 20
265.743130
 40
3.000000
 50
188.845596
 51
253.097595
  0
LINE
  8
CSLAYER1
  6
CONTINUOUS
 62
     6
 10
477.330514
 20
262.872693
 11
482.273973
 21
262.743012
  0
LINE
  8
CSLAYER1
  6
CONTINUOUS
 62
     6
 10
482.273973
 20
262.743012
 11
482.273973
 21
147.743012
  0
LINE
  8
CSLAYER1
  6
CONTINUOUS
 62
     6
 10
482.273973
 20
147.743012
 11
490.773752
 21
147.743012
  0
LINE
  8
CSLAYER1
  6
CONTINUOUS
 62
     6
 10
490.773752
 20
145.883874
 11
490.773973
 21
265.602070
  0
ARC
  8
CSLAYER1
  6
CONTINUOUS
 62
     6
 10
492.773973
 20
265.602070
 40
2.000000
 50
92.000282
 51
180.000000
  0
LINE
  8
CSLAYER1
  6
CONTINUOUS
 62
     6
 10
492.704156
 20
267.600853
 11
496.773973
 21
267.743012
  0
LINE
  8
CSLAYER1
  6
CONTINUOUS
 62
     6
 10
496.773973
 20
267.743012
 11
496.773973
 21
146.743012
  0
LINE
  8
CSLAYER1
  6
DASHED
 62
     6
 10
497.273973
 20
146.743012
 11
497.273973
 21
136.743012
  0
LINE
  8
CSLAYER1
  6
CONTINUOUS
 62
     6
 10
489.773973
 20
136.743012
 11
553.773973
 21
136.743012
  0
LINE
  8
CSLAYER1
  6
CONTINUOUS
 62
     6
 10
553.773973
 20
136.743012
 11
552.937753
 21
144.082631
  0
ARC
  8
CSLAYER1
  6
CONTINUOUS
 62
     6
 10
549.956995
 20
143.743012
 40
3.000000
 50
6.500296
 51
90.000000
  0
LINE
  8
CSLAYER1
  6
CONTINUOUS
 62
     6
 10
549.956995
 20
146.743012
 11
530.482521
 21
146.743012
  0
ARC
  8
CSLAYER1
  6
CONTINUOUS
 62
     6
 10
696.325352
 20
187.672753
 40
170.818877
 50
153.663437
 51
193.863465
  0
ARC
  8
CSLAYER1
  6
CONTINUOUS
 62
     6
 10
541.892572
 20
264.120850
 40
1.500000
 50
-26.336563
 51
84.807251
  0
ARC
  8
CSLAYER1
  6
CONTINUOUS
 62
     6
 10
496.773973
 20
-232.333190
 40
500.000000
 50
84.807037
 51
89.000313
  0
LINE
  8
CSLAYER1
  6
CONTINUOUS
 62
     6
 10
505.496774
 20
267.590752
 11
496.773973
 21
267.743012
  0
LINE
  8
CSLAYER1
  6
CONTINUOUS
 62
     6
 10
490.773973
 20
262.743012
 11
482.273973
 21
262.743012
  0
ARC
  8
CSLAYER1
  6
CONTINUOUS
 62
     6
 10
472.843072
 20
269.460633
 40
8.017984
 50
269.506195
 51
304.724609
  0
LINE
  8
CSLAYER1
  6
CONTINUOUS
 62
     6
 10
472.773973
 20
261.443013
 11
447.911973
 21
261.442994
  0
ARC
  8
CSLAYER1
  6
CONTINUOUS
 62
     6
 10
447.911973
 20
255.442933
 40
6.000000
 50
90.000000
 51
112.330902
  0
ARC
  8
CSLAYER1
  6
CONTINUOUS
 62
     6
 10
443.352587
 20
266.543011
 40
6.000000
 50
270.000000
 51
292.330902
  0
LINE
  8
CSLAYER1
  6
CONTINUOUS
 62
     6
 10
443.352587
 20
260.543011
 11
435.773973
 21
260.543011
  0
ARC
  8
CSLAYER1
  6
CONTINUOUS
 62
     6
 10
437.773973
 20
260.702973
 40
2.000000
 50
180.000000
 51
255.522598
  0
ARC
  8
CSLAYER1
  6
CONTINUOUS
 62
     6
 10
436.773973
 20
256.830014
 40
2.000000
 50
0.000000
 51
75.521790
  0
LINE
  8
CSLAYER1
  6
CONTINUOUS
 62
     6
 10
438.773973
 20
256.830014
 11
438.773973
 21
245.575970
  0
ARC
  8
CSLAYER1
  6
CONTINUOUS
 62
     6
 10
436.773973
 20
245.575970
 40
2.000000
 50
284.477676
 51
360.000000
  0
ARC
  8
CSLAYER1
  6
CONTINUOUS
 62
     6
 10
437.773973
 20
241.702992
 40
2.000000
 50
104.477493
 51
180.000000
  0
LINE
  8
CSLAYER1
  6
CONTINUOUS
 62
     6
 10
445.873979
 20
262.154831
 11
445.873979
 21
268.493012
  0
ARC
  8
CSLAYER1
  6
CONTINUOUS
 62
     6
 10
440.773973
 20
199.742998
 40
5.000000
 50
180.000000
 51
270.000000
  0
LINE
  8
CSLAYER1
  6
CONTINUOUS
 62
     6
 10
440.773973
 20
194.743012
 11
442.873979
 21
194.743012
  0
ARC
  8
CSLAYER1
  6
CONTINUOUS
 62
     6
 10
442.873979
 20
191.742998
 40
3.000000
 50
0.000000
 51
90.000000
  0
LINE
  8
CSLAYER1
  6
CONTINUOUS
 62
     6
 10
445.873979
 20
191.742998
 11
445.873794
 21
167.743012
  0
ARC
  8
CSLAYER1
  6
CONTINUOUS
 62
     6
 10
442.873979
 20
167.743012
 40
3.000000
 50
270.000000
 51
360.000000
  0
LINE
  8
CSLAYER1
  6
CONTINUOUS
 62
     6
 10
442.873979
 20
164.743012
 11
441.773973
 21
164.743012
  0
ARC
  8
CSLAYER1
  6
CONTINUOUS
 62
     6
 10
441.773973
 20
161.743012
 40
3.000000
 50
90.000000
 51
180.000000
  0
LINE
  8
CSLAYER1
  6
CONTINUOUS
 62
     6
 10
438.773973
 20
164.910054
 11
438.773973
 21
153.656010
  0
ARC
  8
CSLAYER1
  6
CONTINUOUS
 62
     6
 10
436.773973
 20
153.656010
 40
2.000000
 50
284.478210
 51
360.000000
  0
ARC
  8
CSLAYER1
  6
CONTINUOUS
 62
     6
 10
437.773973
 20
149.783032
 40
2.000000
 50
104.477402
 51
180.000000
  0
ARC
  8
CSLAYER1
  6
CONTINUOUS
 62
     6
 10
436.773973
 20
164.910054
 40
2.000000
 50
0.000000
 51
75.522324
  0
ARC
  8
CSLAYER1
  6
CONTINUOUS
 62
     6
 10
437.773973
 20
168.783013
 40
2.000000
 50
180.000000
 51
255.522507
  0
ARC
  8
CSLAYER1
  6
CONTINUOUS
 62
     6
 10
448.628772
 20
166.045113
 40
3.000000
 50
91.500397
 51
163.561798
  0
LINE
  8
CSLAYER1
  6
CONTINUOUS
 62
     6
 10
448.550193
 20
169.044091
 11
472.352594
 21
169.667431
  0
ARC
  8
CSLAYER1
  6
CONTINUOUS
 62
     6
 10
472.273973
 20
172.666394
 40
3.000000
 50
271.500313
 51
360.000000
  0
LINE
  8
CSLAYER1
  6
CONTINUOUS
 62
     6
 10
475.273973
 20
172.666394
 11
475.273973
 21
186.819575
  0
ARC
  8
CSLAYER1
  6
CONTINUOUS
 62
     6
 10
472.273973
 20
186.819575
 40
3.000000
 50
0.000000
 51
88.500290
  0
LINE
  8
CSLAYER1
  6
CONTINUOUS
 62
     6
 10
472.352594
 20
189.818558
 11
448.550373
 21
190.441772
  0
ARC
  8
CSLAYER1
  6
CONTINUOUS
 62
     6
 10
448.628772
 20
193.440752
 40
3.000000
 50
196.437103
 51
268.500305
  0
LINE
  8
CSLAYER1
  6
CONTINUOUS
 62
     6
 10
492.148973
 20
165.742894
 11
495.898973
 21
165.742894
  0
LINE
  8
CSLAYER1
  6
CONTINUOUS
 62
     6
 10
498.109575
 20
165.743012
 11
510.308572
 21
165.743012
  0
LINE
  8
CSLAYER1
  6
CONTINUOUS
 62
     6
 10
511.773973
 20
177.743012
 11
511.773973
 21
146.743012
  0
LINE
  8
CSLAYER1
  6
CONTINUOUS
 62
     6
 10
511.773973
 20
146.743012
 11
493.590974
 21
146.743012
  0
ARC
  8
CSLAYER1
  6
CONTINUOUS
 62
     6
 10
493.590974
 20
143.743031
 40
3.000000
 50
90.000000
 51
173.500305
  0
LINE
  8
CSLAYER1
  6
CONTINUOUS
 62
     6
 10
490.610174
 20
144.082612
 11
489.773973
 21
136.743012
  0
ARC
  8
CSLAYER1
  6
CONTINUOUS
 62
     6
 10
492.773973
 20
145.883874
 40
2.000000
 50
180.000000
 51
202.465897
  0
LINE
  8
CSLAYER1
  6
CONTINUOUS
 62
     6
 10
498.773973
 20
146.743012
 11
498.773973
 21
151.743012
  0
LINE
  8
CSLAYER1
  6
CONTINUOUS
 62
     6
 10
496.773973
 20
151.743012
 11
511.773973
 21
151.743012
  0
LINE
  8
CSLAYER1
  6
CONTINUOUS
 62
     6
 10
495.898973
 20
151.742894
 11
492.148973
 21
151.742894
  0
ARC
  8
CSLAYER1
  6
CONTINUOUS
 62
     6
 10
451.773973
 20
177.743012
 40
60.000000
 50
0.000000
 51
41.410870
  0
LINE
  8
CSLAYER1
  6
CONTINUOUS
 62
     6
 10
554.773973
 20
211.743012
 11
556.773973
 21
211.743012
  0
LINE
  8
CSLAYER1
  6
CONTINUOUS
 62
     6
 10
556.773973
 20
211.743012
 11
556.773973
 21
231.743012
  0
LINE
  8
CSLAYER1
  6
CONTINUOUS
 62
     6
 10
556.773973
 20
231.743012
 11
554.773973
 21
231.743012
  0
LINE
  8
CSLAYER1
  6
CONTINUOUS
 62
     6
 10
556.773973
 20
230.743012
 11
586.773973
 21
230.743012
  0
LINE
  8
CSLAYER1
  6
CONTINUOUS
 62
     6
 10
586.773973
 20
230.743012
 11
586.773973
 21
212.743012
  0
LINE
  8
CSLAYER1
  6
CONTINUOUS
 62
     6
 10
586.773973
 20
212.743012
 11
556.773973
 21
212.743012
  0
LINE
  8
CSLAYER1
  6
CONTINUOUS
 62
     6
 10
562.773973
 20
218.743012
 11
586.773973
 21
218.743012
  0
LINE
  8
CSLAYER1
  6
CONTINUOUS
 62
     6
 10
586.773973
 20
224.743012
 11
562.773973
 21
224.743012
  0
ARC
  8
CSLAYER1
  6
CONTINUOUS
 62
     6
 10
562.773973
 20
221.743012
 40
3.000000
 50
90.000000
 51
270.000000
  0
LINE
  8
CSLAYER1
  6
CONTINUOUS
 62
     6
 10
554.773973
 20
202.743012
 11
554.773973
 21
240.743012
  0
ARC
  8
CSLAYER1
  6
CONTINUOUS
 62
     6
 10
552.273973
 20
240.743012
 40
2.500000
 50
0.000000
 51
90.000000
  0
LINE
  8
CSLAYER1
  6
CONTINUOUS
 62
     6
 10
552.273973
 20
243.243012
 11
552.069574
 21
243.243012
  0
ARC
  8
CSLAYER1
  6
CONTINUOUS
 62
     6
 10
-46.726027
 20
205.243012
 40
600.000000
 50
-3.684479
 51
4.362700
  0
ARC
  8
CSLAYER1
  6
CONTINUOUS
 62
     6
 10
537.064950
 20
167.649613
 40
15.000000
 50
306.078705
 51
356.315704
  0
ARC
  8
CSLAYER1
  6
CONTINUOUS
 62
     6
 10
623.238359
 20
175.984112
 40
80.000000
 50
186.633301
 51
201.439194
  0
LINE
  8
CSLAYER1
  6
DASHED
 62
     6
 10
546.273973
 20
146.743012
 11
546.273973
 21
136.743012
  0
LINE
  8
CSLAYER1
  6
DASHED
 62
     6
 10
537.273973
 20
136.743012
 11
537.273973
 21
146.743012
  0
LINE
  8
CSLAYER1
  6
DASHED
 62
     6
 10
506.273973
 20
146.743012
 11
506.273973
 21
136.743012
  0
LINE
  8
CSLAYER1
  6
CONTINUOUS
 62
     6
 10
482.273973
 20
147.743012
 11
440.643175
 21
146.652813
  0
ARC
  8
CSLAYER1
  6
CONTINUOUS
 62
     6
 10
440.773973
 20
141.654553
 40
5.000000
 50
91.500473
 51
180.000000
  0
LINE
  8
CSLAYER1
  6
CONTINUOUS
 62
     6
 10
427.773942
 20
137.242951
 11
414.774065
 21
137.242981
  0
LINE
  8
CSLAYER1
  6
CONTINUOUS
 62
     6
 10
414.773973
 20
137.242978
 11
414.773973
 21
285.243012
  0
LINE
  8
CSLAYER1
  6
CONTINUOUS
 62
     6
 10
414.774023
 20
166.980976
 11
412.774023
 21
166.980976
  0
LINE
  8
CSLAYER1
  6
CONTINUOUS
 62
     6
 10
412.774023
 20
166.980976
 11
412.774023
 21
151.580976
  0
LINE
  8
CSLAYER1
  6
CONTINUOUS
 62
     6
 10
412.774023
 20
151.580976
 11
414.774023
 21
151.580976
  0
LINE
  8
CSLAYER1
  6
CONTINUOUS
 62
     6
 10
414.774023
 20
151.580976
 11
414.774023
 21
166.980976
  0
LINE
  8
CSLAYER1
  6
CONTINUOUS
 62
     6
 10
412.774023
 20
166.786529
 11
407.976800
 21
166.786529
  0
LINE
  8
CSLAYER1
  6
CONTINUOUS
 62
     6
 10
407.976800
 20
166.786529
 11
407.474023
 21
165.585976
  0
LINE
  8
CSLAYER1
  6
CONTINUOUS
 62
     6
 10
407.474023
 20
165.585976
 11
407.474023
 21
152.975976
  0
LINE
  8
CSLAYER1
  6
CONTINUOUS
 62
     6
 10
407.474023
 20
152.975976
 11
407.976800
 21
151.775422
  0
LINE
  8
CSLAYER1
  6
CONTINUOUS
 62
     6
 10
407.976800
 20
151.775422
 11
412.774023
 21
151.775422
  0
LINE
  8
CSLAYER1
  6
CONTINUOUS
 62
     6
 10
412.774023
 20
155.528199
 11
407.976800
 21
155.528199
  0
ARC
  8
CSLAYER1
  6
CONTINUOUS
 62
     6
 10
421.730965
 20
159.280976
 40
14.256942
 50
164.738520
 51
195.261480
  0
ARC
  8
CSLAYER1
  6
CONTINUOUS
 62
     6
 10
411.226800
 20
164.910141
 40
3.752777
 50
164.553352
 51
210.000000
  0
LINE
  8
CSLAYER1
  6
CONTINUOUS
 62
     6
 10
407.976800
 20
163.033752
 11
412.774023
 21
163.033752
  0
LINE
  8
CSLAYER1
  6
CONTINUOUS
 62
     6
 10
412.774023
 20
159.896976
 11
414.774023
 21
160.512976
  0
LINE
  8
CSLAYER1
  6
CONTINUOUS
 62
     6
 10
414.774023
 20
158.664976
 11
412.774023
 21
158.048976
  0
ARC
  8
CSLAYER1
  6
CONTINUOUS
 62
     6
 10
411.226800
 20
153.651810
 40
3.752777
 50
150.000000
 51
195.446648
  0
LINE
  8
CSLAYER1
  6
CONTINUOUS
 62
     6
 10
407.474023
 20
160.243012
 11
299.773973
 21
160.243012
  0
LINE
  8
CSLAYER1
  6
CONTINUOUS
 62
     6
 10
299.773973
 20
160.243012
 11
299.773973
 21
250.243012
  0
LINE
  8
CSLAYER1
  6
CONTINUOUS
 62
     6
 10
296.773973
 20
231.243012
 11
260.773973
 21
231.243012
  0
ARC
  8
CSLAYER1
  6
CONTINUOUS
 62
     6
 10
260.773973
 20
230.243012
 40
1.000000
 50
90.000016
 51
180.000005
  0
LINE
  8
CSLAYER1
  6
CONTINUOUS
 62
     6
 10
259.773973
 20
230.243012
 11
259.773973
 21
229.243012
  0
ARC
  8
CSLAYER1
  6
CONTINUOUS
 62
     6
 10
260.773973
 20
229.243012
 40
1.000000
 50
180.000019
 51
270.000001
  0
LINE
  8
CSLAYER1
  6
CONTINUOUS
 62
     6
 10
260.773973
 20
228.243012
 11
296.773973
 21
228.243012
  0
ARC
  8
CSLAYER1
  6
CONTINUOUS
 62
     6
 10
296.773973
 20
229.243012
 40
1.000000
 50
270.000001
 51
359.942691
  0
LINE
  8
CSLAYER1
  6
CONTINUOUS
 62
     6
 10
297.773973
 20
229.243012
 11
297.773973
 21
230.243012
  0
ARC
  8
CSLAYER1
  6
CONTINUOUS
 62
     6
 10
296.773973
 20
230.243012
 40
1.000000
 50
0.000000
 51
90.000003
  0
ARC
  8
CSLAYER1
  6
CONTINUOUS
 62
     6
 10
296.773973
 20
223.243012
 40
1.000000
 50
0.000000
 51
90.000003
  0
LINE
  8
CSLAYER1
  6
CONTINUOUS
 62
     6
 10
297.773973
 20
223.243012
 11
297.773973
 21
222.243012
  0
ARC
  8
CSLAYER1
  6
CONTINUOUS
 62
     6
 10
296.773973
 20
222.243012
 40
1.000000
 50
270.000001
 51
359.942691
  0
LINE
  8
CSLAYER1
  6
CONTINUOUS
 62
     6
 10
296.773973
 20
221.243012
 11
292.002733
 21
221.243012
  0
ARC
  8
CSLAYER1
  6
CONTINUOUS
 62
     6
 10
292.002733
 20
220.243012
 40
1.000000
 50
90.000003
 51
228.590367
  0
ARC
  8
CSLAYER1
  6
CONTINUOUS
 62
     6
 10
278.773973
 20
205.243012
 40
19.000000
 50
-48.590366
 51
48.590386
  0
ARC
  8
CSLAYER1
  6
CONTINUOUS
 62
     6
 10
292.002733
 20
190.243012
 40
1.000000
 50
131.409643
 51
270.000001
  0
LINE
  8
CSLAYER1
  6
CONTINUOUS
 62
     6
 10
292.002733
 20
189.243012
 11
296.773973
 21
189.243012
  0
ARC
  8
CSLAYER1
  6
CONTINUOUS
 62
     6
 10
296.773973
 20
188.243012
 40
1.000000
 50
0.057309
 51
89.999999
  0
LINE
  8
CSLAYER1
  6
CONTINUOUS
 62
     6
 10
297.773973
 20
188.243012
 11
297.773973
 21
187.243012
  0
ARC
  8
CSLAYER1
  6
CONTINUOUS
 62
     6
 10
296.773973
 20
187.243012
 40
1.000000
 50
269.999997
 51
360.000000
  0
LINE
  8
CSLAYER1
  6
CONTINUOUS
 62
     6
 10
296.773973
 20
186.243012
 11
260.773973
 21
186.243012
  0
ARC
  8
CSLAYER1
  6
CONTINUOUS
 62
     6
 10
260.773973
 20
187.243012
 40
1.000000
 50
179.999995
 51
269.999984
  0
LINE
  8
CSLAYER1
  6
CONTINUOUS
 62
     6
 10
259.773973
 20
187.243012
 11
259.773973
 21
188.243012
  0
ARC
  8
CSLAYER1
  6
CONTINUOUS
 62
     6
 10
260.773973
 20
188.243012
 40
1.000000
 50
89.999999
 51
179.999981
  0
LINE
  8
CSLAYER1
  6
CONTINUOUS
 62
     6
 10
260.773973
 20
189.243012
 11
265.545213
 21
189.243012
  0
ARC
  8
CSLAYER1
  6
CONTINUOUS
 62
     6
 10
265.545213
 20
190.243012
 40
1.000000
 50
-89.999999
 51
48.590386
  0
ARC
  8
CSLAYER1
  6
CONTINUOUS
 62
     6
 10
278.773973
 20
205.243012
 40
19.000000
 50
131.409657
 51
228.590367
  0
ARC
  8
CSLAYER1
  6
CONTINUOUS
 62
     6
 10
265.545213
 20
220.243012
 40
1.000000
 50
-48.590366
 51
90.000019
  0
LINE
  8
CSLAYER1
  6
CONTINUOUS
 62
     6
 10
265.545213
 20
221.243012
 11
260.773973
 21
221.243012
  0
ARC
  8
CSLAYER1
  6
CONTINUOUS
 62
     6
 10
260.773973
 20
222.243012
 40
1.000000
 50
180.000019
 51
270.000001
  0
LINE
  8
CSLAYER1
  6
CONTINUOUS
 62
     6
 10
259.773973
 20
222.243012
 11
259.773973
 21
223.243012
  0
ARC
  8
CSLAYER1
  6
CONTINUOUS
 62
     6
 10
260.773973
 20
223.243012
 40
1.000000
 50
90.000016
 51
180.000005
  0
LINE
  8
CSLAYER1
  6
CONTINUOUS
 62
     6
 10
260.773973
 20
224.243012
 11
296.773973
 21
224.243012
  0
LINE
  8
CSLAYER1
  6
CONTINUOUS
 62
     6
 10
284.773973
 20
206.143006
 11
272.773973
 21
206.143006
  0
LINE
  8
CSLAYER1
  6
CONTINUOUS
 62
     6
 10
272.773973
 20
206.143006
 11
272.773973
 21
204.343018
  0
LINE
  8
CSLAYER1
  6
CONTINUOUS
 62
     6
 10
272.773973
 20
204.343018
 11
284.773973
 21
204.343018
  0
LINE
  8
CSLAYER1
  6
CONTINUOUS
 62
     6
 10
284.773973
 20
204.343018
 11
284.773973
 21
206.143006
  0
CIRCLE
  8
CSLAYER1
  6
CONTINUOUS
 62
     6
 10
278.773973
 20
205.243012
 40
12.000000
  0
CIRCLE
  8
CSLAYER1
  6
CONTINUOUS
 62
     6
 10
278.773973
 20
205.243012
 40
15.000000
  0
CIRCLE
  8
CSLAYER1
  6
CONTINUOUS
 62
     6
 10
278.773973
 20
205.243012
 40
16.000000
  0
ARC
  8
CSLAYER1
  6
CONTINUOUS
 62
     6
 10
260.773973
 20
181.243012
 40
1.000000
 50
89.999999
 51
179.999981
  0
LINE
  8
CSLAYER1
  6
CONTINUOUS
 62
     6
 10
259.773973
 20
181.243012
 11
259.773973
 21
180.243012
  0
ARC
  8
CSLAYER1
  6
CONTINUOUS
 62
     6
 10
260.773973
 20
180.243012
 40
1.000000
 50
179.999995
 51
269.999984
  0
LINE
  8
CSLAYER1
  6
CONTINUOUS
 62
     6
 10
260.773973
 20
179.243012
 11
296.773973
 21
179.243012
  0
ARC
  8
CSLAYER1
  6
CONTINUOUS
 62
     6
 10
296.773973
 20
180.243012
 40
1.000000
 50
269.999997
 51
360.000000
  0
LINE
  8
CSLAYER1
  6
CONTINUOUS
 62
     6
 10
297.773973
 20
180.243012
 11
297.773973
 21
181.243012
  0
ARC
  8
CSLAYER1
  6
CONTINUOUS
 62
     6
 10
296.773973
 20
181.243012
 40
1.000000
 50
0.057309
 51
89.999999
  0
LINE
  8
CSLAYER1
  6
CONTINUOUS
 62
     6
 10
296.773973
 20
182.243012
 11
260.773973
 21
182.243012
  0
LINE
  8
CSLAYER1
  6
CONTINUOUS
 62
     6
 10
260.773973
 20
165.243012
 11
260.773973
 21
161.243012
  0
LINE
  8
CSLAYER1
  6
CONTINUOUS
 62
     6
 10
260.773973
 20
161.243012
 11
247.773973
 21
161.243012
  0
LINE
  8
CSLAYER1
  6
CONTINUOUS
 62
     6
 10
247.773973
 20
161.243012
 11
247.773973
 21
249.131470
  0
LINE
  8
CSLAYER1
  6
CONTINUOUS
 62
     6
 10
246.773973
 20
248.131470
 11
246.773973
 21
162.243012
  0
LINE
  8
CSLAYER1
  6
CONTINUOUS
 62
     6
 10
246.773973
 20
162.243012
 11
247.773973
 21
161.243012
  0
LINE
  8
CSLAYER1
  6
CONTINUOUS
 62
     6
 10
256.657812
 20
152.239195
 11
256.486917
 21
152.072183
  0
LINE
  8
CSLAYER1
  6
CONTINUOUS
 62
     6
 10
256.486917
 20
152.072183
 11
256.313914
 21
151.904068
  0
LINE
  8
CSLAYER1
  6
CONTINUOUS
 62
     6
 10
256.313914
 20
151.904068
 11
256.140578
 21
151.737173
  0
LINE
  8
CSLAYER1
  6
CONTINUOUS
 62
     6
 10
256.140578
 20
151.737173
 11
255.968687
 21
151.573824
  0
LINE
  8
CSLAYER1
  6
CONTINUOUS
 62
     6
 10
255.968687
 20
151.573824
 11
255.800014
 21
151.416344
  0
LINE
  8
CSLAYER1
  6
CONTINUOUS
 62
     6
 10
255.800014
 20
151.416344
 11
255.636337
 21
151.267060
  0
LINE
  8
CSLAYER1
  6
CONTINUOUS
 62
     6
 10
255.636337
 20
151.267060
 11
255.479431
 21
151.128296
  0
LINE
  8
CSLAYER1
  6
CONTINUOUS
 62
     6
 10
255.479431
 20
151.128296
 11
255.338200
 21
151.005498
  0
LINE
  8
CSLAYER1
  6
CONTINUOUS
 62
     6
 10
255.338200
 20
151.005498
 11
255.192017
 21
150.877612
  0
LINE
  8
CSLAYER1
  6
CONTINUOUS
 62
     6
 10
255.192017
 20
150.877612
 11
255.042023
 21
150.745106
  0
LINE
  8
CSLAYER1
  6
CONTINUOUS
 62
     6
 10
255.042023
 20
150.745106
 11
254.889362
 21
150.608446
  0
LINE
  8
CSLAYER1
  6
CONTINUOUS
 62
     6
 10
254.889362
 20
150.608446
 11
254.735175
 21
150.468101
  0
LINE
  8
CSLAYER1
  6
CONTINUOUS
 62
     6
 10
254.735175
 20
150.468101
 11
254.580605
 21
150.324539
  0
LINE
  8
CSLAYER1
  6
CONTINUOUS
 62
     6
 10
254.580605
 20
150.324539
 11
254.426793
 21
150.178226
  0
LINE
  8
CSLAYER1
  6
CONTINUOUS
 62
     6
 10
254.426793
 20
150.178226
 11
254.274883
 21
150.029632
  0
LINE
  8
CSLAYER1
  6
CONTINUOUS
 62
     6
 10
254.274883
 20
150.029632
 11
254.126016
 21
149.879222
  0
LINE
  8
CSLAYER1
  6
CONTINUOUS
 62
     6
 10
254.126016
 20
149.879222
 11
253.981334
 21
149.727466
  0
LINE
  8
CSLAYER1
  6
CONTINUOUS
 62
     6
 10
253.981334
 20
149.727466
 11
253.841980
 21
149.574830
  0
LINE
  8
CSLAYER1
  6
CONTINUOUS
 62
     6
 10
253.841980
 20
149.574830
 11
253.786456
 21
149.511886
  0
LINE
  8
CSLAYER1
  6
CONTINUOUS
 62
     6
 10
253.786456
 20
149.511886
 11
253.731528
 21
149.448385
  0
LINE
  8
CSLAYER1
  6
CONTINUOUS
 62
     6
 10
253.731528
 20
149.448385
 11
253.677137
 21
149.384384
  0
LINE
  8
CSLAYER1
  6
CONTINUOUS
 62
     6
 10
253.677137
 20
149.384384
 11
253.623224
 21
149.319938
  0
LINE
  8
CSLAYER1
  6
CONTINUOUS
 62
     6
 10
253.623224
 20
149.319938
 11
253.569728
 21
149.255102
  0
LINE
  8
CSLAYER1
  6
CONTINUOUS
 62
     6
 10
253.569728
 20
149.255102
 11
253.516590
 21
149.189932
  0
LINE
  8
CSLAYER1
  6
CONTINUOUS
 62
     6
 10
253.516590
 20
149.189932
 11
253.463750
 21
149.124484
  0
LINE
  8
CSLAYER1
  6
CONTINUOUS
 62
     6
 10
253.463750
 20
149.124484
 11
253.411149
 21
149.058814
  0
LINE
  8
CSLAYER1
  6
CONTINUOUS
 62
     6
 10
253.411149
 20
149.058814
 11
253.358727
 21
148.992976
  0
LINE
  8
CSLAYER1
  6
CONTINUOUS
 62
     6
 10
253.358727
 20
148.992976
 11
253.306424
 21
148.927027
  0
LINE
  8
CSLAYER1
  6
CONTINUOUS
 62
     6
 10
253.306424
 20
148.927027
 11
253.177869
 21
148.764610
  0
LINE
  8
CSLAYER1
  6
CONTINUOUS
 62
     6
 10
253.177869
 20
148.764610
 11
253.206607
 21
148.717755
  0
LINE
  8
CSLAYER1
  6
CONTINUOUS
 62
     6
 10
253.206607
 20
148.717755
 11
253.247198
 21
148.657874
  0
LINE
  8
CSLAYER1
  6
CONTINUOUS
 62
     6
 10
253.247198
 20
148.657874
 11
253.291481
 21
148.598006
  0
LINE
  8
CSLAYER1
  6
CONTINUOUS
 62
     6
 10
253.291481
 20
148.598006
 11
253.338932
 21
148.538733
  0
LINE
  8
CSLAYER1
  6
CONTINUOUS
 62
     6
 10
253.338932
 20
148.538733
 11
253.389031
 21
148.480635
  0
LINE
  8
CSLAYER1
  6
CONTINUOUS
 62
     6
 10
253.389031
 20
148.480635
 11
253.441255
 21
148.424294
  0
LINE
  8
CSLAYER1
  6
CONTINUOUS
 62
     6
 10
253.441255
 20
148.424294
 11
253.495083
 21
148.370291
  0
LINE
  8
CSLAYER1
  6
CONTINUOUS
 62
     6
 10
253.495083
 20
148.370291
 11
253.549994
 21
148.319206
  0
LINE
  8
CSLAYER1
  6
CONTINUOUS
 62
     6
 10
253.549994
 20
148.319206
 11
253.605465
 21
148.271620
  0
LINE
  8
CSLAYER1
  6
CONTINUOUS
 62
     6
 10
253.605465
 20
148.271620
 11
253.660975
 21
148.228114
  0
LINE
  8
CSLAYER1
  6
CONTINUOUS
 62
     6
 10
253.660975
 20
148.228114
 11
253.716003
 21
148.189270
  0
LINE
  8
CSLAYER1
  6
CONTINUOUS
 62
     6
 10
253.716003
 20
148.189270
 11
253.772489
 21
148.154976
  0
LINE
  8
CSLAYER1
  6
CONTINUOUS
 62
     6
 10
253.772489
 20
148.154976
 11
253.833091
 21
148.124009
  0
LINE
  8
CSLAYER1
  6
CONTINUOUS
 62
     6
 10
253.833091
 20
148.124009
 11
253.897251
 21
148.096020
  0
LINE
  8
CSLAYER1
  6
CONTINUOUS
 62
     6
 10
253.897251
 20
148.096020
 11
253.964413
 21
148.070659
  0
LINE
  8
CSLAYER1
  6
CONTINUOUS
 62
     6
 10
253.964413
 20
148.070659
 11
254.034020
 21
148.047577
  0
LINE
  8
CSLAYER1
  6
CONTINUOUS
 62
     6
 10
254.034020
 20
148.047577
 11
254.105514
 21
148.026423
  0
LINE
  8
CSLAYER1
  6
CONTINUOUS
 62
     6
 10
254.105514
 20
148.026423
 11
254.178339
 21
148.006849
  0
LINE
  8
CSLAYER1
  6
CONTINUOUS
 62
     6
 10
254.178339
 20
148.006849
 11
254.251937
 21
147.988504
  0
LINE
  8
CSLAYER1
  6
CONTINUOUS
 62
     6
 10
254.251937
 20
147.988504
 11
254.325752
 21
147.971038
  0
LINE
  8
CSLAYER1
  6
CONTINUOUS
 62
     6
 10
254.325752
 20
147.971038
 11
254.399226
 21
147.954103
  0
LINE
  8
CSLAYER1
  6
CONTINUOUS
 62
     6
 10
254.399226
 20
147.954103
 11
254.471802
 21
147.937348
  0
LINE
  8
CSLAYER1
  6
CONTINUOUS
 62
     6
 10
254.471802
 20
147.937348
 11
254.546026
 21
147.919747
  0
LINE
  8
CSLAYER1
  6
CONTINUOUS
 62
     6
 10
254.546026
 20
147.919747
 11
254.619761
 21
147.901723
  0
LINE
  8
CSLAYER1
  6
CONTINUOUS
 62
     6
 10
254.619761
 20
147.901723
 11
254.693058
 21
147.883317
  0
LINE
  8
CSLAYER1
  6
CONTINUOUS
 62
     6
 10
254.693058
 20
147.883317
 11
254.765963
 21
147.864571
  0
LINE
  8
CSLAYER1
  6
CONTINUOUS
 62
     6
 10
254.765963
 20
147.864571
 11
254.838527
 21
147.845529
  0
LINE
  8
CSLAYER1
  6
CONTINUOUS
 62
     6
 10
254.838527
 20
147.845529
 11
254.910799
 21
147.826232
  0
LINE
  8
CSLAYER1
  6
CONTINUOUS
 62
     6
 10
254.910799
 20
147.826232
 11
254.982826
 21
147.806724
  0
LINE
  8
CSLAYER1
  6
CONTINUOUS
 62
     6
 10
254.982826
 20
147.806724
 11
255.054658
 21
147.787045
  0
LINE
  8
CSLAYER1
  6
CONTINUOUS
 62
     6
 10
255.054658
 20
147.787045
 11
255.126343
 21
147.767240
  0
LINE
  8
CSLAYER1
  6
CONTINUOUS
 62
     6
 10
255.126343
 20
147.767240
 11
255.197931
 21
147.747350
  0
LINE
  8
CSLAYER1
  6
CONTINUOUS
 62
     6
 10
255.197931
 20
147.747350
 11
255.278550
 21
147.724887
  0
LINE
  8
CSLAYER1
  6
CONTINUOUS
 62
     6
 10
255.278550
 20
147.724887
 11
255.405806
 21
147.897037
  0
LINE
  8
CSLAYER1
  6
CONTINUOUS
 62
     6
 10
255.405806
 20
147.897037
 11
255.500585
 21
148.024199
  0
LINE
  8
CSLAYER1
  6
CONTINUOUS
 62
     6
 10
255.500585
 20
148.024199
 11
255.596237
 21
148.150431
  0
LINE
  8
CSLAYER1
  6
CONTINUOUS
 62
     6
 10
255.596237
 20
148.150431
 11
255.693195
 21
148.275267
  0
LINE
  8
CSLAYER1
  6
CONTINUOUS
 62
     6
 10
255.693195
 20
148.275267
 11
255.791898
 21
148.398241
  0
LINE
  8
CSLAYER1
  6
CONTINUOUS
 62
     6
 10
255.791898
 20
148.398241
 11
255.892779
 21
148.518890
  0
LINE
  8
CSLAYER1
  6
CONTINUOUS
 62
     6
 10
255.892779
 20
148.518890
 11
255.996275
 21
148.636747
  0
LINE
  8
CSLAYER1
  6
CONTINUOUS
 62
     6
 10
255.996275
 20
148.636747
 11
256.102823
 21
148.751347
  0
LINE
  8
CSLAYER1
  6
CONTINUOUS
 62
     6
 10
256.102823
 20
148.751347
 11
256.212857
 21
148.862225
  0
LINE
  8
CSLAYER1
  6
CONTINUOUS
 62
     6
 10
256.212857
 20
148.862225
 11
256.326814
 21
148.968916
  0
LINE
  8
CSLAYER1
  6
CONTINUOUS
 62
     6
 10
256.326814
 20
148.968916
 11
256.445129
 21
149.070954
  0
LINE
  8
CSLAYER1
  6
CONTINUOUS
 62
     6
 10
256.445129
 20
149.070954
 11
256.596554
 21
149.189992
  0
LINE
  8
CSLAYER1
  6
CONTINUOUS
 62
     6
 10
256.596554
 20
149.189992
 11
256.754793
 21
149.304504
  0
LINE
  8
CSLAYER1
  6
CONTINUOUS
 62
     6
 10
256.754793
 20
149.304504
 11
256.917914
 21
149.415444
  0
LINE
  8
CSLAYER1
  6
CONTINUOUS
 62
     6
 10
256.917914
 20
149.415444
 11
257.083982
 21
149.523762
  0
LINE
  8
CSLAYER1
  6
CONTINUOUS
 62
     6
 10
257.083982
 20
149.523762
 11
257.251064
 21
149.630412
  0
LINE
  8
CSLAYER1
  6
CONTINUOUS
 62
     6
 10
257.251064
 20
149.630412
 11
257.417225
 21
149.736345
  0
LINE
  8
CSLAYER1
  6
CONTINUOUS
 62
     6
 10
257.417225
 20
149.736345
 11
257.580532
 21
149.842512
  0
LINE
  8
CSLAYER1
  6
CONTINUOUS
 62
     6
 10
257.580532
 20
149.842512
 11
257.739050
 21
149.949867
  0
LINE
  8
CSLAYER1
  6
CONTINUOUS
 62
     6
 10
257.739050
 20
149.949867
 11
257.890845
 21
150.059361
  0
LINE
  8
CSLAYER1
  6
CONTINUOUS
 62
     6
 10
257.890845
 20
150.059361
 11
258.033985
 21
150.171946
  0
LINE
  8
CSLAYER1
  6
CONTINUOUS
 62
     6
 10
258.033985
 20
150.171946
 11
258.166534
 21
150.288575
  0
LINE
  8
CSLAYER1
  6
CONTINUOUS
 62
     6
 10
258.166534
 20
150.288575
 11
258.269539
 21
150.391589
  0
LINE
  8
CSLAYER1
  6
CONTINUOUS
 62
     6
 10
258.269539
 20
150.391589
 11
258.371203
 21
150.505025
  0
LINE
  8
CSLAYER1
  6
CONTINUOUS
 62
     6
 10
258.371203
 20
150.505025
 11
258.470957
 21
150.627193
  0
LINE
  8
CSLAYER1
  6
CONTINUOUS
 62
     6
 10
258.470957
 20
150.627193
 11
258.568235
 21
150.756401
  0
LINE
  8
CSLAYER1
  6
CONTINUOUS
 62
     6
 10
258.568235
 20
150.756401
 11
258.662470
 21
150.890962
  0
LINE
  8
CSLAYER1
  6
CONTINUOUS
 62
     6
 10
258.662470
 20
150.890962
 11
258.753094
 21
151.029183
  0
LINE
  8
CSLAYER1
  6
CONTINUOUS
 62
     6
 10
258.753094
 20
151.029183
 11
258.839541
 21
151.169376
  0
LINE
  8
CSLAYER1
  6
CONTINUOUS
 62
     6
 10
258.839541
 20
151.169376
 11
258.921242
 21
151.309851
  0
LINE
  8
CSLAYER1
  6
CONTINUOUS
 62
     6
 10
258.921242
 20
151.309851
 11
258.997631
 21
151.448917
  0
LINE
  8
CSLAYER1
  6
CONTINUOUS
 62
     6
 10
258.997631
 20
151.448917
 11
259.068140
 21
151.584885
  0
LINE
  8
CSLAYER1
  6
CONTINUOUS
 62
     6
 10
259.068140
 20
151.584885
 11
259.173400
 21
151.800426
  0
ARC
  8
CSLAYER1
  6
CONTINUOUS
 62
     6
 10
258.247289
 20
151.244348
 40
1.080690
 50
30.945197
 51
90.945197
  0
ARC
  8
CSLAYER1
  6
CONTINUOUS
 62
     6
 10
257.302598
 20
151.769181
 40
1.080690
 50
30.945197
 51
90.945197
  0
ARC
  8
CSLAYER1
  6
CONTINUOUS
 62
     6
 10
258.211635
 20
153.405434
 40
1.080690
 50
210.945197
 51
270.945197
  0
LINE
  8
CSLAYER1
  6
CONTINUOUS
 62
     6
 10
257.284790
 20
152.849701
 11
257.140087
 21
152.710355
  0
LINE
  8
CSLAYER1
  6
CONTINUOUS
 62
     6
 10
257.140087
 20
152.710355
 11
256.986173
 21
152.560605
  0
LINE
  8
CSLAYER1
  6
CONTINUOUS
 62
     6
 10
256.986173
 20
152.560605
 11
256.824822
 21
152.402777
  0
LINE
  8
CSLAYER1
  6
CONTINUOUS
 62
     6
 10
256.824822
 20
152.402777
 11
256.657812
 21
152.239195
  0
ARC
  8
CSLAYER1
  6
CONTINUOUS
 62
     6
 10
259.758730
 20
154.253549
 40
1.095863
 50
203.568976
 51
263.568976
  0
ARC
  8
CSLAYER1
  6
CONTINUOUS
 62
     6
 10
260.640431
 20
153.602766
 40
1.095863
 50
203.568976
 51
263.568976
  0
ARC
  8
CSLAYER1
  6
CONTINUOUS
 62
     6
 10
259.513242
 20
152.075615
 40
1.095863
 50
23.568976
 51
83.568976
  0
LINE
  8
CSLAYER1
  6
CONTINUOUS
 62
     6
 10
259.007415
 20
153.995336
 11
258.754303
 21
153.815369
  0
LINE
  8
CSLAYER1
  6
CONTINUOUS
 62
     6
 10
259.007415
 20
153.995336
 11
259.260276
 21
154.175656
  0
LINE
  8
CSLAYER1
  6
CONTINUOUS
 62
     6
 10
259.260276
 20
154.175656
 11
259.512636
 21
154.356682
  0
LINE
  8
CSLAYER1
  6
CONTINUOUS
 62
     6
 10
259.512636
 20
154.356682
 11
259.764244
 21
154.538765
  0
LINE
  8
CSLAYER1
  6
CONTINUOUS
 62
     6
 10
259.764244
 20
154.538765
 11
260.014849
 21
154.722261
  0
LINE
  8
CSLAYER1
  6
CONTINUOUS
 62
     6
 10
260.014849
 20
154.722261
 11
260.264202
 21
154.907519
  0
LINE
  8
CSLAYER1
  6
CONTINUOUS
 62
     6
 10
260.264202
 20
154.907519
 11
260.512051
 21
155.094895
  0
LINE
  8
CSLAYER1
  6
CONTINUOUS
 62
     6
 10
260.512051
 20
155.094895
 11
260.758145
 21
155.284740
  0
LINE
  8
CSLAYER1
  6
CONTINUOUS
 62
     6
 10
260.758145
 20
155.284740
 11
261.002235
 21
155.477407
  0
LINE
  8
CSLAYER1
  6
CONTINUOUS
 62
     6
 10
261.002235
 20
155.477407
 11
261.244070
 21
155.673250
  0
LINE
  8
CSLAYER1
  6
CONTINUOUS
 62
     6
 10
261.244070
 20
155.673250
 11
261.483398
 21
155.872620
  0
LINE
  8
CSLAYER1
  6
CONTINUOUS
 62
     6
 10
261.483398
 20
155.872620
 11
261.640663
 21
156.006917
  0
LINE
  8
CSLAYER1
  6
CONTINUOUS
 62
     6
 10
261.640663
 20
156.006917
 11
261.797712
 21
156.143941
  0
LINE
  8
CSLAYER1
  6
CONTINUOUS
 62
     6
 10
261.797712
 20
156.143941
 11
261.953803
 21
156.283501
  0
LINE
  8
CSLAYER1
  6
CONTINUOUS
 62
     6
 10
261.953803
 20
156.283501
 11
262.108192
 21
156.425403
  0
LINE
  8
CSLAYER1
  6
CONTINUOUS
 62
     6
 10
262.108192
 20
156.425403
 11
262.260137
 21
156.569456
  0
LINE
  8
CSLAYER1
  6
CONTINUOUS
 62
     6
 10
262.260137
 20
156.569456
 11
262.408894
 21
156.715466
  0
LINE
  8
CSLAYER1
  6
CONTINUOUS
 62
     6
 10
262.408894
 20
156.715466
 11
262.553720
 21
156.863241
  0
LINE
  8
CSLAYER1
  6
CONTINUOUS
 62
     6
 10
262.553720
 20
156.863241
 11
262.693873
 21
157.012588
  0
LINE
  8
CSLAYER1
  6
CONTINUOUS
 62
     6
 10
262.693873
 20
157.012588
 11
262.828608
 21
157.163316
  0
LINE
  8
CSLAYER1
  6
CONTINUOUS
 62
     6
 10
262.828608
 20
157.163316
 11
262.957184
 21
157.315230
  0
LINE
  8
CSLAYER1
  6
CONTINUOUS
 62
     6
 10
262.957184
 20
157.315230
 11
263.078857
 21
157.468140
  0
LINE
  8
CSLAYER1
  6
CONTINUOUS
 62
     6
 10
263.078857
 20
157.468140
 11
263.193312
 21
157.619466
  0
LINE
  8
CSLAYER1
  6
CONTINUOUS
 62
     6
 10
263.193312
 20
157.619466
 11
263.308612
 21
157.776720
  0
LINE
  8
CSLAYER1
  6
CONTINUOUS
 62
     6
 10
263.308612
 20
157.776720
 11
263.424225
 21
157.938778
  0
LINE
  8
CSLAYER1
  6
CONTINUOUS
 62
     6
 10
263.424225
 20
157.938778
 11
263.539618
 21
158.104517
  0
LINE
  8
CSLAYER1
  6
CONTINUOUS
 62
     6
 10
263.539618
 20
158.104517
 11
263.654258
 21
158.272817
  0
LINE
  8
CSLAYER1
  6
CONTINUOUS
 62
     6
 10
263.654258
 20
158.272817
 11
263.767613
 21
158.442553
  0
LINE
  8
CSLAYER1
  6
CONTINUOUS
 62
     6
 10
263.767613
 20
158.442553
 11
263.879148
 21
158.612604
  0
LINE
  8
CSLAYER1
  6
CONTINUOUS
 62
     6
 10
263.879148
 20
158.612604
 11
263.988332
 21
158.781846
  0
LINE
  8
CSLAYER1
  6
CONTINUOUS
 62
     6
 10
263.988332
 20
158.781846
 11
264.094632
 21
158.949158
  0
LINE
  8
CSLAYER1
  6
CONTINUOUS
 62
     6
 10
264.094632
 20
158.949158
 11
264.197515
 21
159.113416
  0
LINE
  8
CSLAYER1
  6
CONTINUOUS
 62
     6
 10
264.197515
 20
159.113416
 11
264.296448
 21
159.273499
  0
LINE
  8
CSLAYER1
  6
CONTINUOUS
 62
     6
 10
264.296448
 20
159.273499
 11
264.382922
 21
159.411725
  0
LINE
  8
CSLAYER1
  6
CONTINUOUS
 62
     6
 10
264.382922
 20
159.411725
 11
264.474873
 21
159.554183
  0
LINE
  8
CSLAYER1
  6
CONTINUOUS
 62
     6
 10
264.474873
 20
159.554183
 11
264.571073
 21
159.699663
  0
LINE
  8
CSLAYER1
  6
CONTINUOUS
 62
     6
 10
264.571073
 20
159.699663
 11
264.670292
 21
159.846953
  0
LINE
  8
CSLAYER1
  6
CONTINUOUS
 62
     6
 10
264.670292
 20
159.846953
 11
264.771301
 21
159.994843
  0
LINE
  8
CSLAYER1
  6
CONTINUOUS
 62
     6
 10
264.771301
 20
159.994843
 11
264.872869
 21
160.142121
  0
LINE
  8
CSLAYER1
  6
CONTINUOUS
 62
     6
 10
264.872869
 20
160.142121
 11
264.973767
 21
160.287578
  0
LINE
  8
CSLAYER1
  6
CONTINUOUS
 62
     6
 10
264.973767
 20
160.287578
 11
265.072765
 21
160.430002
  0
LINE
  8
CSLAYER1
  6
CONTINUOUS
 62
     6
 10
265.072765
 20
160.430002
 11
265.168635
 21
160.568182
  0
LINE
  8
CSLAYER1
  6
CONTINUOUS
 62
     6
 10
265.168635
 20
160.568182
 11
265.289177
 21
160.743012
  0
ARC
  8
CSLAYER1
  6
CONTINUOUS
 62
     6
 10
263.023973
 20
162.743012
 40
2.000000
 50
180.000000
 51
270.000000
  0
LINE
  8
CSLAYER1
  6
CONTINUOUS
 62
     6
 10
261.023973
 20
162.743012
 11
261.023973
 21
163.243012
  0
LINE
  8
CSLAYER1
  6
CONTINUOUS
 62
     6
 10
260.773973
 20
163.243012
 11
286.773973
 21
163.243012
  0
LINE
  8
CSLAYER1
  6
CONTINUOUS
 62
     6
 10
286.773973
 20
165.243012
 11
260.773973
 21
165.243012
  0
LINE
  8
CSLAYER1
  6
CONTINUOUS
 62
     6
 10
263.023973
 20
160.743012
 11
272.112598
 21
160.743012
  0
ARC
  8
CSLAYER1
  6
CONTINUOUS
 62
     6
 10
273.773973
 20
167.543000
 40
7.000000
 50
253.743003
 51
286.257026
  0
ARC
  8
CSLAYER1
  6
CONTINUOUS
 62
     6
 10
275.453630
 20
161.782929
 40
1.000000
 50
286.257408
 51
354.999902
  0
LINE
  8
CSLAYER1
  6
CONTINUOUS
 62
     6
 10
276.449815
 20
161.695771
 11
276.504930
 21
162.325592
  0
ARC
  8
CSLAYER1
  6
CONTINUOUS
 62
     6
 10
276.305711
 20
162.343018
 40
0.200000
 50
-5.000126
 51
90.000019
  0
LINE
  8
CSLAYER1
  6
CONTINUOUS
 62
     6
 10
276.573961
 20
162.543030
 11
273.773973
 21
162.543000
  0
LINE
  8
CSLAYER1
  6
CONTINUOUS
 62
     6
 10
273.773973
 20
162.543000
 11
270.973985
 21
162.543000
  0
ARC
  8
CSLAYER1
  6
CONTINUOUS
 62
     6
 10
270.973985
 20
162.643006
 40
0.100000
 50
180.000005
 51
270.000001
  0
LINE
  8
CSLAYER1
  6
CONTINUOUS
 62
     6
 10
270.873949
 20
162.643006
 11
270.873949
 21
163.143006
  0
ARC
  8
CSLAYER1
  6
CONTINUOUS
 62
     6
 10
270.973985
 20
163.143006
 40
0.100000
 50
90.000003
 51
180.000005
  0
ARC
  8
CSLAYER1
  6
CONTINUOUS
 62
     6
 10
271.242235
 20
162.343018
 40
0.200000
 50
90.000003
 51
185.000154
  0
LINE
  8
CSLAYER1
  6
CONTINUOUS
 62
     6
 10
271.042985
 20
162.325592
 11
271.098070
 21
161.695771
  0
ARC
  8
CSLAYER1
  6
CONTINUOUS
 62
     6
 10
272.094285
 20
161.782929
 40
1.000000
 50
185.000113
 51
253.742620
  0
LINE
  8
CSLAYER1
  6
CONTINUOUS
 62
     6
 10
270.202595
 20
160.743012
 11
270.037478
 21
159.724968
  0
LINE
  8
CSLAYER1
  6
CONTINUOUS
 62
     6
 10
270.037478
 20
159.724968
 11
269.979343
 21
159.402541
  0
LINE
  8
CSLAYER1
  6
CONTINUOUS
 62
     6
 10
269.979343
 20
159.402541
 11
269.914490
 21
159.070731
  0
LINE
  8
CSLAYER1
  6
CONTINUOUS
 62
     6
 10
269.914490
 20
159.070731
 11
269.844114
 21
158.732935
  0
LINE
  8
CSLAYER1
  6
CONTINUOUS
 62
     6
 10
269.844114
 20
158.732935
 11
269.769411
 21
158.392547
  0
LINE
  8
CSLAYER1
  6
CONTINUOUS
 62
     6
 10
269.769411
 20
158.392547
 11
269.691575
 21
158.052963
  0
LINE
  8
CSLAYER1
  6
CONTINUOUS
 62
     6
 10
269.691575
 20
158.052963
 11
269.611801
 21
157.717578
  0
LINE
  8
CSLAYER1
  6
CONTINUOUS
 62
     6
 10
269.611801
 20
157.717578
 11
269.531284
 21
157.389787
  0
LINE
  8
CSLAYER1
  6
CONTINUOUS
 62
     6
 10
269.531284
 20
157.389787
 11
269.451220
 21
157.072986
  0
LINE
  8
CSLAYER1
  6
CONTINUOUS
 62
     6
 10
269.451220
 20
157.072986
 11
269.372803
 21
156.770569
  0
LINE
  8
CSLAYER1
  6
CONTINUOUS
 62
     6
 10
269.372803
 20
156.770569
 11
269.289431
 21
156.470819
  0
LINE
  8
CSLAYER1
  6
CONTINUOUS
 62
     6
 10
269.289431
 20
156.470819
 11
269.195517
 21
156.165295
  0
LINE
  8
CSLAYER1
  6
CONTINUOUS
 62
     6
 10
269.195517
 20
156.165295
 11
269.091932
 21
155.855255
  0
LINE
  8
CSLAYER1
  6
CONTINUOUS
 62
     6
 10
269.091932
 20
155.855255
 11
268.979544
 21
155.541960
  0
LINE
  8
CSLAYER1
  6
CONTINUOUS
 62
     6
 10
268.979544
 20
155.541960
 11
268.859222
 21
155.226669
  0
LINE
  8
CSLAYER1
  6
CONTINUOUS
 62
     6
 10
268.859222
 20
155.226669
 11
268.731835
 21
154.910640
  0
LINE
  8
CSLAYER1
  6
CONTINUOUS
 62
     6
 10
268.731835
 20
154.910640
 11
268.598253
 21
154.595135
  0
LINE
  8
CSLAYER1
  6
CONTINUOUS
 62
     6
 10
268.598253
 20
154.595135
 11
268.459344
 21
154.281411
  0
LINE
  8
CSLAYER1
  6
CONTINUOUS
 62
     6
 10
268.459344
 20
154.281411
 11
268.315977
 21
153.970729
  0
LINE
  8
CSLAYER1
  6
CONTINUOUS
 62
     6
 10
268.315977
 20
153.970729
 11
268.169022
 21
153.664347
  0
LINE
  8
CSLAYER1
  6
CONTINUOUS
 62
     6
 10
268.169022
 20
153.664347
 11
268.019348
 21
153.363526
  0
LINE
  8
CSLAYER1
  6
CONTINUOUS
 62
     6
 10
268.019348
 20
153.363526
 11
267.892003
 21
153.115906
  0
LINE
  8
CSLAYER1
  6
CONTINUOUS
 62
     6
 10
267.892003
 20
153.115906
 11
267.761851
 21
152.869872
  0
LINE
  8
CSLAYER1
  6
CONTINUOUS
 62
     6
 10
267.761851
 20
152.869872
 11
267.629173
 21
152.625266
  0
LINE
  8
CSLAYER1
  6
CONTINUOUS
 62
     6
 10
267.629173
 20
152.625266
 11
267.494248
 21
152.381929
  0
LINE
  8
CSLAYER1
  6
CONTINUOUS
 62
     6
 10
267.494248
 20
152.381929
 11
267.357357
 21
152.139702
  0
LINE
  8
CSLAYER1
  6
CONTINUOUS
 62
     6
 10
267.357357
 20
152.139702
 11
267.218783
 21
151.898427
  0
LINE
  8
CSLAYER1
  6
CONTINUOUS
 62
     6
 10
267.218783
 20
151.898427
 11
267.078804
 21
151.657945
  0
LINE
  8
CSLAYER1
  6
CONTINUOUS
 62
     6
 10
267.078804
 20
151.657945
 11
266.937703
 21
151.418097
  0
LINE
  8
CSLAYER1
  6
CONTINUOUS
 62
     6
 10
266.937703
 20
151.418097
 11
266.795759
 21
151.178726
  0
LINE
  8
CSLAYER1
  6
CONTINUOUS
 62
     6
 10
266.795759
 20
151.178726
 11
266.653254
 21
150.939672
  0
LINE
  8
CSLAYER1
  6
CONTINUOUS
 62
     6
 10
266.653254
 20
150.939672
 11
266.510468
 21
150.700776
  0
ARC
  8
CSLAYER1
  6
CONTINUOUS
 62
     6
 10
266.500802
 20
151.900744
 40
1.200008
 50
210.461486
 51
270.461486
  0
ARC
  8
CSLAYER1
  6
CONTINUOUS
 62
     6
 10
265.456766
 20
152.492358
 40
1.200008
 50
210.461486
 51
270.461486
  0
LINE
  8
CSLAYER1
  6
CONTINUOUS
 62
     6
 10
264.422363
 20
151.884003
 11
264.557645
 21
152.109925
  0
LINE
  8
CSLAYER1
  6
CONTINUOUS
 62
     6
 10
264.557645
 20
152.109925
 11
264.692651
 21
152.336001
  0
LINE
  8
CSLAYER1
  6
CONTINUOUS
 62
     6
 10
264.692651
 20
152.336001
 11
264.827107
 21
152.562387
  0
LINE
  8
CSLAYER1
  6
CONTINUOUS
 62
     6
 10
264.827107
 20
152.562387
 11
264.960738
 21
152.789237
  0
LINE
  8
CSLAYER1
  6
CONTINUOUS
 62
     6
 10
264.960738
 20
152.789237
 11
265.093267
 21
153.016705
  0
LINE
  8
CSLAYER1
  6
CONTINUOUS
 62
     6
 10
265.093267
 20
153.016705
 11
265.224421
 21
153.244947
  0
LINE
  8
CSLAYER1
  6
CONTINUOUS
 62
     6
 10
265.224421
 20
153.244947
 11
265.353923
 21
153.474117
  0
LINE
  8
CSLAYER1
  6
CONTINUOUS
 62
     6
 10
265.353923
 20
153.474117
 11
265.481499
 21
153.704369
  0
LINE
  8
CSLAYER1
  6
CONTINUOUS
 62
     6
 10
265.481499
 20
153.704369
 11
265.606873
 21
153.935858
  0
LINE
  8
CSLAYER1
  6
CONTINUOUS
 62
     6
 10
265.606873
 20
153.935858
 11
265.729770
 21
154.168740
  0
LINE
  8
CSLAYER1
  6
CONTINUOUS
 62
     6
 10
265.729770
 20
154.168740
 11
265.849915
 21
154.403168
  0
LINE
  8
CSLAYER1
  6
CONTINUOUS
 62
     6
 10
265.849915
 20
154.403168
 11
265.984156
 21
154.673973
  0
LINE
  8
CSLAYER1
  6
CONTINUOUS
 62
     6
 10
265.984156
 20
154.673973
 11
266.116019
 21
154.949738
  0
LINE
  8
CSLAYER1
  6
CONTINUOUS
 62
     6
 10
266.116019
 20
154.949738
 11
266.244726
 21
155.229332
  0
LINE
  8
CSLAYER1
  6
CONTINUOUS
 62
     6
 10
266.244726
 20
155.229332
 11
266.369501
 21
155.511622
  0
LINE
  8
CSLAYER1
  6
CONTINUOUS
 62
     6
 10
266.369501
 20
155.511622
 11
266.489564
 21
155.795478
  0
LINE
  8
CSLAYER1
  6
CONTINUOUS
 62
     6
 10
266.489564
 20
155.795478
 11
266.604139
 21
156.079768
  0
LINE
  8
CSLAYER1
  6
CONTINUOUS
 62
     6
 10
266.604139
 20
156.079768
 11
266.712448
 21
156.363361
  0
LINE
  8
CSLAYER1
  6
CONTINUOUS
 62
     6
 10
266.712448
 20
156.363361
 11
266.813713
 21
156.645126
  0
LINE
  8
CSLAYER1
  6
CONTINUOUS
 62
     6
 10
266.813713
 20
156.645126
 11
266.907158
 21
156.923932
  0
LINE
  8
CSLAYER1
  6
CONTINUOUS
 62
     6
 10
266.907158
 20
156.923932
 11
266.992004
 21
157.198647
  0
LINE
  8
CSLAYER1
  6
CONTINUOUS
 62
     6
 10
266.992004
 20
157.198647
 11
267.067474
 21
157.468140
  0
LINE
  8
CSLAYER1
  6
CONTINUOUS
 62
     6
 10
267.067474
 20
157.468140
 11
267.142014
 21
157.753579
  0
LINE
  8
CSLAYER1
  6
CONTINUOUS
 62
     6
 10
267.142014
 20
157.753579
 11
267.218022
 21
158.052757
  0
LINE
  8
CSLAYER1
  6
CONTINUOUS
 62
     6
 10
267.218022
 20
158.052757
 11
267.294366
 21
158.362423
  0
LINE
  8
CSLAYER1
  6
CONTINUOUS
 62
     6
 10
267.294366
 20
158.362423
 11
267.369912
 21
158.679323
  0
LINE
  8
CSLAYER1
  6
CONTINUOUS
 62
     6
 10
267.369912
 20
158.679323
 11
267.443528
 21
159.000205
  0
LINE
  8
CSLAYER1
  6
CONTINUOUS
 62
     6
 10
267.443528
 20
159.000205
 11
267.514080
 21
159.321816
  0
LINE
  8
CSLAYER1
  6
CONTINUOUS
 62
     6
 10
267.514080
 20
159.321816
 11
267.580437
 21
159.640904
  0
LINE
  8
CSLAYER1
  6
CONTINUOUS
 62
     6
 10
267.580437
 20
159.640904
 11
267.641465
 21
159.954215
  0
LINE
  8
CSLAYER1
  6
CONTINUOUS
 62
     6
 10
267.641465
 20
159.954215
 11
267.696032
 21
160.258498
  0
LINE
  8
CSLAYER1
  6
CONTINUOUS
 62
     6
 10
267.696032
 20
160.258498
 11
267.773973
 21
160.743012
  0
LINE
  8
CSLAYER1
  6
CONTINUOUS
 62
     6
 10
267.645572
 20
159.977118
 11
267.597326
 21
159.889284
  0
LINE
  8
CSLAYER1
  6
CONTINUOUS
 62
     6
 10
267.597326
 20
159.889284
 11
267.487439
 21
159.697475
  0
LINE
  8
CSLAYER1
  6
CONTINUOUS
 62
     6
 10
267.487439
 20
159.697475
 11
267.369185
 21
159.497988
  0
LINE
  8
CSLAYER1
  6
CONTINUOUS
 62
     6
 10
267.369185
 20
159.497988
 11
267.244146
 21
159.293008
  0
LINE
  8
CSLAYER1
  6
CONTINUOUS
 62
     6
 10
267.244146
 20
159.293008
 11
267.113905
 21
159.084722
  0
LINE
  8
CSLAYER1
  6
CONTINUOUS
 62
     6
 10
267.113905
 20
159.084722
 11
266.980043
 21
158.875317
  0
LINE
  8
CSLAYER1
  6
CONTINUOUS
 62
     6
 10
266.980043
 20
158.875317
 11
266.844140
 21
158.666977
  0
LINE
  8
CSLAYER1
  6
CONTINUOUS
 62
     6
 10
266.844140
 20
158.666977
 11
266.707780
 21
158.461889
  0
LINE
  8
CSLAYER1
  6
CONTINUOUS
 62
     6
 10
266.707780
 20
158.461889
 11
266.572544
 21
158.262240
  0
LINE
  8
CSLAYER1
  6
CONTINUOUS
 62
     6
 10
266.572544
 20
158.262240
 11
266.440012
 21
158.070215
  0
LINE
  8
CSLAYER1
  6
CONTINUOUS
 62
     6
 10
266.440012
 20
158.070215
 11
266.311768
 21
157.888001
  0
LINE
  8
CSLAYER1
  6
CONTINUOUS
 62
     6
 10
266.311768
 20
157.888001
 11
266.206688
 21
157.743822
  0
LINE
  8
CSLAYER1
  6
CONTINUOUS
 62
     6
 10
266.206688
 20
157.743822
 11
266.094797
 21
157.596772
  0
LINE
  8
CSLAYER1
  6
CONTINUOUS
 62
     6
 10
266.094797
 20
157.596772
 11
265.977228
 21
157.447750
  0
LINE
  8
CSLAYER1
  6
CONTINUOUS
 62
     6
 10
265.977228
 20
157.447750
 11
265.855115
 21
157.297656
  0
LINE
  8
CSLAYER1
  6
CONTINUOUS
 62
     6
 10
265.855115
 20
157.297656
 11
265.729589
 21
157.147387
  0
LINE
  8
CSLAYER1
  6
CONTINUOUS
 62
     6
 10
265.729589
 20
157.147387
 11
265.601784
 21
156.997845
  0
LINE
  8
CSLAYER1
  6
CONTINUOUS
 62
     6
 10
265.601784
 20
156.997845
 11
265.472831
 21
156.849927
  0
LINE
  8
CSLAYER1
  6
CONTINUOUS
 62
     6
 10
265.472831
 20
156.849927
 11
265.343864
 21
156.704532
  0
LINE
  8
CSLAYER1
  6
CONTINUOUS
 62
     6
 10
265.343864
 20
156.704532
 11
265.216014
 21
156.562560
  0
LINE
  8
CSLAYER1
  6
CONTINUOUS
 62
     6
 10
265.216014
 20
156.562560
 11
265.090416
 21
156.424910
  0
LINE
  8
CSLAYER1
  6
CONTINUOUS
 62
     6
 10
265.090416
 20
156.424910
 11
264.968201
 21
156.292481
  0
LINE
  8
CSLAYER1
  6
CONTINUOUS
 62
     6
 10
264.968201
 20
156.292481
 11
264.823225
 21
156.140321
  0
LINE
  8
CSLAYER1
  6
CONTINUOUS
 62
     6
 10
264.823225
 20
156.140321
 11
264.670050
 21
155.986370
  0
LINE
  8
CSLAYER1
  6
CONTINUOUS
 62
     6
 10
264.670050
 20
155.986370
 11
264.510641
 21
155.830936
  0
LINE
  8
CSLAYER1
  6
CONTINUOUS
 62
     6
 10
264.510641
 20
155.830936
 11
264.346964
 21
155.674328
  0
LINE
  8
CSLAYER1
  6
CONTINUOUS
 62
     6
 10
264.346964
 20
155.674328
 11
264.180984
 21
155.516855
  0
LINE
  8
CSLAYER1
  6
CONTINUOUS
 62
     6
 10
264.180984
 20
155.516855
 11
264.014666
 21
155.358824
  0
LINE
  8
CSLAYER1
  6
CONTINUOUS
 62
     6
 10
264.014666
 20
155.358824
 11
263.849976
 21
155.200544
  0
LINE
  8
CSLAYER1
  6
CONTINUOUS
 62
     6
 10
263.849976
 20
155.200544
 11
263.688879
 21
155.042324
  0
LINE
  8
CSLAYER1
  6
CONTINUOUS
 62
     6
 10
263.688879
 20
155.042324
 11
263.533339
 21
154.884472
  0
LINE
  8
CSLAYER1
  6
CONTINUOUS
 62
     6
 10
263.533339
 20
154.884472
 11
263.385323
 21
154.727296
  0
LINE
  8
CSLAYER1
  6
CONTINUOUS
 62
     6
 10
263.385323
 20
154.727296
 11
263.246796
 21
154.571106
  0
LINE
  8
CSLAYER1
  6
CONTINUOUS
 62
     6
 10
263.246796
 20
154.571106
 11
263.120881
 21
154.424524
  0
LINE
  8
CSLAYER1
  6
CONTINUOUS
 62
     6
 10
263.120881
 20
154.424524
 11
262.990071
 21
154.274345
  0
LINE
  8
CSLAYER1
  6
CONTINUOUS
 62
     6
 10
262.990071
 20
154.274345
 11
262.854469
 21
154.122126
  0
LINE
  8
CSLAYER1
  6
CONTINUOUS
 62
     6
 10
262.854469
 20
154.122126
 11
262.714175
 21
153.969421
  0
LINE
  8
CSLAYER1
  6
CONTINUOUS
 62
     6
 10
262.714175
 20
153.969421
 11
262.569292
 21
153.817788
  0
LINE
  8
CSLAYER1
  6
CONTINUOUS
 62
     6
 10
262.569292
 20
153.817788
 11
262.419922
 21
153.668781
  0
LINE
  8
CSLAYER1
  6
CONTINUOUS
 62
     6
 10
262.419922
 20
153.668781
 11
262.266165
 21
153.523957
  0
LINE
  8
CSLAYER1
  6
CONTINUOUS
 62
     6
 10
262.266165
 20
153.523957
 11
262.108125
 21
153.384872
  0
LINE
  8
CSLAYER1
  6
CONTINUOUS
 62
     6
 10
262.108125
 20
153.384872
 11
261.945901
 21
153.253082
  0
LINE
  8
CSLAYER1
  6
CONTINUOUS
 62
     6
 10
261.945901
 20
153.253082
 11
261.779597
 21
153.130142
  0
LINE
  8
CSLAYER1
  6
CONTINUOUS
 62
     6
 10
261.779597
 20
153.130142
 11
261.609314
 21
153.017609
  0
LINE
  8
CSLAYER1
  6
CONTINUOUS
 62
     6
 10
261.609314
 20
153.017609
 11
261.516580
 21
152.962183
  0
LINE
  8
CSLAYER1
  6
CONTINUOUS
 62
     6
 10
261.516580
 20
152.962183
 11
261.421988
 21
152.909506
  0
LINE
  8
CSLAYER1
  6
CONTINUOUS
 62
     6
 10
261.421988
 20
152.909506
 11
261.325723
 21
152.859305
  0
LINE
  8
CSLAYER1
  6
CONTINUOUS
 62
     6
 10
261.325723
 20
152.859305
 11
261.227972
 21
152.811303
  0
LINE
  8
CSLAYER1
  6
CONTINUOUS
 62
     6
 10
261.227972
 20
152.811303
 11
261.128920
 21
152.765227
  0
LINE
  8
CSLAYER1
  6
CONTINUOUS
 62
     6
 10
261.128920
 20
152.765227
 11
261.028753
 21
152.720801
  0
LINE
  8
CSLAYER1
  6
CONTINUOUS
 62
     6
 10
261.028753
 20
152.720801
 11
260.927658
 21
152.677749
  0
LINE
  8
CSLAYER1
  6
CONTINUOUS
 62
     6
 10
260.927658
 20
152.677749
 11
260.825819
 21
152.635798
  0
LINE
  8
CSLAYER1
  6
CONTINUOUS
 62
     6
 10
260.825819
 20
152.635798
 11
260.723422
 21
152.594672
  0
LINE
  8
CSLAYER1
  6
CONTINUOUS
 62
     6
 10
260.723422
 20
152.594672
 11
260.620654
 21
152.554095
  0
LINE
  8
CSLAYER1
  6
CONTINUOUS
 62
     6
 10
260.620654
 20
152.554095
 11
260.517700
 21
152.513794
  0
LINE
  8
CSLAYER1
  6
CONTINUOUS
 62
     6
 10
263.416465
 20
150.193162
 11
263.281663
 21
150.027850
  0
LINE
  8
CSLAYER1
  6
CONTINUOUS
 62
     6
 10
263.281663
 20
150.027850
 11
263.143106
 21
149.856197
  0
LINE
  8
CSLAYER1
  6
CONTINUOUS
 62
     6
 10
263.143106
 20
149.856197
 11
263.002830
 21
149.679776
  0
LINE
  8
CSLAYER1
  6
CONTINUOUS
 62
     6
 10
263.002830
 20
149.679776
 11
262.862873
 21
149.500158
  0
LINE
  8
CSLAYER1
  6
CONTINUOUS
 62
     6
 10
262.862873
 20
149.500158
 11
262.725270
 21
149.318914
  0
LINE
  8
CSLAYER1
  6
CONTINUOUS
 62
     6
 10
262.725270
 20
149.318914
 11
262.592058
 21
149.137618
  0
LINE
  8
CSLAYER1
  6
CONTINUOUS
 62
     6
 10
262.592058
 20
149.137618
 11
262.465274
 21
148.957841
  0
LINE
  8
CSLAYER1
  6
CONTINUOUS
 62
     6
 10
262.465274
 20
148.957841
 11
262.346954
 21
148.781154
  0
LINE
  8
CSLAYER1
  6
CONTINUOUS
 62
     6
 10
262.346954
 20
148.781154
 11
262.239136
 21
148.609131
  0
LINE
  8
CSLAYER1
  6
CONTINUOUS
 62
     6
 10
262.239136
 20
148.609131
 11
262.141497
 21
148.445370
  0
LINE
  8
CSLAYER1
  6
CONTINUOUS
 62
     6
 10
262.141497
 20
148.445370
 11
262.041868
 21
148.276103
  0
LINE
  8
CSLAYER1
  6
CONTINUOUS
 62
     6
 10
262.041868
 20
148.276103
 11
261.940042
 21
148.102632
  0
LINE
  8
CSLAYER1
  6
CONTINUOUS
 62
     6
 10
261.940042
 20
148.102632
 11
261.835812
 21
147.926259
  0
LINE
  8
CSLAYER1
  6
CONTINUOUS
 62
     6
 10
261.835812
 20
147.926259
 11
261.728971
 21
147.748286
  0
LINE
  8
CSLAYER1
  6
CONTINUOUS
 62
     6
 10
261.728971
 20
147.748286
 11
261.619314
 21
147.570016
  0
LINE
  8
CSLAYER1
  6
CONTINUOUS
 62
     6
 10
261.619314
 20
147.570016
 11
261.506634
 21
147.392752
  0
LINE
  8
CSLAYER1
  6
CONTINUOUS
 62
     6
 10
261.506634
 20
147.392752
 11
261.390723
 21
147.217794
  0
LINE
  8
CSLAYER1
  6
CONTINUOUS
 62
     6
 10
261.390723
 20
147.217794
 11
261.271376
 21
147.046446
  0
LINE
  8
CSLAYER1
  6
CONTINUOUS
 62
     6
 10
261.271376
 20
147.046446
 11
261.148385
 21
146.880010
  0
LINE
  8
CSLAYER1
  6
CONTINUOUS
 62
     6
 10
261.148385
 20
146.880010
 11
261.021545
 21
146.719788
  0
LINE
  8
CSLAYER1
  6
CONTINUOUS
 62
     6
 10
261.021545
 20
146.719788
 11
260.922724
 21
146.603275
  0
LINE
  8
CSLAYER1
  6
CONTINUOUS
 62
     6
 10
260.922724
 20
146.603275
 11
260.820512
 21
146.489516
  0
LINE
  8
CSLAYER1
  6
CONTINUOUS
 62
     6
 10
260.820512
 20
146.489516
 11
260.715248
 21
146.378235
  0
LINE
  8
CSLAYER1
  6
CONTINUOUS
 62
     6
 10
260.715248
 20
146.378235
 11
260.607271
 21
146.269157
  0
LINE
  8
CSLAYER1
  6
CONTINUOUS
 62
     6
 10
260.607271
 20
146.269157
 11
260.496920
 21
146.162006
  0
LINE
  8
CSLAYER1
  6
CONTINUOUS
 62
     6
 10
260.496920
 20
146.162006
 11
260.384534
 21
146.056508
  0
LINE
  8
CSLAYER1
  6
CONTINUOUS
 62
     6
 10
260.384534
 20
146.056508
 11
260.270453
 21
145.952386
  0
LINE
  8
CSLAYER1
  6
CONTINUOUS
 62
     6
 10
260.270453
 20
145.952386
 11
260.155015
 21
145.849365
  0
LINE
  8
CSLAYER1
  6
CONTINUOUS
 62
     6
 10
260.155015
 20
145.849365
 11
260.038560
 21
145.747171
  0
LINE
  8
CSLAYER1
  6
CONTINUOUS
 62
     6
 10
260.038560
 20
145.747171
 11
259.942534
 21
145.663843
  0
LINE
  8
CSLAYER1
  6
CONTINUOUS
 62
     6
 10
259.942534
 20
145.663843
 11
260.011682
 21
145.629314
  0
LINE
  8
CSLAYER1
  6
CONTINUOUS
 62
     6
 10
260.011682
 20
145.629314
 11
260.096158
 21
145.581698
  0
LINE
  8
CSLAYER1
  6
CONTINUOUS
 62
     6
 10
260.096158
 20
145.581698
 11
260.182090
 21
145.527948
  0
LINE
  8
CSLAYER1
  6
CONTINUOUS
 62
     6
 10
260.182090
 20
145.527948
 11
260.268209
 21
145.468723
  0
LINE
  8
CSLAYER1
  6
CONTINUOUS
 62
     6
 10
260.268209
 20
145.468723
 11
260.353245
 21
145.404686
  0
LINE
  8
CSLAYER1
  6
CONTINUOUS
 62
     6
 10
260.353245
 20
145.404686
 11
260.435928
 21
145.336495
  0
LINE
  8
CSLAYER1
  6
CONTINUOUS
 62
     6
 10
260.435928
 20
145.336495
 11
260.514987
 21
145.264812
  0
LINE
  8
CSLAYER1
  6
CONTINUOUS
 62
     6
 10
260.514987
 20
145.264812
 11
260.589153
 21
145.190296
  0
LINE
  8
CSLAYER1
  6
CONTINUOUS
 62
     6
 10
260.589153
 20
145.190296
 11
260.657156
 21
145.113609
  0
LINE
  8
CSLAYER1
  6
CONTINUOUS
 62
     6
 10
260.657156
 20
145.113609
 11
260.717725
 21
145.035410
  0
LINE
  8
CSLAYER1
  6
CONTINUOUS
 62
     6
 10
260.717725
 20
145.035410
 11
260.769592
 21
144.956360
  0
LINE
  8
CSLAYER1
  6
CONTINUOUS
 62
     6
 10
260.769592
 20
144.956360
 11
260.785499
 21
144.928753
  0
LINE
  8
CSLAYER1
  6
CONTINUOUS
 62
     6
 10
260.785499
 20
144.928753
 11
260.801152
 21
144.900060
  0
LINE
  8
CSLAYER1
  6
CONTINUOUS
 62
     6
 10
260.801152
 20
144.900060
 11
260.816594
 21
144.870447
  0
LINE
  8
CSLAYER1
  6
CONTINUOUS
 62
     6
 10
260.816594
 20
144.870447
 11
260.831867
 21
144.840080
  0
LINE
  8
CSLAYER1
  6
CONTINUOUS
 62
     6
 10
260.831867
 20
144.840080
 11
260.847013
 21
144.809129
  0
LINE
  8
CSLAYER1
  6
CONTINUOUS
 62
     6
 10
260.847013
 20
144.809129
 11
260.862073
 21
144.777759
  0
LINE
  8
CSLAYER1
  6
CONTINUOUS
 62
     6
 10
260.862073
 20
144.777759
 11
260.877090
 21
144.746137
  0
LINE
  8
CSLAYER1
  6
CONTINUOUS
 62
     6
 10
260.877090
 20
144.746137
 11
260.892105
 21
144.714432
  0
LINE
  8
CSLAYER1
  6
CONTINUOUS
 62
     6
 10
260.892105
 20
144.714432
 11
260.907161
 21
144.682810
  0
LINE
  8
CSLAYER1
  6
CONTINUOUS
 62
     6
 10
260.907161
 20
144.682810
 11
260.922299
 21
144.651438
  0
LINE
  8
CSLAYER1
  6
CONTINUOUS
 62
     6
 10
260.922299
 20
144.651438
 11
260.937561
 21
144.620484
  0
LINE
  8
CSLAYER1
  6
CONTINUOUS
 62
     6
 10
260.937561
 20
144.620484
 11
260.978382
 21
144.542347
  0
LINE
  8
CSLAYER1
  6
CONTINUOUS
 62
     6
 10
260.978382
 20
144.542347
 11
261.021717
 21
144.465814
  0
LINE
  8
CSLAYER1
  6
CONTINUOUS
 62
     6
 10
261.021717
 20
144.465814
 11
261.067316
 21
144.390726
  0
LINE
  8
CSLAYER1
  6
CONTINUOUS
 62
     6
 10
261.067316
 20
144.390726
 11
261.114926
 21
144.316921
  0
LINE
  8
CSLAYER1
  6
CONTINUOUS
 62
     6
 10
261.114926
 20
144.316921
 11
261.164296
 21
144.244240
  0
LINE
  8
CSLAYER1
  6
CONTINUOUS
 62
     6
 10
261.164296
 20
144.244240
 11
261.215175
 21
144.172521
  0
LINE
  8
CSLAYER1
  6
CONTINUOUS
 62
     6
 10
261.215175
 20
144.172521
 11
261.267311
 21
144.101605
  0
LINE
  8
CSLAYER1
  6
CONTINUOUS
 62
     6
 10
261.267311
 20
144.101605
 11
261.320453
 21
144.031331
  0
LINE
  8
CSLAYER1
  6
CONTINUOUS
 62
     6
 10
261.320453
 20
144.031331
 11
261.374349
 21
143.961538
  0
LINE
  8
CSLAYER1
  6
CONTINUOUS
 62
     6
 10
261.374349
 20
143.961538
 11
261.428748
 21
143.892066
  0
LINE
  8
CSLAYER1
  6
CONTINUOUS
 62
     6
 10
261.428748
 20
143.892066
 11
261.480821
 21
143.826023
  0
LINE
  8
CSLAYER1
  6
CONTINUOUS
 62
     6
 10
261.480821
 20
143.826023
 11
261.608168
 21
143.935324
  0
LINE
  8
CSLAYER1
  6
CONTINUOUS
 62
     6
 10
261.608168
 20
143.935324
 11
261.744883
 21
144.053357
  0
LINE
  8
CSLAYER1
  6
CONTINUOUS
 62
     6
 10
261.744883
 20
144.053357
 11
261.880771
 21
144.172061
  0
LINE
  8
CSLAYER1
  6
CONTINUOUS
 62
     6
 10
261.880771
 20
144.172061
 11
262.015417
 21
144.291772
  0
LINE
  8
CSLAYER1
  6
CONTINUOUS
 62
     6
 10
262.015417
 20
144.291772
 11
262.148408
 21
144.412827
  0
LINE
  8
CSLAYER1
  6
CONTINUOUS
 62
     6
 10
262.148408
 20
144.412827
 11
262.279331
 21
144.535560
  0
LINE
  8
CSLAYER1
  6
CONTINUOUS
 62
     6
 10
262.279331
 20
144.535560
 11
262.407770
 21
144.660307
  0
LINE
  8
CSLAYER1
  6
CONTINUOUS
 62
     6
 10
262.407770
 20
144.660307
 11
262.533314
 21
144.787405
  0
LINE
  8
CSLAYER1
  6
CONTINUOUS
 62
     6
 10
262.533314
 20
144.787405
 11
262.655547
 21
144.917189
  0
LINE
  8
CSLAYER1
  6
CONTINUOUS
 62
     6
 10
262.655547
 20
144.917189
 11
262.774056
 21
145.049995
  0
LINE
  8
CSLAYER1
  6
CONTINUOUS
 62
     6
 10
262.774056
 20
145.049995
 11
262.888428
 21
145.186158
  0
LINE
  8
CSLAYER1
  6
CONTINUOUS
 62
     6
 10
262.888428
 20
145.186158
 11
263.024924
 21
145.360384
  0
LINE
  8
CSLAYER1
  6
CONTINUOUS
 62
     6
 10
263.024924
 20
145.360384
 11
263.157267
 21
145.541060
  0
LINE
  8
CSLAYER1
  6
CONTINUOUS
 62
     6
 10
263.157267
 20
145.541060
 11
263.285739
 21
145.726830
  0
LINE
  8
CSLAYER1
  6
CONTINUOUS
 62
     6
 10
263.285739
 20
145.726830
 11
263.410620
 21
145.916338
  0
LINE
  8
CSLAYER1
  6
CONTINUOUS
 62
     6
 10
263.410620
 20
145.916338
 11
263.532192
 21
146.108226
  0
LINE
  8
CSLAYER1
  6
CONTINUOUS
 62
     6
 10
263.532192
 20
146.108226
 11
263.650737
 21
146.301139
  0
LINE
  8
CSLAYER1
  6
CONTINUOUS
 62
     6
 10
263.650737
 20
146.301139
 11
263.766534
 21
146.493719
  0
LINE
  8
CSLAYER1
  6
CONTINUOUS
 62
     6
 10
263.766534
 20
146.493719
 11
263.879867
 21
146.684610
  0
LINE
  8
CSLAYER1
  6
CONTINUOUS
 62
     6
 10
263.879867
 20
146.684610
 11
263.991016
 21
146.872455
  0
LINE
  8
CSLAYER1
  6
CONTINUOUS
 62
     6
 10
263.991016
 20
146.872455
 11
264.100262
 21
147.055898
  0
LINE
  8
CSLAYER1
  6
CONTINUOUS
 62
     6
 10
264.100262
 20
147.055898
 11
264.207886
 21
147.233582
  0
LINE
  8
CSLAYER1
  6
CONTINUOUS
 62
     6
 10
264.207886
 20
147.233582
 11
264.313212
 21
147.399269
  0
LINE
  8
CSLAYER1
  6
CONTINUOUS
 62
     6
 10
264.313212
 20
147.399269
 11
264.427940
 21
147.569158
  0
LINE
  8
CSLAYER1
  6
CONTINUOUS
 62
     6
 10
264.427940
 20
147.569158
 11
264.550241
 21
147.741821
  0
LINE
  8
CSLAYER1
  6
CONTINUOUS
 62
     6
 10
264.550241
 20
147.741821
 11
264.678283
 21
147.915831
  0
LINE
  8
CSLAYER1
  6
CONTINUOUS
 62
     6
 10
264.678283
 20
147.915831
 11
264.810235
 21
148.089760
  0
LINE
  8
CSLAYER1
  6
CONTINUOUS
 62
     6
 10
264.810235
 20
148.089760
 11
264.944267
 21
148.262182
  0
LINE
  8
CSLAYER1
  6
CONTINUOUS
 62
     6
 10
264.944267
 20
148.262182
 11
265.078548
 21
148.431667
  0
LINE
  8
CSLAYER1
  6
CONTINUOUS
 62
     6
 10
265.078548
 20
148.431667
 11
265.211246
 21
148.596788
  0
LINE
  8
CSLAYER1
  6
CONTINUOUS
 62
     6
 10
265.211246
 20
148.596788
 11
265.340532
 21
148.756119
  0
LINE
  8
CSLAYER1
  6
CONTINUOUS
 62
     6
 10
265.340532
 20
148.756119
 11
265.464575
 21
148.908231
  0
LINE
  8
CSLAYER1
  6
CONTINUOUS
 62
     6
 10
265.464575
 20
148.908231
 11
265.633832
 21
149.115832
  0
ARC
  8
CSLAYER1
  6
CONTINUOUS
 62
     6
 10
264.551582
 20
148.686060
 40
1.164461
 50
21.658505
 51
86.024005
  0
ARC
  8
CSLAYER1
  6
CONTINUOUS
 62
     6
 10
263.585927
 20
149.336813
 40
1.164461
 50
26.024005
 51
86.024005
  0
ARC
  8
CSLAYER1
  6
CONTINUOUS
 62
     6
 10
264.713066
 20
151.009376
 40
1.164461
 50
206.024005
 51
266.024005
  0
LINE
  8
CSLAYER1
  6
CONTINUOUS
 62
     6
 10
263.666656
 20
150.498475
 11
263.545475
 21
150.350561
  0
LINE
  8
CSLAYER1
  6
CONTINUOUS
 62
     6
 10
263.545475
 20
150.350561
 11
263.416465
 21
150.193162
  0
ARC
  8
CSLAYER1
  6
CONTINUOUS
 62
     6
 10
265.476096
 20
150.092420
 40
1.200008
 50
30.461486
 51
90.461486
  0
LINE
  8
CSLAYER1
  6
CONTINUOUS
 62
     6
 10
273.869890
 20
162.543030
 11
273.426012
 21
163.243012
  0
LINE
  8
CSLAYER1
  6
CONTINUOUS
 62
     6
 10
273.926012
 20
163.243012
 11
274.369890
 21
162.543030
  0
ARC
  8
CSLAYER1
  6
CONTINUOUS
 62
     6
 10
276.573961
 20
162.643006
 40
0.100000
 50
270.000001
 51
359.942691
  0
LINE
  8
CSLAYER1
  6
CONTINUOUS
 62
     6
 10
276.673936
 20
162.643006
 11
276.673936
 21
163.143006
  0
ARC
  8
CSLAYER1
  6
CONTINUOUS
 62
     6
 10
276.573961
 20
163.143006
 40
0.100000
 50
0.000010
 51
90.000016
  0
LINE
  8
CSLAYER1
  6
CONTINUOUS
 62
     6
 10
286.773973
 20
161.243012
 11
286.773973
 21
165.243012
  0
LINE
  8
CSLAYER1
  6
CONTINUOUS
 62
     6
 10
286.773973
 20
161.243012
 11
299.773973
 21
161.243012
  0
LINE
  8
CSLAYER1
  6
CONTINUOUS
 62
     6
 10
260.988053
 20
144.525268
 11
258.737122
 21
142.086762
  0
LINE
  8
CSLAYER1
  6
CONTINUOUS
 62
     6
 10
258.264587
 20
142.653870
 11
260.707582
 21
145.048505
  0
LINE
  8
CSLAYER1
  6
CONTINUOUS
 62
     6
 10
260.396085
 20
145.369354
 11
257.650238
 21
142.866517
  0
LINE
  8
CSLAYER1
  6
CONTINUOUS
 62
     6
 10
252.310242
 20
144.945801
 11
254.536364
 21
147.922038
  0
LINE
  8
CSLAYER1
  6
CONTINUOUS
 62
     6
 10
253.970531
 20
148.068631
 11
251.625000
 21
145.394745
  0
LINE
  8
CSLAYER1
  6
CONTINUOUS
 62
     6
 10
251.081543
 20
145.914551
 11
253.553313
 21
148.316359
  0
LINE
  8
CSLAYER1
  6
CONTINUOUS
 62
     6
 10
532.023973
 20
166.743012
 11
541.773973
 21
166.743012
  0
ARC
  8
CSLAYER1
  6
CONTINUOUS
 62
     6
 10
552.273973
 20
202.743012
 40
2.500000
 50
293.117523
 51
360.000000
  0
ARC
  8
CSLAYER1
  6
CONTINUOUS
 62
     6
 10
536.578973
 20
249.743912
 40
15.000000
 50
4.362912
 51
64.106500
  0
LINE
  8
CSLAYER1
  6
CONTINUOUS
 62
     6
 10
545.773973
 20
367.742816
 11
497.773973
 21
367.742816
  0
ARC
  8
CSLAYER1
  6
CONTINUOUS
 62
     6
 10
497.773973
 20
375.742816
 40
8.000000
 50
180.000000
 51
270.000000
  0
LINE
  8
CSLAYER1
  6
CONTINUOUS
 62
     6
 10
489.773973
 20
375.742816
 11
489.773973
 21
377.242831
  0
LINE
  8
CSLAYER1
  6
CONTINUOUS
 62
     6
 10
490.773752
 20
377.242831
 11
482.273973
 21
377.242831
  0
LINE
  8
CSLAYER1
  6
CONTINUOUS
 62
     6
 10
482.273973
 20
377.242831
 11
482.273973
 21
492.242831
  0
LINE
  8
CSLAYER1
  6
CONTINUOUS
 62
     6
 10
482.273973
 20
492.242831
 11
490.773973
 21
492.242831
  0
LINE
  8
CSLAYER1
  6
CONTINUOUS
 62
     6
 10
489.773973
 20
492.242831
 11
489.773973
 21
493.742845
  0
ARC
  8
CSLAYER1
  6
CONTINUOUS
 62
     6
 10
497.773973
 20
493.742845
 40
8.000000
 50
90.000000
 51
180.000000
  0
LINE
  8
CSLAYER1
  6
CONTINUOUS
 62
     6
 10
497.773973
 20
501.742845
 11
545.773973
 21
501.742845
  0
ARC
  8
CSLAYER1
  6
CONTINUOUS
 62
     6
 10
545.773973
 20
493.742845
 40
8.000000
 50
0.000000
 51
90.000000
  0
LINE
  8
CSLAYER1
  6
CONTINUOUS
 62
     6
 10
553.773973
 20
493.742845
 11
553.773973
 21
472.685228
  0
ARC
  8
CSLAYER1
  6
CONTINUOUS
 62
     6
 10
545.773973
 20
472.685228
 40
8.000000
 50
325.220346
 51
360.000000
  0
ARC
  8
CSLAYER1
  6
CONTINUOUS
 62
     6
 10
-46.726027
 20
434.742831
 40
600.000000
 50
-3.602347
 51
3.602347
  0
ARC
  8
CSLAYER1
  6
CONTINUOUS
 62
     6
 10
537.118104
 20
397.986463
 40
15.000000
 50
280.000000
 51
356.397653
  0
LINE
  8
CSLAYER1
  6
CONTINUOUS
 62
     6
 10
539.722827
 20
383.214346
 11
528.510695
 21
381.237345
  0
ARC
  8
CSLAYER1
  6
CONTINUOUS
 62
     6
 10
536.412508
 20
375.108614
 40
10.000000
 50
126.132125
 51
189.971571
  0
ARC
  8
CSLAYER1
  6
CONTINUOUS
 62
     6
 10
531.488039
 20
374.242816
 40
5.000000
 50
189.971571
 51
270.000000
  0
LINE
  8
CSLAYER1
  6
CONTINUOUS
 62
     6
 10
532.488039
 20
372.242816
 11
532.488039
 21
378.242816
  0
ARC
  8
CSLAYER1
  6
CONTINUOUS
 62
     6
 10
518.723030
 20
399.338396
 40
20.000000
 50
306.132125
 51
344.973085
  0
ARC
  8
CSLAYER1
  6
CONTINUOUS
 62
     6
 10
386.839723
 20
434.742831
 40
156.552849
 50
-15.026915
 51
15.026915
  0
ARC
  8
CSLAYER1
  6
CONTINUOUS
 62
     6
 10
518.723030
 20
470.147266
 40
20.000000
 50
15.026915
 51
53.867875
  0
ARC
  8
CSLAYER1
  6
CONTINUOUS
 62
     6
 10
536.412508
 20
494.377048
 40
10.000000
 50
170.028429
 51
233.867875
  0
ARC
  8
CSLAYER1
  6
CONTINUOUS
 62
     6
 10
531.488039
 20
495.242845
 40
5.000000
 50
90.000000
 51
170.028429
  0
LINE
  8
CSLAYER1
  6
CONTINUOUS
 62
     6
 10
532.488039
 20
497.242845
 11
532.488039
 21
491.242845
  0
LINE
  8
CSLAYER1
  6
CONTINUOUS
 62
     6
 10
528.510695
 20
488.248317
 11
539.722827
 21
486.271315
  0
ARC
  8
CSLAYER1
  6
CONTINUOUS
 62
     6
 10
537.118104
 20
471.499199
 40
15.000000
 50
3.602347
 51
80.000000
  0
ARC
  8
CSLAYER1
  6
CONTINUOUS
 62
     6
 10
541.773973
 20
489.742831
 40
4.500000
 50
-76.415492
 51
227.021879
  0
ARC
  8
CSLAYER1
  6
CONTINUOUS
 62
     6
 10
552.273973
 20
453.742831
 40
2.500000
 50
0.000000
 51
75.701364
  0
LINE
  8
CSLAYER1
  6
CONTINUOUS
 62
     6
 10
554.773973
 20
453.742831
 11
554.773973
 21
415.742831
  0
ARC
  8
CSLAYER1
  6
CONTINUOUS
 62
     6
 10
552.273973
 20
415.742831
 40
2.500000
 50
284.298636
 51
360.000000
  0
LINE
  8
CSLAYER1
  6
CONTINUOUS
 62
     6
 10
554.773973
 20
424.742831
 11
556.773973
 21
424.742831
  0
LINE
  8
CSLAYER1
  6
CONTINUOUS
 62
     6
 10
556.773973
 20
424.742831
 11
556.773973
 21
444.742831
  0
LINE
  8
CSLAYER1
  6
CONTINUOUS
 62
     6
 10
556.773973
 20
444.742831
 11
554.773973
 21
444.742831
  0
LINE
  8
CSLAYER1
  6
CONTINUOUS
 62
     6
 10
556.773973
 20
443.742831
 11
586.773973
 21
443.742831
  0
LINE
  8
CSLAYER1
  6
CONTINUOUS
 62
     6
 10
586.773973
 20
443.742831
 11
586.773973
 21
423.242831
  0
LINE
  8
CSLAYER1
  6
CONTINUOUS
 62
     6
 10
586.773973
 20
423.242831
 11
559.773973
 21
423.242831
  0
LINE
  8
CSLAYER1
  6
CONTINUOUS
 62
     6
 10
559.773973
 20
423.242831
 11
559.773973
 21
425.742831
  0
LINE
  8
CSLAYER1
  6
DASHED
 62
     6
 10
559.773973
 20
425.742831
 11
559.773973
 21
429.242831
  0
LINE
  8
CSLAYER1
  6
DASHED
 62
     6
 10
559.773973
 20
429.242831
 11
586.773973
 21
429.242831
  0
LINE
  8
CSLAYER1
  6
CONTINUOUS
 62
     6
 10
586.773973
 20
425.742831
 11
556.773973
 21
425.742831
  0
ARC
  8
CSLAYER1
  6
CONTINUOUS
 62
     6
 10
545.773973
 20
396.800433
 40
8.000000
 50
0.000000
 51
34.779654
  0
LINE
  8
CSLAYER1
  6
CONTINUOUS
 62
     6
 10
553.773973
 20
396.800433
 11
553.773973
 21
375.742816
  0
ARC
  8
CSLAYER1
  6
CONTINUOUS
 62
     6
 10
545.773973
 20
375.742816
 40
8.000000
 50
270.000000
 51
360.000000
  0
ARC
  8
CSLAYER1
  6
CONTINUOUS
 62
     6
 10
541.773973
 20
379.742831
 40
4.500000
 50
-227.021879
 51
76.415492
  0
CIRCLE
  8
CSLAYER1
  6
DASHED
 62
     6
 10
501.773973
 20
379.742816
 40
4.500000
  0
LINE
  8
CSLAYER1
  6
CONTINUOUS
 62
     6
 10
496.773973
 20
372.242831
 11
492.704156
 21
372.384990
  0
ARC
  8
CSLAYER1
  6
CONTINUOUS
 62
     6
 10
492.773973
 20
374.383773
 40
2.000000
 50
180.000000
 51
267.999718
  0
LINE
  8
CSLAYER1
  6
CONTINUOUS
 62
     6
 10
490.773750
 20
374.383773
 11
490.773973
 21
495.101889
  0
ARC
  8
CSLAYER1
  6
CONTINUOUS
 62
     6
 10
492.773973
 20
495.101889
 40
2.000000
 50
92.000282
 51
180.000000
  0
LINE
  8
CSLAYER1
  6
CONTINUOUS
 62
     6
 10
492.704156
 20
497.100672
 11
496.773973
 21
497.242831
  0
LINE
  8
CSLAYER1
  6
CONTINUOUS
 62
     6
 10
496.773973
 20
498.242860
 11
496.773973
 21
371.242801
  0
LINE
  8
CSLAYER1
  6
CONTINUOUS
 62
     6
 10
482.273973
 20
377.242831
 11
440.653973
 21
376.142831
  0
ARC
  8
CSLAYER1
  6
CONTINUOUS
 62
     6
 10
440.773973
 20
371.142831
 40
5.000000
 50
91.500000
 51
180.000000
  0
ARC
  8
CSLAYER1
  6
CONTINUOUS
 62
     6
 10
440.773973
 20
370.502831
 40
5.000000
 50
91.500000
 51
180.000000
  0
LINE
  8
CSLAYER1
  6
CONTINUOUS
 62
     6
 10
440.653973
 20
375.502831
 11
443.353973
 21
375.582831
  0
ARC
  8
CSLAYER1
  6
CONTINUOUS
 62
     6
 10
443.273973
 20
378.582831
 40
3.000000
 50
271.500000
 51
309.330719
  0
ARC
  8
CSLAYER1
  6
CONTINUOUS
 62
     6
 10
436.773973
 20
383.155829
 40
2.000000
 50
284.478210
 51
360.000000
  0
LINE
  8
CSLAYER1
  6
CONTINUOUS
 62
     6
 10
438.773973
 20
383.155829
 11
438.773973
 21
394.409873
  0
ARC
  8
CSLAYER1
  6
CONTINUOUS
 62
     6
 10
436.773973
 20
394.409873
 40
2.000000
 50
0.000000
 51
75.522324
  0
ARC
  8
CSLAYER1
  6
CONTINUOUS
 62
     6
 10
437.773973
 20
398.282832
 40
2.000000
 50
180.000000
 51
255.522507
  0
ARC
  8
CSLAYER1
  6
CONTINUOUS
 62
     6
 10
440.773973
 20
414.752831
 40
5.000000
 50
90.000000
 51
180.000000
  0
LINE
  8
CSLAYER1
  6
CONTINUOUS
 62
     6
 10
440.773973
 20
419.732831
 11
442.873973
 21
419.732831
  0
ARC
  8
CSLAYER1
  6
CONTINUOUS
 62
     6
 10
442.873973
 20
422.752831
 40
3.000000
 50
270.000000
 51
360.000000
  0
LINE
  8
CSLAYER1
  6
CONTINUOUS
 62
     6
 10
445.873973
 20
422.752831
 11
445.873973
 21
446.732831
  0
ARC
  8
CSLAYER1
  6
CONTINUOUS
 62
     6
 10
442.873973
 20
446.732831
 40
3.000000
 50
0.000000
 51
90.000000
  0
LINE
  8
CSLAYER1
  6
CONTINUOUS
 62
     6
 10
442.873973
 20
449.752831
 11
440.773973
 21
449.752831
  0
ARC
  8
CSLAYER1
  6
CONTINUOUS
 62
     6
 10
440.773973
 20
454.732831
 40
5.000000
 50
180.000000
 51
270.000000
  0
ARC
  8
CSLAYER1
  6
CONTINUOUS
 62
     6
 10
448.633973
 20
448.432831
 40
3.000000
 50
196.430000
 51
268.500000
  0
LINE
  8
CSLAYER1
  6
CONTINUOUS
 62
     6
 10
448.553973
 20
445.432831
 11
472.353973
 21
444.812831
  0
ARC
  8
CSLAYER1
  6
CONTINUOUS
 62
     6
 10
472.273973
 20
441.812831
 40
3.000000
 50
0.000000
 51
88.500000
  0
LINE
  8
CSLAYER1
  6
CONTINUOUS
 62
     6
 10
475.273973
 20
441.812831
 11
475.273973
 21
427.672831
  0
ARC
  8
CSLAYER1
  6
CONTINUOUS
 62
     6
 10
472.273973
 20
427.672831
 40
3.000000
 50
271.500000
 51
360.000000
  0
LINE
  8
CSLAYER1
  6
CONTINUOUS
 62
     6
 10
472.353973
 20
424.672831
 11
448.553973
 21
424.052831
  0
ARC
  8
CSLAYER1
  6
CONTINUOUS
 62
     6
 10
448.633973
 20
421.052831
 40
3.000000
 50
91.500000
 51
163.570000
  0
ARC
  8
CSLAYER1
  6
CONTINUOUS
 62
     6
 10
437.773973
 20
379.282851
 40
2.000000
 50
104.477402
 51
180.000000
  0
LINE
  8
CSLAYER1
  6
CONTINUOUS
 62
     6
 10
435.773973
 20
357.874789
 11
435.773973
 21
511.610873
  0
ARC
  8
CSLAYER1
  6
CONTINUOUS
 62
     6
 10
432.773973
 20
511.610873
 40
3.000000
 50
0.000000
 51
88.500130
  0
LINE
  8
CSLAYER1
  6
CONTINUOUS
 62
     6
 10
432.852587
 20
514.609851
 11
427.773973
 21
514.742831
  0
LINE
  8
CSLAYER1
  6
CONTINUOUS
 62
     6
 10
427.773973
 20
514.742831
 11
427.773973
 21
354.742831
  0
LINE
  8
CSLAYER1
  6
CONTINUOUS
 62
     6
 10
427.773973
 20
354.742831
 11
414.773973
 21
354.742831
  0
LINE
  8
CSLAYER1
  6
CONTINUOUS
 62
     6
 10
414.773973
 20
354.742831
 11
414.773973
 21
514.742831
  0
LINE
  8
CSLAYER1
  6
CONTINUOUS
 62
     6
 10
414.773973
 20
514.742831
 11
427.773973
 21
514.742831
  0
ARC
  8
CSLAYER1
  6
CONTINUOUS
 62
     6
 10
440.773973
 20
498.982831
 40
5.000000
 50
180.000000
 51
268.500000
  0
LINE
  8
CSLAYER1
  6
CONTINUOUS
 62
     6
 10
440.653973
 20
493.982831
 11
443.353973
 21
493.902831
  0
ARC
  8
CSLAYER1
  6
CONTINUOUS
 62
     6
 10
443.273973
 20
490.902831
 40
3.000000
 50
50.669281
 51
88.500000
  0
LINE
  8
CSLAYER1
  6
CONTINUOUS
 62
     6
 10
440.653973
 20
493.342831
 11
482.273973
 21
492.242831
  0
CIRCLE
  8
CSLAYER1
  6
DASHED
 62
     6
 10
501.773973
 20
489.742831
 40
4.500000
  0
ARC
  8
CSLAYER1
  6
CONTINUOUS
 62
     6
 10
440.773973
 20
498.342831
 40
5.000000
 50
180.000000
 51
268.500000
  0
ARC
  8
CSLAYER1
  6
CONTINUOUS
 62
     6
 10
437.773973
 20
490.202792
 40
2.000000
 50
180.000000
 51
255.522598
  0
ARC
  8
CSLAYER1
  6
CONTINUOUS
 62
     6
 10
436.773973
 20
486.329833
 40
2.000000
 50
0.000000
 51
75.521790
  0
LINE
  8
CSLAYER1
  6
CONTINUOUS
 62
     6
 10
438.773973
 20
486.329833
 11
438.773973
 21
475.075789
  0
ARC
  8
CSLAYER1
  6
CONTINUOUS
 62
     6
 10
436.773973
 20
475.075789
 40
2.000000
 50
284.477676
 51
360.000000
  0
ARC
  8
CSLAYER1
  6
CONTINUOUS
 62
     6
 10
437.773973
 20
471.202811
 40
2.000000
 50
104.477493
 51
180.000000
  0
LINE
  8
CSLAYER1
  6
CONTINUOUS
 62
     6
 10
414.774023
 20
473.004806
 11
412.774023
 21
473.004806
  0
LINE
  8
CSLAYER1
  6
CONTINUOUS
 62
     6
 10
412.774023
 20
473.004806
 11
412.774023
 21
488.404806
  0
LINE
  8
CSLAYER1
  6
CONTINUOUS
 62
     6
 10
412.774023
 20
488.404806
 11
414.774023
 21
488.404806
  0
LINE
  8
CSLAYER1
  6
CONTINUOUS
 62
     6
 10
412.774023
 20
487.204806
 11
407.474023
 21
487.204806
  0
LINE
  8
CSLAYER1
  6
CONTINUOUS
 62
     6
 10
407.474023
 20
487.204806
 11
407.474023
 21
474.204806
  0
LINE
  8
CSLAYER1
  6
CONTINUOUS
 62
     6
 10
407.474023
 20
474.204806
 11
412.774023
 21
474.204806
  0
ARC
  8
CSLAYER1
  6
CONTINUOUS
 62
     6
 10
418.229577
 20
477.454806
 40
10.755553
 50
162.412046
 51
197.587954
  0
ARC
  8
CSLAYER1
  6
CONTINUOUS
 62
     6
 10
418.229577
 20
483.954806
 40
10.755553
 50
162.412046
 51
197.587954
  0
LINE
  8
CSLAYER1
  6
CONTINUOUS
 62
     6
 10
407.976800
 20
480.704806
 11
412.774023
 21
480.704806
  0
LINE
  8
CSLAYER1
  6
CONTINUOUS
 62
     6
 10
412.774023
 20
481.320806
 11
414.774023
 21
481.936806
  0
LINE
  8
CSLAYER1
  6
CONTINUOUS
 62
     6
 10
414.774023
 20
480.088806
 11
412.774023
 21
479.472806
  0
LINE
  8
CSLAYER1
  6
CONTINUOUS
 62
     6
 10
407.473988
 20
479.742831
 11
299.773973
 21
479.742831
  0
LINE
  8
CSLAYER1
  6
CONTINUOUS
 62
     6
 10
299.773973
 20
479.742831
 11
299.773973
 21
389.742831
  0
LINE
  8
CSLAYER1
  6
CONTINUOUS
 62
     6
 10
299.773973
 20
389.742831
 11
407.474023
 21
389.742831
  0
ARC
  8
CSLAYER1
  6
CONTINUOUS
 62
     6
 10
418.229577
 20
392.030795
 40
10.755553
 50
162.412046
 51
197.587954
  0
LINE
  8
CSLAYER1
  6
CONTINUOUS
 62
     6
 10
407.474023
 20
395.280795
 11
412.774023
 21
395.280795
  0
LINE
  8
CSLAYER1
  6
CONTINUOUS
 62
     6
 10
412.774023
 20
396.480795
 11
412.774023
 21
381.080795
  0
LINE
  8
CSLAYER1
  6
CONTINUOUS
 62
     6
 10
412.774023
 20
381.080795
 11
414.774023
 21
381.080795
  0
LINE
  8
CSLAYER1
  6
CONTINUOUS
 62
     6
 10
412.774023
 20
382.280795
 11
407.474023
 21
382.280795
  0
LINE
  8
CSLAYER1
  6
CONTINUOUS
 62
     6
 10
407.474023
 20
382.280795
 11
407.474023
 21
395.280795
  0
LINE
  8
CSLAYER1
  6
CONTINUOUS
 62
     6
 10
412.774023
 20
396.480795
 11
414.774023
 21
396.480795
  0
LINE
  8
CSLAYER1
  6
CONTINUOUS
 62
     6
 10
414.774023
 20
390.012795
 11
412.774023
 21
389.396795
  0
LINE
  8
CSLAYER1
  6
CONTINUOUS
 62
     6
 10
412.774023
 20
388.780795
 11
407.976800
 21
388.780795
  0
ARC
  8
CSLAYER1
  6
CONTINUOUS
 62
     6
 10
418.229577
 20
385.530795
 40
10.755553
 50
162.412046
 51
197.587954
  0
LINE
  8
CSLAYER1
  6
CONTINUOUS
 62
     6
 10
412.774023
 20
387.548795
 11
414.774023
 21
388.164795
  0
LINE
  8
CSLAYER1
  6
CONTINUOUS
 62
     6
 10
299.773973
 20
390.742815
 11
298.298936
 21
390.742815
  0
LINE
  8
CSLAYER1
  6
CONTINUOUS
 62
     6
 10
297.868089
 20
390.638262
 11
298.565721
 21
397.275774
  0
ARC
  8
CSLAYER1
  6
CONTINUOUS
 62
     6
 10
299.560228
 20
397.171221
 40
1.000000
 50
90.000009
 51
173.999984
  0
ARC
  8
CSLAYER1
  6
CONTINUOUS
 62
     6
 10
299.510606
 20
392.698992
 40
1.000000
 50
90.000009
 51
173.999984
  0
LINE
  8
CSLAYER1
  6
CONTINUOUS
 62
     6
 10
298.516038
 20
392.803545
 11
297.868089
 21
386.638262
  0
ARC
  8
CSLAYER1
  6
CONTINUOUS
 62
     6
 10
296.873521
 20
386.742815
 40
1.000000
 50
270.000001
 51
354.000017
  0
LINE
  8
CSLAYER1
  6
CONTINUOUS
 62
     6
 10
296.873521
 20
385.742815
 11
260.674364
 21
385.742815
  0
ARC
  8
CSLAYER1
  6
CONTINUOUS
 62
     6
 10
260.674364
 20
386.742815
 40
1.000000
 50
186.000012
 51
270.000001
  0
LINE
  8
CSLAYER1
  6
CONTINUOUS
 62
     6
 10
259.679857
 20
386.638262
 11
259.031847
 21
392.803545
  0
ARC
  8
CSLAYER1
  6
CONTINUOUS
 62
     6
 10
258.037340
 20
392.698992
 40
1.000000
 50
6.000021
 51
90.000009
  0
LINE
  8
CSLAYER1
  6
CONTINUOUS
 62
     6
 10
259.248399
 20
390.742815
 11
247.773942
 21
390.742815
  0
LINE
  8
CSLAYER1
  6
CONTINUOUS
 62
     6
 10
247.773942
 20
390.742815
 11
246.773942
 21
391.742815
  0
LINE
  8
CSLAYER1
  6
CONTINUOUS
 62
     6
 10
246.773973
 20
391.742831
 11
246.773973
 21
477.742831
  0
LINE
  8
CSLAYER1
  6
CONTINUOUS
 62
     6
 10
246.773973
 20
477.742831
 11
247.773973
 21
478.742831
  0
LINE
  8
CSLAYER1
  6
CONTINUOUS
 62
     6
 10
247.773973
 20
478.742831
 11
247.773973
 21
390.742831
  0
LINE
  8
CSLAYER1
  6
CONTINUOUS
 62
     6
 10
247.773973
 20
390.742831
 11
246.773973
 21
391.742831
  0
ARC
  8
CSLAYER1
  6
CONTINUOUS
 62
     6
 10
257.987657
 20
397.171221
 40
1.000000
 50
6.000021
 51
90.000009
  0
LINE
  8
CSLAYER1
  6
CONTINUOUS
 62
     6
 10
258.982225
 20
397.275774
 11
259.679857
 21
390.638262
  0
ARC
  8
CSLAYER1
  6
CONTINUOUS
 62
     6
 10
260.674364
 20
390.742815
 40
1.000000
 50
186.000012
 51
270.000001
  0
LINE
  8
CSLAYER1
  6
CONTINUOUS
 62
     6
 10
260.674364
 20
389.742815
 11
296.873521
 21
389.742815
  0
ARC
  8
CSLAYER1
  6
CONTINUOUS
 62
     6
 10
296.873521
 20
390.742815
 40
1.000000
 50
270.000001
 51
354.000017
  0
LINE
  8
CSLAYER1
  6
CONTINUOUS
 62
     6
 10
294.417039
 20
398.349627
 11
262.459947
 21
398.349627
  0
LINE
  8
CSLAYER1
  6
CONTINUOUS
 62
     6
 10
262.459947
 20
471.136004
 11
294.417039
 21
471.136004
  0
ARC
  8
CSLAYER1
  6
CONTINUOUS
 62
     6
 10
299.560228
 20
472.314349
 40
1.000000
 50
186.000026
 51
270.000001
  0
LINE
  8
CSLAYER1
  6
CONTINUOUS
 62
     6
 10
298.565721
 20
472.209856
 11
297.868089
 21
478.847308
  0
ARC
  8
CSLAYER1
  6
CONTINUOUS
 62
     6
 10
296.873521
 20
478.742815
 40
1.000000
 50
6.000003
 51
90.000016
  0
LINE
  8
CSLAYER1
  6
CONTINUOUS
 62
     6
 10
296.873521
 20
479.742815
 11
260.674364
 21
479.742815
  0
ARC
  8
CSLAYER1
  6
CONTINUOUS
 62
     6
 10
260.674364
 20
478.742815
 40
1.000000
 50
90.000003
 51
173.999998
  0
LINE
  8
CSLAYER1
  6
CONTINUOUS
 62
     6
 10
259.679857
 20
478.847308
 11
258.982225
 21
472.209856
  0
ARC
  8
CSLAYER1
  6
CONTINUOUS
 62
     6
 10
257.987657
 20
472.314349
 40
1.000000
 50
270.000001
 51
353.999989
  0
ARC
  8
CSLAYER1
  6
CONTINUOUS
 62
     6
 10
258.037340
 20
476.786639
 40
1.000000
 50
270.000001
 51
353.999989
  0
LINE
  8
CSLAYER1
  6
CONTINUOUS
 62
     6
 10
259.031847
 20
476.682085
 11
259.679857
 21
482.847308
  0
ARC
  8
CSLAYER1
  6
CONTINUOUS
 62
     6
 10
260.674364
 20
482.742815
 40
1.000000
 50
90.000003
 51
173.999998
  0
LINE
  8
CSLAYER1
  6
CONTINUOUS
 62
     6
 10
260.674364
 20
483.742815
 11
296.873521
 21
483.742815
  0
ARC
  8
CSLAYER1
  6
CONTINUOUS
 62
     6
 10
296.873521
 20
482.742815
 40
1.000000
 50
6.000003
 51
90.000016
  0
LINE
  8
CSLAYER1
  6
CONTINUOUS
 62
     6
 10
297.868089
 20
482.847308
 11
298.516038
 21
476.682085
  0
ARC
  8
CSLAYER1
  6
CONTINUOUS
 62
     6
 10
299.510606
 20
476.786639
 40
1.000000
 50
186.000026
 51
270.000001
  0
LINE
  8
CSLAYER1
  6
CONTINUOUS
 62
     6
 10
299.773973
 20
478.742815
 11
298.298936
 21
478.742815
  0
LINE
  8
CSLAYER1
  6
CONTINUOUS
 62
     6
 10
259.248399
 20
478.742815
 11
247.773942
 21
478.742815
  0
LINE
  8
CSLAYER1
  6
CONTINUOUS
 62
     6
 10
247.773942
 20
478.742815
 11
246.773942
 21
477.742815
  0
LINE
  8
CSLAYER1
  6
CONTINUOUS
 62
     6
 10
427.773973
 20
354.742831
 11
432.852587
 21
354.875811
  0
ARC
  8
CSLAYER1
  6
CONTINUOUS
 62
     6
 10
432.773973
 20
357.874789
 40
3.000000
 50
271.499870
 51
360.000000
  0
ARC
  8
CSLAYER1
  6
CONTINUOUS
 62
     6
 10
762.223985
 20
205.243012
 40
110.000000
 50
159.265503
 51
173.862503
  0
LINE
  8
CSLAYER1
  6
CONTINUOUS
 62
     6
 10
652.854570
 20
217.003632
 11
644.223985
 21
136.743149
  0
LINE
  8
CSLAYER1
  6
CONTINUOUS
 62
     6
 10
644.223970
 20
136.743012
 11
681.281587
 21
136.743012
  0
LINE
  8
CSLAYER1
  6
CONTINUOUS
 62
     6
 10
681.281587
 20
136.743012
 11
680.435579
 21
144.086335
  0
ARC
  8
CSLAYER1
  6
CONTINUOUS
 62
     6
 10
677.455171
 20
143.743016
 40
3.000000
 50
6.573196
 51
90.000000
  0
LINE
  8
CSLAYER1
  6
CONTINUOUS
 62
     6
 10
677.455171
 20
146.743016
 11
647.858796
 21
146.743016
  0
ARC
  8
CSLAYER1
  6
CONTINUOUS
 62
     6
 10
647.993989
 20
143.743016
 40
3.000000
 50
90.000000
 51
173.862336
  0
LINE
  8
CSLAYER1
  6
DASHED
 62
     6
 10
651.723970
 20
146.743016
 11
651.723970
 21
136.742913
  0
LINE
  8
CSLAYER1
  6
DASHED
 62
     6
 10
660.723970
 20
136.742913
 11
660.723970
 21
146.743016
  0
LINE
  8
CSLAYER1
  6
CONTINUOUS
 62
     6
 10
667.223772
 20
146.743153
 11
674.160783
 21
165.801713
  0
ARC
  8
CSLAYER1
  6
CONTINUOUS
 62
     6
 10
672.281572
 20
166.485772
 40
2.000000
 50
-20.000919
 51
33.466599
  0
ARC
  8
CSLAYER1
  6
CONTINUOUS
 62
     6
 10
691.468584
 20
179.168973
 40
21.000000
 50
209.324905
 51
213.466507
  0
ARC
  8
CSLAYER1
  6
CONTINUOUS
 62
     6
 10
693.093980
 20
178.588072
 40
25.000000
 50
210.843307
 51
214.101898
  0
ARC
  8
CSLAYER1
  6
CONTINUOUS
 62
     6
 10
669.908769
 20
162.889432
 40
3.000000
 50
-20.000790
 51
34.101681
  0
ARC
  8
CSLAYER1
  6
CONTINUOUS
 62
     6
 10
771.223985
 20
225.243012
 40
116.000000
 50
194.252594
 51
210.843307
  0
ARC
  8
CSLAYER1
  6
CONTINUOUS
 62
     6
 10
668.486558
 20
199.146378
 40
10.000000
 50
188.232895
 51
194.252396
  0
ARC
  8
CSLAYER1
  6
CONTINUOUS
 62
     6
 10
741.723985
 20
209.743012
 40
84.000000
 50
155.568497
 51
188.233093
  0
ARC
  8
CSLAYER1
  6
CONTINUOUS
 62
     6
 10
688.462358
 20
233.939112
 40
25.500000
 50
108.976097
 51
155.568695
  0
ARC
  8
CSLAYER1
  6
CONTINUOUS
 62
     6
 10
711.223985
 20
167.743130
 40
95.500000
 50
71.024300
 51
108.975899
  0
ARC
  8
CSLAYER1
  6
CONTINUOUS
 62
     6
 10
733.985582
 20
233.939112
 40
25.500000
 50
28.516220
 51
71.024292
  0
ARC
  8
CSLAYER1
  6
CONTINUOUS
 62
     6
 10
680.723985
 20
209.743012
 40
84.000000
 50
-8.594604
 51
25.716829
  0
ARC
  8
CSLAYER1
  6
CONTINUOUS
 62
     6
 10
651.223985
 20
225.243012
 40
116.000000
 50
328.157196
 51
346.005188
  0
ARC
  8
CSLAYER1
  6
CONTINUOUS
 62
     6
 10
752.539384
 20
162.889432
 40
3.000000
 50
156.995102
 51
200.000504
  0
ARC
  8
CSLAYER1
  6
CONTINUOUS
 62
     6
 10
750.166582
 20
166.485772
 40
2.000000
 50
146.533401
 51
200.000198
  0
ARC
  8
CSLAYER1
  6
CONTINUOUS
 62
     6
 10
730.979570
 20
179.168973
 40
21.000000
 50
326.533489
 51
330.675091
  0
LINE
  8
CSLAYER1
  6
CONTINUOUS
 62
     6
 10
748.287187
 20
165.801812
 11
755.224218
 21
146.743016
  0
LINE
  8
CSLAYER1
  6
CONTINUOUS
 62
     6
 10
748.839025
 20
146.743016
 11
743.679765
 21
160.917992
  0
ARC
  8
CSLAYER1
  6
CONTINUOUS
 62
     6
 10
742.739763
 20
160.576073
 40
1.000000
 50
19.998791
 51
122.314003
  0
ARC
  8
CSLAYER1
  6
CONTINUOUS
 62
     6
 10
729.353960
 20
178.588072
 40
25.000000
 50
281.621704
 51
299.079895
  0
ARC
  8
CSLAYER1
  6
CONTINUOUS
 62
     6
 10
711.223985
 20
266.743031
 40
115.000000
 50
258.378387
 51
281.621887
  0
ARC
  8
CSLAYER1
  6
CONTINUOUS
 62
     6
 10
693.093980
 20
178.588072
 40
25.000000
 50
240.920502
 51
258.378387
  0
ARC
  8
CSLAYER1
  6
CONTINUOUS
 62
     6
 10
679.485368
 20
154.117531
 40
3.000000
 50
60.920311
 51
160.000107
  0
LINE
  8
CSLAYER1
  6
CONTINUOUS
 62
     6
 10
678.768358
 20
160.917992
 11
673.608964
 21
146.743153
  0
LINE
  8
CSLAYER1
  6
CONTINUOUS
 62
     6
 10
681.224106
 20
137.243012
 11
741.223987
 21
137.243012
  0
ARC
  8
CSLAYER1
  6
CONTINUOUS
 62
     6
 10
738.408372
 20
136.207650
 40
3.000000
 50
20.191704
 51
79.343079
  0
ARC
  8
CSLAYER1
  6
CONTINUOUS
 62
     6
 10
711.223985
 20
-8.256988
 40
150.000000
 50
79.342972
 51
100.657097
  0
ARC
  8
CSLAYER1
  6
CONTINUOUS
 62
     6
 10
684.039781
 20
136.207650
 40
3.000000
 50
100.657402
 51
159.816193
  0
LINE
  8
CSLAYER1
  6
CONTINUOUS
 62
     6
 10
741.166383
 20
136.743012
 11
778.224000
 21
136.743012
  0
LINE
  8
CSLAYER1
  6
CONTINUOUS
 62
     6
 10
778.224000
 20
136.743012
 11
769.593584
 21
217.003632
  0
ARC
  8
CSLAYER1
  6
CONTINUOUS
 62
     6
 10
660.223985
 20
205.243012
 40
110.000000
 50
6.137497
 51
20.734600
  0
ARC
  8
CSLAYER1
  6
CONTINUOUS
 62
     6
 10
735.042375
 20
233.566191
 40
30.000000
 50
20.734819
 51
70.107224
  0
ARC
  8
CSLAYER1
  6
CONTINUOUS
 62
     6
 10
711.223985
 20
167.743050
 40
100.000000
 50
70.107033
 51
109.893204
  0
ARC
  8
CSLAYER1
  6
CONTINUOUS
 62
     6
 10
687.405565
 20
233.566191
 40
30.000000
 50
109.893600
 51
159.265793
  0
ARC
  8
CSLAYER1
  6
CONTINUOUS
 62
     6
 10
665.262163
 20
251.205113
 40
10.000000
 50
51.312057
 51
231.552260
  0
ARC
  8
CSLAYER1
  6
CONTINUOUS
 62
     6
 10
665.262163
 20
251.205113
 40
4.000000
 50
72.832974
 51
210.650604
  0
ARC
  8
CSLAYER1
  6
CONTINUOUS
 62
     6
 10
665.262163
 20
251.205113
 40
3.500000
 50
77.272227
 51
205.931595
  0
ARC
  8
CSLAYER1
  6
CONTINUOUS
 62
     6
 10
711.224168
 20
256.243012
 40
15.000000
 50
47.031961
 51
132.967802
  0
ARC
  8
CSLAYER1
  6
CONTINUOUS
 62
     6
 10
757.185564
 20
251.205113
 40
10.000000
 50
-51.550885
 51
128.687258
  0
ARC
  8
CSLAYER1
  6
CONTINUOUS
 62
     6
 10
757.185564
 20
251.205113
 40
4.000000
 50
-30.084029
 51
107.164600
  0
ARC
  8
CSLAYER1
  6
CONTINUOUS
 62
     6
 10
757.185564
 20
251.205113
 40
3.500000
 50
-25.644279
 51
102.724849
  0
CIRCLE
  8
CSLAYER1
  6
CONTINUOUS
 62
     6
 10
711.223985
 20
221.743012
 40
21.500000
  0
LINE
  8
CSLAYER1
  6
CONTINUOUS
 62
     6
 10
705.723985
 20
218.743012
 11
699.723985
 21
218.743012
  0
LINE
  8
CSLAYER1
  6
CONTINUOUS
 62
     6
 10
699.723985
 20
218.743012
 11
699.723985
 21
224.743012
  0
LINE
  8
CSLAYER1
  6
CONTINUOUS
 62
     6
 10
699.723985
 20
224.743012
 11
705.723985
 21
224.743012
  0
LINE
  8
CSLAYER1
  6
CONTINUOUS
 62
     6
 10
705.723985
 20
224.743012
 11
705.723985
 21
218.743012
  0
ARC
  8
CSLAYER1
  6
CONTINUOUS
 62
     6
 10
711.223985
 20
221.742949
 40
9.000000
 50
-160.529007
 51
160.528793
  0
ARC
  8
CSLAYER1
  6
CONTINUOUS
 62
     6
 10
679.708177
 20
160.576073
 40
1.000000
 50
57.686001
 51
160.001205
  0
ARC
  8
CSLAYER1
  6
CONTINUOUS
 62
     6
 10
711.223985
 20
205.243012
 40
80.000000
 50
-36.032711
 51
216.032806
  0
ARC
  8
CSLAYER1
  6
CONTINUOUS
 62
     6
 10
742.962572
 20
154.117531
 40
3.000000
 50
20.000380
 51
119.079597
  0
ARC
  8
CSLAYER1
  6
CONTINUOUS
 62
     6
 10
744.992799
 20
143.743016
 40
3.000000
 50
90.000000
 51
173.426804
  0
LINE
  8
CSLAYER1
  6
CONTINUOUS
 62
     6
 10
742.012391
 20
144.086335
 11
741.166383
 21
136.743012
  0
LINE
  8
CSLAYER1
  6
CONTINUOUS
 62
     6
 10
744.992799
 20
146.743016
 11
774.589174
 21
146.743016
  0
ARC
  8
CSLAYER1
  6
CONTINUOUS
 62
     6
 10
774.453981
 20
143.743016
 40
3.000000
 50
6.137664
 51
90.000000
  0
LINE
  8
CSLAYER1
  6
DASHED
 62
     6
 10
770.724000
 20
146.743016
 11
770.724000
 21
136.742913
  0
LINE
  8
CSLAYER1
  6
DASHED
 62
     6
 10
761.724000
 20
136.742913
 11
761.724000
 21
146.743016
  0
ENDSEC
  0
EOF
