  0
SECTION
  2
HEADER
  9
$ACADVER
  1
AC1006
  9
$INSBASE
 10
0.000000
 20
0.000000
 30
0.0
  9
$EXTMIN
 10
0.000000
 20
0.000000
  9
$EXTMAX
 10
594.000000
 20
420.000000
  9
$LIMMIN
 10
0.000000
 20
0.000000
  9
$LIMMAX
 10
594.000000
 20
420.000000
  9
$VIEWCTR
 10
297.000000
 20
210.000000
  9
$VIEWSIZE
 40
420.000000
  9
$SNAPMODE
 70
     0
  9
$SNAPUNIT
 10
1.0
 20
1.0
  9
$SNAPBASE
 10
0.0
 20
0.0
  9
$SNAPANG
 50
0.0
  9
$SNAPSTYLE
 70
     0
  9
$SNAPISOPAIR
 70
     0
  9
$GRIDMODE
 70
     0
  9
$GRIDUNIT
 10
0.0
 20
0.0
  9
$ORTHOMODE
 70
     0
  9
$REGENMODE
 70
     1
  9
$FILLMODE
 70
     1
  9
$QTEXTMODE
 70
     0
  9
$DRAGMODE
 70
     2
  9
$LTSCALE
 40
15.000000
  9
$OSMODE
 70
     0
  9
$ATTMODE
 70
     1
  9
$TEXTSIZE
 40
0.2
  9
$TRACEWID
 40
0.05
  9
$TEXTSTYLE
  7
STANDARD
  9
$CLAYER
  8
CSLAYER1
  9
$CELTYPE
  6
BYLAYER
  9
$CECOLOR
 62
   256
  9
$DIMSCALE
 40
1.0
  9
$DIMASZ
 40
0.18
  9
$DIMEXO
 40
0.0625
  9
$DIMDLI
 40
0.38
  9
$DIMRND
 40
0.0
  9
$DIMDLE
 40
0.0
  9
$DIMEXE
 40
0.18
  9
$DIMTP
 40
0.0
  9
$DIMTM
 40
0.0
  9
$DIMTXT
 40
0.18
  9
$DIMCEN
 40
0.09
  9
$DIMTSZ
 40
0.0
  9
$DIMTOL
 70
     0
  9
$DIMLIM
 70
     0
  9
$DIMTIH
 70
     1
  9
$DIMTOH
 70
     1
  9
$DIMSE1
 70
     0
  9
$DIMSE2
 70
     0
  9
$DIMTAD
 70
     0
  9
$DIMZIN
 70
     0
  9
$DIMBLK
  1

  9
$LUNITS
 70
     2
  9
$LUPREC
 70
     4
  9
$AXISMODE
 70
     0
  9
$AXISUNIT
 10
0.0
 20
0.0
  9
$SKETCHINC
 40
0.1
  9
$FILLETRAD
 40
0.0
  9
$AUNITS
 70
     0
  9
$AUPREC
 70
     0
  9
$MENU
  1
ACAD
  9
$ELEVATION
 40
0.0
  9
$THICKNESS
 40
0.0
  9
$VIEWDIR
 10
0.0
 20
0.0
 30
1.0
  9
$LIMCHECK
 70
     0
  9
$BLIPMODE
 70
     1
  9
$CHAMFERA
 40
0.0
  9
$CHAMFERB
 40
0.0
  9
$FASTZOOM
 70
     1
  9
$SKPOLY
 70
     0
  9
$TDCREATE
 40
0.000000
  9
$TDUPDATE
 40
0.000000
  9
$TDINDWG
 40
0.0
  9
$TDUSRTIMER
 40
0.0
  9
$USRTIMER
 70
     1
  9
$ANGBASE
 50
0.0
  9
$ANGDIR
 70
     0
  9
$PDMODE
 70
     0
  9
$PDSIZE
 40
0.0
  9
$PLINEWID
 40
0.0
  9
$COORDS
 70
     0
  9
$USERI1
 70
     0
  9
$USERI2
 70
     0
  9
$USERI3
 70
     0
  9
$USERI4
 70
     0
  9
$USERI5
 70
     0
  9
$USERR1
 40
0.0
  9
$USERR2
 40
0.0
  9
$USERR3
 40
0.0
  9
$USERR4
 40
0.0
  9
$USERR5
 40
0.0
  0
ENDSEC
  0
SECTION
  2
TABLES
  0
TABLE
  2
LTYPE
 70
     9
  0
LTYPE
  2
CONTINUOUS
 70
    64
  3
Solid line
 72
    65
 73
     0
 40
0.0
  0
LTYPE
  2
DASHED
 70
    64
  3
__ __ __ __ __ __ __ __ __ __ __ __ __ __ __
 72
    65
 73
     2
 40
0.75
 49
0.5
 49
-0.25
  0
LTYPE
  2
HIDDEN
 70
    64
  3
_ _ _ _ _ _ _ _ _ _ _ _ _ _ _ _ _ _ _ _ _ _ _
 72
    65
 73
     2
 40
0.375
 49
0.25
 49
-0.125
  0
LTYPE
  2
DOT
 70
    64
  3
...............................................
 72
    65
 73
     2
 40
0.25
 49
0.0
 49
-0.25
  0
LTYPE
  2
DASHDOT
 70
    64
  3
__ . __ . __ . __ . __ . __ . __ . __ . __ . __
 72
    65
 73
     4
 40
1.0
 49
0.5
 49
-0.25
 49
0.0
 49
-0.25
  0
LTYPE
  2
DIVIDE
 70
    64
  3
__ . . __ . . __ . . __ . . __ . . __ . . __
 72
    65
 73
     6
 40
1.25
 49
0.5
 49
-0.25
 49
0.0
 49
-0.25
 49
0.0
 49
-0.25
  0
LTYPE
  2
CENTER
 70
    64
  3
____ _ ____ _ ____ _ ____ _ ____ _ ____ _ ____ 
 72
    65
 73
     4
 40
2.0
 49
1.25
 49
-0.25
 49
0.25
 49
-0.25
  0
LTYPE
  2
PHANTOM
 70
    64
  3
______  __  __  ______  __  __  ______  __  __ 
 72
    65
 73
     6
 40
2.5
 49
1.25
 49
-0.25
 49
0.25
 49
-0.25
 49
0.25
 49
-0.25
  0
LTYPE
  2
BORDER
 70
    64
  3
__ __ . __ __ . __ __ . __ __ . __ __ . __ __ .
 72
    65
 73
     6
 40
1.75
 49
0.5
 49
-0.25
 49
0.5
 49
-0.25
 49
0.0
 49
-0.25
  0
ENDTAB
  0
TABLE
  2
LAYER
 70
    16
  0
LAYER
  2
CSLAYER1
 70
    64
 62
     7
  6
CONTINUOUS
  0
LAYER
  2
CSLAYER2
 70
    64
 62
     7
  6
CONTINUOUS
  0
LAYER
  2
CSLAYER3
 70
    64
 62
     7
  6
CONTINUOUS
  0
LAYER
  2
CSLAYER4
 70
    64
 62
     7
  6
CONTINUOUS
  0
LAYER
  2
CSLAYER5
 70
    64
 62
     7
  6
CONTINUOUS
  0
LAYER
  2
CSLAYER6
 70
    64
 62
     7
  6
CONTINUOUS
  0
LAYER
  2
CSLAYER7
 70
    64
 62
     7
  6
CONTINUOUS
  0
LAYER
  2
CSLAYER8
 70
    64
 62
     7
  6
CONTINUOUS
  0
LAYER
  2
CSLAYER9
 70
    64
 62
     7
  6
CONTINUOUS
  0
LAYER
  2
CSLAYER10
 70
    64
 62
     7
  6
CONTINUOUS
  0
LAYER
  2
CSLAYER11
 70
    64
 62
     7
  6
CONTINUOUS
  0
LAYER
  2
CSLAYER12
 70
    64
 62
     7
  6
CONTINUOUS
  0
LAYER
  2
CSLAYER13
 70
    64
 62
     7
  6
CONTINUOUS
  0
LAYER
  2
CSLAYER14
 70
    64
 62
     7
  6
CONTINUOUS
  0
LAYER
  2
CSLAYER15
 70
    64
 62
     7
  6
CONTINUOUS
  0
LAYER
  2
CSLAYER16
 70
    64
 62
     7
  6
CONTINUOUS
  0
ENDTAB
  0
TABLE
  2
STYLE
 70
     1
  0
STYLE
  2
JX_FONT
 70
     0
 40
1.0
 41
1.0
 50
0.0
 71
     0
 42
1.0
  3
monotxt
  4
bigfont
  0
ENDTAB
  0
TABLE
  2
VIEW
 70
     0
  0
ENDTAB
  0
ENDSEC
  0
SECTION
  2
BLOCKS
  0
ENDSEC
  0
SECTION
  2
ENTITIES
  0
LINE
  8
CSLAYER1
  6
CENTER
 62
     3
 10
39.400962
 20
169.159123
 11
39.400962
 21
188.159123
  0
LINE
  8
CSLAYER1
  6
CENTER
 62
     3
 10
45.247946
 20
184.506107
 11
54.873503
 21
194.131664
  0
LINE
  8
CSLAYER1
  6
CENTER
 62
     3
 10
48.900962
 20
178.659123
 11
29.900962
 21
178.659123
  0
LINE
  8
CSLAYER1
  6
CENTER
 62
     3
 10
81.900962
 20
153.471951
 11
81.900962
 21
277.159123
  0
LINE
  8
CSLAYER1
  6
CENTER
 62
     3
 10
114.900962
 20
263.659123
 11
133.900962
 21
263.659123
  0
LINE
  8
CSLAYER1
  6
CENTER
 62
     3
 10
124.400962
 20
254.159123
 11
124.400962
 21
273.159123
  0
LINE
  8
CSLAYER1
  6
CENTER
 62
     3
 10
118.553978
 20
257.812139
 11
108.928421
 21
248.186582
  0
LINE
  8
CSLAYER1
  6
CENTER
 62
     3
 10
137.900962
 20
221.159123
 11
25.900962
 21
221.159123
  0
LINE
  8
CSLAYER1
  6
CENTER
 62
     3
 10
39.400962
 20
254.159123
 11
39.400962
 21
273.159123
  0
LINE
  8
CSLAYER1
  6
CENTER
 62
     3
 10
48.900962
 20
263.659123
 11
29.900962
 21
263.659123
  0
LINE
  8
CSLAYER1
  6
CENTER
 62
     3
 10
45.247946
 20
257.812139
 11
54.873503
 21
248.186582
  0
LINE
  8
CSLAYER1
  6
CENTER
 62
     3
 10
108.928421
 20
194.131664
 11
118.553978
 21
184.506107
  0
LINE
  8
CSLAYER1
  6
CENTER
 62
     3
 10
124.400962
 20
188.159123
 11
124.400962
 21
169.159123
  0
LINE
  8
CSLAYER1
  6
CENTER
 62
     3
 10
114.900962
 20
178.659123
 11
133.900962
 21
178.659123
  0
LINE
  8
CSLAYER1
  6
CENTER
 62
     3
 10
160.885661
 20
221.159123
 11
436.885631
 21
221.159123
  0
LINE
  8
CSLAYER1
  6
CENTER
 62
     3
 10
394.885661
 20
263.659123
 11
375.885661
 21
263.659123
  0
LINE
  8
CSLAYER1
  6
CONTINUOUS
 62
     3
 10
343.885631
 20
266.159123
 11
343.885631
 21
259.564857
  0
ARC
  8
CSLAYER1
  6
CONTINUOUS
 62
     3
 10
341.885631
 20
259.564857
 40
2.000000
 50
270.000001
 51
359.942691
  0
LINE
  8
CSLAYER1
  6
CONTINUOUS
 62
     3
 10
341.885631
 20
257.564857
 11
313.885631
 21
257.564888
  0
ARC
  8
CSLAYER1
  6
CONTINUOUS
 62
     3
 10
313.885631
 20
259.564888
 40
2.000000
 50
180.000005
 51
270.000001
  0
LINE
  8
CSLAYER1
  6
CONTINUOUS
 62
     3
 10
311.885631
 20
259.564888
 11
311.885631
 21
266.159123
  0
LINE
  8
CSLAYER1
  6
CENTER
 62
     3
 10
375.885661
 20
303.659123
 11
394.885661
 21
303.659123
  0
ARC
  8
CSLAYER1
  6
CONTINUOUS
 62
     3
 10
341.885631
 20
322.659123
 40
2.000000
 50
270.000000
 51
360.000000
  0
LINE
  8
CSLAYER1
  6
CONTINUOUS
 62
     3
 10
341.885631
 20
320.659123
 11
313.885631
 21
320.659123
  0
ARC
  8
CSLAYER1
  6
CONTINUOUS
 62
     3
 10
313.885631
 20
322.659123
 40
2.000000
 50
180.000000
 51
270.000000
  0
LINE
  8
CSLAYER1
  6
CONTINUOUS
 62
     3
 10
311.885631
 20
322.659123
 11
311.885631
 21
369.659123
  0
ARC
  8
CSLAYER1
  6
CONTINUOUS
 62
     3
 10
313.885631
 20
369.659123
 40
2.000000
 50
90.000000
 51
180.000000
  0
LINE
  8
CSLAYER1
  6
CONTINUOUS
 62
     3
 10
313.885631
 20
371.659123
 11
341.885631
 21
371.659123
  0
ARC
  8
CSLAYER1
  6
CONTINUOUS
 62
     3
 10
341.885631
 20
369.659123
 40
2.000000
 50
0.000000
 51
90.000000
  0
LINE
  8
CSLAYER1
  6
CONTINUOUS
 62
     3
 10
343.885631
 20
369.659123
 11
343.885631
 21
322.659123
  0
LINE
  8
CSLAYER1
  6
CENTER
 62
     3
 10
375.885661
 20
388.659123
 11
394.885661
 21
388.659123
  0
LINE
  8
CSLAYER1
  6
CENTER
 62
     3
 10
436.885661
 20
346.159123
 11
160.885661
 21
346.159123
  0
LINE
  8
CSLAYER1
  6
CENTER
 62
     3
 10
211.005908
 20
377.802151
 11
224.588639
 21
377.802151
  0
LINE
  8
CSLAYER1
  6
CENTER
 62
     3
 10
216.885661
 20
383.893050
 11
216.885661
 21
371.355144
  0
LINE
  8
CSLAYER1
  6
CENTER
 62
     3
 10
243.885661
 20
377.552296
 11
243.885661
 21
400.159108
  0
LINE
  8
CSLAYER1
  6
CENTER
 62
     3
 10
216.885661
 20
320.963102
 11
216.885661
 21
308.425196
  0
LINE
  8
CSLAYER1
  6
CENTER
 62
     3
 10
211.005908
 20
314.516094
 11
224.588639
 21
314.516094
  0
LINE
  8
CSLAYER1
  6
CENTER
 62
     3
 10
243.885661
 20
314.765919
 11
243.885661
 21
292.159108
  0
LINE
  8
CSLAYER1
  6
CENTER
 62
     3
 10
243.885661
 20
253.159123
 11
243.885661
 21
189.159123
  0
LINE
  8
CSLAYER1
  6
CENTER
 62
     3
 10
238.885661
 20
184.159123
 11
238.885661
 21
173.459111
  0
LINE
  8
CSLAYER1
  6
CENTER
 62
     3
 10
224.588639
 20
189.516094
 11
211.005908
 21
189.516094
  0
LINE
  8
CSLAYER1
  6
CENTER
 62
     3
 10
216.885661
 20
183.425196
 11
216.885661
 21
195.963102
  0
LINE
  8
CSLAYER1
  6
CENTER
 62
     3
 10
201.885661
 20
183.203557
 11
201.885661
 21
169.590119
  0
LINE
  8
CSLAYER1
  6
CENTER
 62
     3
 10
216.885661
 20
123.893050
 11
216.885661
 21
111.355144
  0
LINE
  8
CSLAYER1
  6
CENTER
 62
     3
 10
211.005908
 20
117.802151
 11
224.588639
 21
117.802151
  0
LINE
  8
CSLAYER1
  6
CENTER
 62
     3
 10
238.885661
 20
107.159123
 11
238.885661
 21
65.159123
  0
LINE
  8
CSLAYER1
  6
CENTER
 62
     3
 10
233.135668
 20
71.159123
 11
244.635668
 21
71.159123
  0
LINE
  8
CSLAYER1
  6
CENTER
 62
     3
 10
232.885661
 20
76.409085
 11
232.885661
 21
95.909085
  0
LINE
  8
CSLAYER1
  6
CENTER
 62
     3
 10
233.135668
 20
101.159123
 11
244.635668
 21
101.159123
  0
LINE
  8
CSLAYER1
  6
CENTER
 62
     3
 10
201.885661
 20
97.159123
 11
201.885661
 21
75.159123
  0
LINE
  8
CSLAYER1
  6
CENTER
 62
     3
 10
216.885661
 20
60.963102
 11
216.885661
 21
48.425196
  0
LINE
  8
CSLAYER1
  6
CENTER
 62
     3
 10
211.005908
 20
54.516094
 11
224.588639
 21
54.516094
  0
LINE
  8
CSLAYER1
  6
CENTER
 62
     3
 10
243.885661
 20
54.765919
 11
243.885661
 21
32.159108
  0
LINE
  8
CSLAYER1
  6
CENTER
 62
     3
 10
160.885661
 20
86.159123
 11
436.885661
 21
86.159123
  0
LINE
  8
CSLAYER1
  6
CENTER
 62
     3
 10
394.885661
 20
43.659123
 11
375.885661
 21
43.659123
  0
LINE
  8
CSLAYER1
  6
CENTER
 62
     3
 10
375.885661
 20
128.659123
 11
394.885661
 21
128.659123
  0
LINE
  8
CSLAYER1
  6
CENTER
 62
     3
 10
394.885661
 20
178.659123
 11
375.885661
 21
178.659123
  0
LINE
  8
CSLAYER1
  6
CENTER
 62
     3
 10
459.974454
 20
178.659123
 11
478.974454
 21
178.659123
  0
LINE
  8
CSLAYER1
  6
CENTER
 62
     3
 10
469.474454
 20
188.159123
 11
469.474454
 21
169.159123
  0
LINE
  8
CSLAYER1
  6
CENTER
 62
     3
 10
498.474454
 20
184.159100
 11
525.474454
 21
184.159100
  0
LINE
  8
CSLAYER1
  6
CENTER
 62
     3
 10
544.974454
 20
178.659123
 11
563.974454
 21
178.659123
  0
LINE
  8
CSLAYER1
  6
CENTER
 62
     3
 10
554.474454
 20
169.159123
 11
554.474454
 21
188.159123
  0
LINE
  8
CSLAYER1
  6
CENTER
 62
     3
 10
511.974454
 20
165.159123
 11
511.974454
 21
277.159123
  0
LINE
  8
CSLAYER1
  6
CENTER
 62
     3
 10
498.474454
 20
258.159145
 11
525.474454
 21
258.159145
  0
LINE
  8
CSLAYER1
  6
CENTER
 62
     3
 10
544.974454
 20
263.659123
 11
563.974454
 21
263.659123
  0
LINE
  8
CSLAYER1
  6
CENTER
 62
     3
 10
554.474454
 20
254.159123
 11
554.474454
 21
273.159123
  0
LINE
  8
CSLAYER1
  6
CENTER
 62
     3
 10
567.974454
 20
221.159123
 11
455.974454
 21
221.159123
  0
LINE
  8
CSLAYER1
  6
CENTER
 62
     3
 10
469.474454
 20
254.159123
 11
469.474454
 21
273.159123
  0
LINE
  8
CSLAYER1
  6
CENTER
 62
     3
 10
478.974454
 20
263.659123
 11
459.974454
 21
263.659123
  0
LINE
  8
CSLAYER1
  6
CENTER
 62
     3
 10
224.588639
 20
252.802151
 11
211.005908
 21
252.802151
  0
LINE
  8
CSLAYER1
  6
CENTER
 62
     3
 10
216.885661
 20
258.893050
 11
216.885661
 21
246.355144
  0
LINE
  8
CSLAYER1
  6
CENTER
 62
     3
 10
243.885661
 20
140.159108
 11
243.885661
 21
117.552296
  0
TEXT
  8
CSLAYER1
 62
     3
 10
325.942383
 20
351.409119
 40
3.500000
 41
1.125000
  1
N P
 50
-90.000000
 51
10.000000
  7
JX_FONT
 72
     5
 11
325.942383
 21
340.909119
  0
LINE
  8
CSLAYER1
  6
CONTINUOUS
 62
     6
 10
77.012709
 20
153.548941
 11
78.773630
 21
156.980444
  0
LINE
  8
CSLAYER1
  6
CONTINUOUS
 62
     6
 10
78.177864
 20
157.282255
 11
76.320634
 21
154.020589
  0
LINE
  8
CSLAYER1
  6
CONTINUOUS
 62
     6
 10
77.799428
 20
153.261726
 11
79.366216
 21
156.672436
  0
LINE
  8
CSLAYER1
  6
CONTINUOUS
 62
     6
 10
79.882769
 20
156.403947
 11
77.664492
 21
157.556941
  0
ARC
  8
CSLAYER1
  6
CONTINUOUS
 62
     6
 10
63.993063
 20
164.662829
 40
15.407880
 50
332.536225
 51
349.768709
  0
LINE
  8
CSLAYER1
  6
CONTINUOUS
 62
     6
 10
78.919527
 20
162.042640
 11
77.432269
 21
159.430718
  0
LINE
  8
CSLAYER1
  6
CONTINUOUS
 62
     6
 10
77.986478
 20
159.053025
 11
79.396613
 21
161.800952
  0
LINE
  8
CSLAYER1
  6
CONTINUOUS
 62
     6
 10
79.871153
 20
161.554301
 11
78.616478
 21
158.823025
  0
ARC
  8
CSLAYER1
  6
CONTINUOUS
 62
     6
 10
63.993063
 20
164.662829
 40
17.907879
 50
332.536225
 51
359.942687
  0
LINE
  8
CSLAYER1
  6
CONTINUOUS
 62
     6
 10
81.900933
 20
164.644916
 11
81.900963
 21
166.109693
  0
ARC
  8
CSLAYER1
  6
CONTINUOUS
 62
     6
 10
99.808861
 20
164.662887
 40
17.907879
 50
180.000020
 51
207.463892
  0
LINE
  8
CSLAYER1
  6
CONTINUOUS
 62
     6
 10
83.919175
 20
156.403947
 11
86.137452
 21
157.556902
  0
ARC
  8
CSLAYER1
  6
CONTINUOUS
 62
     6
 10
99.808861
 20
164.662829
 40
15.407880
 50
190.231388
 51
207.463892
  0
LINE
  8
CSLAYER1
  6
CONTINUOUS
 62
     6
 10
84.863681
 20
162.039167
 11
86.316478
 21
159.643025
  0
LINE
  8
CSLAYER1
  6
CONTINUOUS
 62
     6
 10
85.726478
 20
159.233025
 11
84.405326
 21
161.800936
  0
LINE
  8
CSLAYER1
  6
CONTINUOUS
 62
     6
 10
83.945008
 20
161.566524
 11
85.049866
 21
158.991372
  0
LINE
  8
CSLAYER1
  6
CONTINUOUS
 62
     6
 10
85.600688
 20
157.277918
 11
87.414884
 21
154.285710
  0
LINE
  8
CSLAYER1
  6
CONTINUOUS
 62
     6
 10
86.678116
 20
153.773718
 11
85.028314
 21
156.980425
  0
LINE
  8
CSLAYER1
  6
CONTINUOUS
 62
     6
 10
84.453486
 20
156.687699
 11
85.833189
 21
153.471951
  0
LINE
  8
CSLAYER1
  6
CONTINUOUS
 62
     6
 10
83.517135
 20
161.339297
 11
85.293518
 21
162.262576
  0
ARC
  8
CSLAYER1
  6
CONTINUOUS
 62
     6
 10
96.241500
 20
167.952960
 40
12.338538
 50
179.999963
 51
207.463892
  0
LINE
  8
CSLAYER1
  6
CONTINUOUS
 62
     6
 10
83.902969
 20
167.953006
 11
83.902969
 21
169.111606
  0
ARC
  8
CSLAYER1
  6
CONTINUOUS
 62
     6
 10
83.402467
 20
168.244718
 40
1.000999
 50
60.000345
 51
120.000345
  0
ARC
  8
CSLAYER1
  6
CONTINUOUS
 62
     6
 10
82.401468
 20
168.244712
 40
1.000999
 50
60.000345
 51
120.000345
  0
LINE
  8
CSLAYER1
  6
CONTINUOUS
 62
     6
 10
81.900963
 20
169.111600
 11
81.900939
 21
167.938615
  0
ARC
  8
CSLAYER1
  6
CONTINUOUS
 62
     6
 10
67.560424
 20
167.952960
 40
14.340522
 50
332.536225
 51
359.942687
  0
LINE
  8
CSLAYER1
  6
CONTINUOUS
 62
     6
 10
80.284805
 20
161.339297
 11
78.508422
 21
162.262607
  0
ARC
  8
CSLAYER1
  6
CONTINUOUS
 62
     6
 10
67.560424
 20
167.952960
 40
12.338538
 50
332.536225
 51
359.942687
  0
LINE
  8
CSLAYER1
  6
CONTINUOUS
 62
     6
 10
79.898956
 20
167.953006
 11
79.898956
 21
169.111606
  0
ARC
  8
CSLAYER1
  6
CONTINUOUS
 62
     6
 10
80.399454
 20
168.244712
 40
1.000999
 50
60.000345
 51
120.000345
  0
ARC
  8
CSLAYER1
  6
CONTINUOUS
 62
     6
 10
80.399443
 20
169.978493
 40
1.000999
 50
240.000345
 51
300.000345
  0
ARC
  8
CSLAYER1
  6
CONTINUOUS
 62
     6
 10
81.400453
 20
168.244718
 40
1.000999
 50
60.000345
 51
120.000345
  0
ARC
  8
CSLAYER1
  6
CONTINUOUS
 62
     6
 10
82.401457
 20
169.978493
 40
1.000999
 50
240.000345
 51
300.000345
  0
ARC
  8
CSLAYER1
  6
CONTINUOUS
 62
     6
 10
83.776017
 20
166.889643
 40
1.250017
 50
59.999981
 51
84.170973
  0
ARC
  8
CSLAYER1
  6
CONTINUOUS
 62
     6
 10
83.776018
 20
169.054736
 40
1.250017
 50
275.866161
 51
299.999981
  0
LINE
  8
CSLAYER1
  6
CONTINUOUS
 62
     6
 10
84.400989
 20
167.972190
 11
84.400979
 21
176.228622
  0
LINE
  8
CSLAYER1
  6
CONTINUOUS
 62
     6
 10
83.902961
 20
176.203678
 11
83.902969
 21
170.603076
  0
ARC
  8
CSLAYER1
  6
CONTINUOUS
 62
     6
 10
83.402495
 20
171.469972
 40
1.001006
 50
239.999981
 51
299.999981
  0
ARC
  8
CSLAYER1
  6
CONTINUOUS
 62
     6
 10
82.401489
 20
171.469973
 40
1.001006
 50
239.999981
 51
299.999981
  0
LINE
  8
CSLAYER1
  6
CONTINUOUS
 62
     6
 10
81.900984
 20
170.603076
 11
81.900962
 21
176.159123
  0
LINE
  8
CSLAYER1
  6
CONTINUOUS
 62
     6
 10
81.900962
 20
176.159123
 11
81.900989
 21
167.972189
  0
ARC
  8
CSLAYER1
  6
CONTINUOUS
 62
     6
 10
96.241500
 20
167.953006
 40
14.340522
 50
180.000020
 51
207.463892
  0
ARC
  8
CSLAYER1
  6
CONTINUOUS
 62
     6
 10
99.808861
 20
164.662829
 40
15.407880
 50
179.999963
 51
180.683155
  0
LINE
  8
CSLAYER1
  6
CONTINUOUS
 62
     6
 10
84.400989
 20
164.662887
 11
84.400989
 21
166.109701
  0
ARC
  8
CSLAYER1
  6
CONTINUOUS
 62
     6
 10
83.775982
 20
165.027166
 40
1.250008
 50
60.000345
 51
78.713358
  0
ARC
  8
CSLAYER1
  6
CONTINUOUS
 62
     6
 10
80.025938
 20
165.027158
 40
1.250008
 50
101.286479
 51
120.000345
  0
ARC
  8
CSLAYER1
  6
CONTINUOUS
 62
     6
 10
80.025925
 20
167.192236
 40
1.250008
 50
240.000345
 51
256.752214
  0
LINE
  8
CSLAYER1
  6
CONTINUOUS
 62
     6
 10
79.400936
 20
166.109701
 11
79.400936
 21
164.662887
  0
ARC
  8
CSLAYER1
  6
CONTINUOUS
 62
     6
 10
63.993063
 20
164.662829
 40
15.407880
 50
359.316845
 51
359.942687
  0
ARC
  8
CSLAYER1
  6
CONTINUOUS
 62
     6
 10
80.025964
 20
169.054736
 40
1.250017
 50
239.999981
 51
264.131163
  0
LINE
  8
CSLAYER1
  6
CONTINUOUS
 62
     6
 10
79.400954
 20
167.972190
 11
79.400944
 21
176.228622
  0
LINE
  8
CSLAYER1
  6
CONTINUOUS
 62
     6
 10
79.898963
 20
176.203678
 11
79.898971
 21
170.603076
  0
ARC
  8
CSLAYER1
  6
CONTINUOUS
 62
     6
 10
80.399475
 20
171.469973
 40
1.001006
 50
239.999981
 51
299.999981
  0
ARC
  8
CSLAYER1
  6
CONTINUOUS
 62
     6
 10
81.400481
 20
171.469972
 40
1.001006
 50
239.999981
 51
299.999981
  0
ARC
  8
CSLAYER1
  6
CONTINUOUS
 62
     6
 10
81.400481
 20
169.736179
 40
1.001006
 50
59.999981
 51
119.999981
  0
LINE
  8
CSLAYER1
  6
CONTINUOUS
 62
     6
 10
79.400951
 20
171.159123
 11
39.400962
 21
171.159123
  0
LINE
  8
CSLAYER1
  6
CONTINUOUS
 62
     6
 10
43.568146
 20
172.423373
 11
55.726402
 21
180.548410
  0
ARC
  8
CSLAYER1
  6
CONTINUOUS
 62
     6
 10
59.060150
 20
175.559810
 40
6.000000
 50
63.393594
 51
123.753747
  0
LINE
  8
CSLAYER1
  6
CONTINUOUS
 62
     6
 10
52.231725
 20
187.035137
 11
51.847692
 21
186.651104
  0
ARC
  8
CSLAYER1
  6
CONTINUOUS
 62
     6
 10
51.770881
 20
186.727915
 40
0.108621
 50
225.000005
 51
315.000001
  0
LINE
  8
CSLAYER1
  6
CONTINUOUS
 62
     6
 10
51.694093
 20
186.651127
 11
47.392943
 21
190.952277
  0
ARC
  8
CSLAYER1
  6
CONTINUOUS
 62
     6
 10
47.469730
 20
191.029065
 40
0.108621
 50
135.000003
 51
225.000005
  0
LINE
  8
CSLAYER1
  6
CONTINUOUS
 62
     6
 10
47.392919
 20
191.105876
 11
47.776952
 21
191.489909
  0
ARC
  8
CSLAYER1
  6
CONTINUOUS
 62
     6
 10
47.853763
 20
191.413098
 40
0.108621
 50
45.000000
 51
135.000003
  0
LINE
  8
CSLAYER1
  6
CONTINUOUS
 62
     6
 10
47.930570
 20
191.489905
 11
52.231797
 21
187.188678
  0
ARC
  8
CSLAYER1
  6
CONTINUOUS
 62
     6
 10
52.154914
 20
187.111948
 40
0.108621
 50
-44.999999
 51
44.942691
  0
ARC
  8
CSLAYER1
  6
CONTINUOUS
 62
     6
 10
51.334437
 20
186.703538
 40
0.217242
 50
-50.000135
 51
44.942691
  0
LINE
  8
CSLAYER1
  6
CONTINUOUS
 62
     6
 10
51.474054
 20
186.537106
 11
50.947990
 21
186.095681
  0
ARC
  8
CSLAYER1
  6
CONTINUOUS
 62
     6
 10
50.249785
 20
186.927772
 40
1.086209
 50
241.257399
 51
309.999892
  0
ARC
  8
CSLAYER1
  6
CONTINUOUS
 62
     6
 10
53.383847
 20
192.642032
 40
7.603464
 50
208.742994
 51
241.257016
  0
ARC
  8
CSLAYER1
  6
CONTINUOUS
 62
     6
 10
47.669587
 20
189.507970
 40
1.086209
 50
140.000111
 51
208.742611
  0
LINE
  8
CSLAYER1
  6
CONTINUOUS
 62
     6
 10
46.837497
 20
190.206174
 11
47.278921
 21
190.732239
  0
ARC
  8
CSLAYER1
  6
CONTINUOUS
 62
     6
 10
47.445353
 20
190.592621
 40
0.217242
 50
45.000000
 51
140.000152
  0
LINE
  8
CSLAYER1
  6
CONTINUOUS
 62
     6
 10
49.813916
 20
189.606568
 11
49.617200
 21
188.728020
  0
LINE
  8
CSLAYER1
  6
CONTINUOUS
 62
     6
 10
50.001233
 20
188.343987
 11
50.197949
 21
189.222535
  0
LINE
  8
CSLAYER1
  6
CONTINUOUS
 62
     6
 10
45.455718
 20
194.763211
 11
37.900962
 21
195.159123
  0
ARC
  8
CSLAYER1
  6
CONTINUOUS
 62
     6
 10
37.900962
 20
196.159123
 40
1.000000
 50
180.000020
 51
270.000001
  0
LINE
  8
CSLAYER1
  6
CONTINUOUS
 62
     6
 10
36.900962
 20
196.159123
 11
36.900962
 21
197.159123
  0
ARC
  8
CSLAYER1
  6
CONTINUOUS
 62
     6
 10
37.885917
 20
197.159123
 40
1.000000
 50
90.000039
 51
180.000020
  0
LINE
  8
CSLAYER1
  6
CONTINUOUS
 62
     6
 10
37.885917
 20
198.159123
 11
41.460237
 21
198.346482
  0
ARC
  8
CSLAYER1
  6
CONTINUOUS
 62
     6
 10
41.371245
 20
200.044226
 40
1.700075
 50
273.000588
 51
322.810642
  0
ARC
  8
CSLAYER1
  6
CONTINUOUS
 62
     6
 10
36.301649
 20
198.318311
 40
6.000000
 50
2.848860
 51
26.606406
  0
LINE
  8
CSLAYER1
  6
CONTINUOUS
 62
     6
 10
41.301742
 20
201.750276
 11
33.880546
 21
202.139164
  0
ARC
  8
CSLAYER1
  6
CONTINUOUS
 62
     6
 10
33.900962
 20
203.138920
 40
1.000000
 50
180.000020
 51
268.830766
  0
LINE
  8
CSLAYER1
  6
CONTINUOUS
 62
     6
 10
32.900962
 20
203.138920
 11
32.900962
 21
239.179326
  0
ARC
  8
CSLAYER1
  6
CONTINUOUS
 62
     6
 10
33.900962
 20
239.179326
 40
1.000000
 50
91.169216
 51
180.000020
  0
LINE
  8
CSLAYER1
  6
CONTINUOUS
 62
     6
 10
33.880546
 20
240.179082
 11
41.301742
 21
240.567970
  0
ARC
  8
CSLAYER1
  6
CONTINUOUS
 62
     6
 10
36.301649
 20
243.999935
 40
6.000000
 50
333.393594
 51
357.151140
  0
ARC
  8
CSLAYER1
  6
CONTINUOUS
 62
     6
 10
41.371245
 20
242.274020
 40
1.700075
 50
37.189358
 51
86.999412
  0
LINE
  8
CSLAYER1
  6
CONTINUOUS
 62
     6
 10
41.460237
 20
243.971764
 11
37.885917
 21
244.159123
  0
ARC
  8
CSLAYER1
  6
CONTINUOUS
 62
     6
 10
37.885917
 20
245.159123
 40
1.000000
 50
180.000020
 51
270.000001
  0
LINE
  8
CSLAYER1
  6
CONTINUOUS
 62
     6
 10
36.900962
 20
245.159123
 11
36.900962
 21
246.159123
  0
ARC
  8
CSLAYER1
  6
CONTINUOUS
 62
     6
 10
37.900962
 20
246.159123
 40
1.000000
 50
90.000039
 51
180.000020
  0
LINE
  8
CSLAYER1
  6
CONTINUOUS
 62
     6
 10
37.900962
 20
247.159123
 11
45.455718
 21
247.555035
  0
LINE
  8
CSLAYER1
  6
CONTINUOUS
 62
     6
 10
47.776976
 20
250.828360
 11
47.392943
 21
251.212393
  0
ARC
  8
CSLAYER1
  6
CONTINUOUS
 62
     6
 10
47.469754
 20
251.289204
 40
0.108621
 50
135.000005
 51
225.000001
  0
LINE
  8
CSLAYER1
  6
CONTINUOUS
 62
     6
 10
47.392966
 20
251.365992
 11
51.694116
 21
255.667142
  0
ARC
  8
CSLAYER1
  6
CONTINUOUS
 62
     6
 10
51.770904
 20
255.590354
 40
0.108621
 50
45.000003
 51
135.000005
  0
LINE
  8
CSLAYER1
  6
CONTINUOUS
 62
     6
 10
51.847715
 20
255.667166
 11
52.231748
 21
255.283133
  0
ARC
  8
CSLAYER1
  6
CONTINUOUS
 62
     6
 10
52.154937
 20
255.206321
 40
0.108621
 50
-45.000000
 51
45.000003
  0
LINE
  8
CSLAYER1
  6
CONTINUOUS
 62
     6
 10
52.231744
 20
255.129515
 11
47.930517
 21
250.828288
  0
ARC
  8
CSLAYER1
  6
CONTINUOUS
 62
     6
 10
47.853787
 20
250.905171
 40
0.108621
 50
225.000001
 51
314.942691
  0
ARC
  8
CSLAYER1
  6
CONTINUOUS
 62
     6
 10
47.445377
 20
251.725648
 40
0.217242
 50
219.999865
 51
314.942691
  0
LINE
  8
CSLAYER1
  6
CONTINUOUS
 62
     6
 10
47.278945
 20
251.586030
 11
46.837520
 21
252.112095
  0
ARC
  8
CSLAYER1
  6
CONTINUOUS
 62
     6
 10
47.669611
 20
252.810300
 40
1.086209
 50
151.257399
 51
219.999892
  0
ARC
  8
CSLAYER1
  6
CONTINUOUS
 62
     6
 10
53.383871
 20
249.676238
 40
7.603464
 50
118.742994
 51
151.257016
  0
ARC
  8
CSLAYER1
  6
CONTINUOUS
 62
     6
 10
50.249809
 20
255.390497
 40
1.086209
 50
50.000111
 51
118.742611
  0
LINE
  8
CSLAYER1
  6
CONTINUOUS
 62
     6
 10
50.948013
 20
256.222588
 11
51.474078
 21
255.781164
  0
ARC
  8
CSLAYER1
  6
CONTINUOUS
 62
     6
 10
51.334460
 20
255.614731
 40
0.217242
 50
-45.000000
 51
50.000152
  0
LINE
  8
CSLAYER1
  6
CONTINUOUS
 62
     6
 10
50.348407
 20
253.246169
 11
49.469859
 21
253.442885
  0
LINE
  8
CSLAYER1
  6
CONTINUOUS
 62
     6
 10
49.085826
 20
253.058852
 11
49.964374
 21
252.862136
  0
LINE
  8
CSLAYER1
  6
CONTINUOUS
 62
     6
 10
41.290249
 20
247.333683
 11
33.165212
 21
259.491938
  0
ARC
  8
CSLAYER1
  6
CONTINUOUS
 62
     6
 10
39.400962
 20
263.659123
 40
7.500000
 50
56.246253
 51
213.753747
  0
LINE
  8
CSLAYER1
  6
CONTINUOUS
 62
     6
 10
43.568146
 20
269.894873
 11
55.726402
 21
261.769836
  0
ARC
  8
CSLAYER1
  6
CONTINUOUS
 62
     6
 10
59.060150
 20
266.758435
 40
6.000000
 50
236.246253
 51
296.606406
  0
CIRCLE
  8
CSLAYER1
  6
CONTINUOUS
 62
     6
 10
39.400962
 20
263.659123
 40
3.500000
  0
LINE
  8
CSLAYER1
  6
CONTINUOUS
 62
     6
 10
31.900962
 20
263.659123
 11
31.900962
 21
178.659123
  0
LINE
  8
CSLAYER1
  6
CONTINUOUS
 62
     6
 10
33.165212
 20
182.826307
 11
41.290249
 21
194.984563
  0
ARC
  8
CSLAYER1
  6
CONTINUOUS
 62
     6
 10
39.400962
 20
178.659123
 40
7.500000
 50
146.246253
 51
303.753747
  0
CIRCLE
  8
CSLAYER1
  6
CONTINUOUS
 62
     6
 10
39.400962
 20
178.659123
 40
3.500000
  0
ARC
  8
CSLAYER1
  6
CONTINUOUS
 62
     6
 10
83.402495
 20
169.736179
 40
1.001006
 50
59.999981
 51
119.999981
  0
LINE
  8
CSLAYER1
  6
CONTINUOUS
 62
     6
 10
84.400986
 20
171.159123
 11
124.400962
 21
171.159123
  0
LINE
  8
CSLAYER1
  6
CONTINUOUS
 62
     6
 10
120.233777
 20
172.423373
 11
108.075522
 21
180.548410
  0
ARC
  8
CSLAYER1
  6
CONTINUOUS
 62
     6
 10
104.741774
 20
175.559810
 40
6.000000
 50
56.246253
 51
116.606406
  0
LINE
  8
CSLAYER1
  6
CONTINUOUS
 62
     6
 10
111.570176
 20
187.035113
 11
111.954209
 21
186.651080
  0
ARC
  8
CSLAYER1
  6
CONTINUOUS
 62
     6
 10
112.031020
 20
186.727892
 40
0.108621
 50
225.000003
 51
315.000005
  0
LINE
  8
CSLAYER1
  6
CONTINUOUS
 62
     6
 10
112.107808
 20
186.651104
 11
116.408958
 21
190.952254
  0
ARC
  8
CSLAYER1
  6
CONTINUOUS
 62
     6
 10
116.332170
 20
191.029042
 40
0.108621
 50
-44.999995
 51
45.000001
  0
LINE
  8
CSLAYER1
  6
CONTINUOUS
 62
     6
 10
116.408981
 20
191.105853
 11
116.024948
 21
191.489886
  0
ARC
  8
CSLAYER1
  6
CONTINUOUS
 62
     6
 10
115.948137
 20
191.413075
 40
0.108621
 50
45.000001
 51
134.942691
  0
LINE
  8
CSLAYER1
  6
CONTINUOUS
 62
     6
 10
115.871407
 20
191.489958
 11
111.570180
 21
187.188731
  0
ARC
  8
CSLAYER1
  6
CONTINUOUS
 62
     6
 10
111.646987
 20
187.111924
 40
0.108621
 50
135.000000
 51
225.000003
  0
ARC
  8
CSLAYER1
  6
CONTINUOUS
 62
     6
 10
112.467463
 20
186.703514
 40
0.217242
 50
135.000000
 51
230.000152
  0
LINE
  8
CSLAYER1
  6
CONTINUOUS
 62
     6
 10
112.327846
 20
186.537082
 11
112.853911
 21
186.095658
  0
ARC
  8
CSLAYER1
  6
CONTINUOUS
 62
     6
 10
113.552115
 20
186.927748
 40
1.086209
 50
230.000111
 51
298.742611
  0
ARC
  8
CSLAYER1
  6
CONTINUOUS
 62
     6
 10
110.418053
 20
192.642008
 40
7.603464
 50
298.742994
 51
331.257016
  0
ARC
  8
CSLAYER1
  6
CONTINUOUS
 62
     6
 10
116.132313
 20
189.507946
 40
1.086209
 50
-28.742601
 51
39.999892
  0
LINE
  8
CSLAYER1
  6
CONTINUOUS
 62
     6
 10
116.964404
 20
190.206151
 11
116.522979
 21
190.732215
  0
ARC
  8
CSLAYER1
  6
CONTINUOUS
 62
     6
 10
116.356547
 20
190.592598
 40
0.217242
 50
39.999865
 51
134.942691
  0
LINE
  8
CSLAYER1
  6
CONTINUOUS
 62
     6
 10
114.716098
 20
189.259394
 11
113.837550
 21
189.456110
  0
LINE
  8
CSLAYER1
  6
CONTINUOUS
 62
     6
 10
113.453517
 20
189.072077
 11
114.332065
 21
188.875361
  0
LINE
  8
CSLAYER1
  6
CONTINUOUS
 62
     6
 10
118.346206
 20
194.763211
 11
125.900962
 21
195.159123
  0
ARC
  8
CSLAYER1
  6
CONTINUOUS
 62
     6
 10
125.900962
 20
196.159123
 40
1.000000
 50
270.000019
 51
360.000000
  0
LINE
  8
CSLAYER1
  6
CONTINUOUS
 62
     6
 10
126.900962
 20
196.159123
 11
126.900962
 21
197.159123
  0
ARC
  8
CSLAYER1
  6
CONTINUOUS
 62
     6
 10
125.916007
 20
197.159123
 40
1.000000
 50
0.000018
 51
89.999999
  0
LINE
  8
CSLAYER1
  6
CONTINUOUS
 62
     6
 10
125.916007
 20
198.159123
 11
122.341687
 21
198.346482
  0
ARC
  8
CSLAYER1
  6
CONTINUOUS
 62
     6
 10
122.430679
 20
200.044226
 40
1.700075
 50
217.189358
 51
266.999412
  0
ARC
  8
CSLAYER1
  6
CONTINUOUS
 62
     6
 10
127.500274
 20
198.318311
 40
6.000000
 50
153.393594
 51
177.151140
  0
LINE
  8
CSLAYER1
  6
CONTINUOUS
 62
     6
 10
122.500182
 20
201.750276
 11
129.921378
 21
202.139164
  0
ARC
  8
CSLAYER1
  6
CONTINUOUS
 62
     6
 10
129.900962
 20
203.138920
 40
1.000000
 50
271.169236
 51
359.999982
  0
LINE
  8
CSLAYER1
  6
CONTINUOUS
 62
     6
 10
130.900962
 20
203.138920
 11
130.900962
 21
239.179326
  0
ARC
  8
CSLAYER1
  6
CONTINUOUS
 62
     6
 10
129.900962
 20
239.179326
 40
1.000000
 50
0.000000
 51
88.830746
  0
LINE
  8
CSLAYER1
  6
CONTINUOUS
 62
     6
 10
129.921378
 20
240.179082
 11
122.500182
 21
240.567970
  0
ARC
  8
CSLAYER1
  6
CONTINUOUS
 62
     6
 10
127.500274
 20
243.999935
 40
6.000000
 50
182.848860
 51
206.606406
  0
ARC
  8
CSLAYER1
  6
CONTINUOUS
 62
     6
 10
122.430679
 20
242.274020
 40
1.700075
 50
93.000588
 51
142.810642
  0
LINE
  8
CSLAYER1
  6
CONTINUOUS
 62
     6
 10
122.341687
 20
243.971764
 11
125.916007
 21
244.159123
  0
ARC
  8
CSLAYER1
  6
CONTINUOUS
 62
     6
 10
125.916007
 20
245.159123
 40
1.000000
 50
270.000001
 51
359.999982
  0
LINE
  8
CSLAYER1
  6
CONTINUOUS
 62
     6
 10
126.900962
 20
245.159123
 11
126.900962
 21
246.159123
  0
ARC
  8
CSLAYER1
  6
CONTINUOUS
 62
     6
 10
125.900962
 20
246.159123
 40
1.000000
 50
0.000000
 51
89.999981
  0
LINE
  8
CSLAYER1
  6
CONTINUOUS
 62
     6
 10
125.900962
 20
247.159123
 11
118.346206
 21
247.555035
  0
LINE
  8
CSLAYER1
  6
CONTINUOUS
 62
     6
 10
116.024972
 20
250.828337
 11
116.409005
 21
251.212370
  0
ARC
  8
CSLAYER1
  6
CONTINUOUS
 62
     6
 10
116.332193
 20
251.289181
 40
0.108621
 50
-44.999997
 51
45.000005
  0
LINE
  8
CSLAYER1
  6
CONTINUOUS
 62
     6
 10
116.408981
 20
251.365969
 11
112.107831
 21
255.667119
  0
ARC
  8
CSLAYER1
  6
CONTINUOUS
 62
     6
 10
112.031043
 20
255.590331
 40
0.108621
 50
45.000005
 51
135.000001
  0
LINE
  8
CSLAYER1
  6
CONTINUOUS
 62
     6
 10
111.954232
 20
255.667142
 11
111.570199
 21
255.283109
  0
ARC
  8
CSLAYER1
  6
CONTINUOUS
 62
     6
 10
111.647010
 20
255.206298
 40
0.108621
 50
135.000001
 51
224.942691
  0
LINE
  8
CSLAYER1
  6
CONTINUOUS
 62
     6
 10
111.570127
 20
255.129568
 11
115.871354
 21
250.828341
  0
ARC
  8
CSLAYER1
  6
CONTINUOUS
 62
     6
 10
115.948160
 20
250.905148
 40
0.108621
 50
225.000000
 51
315.000003
  0
ARC
  8
CSLAYER1
  6
CONTINUOUS
 62
     6
 10
116.356570
 20
251.725624
 40
0.217242
 50
225.000000
 51
320.000152
  0
LINE
  8
CSLAYER1
  6
CONTINUOUS
 62
     6
 10
116.523003
 20
251.586007
 11
116.964427
 21
252.112072
  0
ARC
  8
CSLAYER1
  6
CONTINUOUS
 62
     6
 10
116.132336
 20
252.810276
 40
1.086209
 50
-39.999889
 51
28.742611
  0
ARC
  8
CSLAYER1
  6
CONTINUOUS
 62
     6
 10
110.418077
 20
249.676214
 40
7.603464
 50
28.742994
 51
61.257016
  0
ARC
  8
CSLAYER1
  6
CONTINUOUS
 62
     6
 10
113.552139
 20
255.390474
 40
1.086209
 50
61.257399
 51
129.999892
  0
LINE
  8
CSLAYER1
  6
CONTINUOUS
 62
     6
 10
112.853934
 20
256.222565
 11
112.327869
 21
255.781140
  0
ARC
  8
CSLAYER1
  6
CONTINUOUS
 62
     6
 10
112.467487
 20
255.614708
 40
0.217242
 50
129.999865
 51
224.942691
  0
LINE
  8
CSLAYER1
  6
CONTINUOUS
 62
     6
 10
113.800691
 20
253.974259
 11
113.603975
 21
253.095711
  0
LINE
  8
CSLAYER1
  6
CONTINUOUS
 62
     6
 10
113.988008
 20
252.711678
 11
114.184724
 21
253.590226
  0
ARC
  8
CSLAYER1
  6
CONTINUOUS
 62
     6
 10
104.741774
 20
266.758435
 40
6.000000
 50
243.393594
 51
303.753747
  0
LINE
  8
CSLAYER1
  6
CONTINUOUS
 62
     6
 10
108.075522
 20
261.769836
 11
120.233777
 21
269.894873
  0
ARC
  8
CSLAYER1
  6
CONTINUOUS
 62
     6
 10
124.400962
 20
263.659123
 40
7.500000
 50
-33.753747
 51
123.753747
  0
LINE
  8
CSLAYER1
  6
CONTINUOUS
 62
     6
 10
130.636712
 20
259.491938
 11
122.511675
 21
247.333683
  0
CIRCLE
  8
CSLAYER1
  6
CONTINUOUS
 62
     6
 10
124.400962
 20
263.659123
 40
3.500000
  0
LINE
  8
CSLAYER1
  6
CONTINUOUS
 62
     6
 10
124.400962
 20
271.159123
 11
39.400962
 21
271.159123
  0
CIRCLE
  8
CSLAYER1
  6
CONTINUOUS
 62
     6
 10
81.900962
 20
221.159123
 40
45.000000
  0
LINE
  8
CSLAYER1
  6
CONTINUOUS
 62
     6
 10
131.900962
 20
263.659123
 11
131.900962
 21
178.659123
  0
LINE
  8
CSLAYER1
  6
CONTINUOUS
 62
     6
 10
130.636712
 20
182.826307
 11
122.513649
 21
194.981609
  0
ARC
  8
CSLAYER1
  6
CONTINUOUS
 62
     6
 10
124.400962
 20
178.659123
 40
7.500000
 50
-123.753747
 51
33.753747
  0
CIRCLE
  8
CSLAYER1
  6
CONTINUOUS
 62
     6
 10
124.400962
 20
178.659123
 40
3.500000
  0
LINE
  8
CSLAYER1
  6
CONTINUOUS
 62
     6
 10
166.885661
 20
186.409123
 11
166.885661
 21
256.159123
  0
ARC
  8
CSLAYER1
  6
CONTINUOUS
 62
     6
 10
176.885661
 20
256.159123
 40
10.000000
 50
90.000000
 51
180.000000
  0
LINE
  8
CSLAYER1
  6
CONTINUOUS
 62
     6
 10
176.885661
 20
266.159123
 11
219.885661
 21
266.159123
  0
LINE
  8
CSLAYER1
  6
CONTINUOUS
 62
     6
 10
219.885661
 20
266.159123
 11
219.885661
 21
176.159123
  0
LINE
  8
CSLAYER1
  6
CONTINUOUS
 62
     6
 10
219.885661
 20
176.159123
 11
176.885661
 21
176.159123
  0
ARC
  8
CSLAYER1
  6
CONTINUOUS
 62
     6
 10
177.101653
 20
186.372895
 40
10.216056
 50
179.796819
 51
268.788542
  0
ARC
  8
CSLAYER1
  6
CONTINUOUS
 62
     6
 10
198.785076
 20
176.126683
 40
0.900000
 50
177.934346
 51
270.000001
  0
LINE
  8
CSLAYER1
  6
CONTINUOUS
 62
     6
 10
198.785076
 20
175.226689
 11
204.986246
 21
175.226689
  0
ARC
  8
CSLAYER1
  6
CONTINUOUS
 62
     6
 10
204.986246
 20
176.126683
 40
0.900000
 50
-90.000001
 51
2.065654
  0
LINE
  8
CSLAYER1
  6
CONTINUOUS
 62
     6
 10
203.431538
 20
175.226689
 11
202.932530
 21
169.523010
  0
ARC
  8
CSLAYER1
  6
CONTINUOUS
 62
     6
 10
202.490889
 20
168.892258
 40
0.770004
 50
54.999981
 51
114.999981
  0
ARC
  8
CSLAYER1
  6
CONTINUOUS
 62
     6
 10
201.840054
 20
170.287980
 40
0.770004
 50
234.999981
 51
294.999981
  0
LINE
  8
CSLAYER1
  6
CONTINUOUS
 62
     6
 10
201.398397
 20
169.657229
 11
201.885661
 21
175.226689
  0
LINE
  8
CSLAYER1
  6
CONTINUOUS
 62
     6
 10
201.885661
 20
175.226689
 11
199.781811
 21
169.446408
  0
ARC
  8
CSLAYER1
  6
CONTINUOUS
 62
     6
 10
199.191968
 20
168.951454
 40
0.770004
 50
39.999981
 51
99.999981
  0
ARC
  8
CSLAYER1
  6
CONTINUOUS
 62
     6
 10
198.924549
 20
170.468066
 40
0.770004
 50
219.999981
 51
279.999981
  0
LINE
  8
CSLAYER1
  6
CONTINUOUS
 62
     6
 10
198.334690
 20
169.973117
 11
200.246834
 21
175.226689
  0
ARC
  8
CSLAYER1
  6
CONTINUOUS
 62
     6
 10
199.648116
 20
170.204709
 40
0.770004
 50
219.999981
 51
279.999981
  0
ARC
  8
CSLAYER1
  6
CONTINUOUS
 62
     6
 10
198.799551
 20
167.873382
 40
0.769999
 50
40.000362
 51
100.000362
  0
ARC
  8
CSLAYER1
  6
CONTINUOUS
 62
     6
 10
198.532123
 20
169.389982
 40
0.769999
 50
220.000362
 51
280.000362
  0
ARC
  8
CSLAYER1
  6
CONTINUOUS
 62
     6
 10
198.075987
 20
168.136733
 40
0.769999
 50
40.000362
 51
100.000362
  0
LINE
  8
CSLAYER1
  6
CONTINUOUS
 62
     6
 10
197.942284
 20
168.895034
 11
197.637453
 21
168.057519
  0
ARC
  8
CSLAYER1
  6
CONTINUOUS
 62
     6
 10
188.718661
 20
171.303693
 40
9.491183
 50
312.536185
 51
339.942704
  0
LINE
  8
CSLAYER1
  6
CONTINUOUS
 62
     6
 10
195.135230
 20
164.310137
 11
196.176349
 21
163.175384
  0
ARC
  8
CSLAYER1
  6
CONTINUOUS
 62
     6
 10
188.718661
 20
171.303693
 40
11.031171
 50
312.536185
 51
339.942704
  0
LINE
  8
CSLAYER1
  6
CONTINUOUS
 62
     6
 10
199.084602
 20
167.530799
 11
199.389433
 21
168.368315
  0
ARC
  8
CSLAYER1
  6
CONTINUOUS
 62
     6
 10
201.623799
 20
167.816460
 40
0.769999
 50
55.000362
 51
115.000362
  0
ARC
  8
CSLAYER1
  6
CONTINUOUS
 62
     6
 10
202.390869
 20
167.749355
 40
0.769999
 50
55.000362
 51
115.000362
  0
LINE
  8
CSLAYER1
  6
CONTINUOUS
 62
     6
 10
202.832554
 20
168.380096
 11
202.754875
 21
167.492223
  0
ARC
  8
CSLAYER1
  6
CONTINUOUS
 62
     6
 10
191.765648
 20
168.453656
 40
11.031171
 50
327.536185
 51
354.942704
  0
LINE
  8
CSLAYER1
  6
CONTINUOUS
 62
     6
 10
201.072982
 20
162.532503
 11
199.773642
 21
163.359129
  0
ARC
  8
CSLAYER1
  6
CONTINUOUS
 62
     6
 10
191.765648
 20
168.453656
 40
9.491183
 50
327.536185
 51
354.942704
  0
LINE
  8
CSLAYER1
  6
CONTINUOUS
 62
     6
 10
201.220711
 20
167.626445
 11
201.298390
 21
168.514318
  0
ARC
  8
CSLAYER1
  6
CONTINUOUS
 62
     6
 10
201.740029
 20
169.145063
 40
0.769999
 50
235.000362
 51
295.000362
  0
ARC
  8
CSLAYER1
  6
CONTINUOUS
 62
     6
 10
202.607128
 20
170.220869
 40
0.770004
 50
234.999981
 51
294.999981
  0
LINE
  8
CSLAYER1
  6
CONTINUOUS
 62
     6
 10
200.211380
 20
163.080661
 11
198.904418
 21
161.130477
  0
LINE
  8
CSLAYER1
  6
CONTINUOUS
 62
     6
 10
199.314796
 20
161.569954
 11
200.536811
 21
162.873592
  0
LINE
  8
CSLAYER1
  6
CONTINUOUS
 62
     6
 10
200.801811
 20
162.704987
 11
199.697626
 21
161.340188
  0
LINE
  8
CSLAYER1
  6
CONTINUOUS
 62
     6
 10
195.959060
 20
163.412175
 11
194.539263
 21
162.379665
  0
LINE
  8
CSLAYER1
  6
CONTINUOUS
 62
     6
 10
194.228946
 20
162.700685
 11
195.746728
 21
163.643621
  0
LINE
  8
CSLAYER1
  6
CONTINUOUS
 62
     6
 10
195.485979
 20
163.927862
 11
193.718806
 21
162.382396
  0
LINE
  8
CSLAYER1
  6
CONTINUOUS
 62
     6
 10
216.193231
 20
161.830662
 11
218.665001
 21
164.232470
  0
LINE
  8
CSLAYER1
  6
CONTINUOUS
 62
     6
 10
218.661682
 20
164.235317
 11
218.717153
 21
164.187731
  0
LINE
  8
CSLAYER1
  6
CONTINUOUS
 62
     6
 10
218.717153
 20
164.187731
 11
218.772664
 21
164.144226
  0
LINE
  8
CSLAYER1
  6
CONTINUOUS
 62
     6
 10
218.772664
 20
164.144226
 11
218.827691
 21
164.105381
  0
LINE
  8
CSLAYER1
  6
CONTINUOUS
 62
     6
 10
218.827691
 20
164.105381
 11
218.884177
 21
164.071087
  0
LINE
  8
CSLAYER1
  6
CONTINUOUS
 62
     6
 10
218.884177
 20
164.071087
 11
218.944779
 21
164.040120
  0
LINE
  8
CSLAYER1
  6
CONTINUOUS
 62
     6
 10
218.944779
 20
164.040120
 11
219.008940
 21
164.012131
  0
LINE
  8
CSLAYER1
  6
CONTINUOUS
 62
     6
 10
219.008940
 20
164.012131
 11
219.076102
 21
163.986770
  0
LINE
  8
CSLAYER1
  6
CONTINUOUS
 62
     6
 10
219.076102
 20
163.986770
 11
219.145708
 21
163.963688
  0
LINE
  8
CSLAYER1
  6
CONTINUOUS
 62
     6
 10
219.145708
 20
163.963688
 11
219.217202
 21
163.942534
  0
LINE
  8
CSLAYER1
  6
CONTINUOUS
 62
     6
 10
219.217202
 20
163.942534
 11
219.290027
 21
163.922960
  0
LINE
  8
CSLAYER1
  6
CONTINUOUS
 62
     6
 10
219.290027
 20
163.922960
 11
219.363625
 21
163.904615
  0
LINE
  8
CSLAYER1
  6
CONTINUOUS
 62
     6
 10
219.363625
 20
163.904615
 11
219.437440
 21
163.887149
  0
LINE
  8
CSLAYER1
  6
CONTINUOUS
 62
     6
 10
219.437440
 20
163.887149
 11
219.510914
 21
163.870214
  0
LINE
  8
CSLAYER1
  6
CONTINUOUS
 62
     6
 10
219.510914
 20
163.870214
 11
219.583490
 21
163.853459
  0
LINE
  8
CSLAYER1
  6
CONTINUOUS
 62
     6
 10
219.583490
 20
163.853459
 11
219.657714
 21
163.835859
  0
LINE
  8
CSLAYER1
  6
CONTINUOUS
 62
     6
 10
219.657714
 20
163.835859
 11
219.731450
 21
163.817834
  0
LINE
  8
CSLAYER1
  6
CONTINUOUS
 62
     6
 10
219.731450
 20
163.817834
 11
219.804746
 21
163.799428
  0
LINE
  8
CSLAYER1
  6
CONTINUOUS
 62
     6
 10
219.804746
 20
163.799428
 11
219.877652
 21
163.780683
  0
LINE
  8
CSLAYER1
  6
CONTINUOUS
 62
     6
 10
219.877652
 20
163.780683
 11
219.950216
 21
163.761640
  0
LINE
  8
CSLAYER1
  6
CONTINUOUS
 62
     6
 10
219.950216
 20
163.761640
 11
220.022487
 21
163.742344
  0
LINE
  8
CSLAYER1
  6
CONTINUOUS
 62
     6
 10
220.022487
 20
163.742344
 11
220.094514
 21
163.722835
  0
LINE
  8
CSLAYER1
  6
CONTINUOUS
 62
     6
 10
220.094514
 20
163.722835
 11
220.166346
 21
163.703157
  0
LINE
  8
CSLAYER1
  6
CONTINUOUS
 62
     6
 10
220.166346
 20
163.703157
 11
220.238031
 21
163.683351
  0
LINE
  8
CSLAYER1
  6
CONTINUOUS
 62
     6
 10
220.238031
 20
163.683351
 11
220.309619
 21
163.663461
  0
LINE
  8
CSLAYER1
  6
CONTINUOUS
 62
     6
 10
220.309619
 20
163.663461
 11
220.390238
 21
163.640998
  0
LINE
  8
CSLAYER1
  6
CONTINUOUS
 62
     6
 10
220.390238
 20
163.640998
 11
220.517494
 21
163.813148
  0
LINE
  8
CSLAYER1
  6
CONTINUOUS
 62
     6
 10
220.517494
 20
163.813148
 11
220.612274
 21
163.940311
  0
LINE
  8
CSLAYER1
  6
CONTINUOUS
 62
     6
 10
220.612274
 20
163.940311
 11
220.707925
 21
164.066542
  0
LINE
  8
CSLAYER1
  6
CONTINUOUS
 62
     6
 10
220.707925
 20
164.066542
 11
220.804884
 21
164.191378
  0
LINE
  8
CSLAYER1
  6
CONTINUOUS
 62
     6
 10
220.804884
 20
164.191378
 11
220.903586
 21
164.314353
  0
LINE
  8
CSLAYER1
  6
CONTINUOUS
 62
     6
 10
220.903586
 20
164.314353
 11
221.004467
 21
164.435001
  0
LINE
  8
CSLAYER1
  6
CONTINUOUS
 62
     6
 10
221.004467
 20
164.435001
 11
221.107964
 21
164.552858
  0
LINE
  8
CSLAYER1
  6
CONTINUOUS
 62
     6
 10
221.107964
 20
164.552858
 11
221.214511
 21
164.667458
  0
LINE
  8
CSLAYER1
  6
CONTINUOUS
 62
     6
 10
221.214511
 20
164.667458
 11
221.324545
 21
164.778336
  0
LINE
  8
CSLAYER1
  6
CONTINUOUS
 62
     6
 10
221.324545
 20
164.778336
 11
221.438502
 21
164.885027
  0
LINE
  8
CSLAYER1
  6
CONTINUOUS
 62
     6
 10
221.438502
 20
164.885027
 11
221.556817
 21
164.987065
  0
LINE
  8
CSLAYER1
  6
CONTINUOUS
 62
     6
 10
221.556817
 20
164.987065
 11
221.708242
 21
165.106103
  0
LINE
  8
CSLAYER1
  6
CONTINUOUS
 62
     6
 10
221.708242
 20
165.106103
 11
221.866482
 21
165.220615
  0
LINE
  8
CSLAYER1
  6
CONTINUOUS
 62
     6
 10
221.866482
 20
165.220615
 11
222.029602
 21
165.331555
  0
LINE
  8
CSLAYER1
  6
CONTINUOUS
 62
     6
 10
222.029602
 20
165.331555
 11
222.195671
 21
165.439874
  0
LINE
  8
CSLAYER1
  6
CONTINUOUS
 62
     6
 10
222.195671
 20
165.439874
 11
222.362752
 21
165.546523
  0
LINE
  8
CSLAYER1
  6
CONTINUOUS
 62
     6
 10
222.362752
 20
165.546523
 11
222.528913
 21
165.652456
  0
LINE
  8
CSLAYER1
  6
CONTINUOUS
 62
     6
 10
222.528913
 20
165.652456
 11
222.692220
 21
165.758623
  0
LINE
  8
CSLAYER1
  6
CONTINUOUS
 62
     6
 10
222.692220
 20
165.758623
 11
222.850738
 21
165.865978
  0
LINE
  8
CSLAYER1
  6
CONTINUOUS
 62
     6
 10
222.850738
 20
165.865978
 11
223.002534
 21
165.975472
  0
LINE
  8
CSLAYER1
  6
CONTINUOUS
 62
     6
 10
223.002534
 20
165.975472
 11
223.145673
 21
166.088058
  0
LINE
  8
CSLAYER1
  6
CONTINUOUS
 62
     6
 10
223.145673
 20
166.088058
 11
223.278222
 21
166.204686
  0
LINE
  8
CSLAYER1
  6
CONTINUOUS
 62
     6
 10
223.278222
 20
166.204686
 11
223.381227
 21
166.307701
  0
LINE
  8
CSLAYER1
  6
CONTINUOUS
 62
     6
 10
223.381227
 20
166.307701
 11
223.482891
 21
166.421137
  0
LINE
  8
CSLAYER1
  6
CONTINUOUS
 62
     6
 10
223.482891
 20
166.421137
 11
223.582645
 21
166.543304
  0
LINE
  8
CSLAYER1
  6
CONTINUOUS
 62
     6
 10
223.582645
 20
166.543304
 11
223.679924
 21
166.672513
  0
LINE
  8
CSLAYER1
  6
CONTINUOUS
 62
     6
 10
223.679924
 20
166.672513
 11
223.774158
 21
166.807073
  0
LINE
  8
CSLAYER1
  6
CONTINUOUS
 62
     6
 10
223.774158
 20
166.807073
 11
223.864783
 21
166.945295
  0
LINE
  8
CSLAYER1
  6
CONTINUOUS
 62
     6
 10
223.864783
 20
166.945295
 11
223.951229
 21
167.085488
  0
LINE
  8
CSLAYER1
  6
CONTINUOUS
 62
     6
 10
223.951229
 20
167.085488
 11
224.032930
 21
167.225962
  0
LINE
  8
CSLAYER1
  6
CONTINUOUS
 62
     6
 10
224.032930
 20
167.225962
 11
224.109319
 21
167.365029
  0
LINE
  8
CSLAYER1
  6
CONTINUOUS
 62
     6
 10
224.109319
 20
167.365029
 11
224.179828
 21
167.500997
  0
LINE
  8
CSLAYER1
  6
CONTINUOUS
 62
     6
 10
224.179828
 20
167.500997
 11
224.285088
 21
167.716537
  0
ARC
  8
CSLAYER1
  6
CONTINUOUS
 62
     6
 10
223.358977
 20
167.160459
 40
1.080690
 50
30.945197
 51
90.945197
  0
ARC
  8
CSLAYER1
  6
CONTINUOUS
 62
     6
 10
222.414286
 20
167.685292
 40
1.080690
 50
30.945197
 51
90.945197
  0
ARC
  8
CSLAYER1
  6
CONTINUOUS
 62
     6
 10
223.323323
 20
169.321545
 40
1.080690
 50
210.945197
 51
270.945197
  0
LINE
  8
CSLAYER1
  6
CONTINUOUS
 62
     6
 10
222.396478
 20
168.765812
 11
222.251776
 21
168.626466
  0
LINE
  8
CSLAYER1
  6
CONTINUOUS
 62
     6
 10
222.251776
 20
168.626466
 11
222.097861
 21
168.476716
  0
LINE
  8
CSLAYER1
  6
CONTINUOUS
 62
     6
 10
222.097861
 20
168.476716
 11
221.936510
 21
168.318888
  0
LINE
  8
CSLAYER1
  6
CONTINUOUS
 62
     6
 10
221.936510
 20
168.318888
 11
221.769500
 21
168.155306
  0
LINE
  8
CSLAYER1
  6
CONTINUOUS
 62
     6
 10
221.769500
 20
168.155306
 11
221.598605
 21
167.988295
  0
LINE
  8
CSLAYER1
  6
CONTINUOUS
 62
     6
 10
221.598605
 20
167.988295
 11
221.425602
 21
167.820179
  0
LINE
  8
CSLAYER1
  6
CONTINUOUS
 62
     6
 10
221.425602
 20
167.820179
 11
221.252267
 21
167.653284
  0
LINE
  8
CSLAYER1
  6
CONTINUOUS
 62
     6
 10
221.252267
 20
167.653284
 11
221.080375
 21
167.489935
  0
LINE
  8
CSLAYER1
  6
CONTINUOUS
 62
     6
 10
221.080375
 20
167.489935
 11
220.911702
 21
167.332456
  0
LINE
  8
CSLAYER1
  6
CONTINUOUS
 62
     6
 10
220.911702
 20
167.332456
 11
220.748025
 21
167.183171
  0
LINE
  8
CSLAYER1
  6
CONTINUOUS
 62
     6
 10
220.748025
 20
167.183171
 11
220.591119
 21
167.044407
  0
LINE
  8
CSLAYER1
  6
CONTINUOUS
 62
     6
 10
220.591119
 20
167.044407
 11
220.449888
 21
166.921610
  0
LINE
  8
CSLAYER1
  6
CONTINUOUS
 62
     6
 10
220.449888
 20
166.921610
 11
220.303705
 21
166.793724
  0
LINE
  8
CSLAYER1
  6
CONTINUOUS
 62
     6
 10
220.303705
 20
166.793724
 11
220.153712
 21
166.661217
  0
LINE
  8
CSLAYER1
  6
CONTINUOUS
 62
     6
 10
220.153712
 20
166.661217
 11
220.001050
 21
166.524558
  0
LINE
  8
CSLAYER1
  6
CONTINUOUS
 62
     6
 10
220.001050
 20
166.524558
 11
219.846863
 21
166.384213
  0
LINE
  8
CSLAYER1
  6
CONTINUOUS
 62
     6
 10
219.846863
 20
166.384213
 11
219.692293
 21
166.240650
  0
LINE
  8
CSLAYER1
  6
CONTINUOUS
 62
     6
 10
219.692293
 20
166.240650
 11
219.538482
 21
166.094338
  0
LINE
  8
CSLAYER1
  6
CONTINUOUS
 62
     6
 10
219.538482
 20
166.094338
 11
219.386571
 21
165.945743
  0
LINE
  8
CSLAYER1
  6
CONTINUOUS
 62
     6
 10
219.386571
 20
165.945743
 11
219.237704
 21
165.795333
  0
LINE
  8
CSLAYER1
  6
CONTINUOUS
 62
     6
 10
219.237704
 20
165.795333
 11
219.093022
 21
165.643577
  0
LINE
  8
CSLAYER1
  6
CONTINUOUS
 62
     6
 10
219.093022
 20
165.643577
 11
218.953668
 21
165.490941
  0
LINE
  8
CSLAYER1
  6
CONTINUOUS
 62
     6
 10
218.953668
 20
165.490941
 11
218.898144
 21
165.427997
  0
LINE
  8
CSLAYER1
  6
CONTINUOUS
 62
     6
 10
218.898144
 20
165.427997
 11
218.843216
 21
165.364497
  0
LINE
  8
CSLAYER1
  6
CONTINUOUS
 62
     6
 10
218.843216
 20
165.364497
 11
218.788825
 21
165.300495
  0
LINE
  8
CSLAYER1
  6
CONTINUOUS
 62
     6
 10
218.788825
 20
165.300495
 11
218.734912
 21
165.236049
  0
LINE
  8
CSLAYER1
  6
CONTINUOUS
 62
     6
 10
218.734912
 20
165.236049
 11
218.681416
 21
165.171213
  0
LINE
  8
CSLAYER1
  6
CONTINUOUS
 62
     6
 10
218.681416
 20
165.171213
 11
218.628278
 21
165.106043
  0
LINE
  8
CSLAYER1
  6
CONTINUOUS
 62
     6
 10
218.628278
 20
165.106043
 11
218.575438
 21
165.040595
  0
LINE
  8
CSLAYER1
  6
CONTINUOUS
 62
     6
 10
218.575438
 20
165.040595
 11
218.522837
 21
164.974925
  0
LINE
  8
CSLAYER1
  6
CONTINUOUS
 62
     6
 10
218.522837
 20
164.974925
 11
218.470415
 21
164.909087
  0
LINE
  8
CSLAYER1
  6
CONTINUOUS
 62
     6
 10
218.470415
 20
164.909087
 11
218.418112
 21
164.843139
  0
LINE
  8
CSLAYER1
  6
CONTINUOUS
 62
     6
 10
218.418112
 20
164.843139
 11
218.289557
 21
164.680721
  0
LINE
  8
CSLAYER1
  6
CONTINUOUS
 62
     6
 10
218.289557
 20
164.680721
 11
218.318295
 21
164.633866
  0
LINE
  8
CSLAYER1
  6
CONTINUOUS
 62
     6
 10
218.318295
 20
164.633866
 11
218.358887
 21
164.573985
  0
LINE
  8
CSLAYER1
  6
CONTINUOUS
 62
     6
 10
218.358887
 20
164.573985
 11
218.403169
 21
164.514117
  0
LINE
  8
CSLAYER1
  6
CONTINUOUS
 62
     6
 10
218.403169
 20
164.514117
 11
218.450620
 21
164.454844
  0
LINE
  8
CSLAYER1
  6
CONTINUOUS
 62
     6
 10
218.450620
 20
164.454844
 11
218.500719
 21
164.396746
  0
LINE
  8
CSLAYER1
  6
CONTINUOUS
 62
     6
 10
218.500719
 20
164.396746
 11
218.552943
 21
164.340406
  0
LINE
  8
CSLAYER1
  6
CONTINUOUS
 62
     6
 10
218.552943
 20
164.340406
 11
218.606772
 21
164.286402
  0
LINE
  8
CSLAYER1
  6
CONTINUOUS
 62
     6
 10
218.606772
 20
164.286402
 11
218.661682
 21
164.235317
  0
LINE
  8
CSLAYER1
  6
CONTINUOUS
 62
     6
 10
219.082219
 20
163.984742
 11
216.736688
 21
161.310856
  0
LINE
  8
CSLAYER1
  6
CONTINUOUS
 62
     6
 10
217.421930
 20
160.861912
 11
219.648052
 21
163.838150
  0
LINE
  8
CSLAYER1
  6
CONTINUOUS
 62
     6
 10
225.054222
 20
161.579954
 11
225.123370
 21
161.545426
  0
LINE
  8
CSLAYER1
  6
CONTINUOUS
 62
     6
 10
225.123370
 20
161.545426
 11
225.207846
 21
161.497809
  0
LINE
  8
CSLAYER1
  6
CONTINUOUS
 62
     6
 10
225.207846
 20
161.497809
 11
225.293778
 21
161.444059
  0
LINE
  8
CSLAYER1
  6
CONTINUOUS
 62
     6
 10
225.293778
 20
161.444059
 11
225.379898
 21
161.384835
  0
LINE
  8
CSLAYER1
  6
CONTINUOUS
 62
     6
 10
225.379898
 20
161.384835
 11
225.464933
 21
161.320797
  0
LINE
  8
CSLAYER1
  6
CONTINUOUS
 62
     6
 10
225.464933
 20
161.320797
 11
225.547616
 21
161.252606
  0
LINE
  8
CSLAYER1
  6
CONTINUOUS
 62
     6
 10
225.547616
 20
161.252606
 11
225.626675
 21
161.180923
  0
LINE
  8
CSLAYER1
  6
CONTINUOUS
 62
     6
 10
225.626675
 20
161.180923
 11
225.700841
 21
161.106407
  0
LINE
  8
CSLAYER1
  6
CONTINUOUS
 62
     6
 10
225.700841
 20
161.106407
 11
225.768844
 21
161.029720
  0
LINE
  8
CSLAYER1
  6
CONTINUOUS
 62
     6
 10
225.768844
 20
161.029720
 11
225.829414
 21
160.951521
  0
LINE
  8
CSLAYER1
  6
CONTINUOUS
 62
     6
 10
225.829414
 20
160.951521
 11
225.881280
 21
160.872471
  0
LINE
  8
CSLAYER1
  6
CONTINUOUS
 62
     6
 10
225.881280
 20
160.872471
 11
225.897187
 21
160.844865
  0
LINE
  8
CSLAYER1
  6
CONTINUOUS
 62
     6
 10
225.897187
 20
160.844865
 11
225.912840
 21
160.816171
  0
LINE
  8
CSLAYER1
  6
CONTINUOUS
 62
     6
 10
225.912840
 20
160.816171
 11
225.928282
 21
160.786558
  0
LINE
  8
CSLAYER1
  6
CONTINUOUS
 62
     6
 10
225.928282
 20
160.786558
 11
225.943555
 21
160.756192
  0
LINE
  8
CSLAYER1
  6
CONTINUOUS
 62
     6
 10
225.943555
 20
160.756192
 11
225.958701
 21
160.725240
  0
LINE
  8
CSLAYER1
  6
CONTINUOUS
 62
     6
 10
225.958701
 20
160.725240
 11
225.973761
 21
160.693870
  0
LINE
  8
CSLAYER1
  6
CONTINUOUS
 62
     6
 10
225.973761
 20
160.693870
 11
225.988778
 21
160.662248
  0
LINE
  8
CSLAYER1
  6
CONTINUOUS
 62
     6
 10
225.988778
 20
160.662248
 11
226.003793
 21
160.630543
  0
LINE
  8
CSLAYER1
  6
CONTINUOUS
 62
     6
 10
226.003793
 20
160.630543
 11
226.018849
 21
160.598921
  0
LINE
  8
CSLAYER1
  6
CONTINUOUS
 62
     6
 10
226.018849
 20
160.598921
 11
226.033987
 21
160.567549
  0
LINE
  8
CSLAYER1
  6
CONTINUOUS
 62
     6
 10
226.033987
 20
160.567549
 11
226.049249
 21
160.536595
  0
LINE
  8
CSLAYER1
  6
CONTINUOUS
 62
     6
 10
226.049249
 20
160.536595
 11
226.090070
 21
160.458458
  0
LINE
  8
CSLAYER1
  6
CONTINUOUS
 62
     6
 10
226.090070
 20
160.458458
 11
226.133406
 21
160.381926
  0
LINE
  8
CSLAYER1
  6
CONTINUOUS
 62
     6
 10
226.133406
 20
160.381926
 11
226.179004
 21
160.306837
  0
LINE
  8
CSLAYER1
  6
CONTINUOUS
 62
     6
 10
226.179004
 20
160.306837
 11
226.226614
 21
160.233033
  0
LINE
  8
CSLAYER1
  6
CONTINUOUS
 62
     6
 10
226.226614
 20
160.233033
 11
226.275984
 21
160.160351
  0
LINE
  8
CSLAYER1
  6
CONTINUOUS
 62
     6
 10
226.275984
 20
160.160351
 11
226.326863
 21
160.088633
  0
LINE
  8
CSLAYER1
  6
CONTINUOUS
 62
     6
 10
226.326863
 20
160.088633
 11
226.378999
 21
160.017716
  0
LINE
  8
CSLAYER1
  6
CONTINUOUS
 62
     6
 10
226.378999
 20
160.017716
 11
226.432141
 21
159.947442
  0
LINE
  8
CSLAYER1
  6
CONTINUOUS
 62
     6
 10
226.432141
 20
159.947442
 11
226.486037
 21
159.877649
  0
LINE
  8
CSLAYER1
  6
CONTINUOUS
 62
     6
 10
226.486037
 20
159.877649
 11
226.540436
 21
159.808177
  0
LINE
  8
CSLAYER1
  6
CONTINUOUS
 62
     6
 10
226.540436
 20
159.808177
 11
226.592509
 21
159.742134
  0
LINE
  8
CSLAYER1
  6
CONTINUOUS
 62
     6
 10
226.592509
 20
159.742134
 11
226.719856
 21
159.851435
  0
LINE
  8
CSLAYER1
  6
CONTINUOUS
 62
     6
 10
226.719856
 20
159.851435
 11
226.856571
 21
159.969468
  0
LINE
  8
CSLAYER1
  6
CONTINUOUS
 62
     6
 10
226.856571
 20
159.969468
 11
226.992459
 21
160.088172
  0
LINE
  8
CSLAYER1
  6
CONTINUOUS
 62
     6
 10
226.992459
 20
160.088172
 11
227.127105
 21
160.207883
  0
LINE
  8
CSLAYER1
  6
CONTINUOUS
 62
     6
 10
227.127105
 20
160.207883
 11
227.260096
 21
160.328938
  0
LINE
  8
CSLAYER1
  6
CONTINUOUS
 62
     6
 10
227.260096
 20
160.328938
 11
227.391019
 21
160.451671
  0
LINE
  8
CSLAYER1
  6
CONTINUOUS
 62
     6
 10
227.391019
 20
160.451671
 11
227.519459
 21
160.576419
  0
LINE
  8
CSLAYER1
  6
CONTINUOUS
 62
     6
 10
227.519459
 20
160.576419
 11
227.645002
 21
160.703517
  0
LINE
  8
CSLAYER1
  6
CONTINUOUS
 62
     6
 10
227.645002
 20
160.703517
 11
227.767235
 21
160.833300
  0
LINE
  8
CSLAYER1
  6
CONTINUOUS
 62
     6
 10
227.767235
 20
160.833300
 11
227.885745
 21
160.966106
  0
LINE
  8
CSLAYER1
  6
CONTINUOUS
 62
     6
 10
227.885745
 20
160.966106
 11
228.000116
 21
161.102269
  0
LINE
  8
CSLAYER1
  6
CONTINUOUS
 62
     6
 10
228.000116
 20
161.102269
 11
228.136612
 21
161.276495
  0
LINE
  8
CSLAYER1
  6
CONTINUOUS
 62
     6
 10
228.136612
 20
161.276495
 11
228.268955
 21
161.457171
  0
LINE
  8
CSLAYER1
  6
CONTINUOUS
 62
     6
 10
228.268955
 20
161.457171
 11
228.397427
 21
161.642941
  0
LINE
  8
CSLAYER1
  6
CONTINUOUS
 62
     6
 10
228.397427
 20
161.642941
 11
228.522308
 21
161.832449
  0
LINE
  8
CSLAYER1
  6
CONTINUOUS
 62
     6
 10
228.522308
 20
161.832449
 11
228.643880
 21
162.024337
  0
LINE
  8
CSLAYER1
  6
CONTINUOUS
 62
     6
 10
228.643880
 20
162.024337
 11
228.762425
 21
162.217250
  0
LINE
  8
CSLAYER1
  6
CONTINUOUS
 62
     6
 10
228.762425
 20
162.217250
 11
228.878223
 21
162.409830
  0
LINE
  8
CSLAYER1
  6
CONTINUOUS
 62
     6
 10
228.878223
 20
162.409830
 11
228.991555
 21
162.600721
  0
LINE
  8
CSLAYER1
  6
CONTINUOUS
 62
     6
 10
228.991555
 20
162.600721
 11
229.102704
 21
162.788566
  0
LINE
  8
CSLAYER1
  6
CONTINUOUS
 62
     6
 10
229.102704
 20
162.788566
 11
229.211950
 21
162.972009
  0
LINE
  8
CSLAYER1
  6
CONTINUOUS
 62
     6
 10
229.211950
 20
162.972009
 11
229.319574
 21
163.149693
  0
LINE
  8
CSLAYER1
  6
CONTINUOUS
 62
     6
 10
229.319574
 20
163.149693
 11
229.424900
 21
163.315380
  0
LINE
  8
CSLAYER1
  6
CONTINUOUS
 62
     6
 10
229.424900
 20
163.315380
 11
229.539629
 21
163.485269
  0
LINE
  8
CSLAYER1
  6
CONTINUOUS
 62
     6
 10
229.539629
 20
163.485269
 11
229.661929
 21
163.657932
  0
LINE
  8
CSLAYER1
  6
CONTINUOUS
 62
     6
 10
229.661929
 20
163.657932
 11
229.789971
 21
163.831942
  0
LINE
  8
CSLAYER1
  6
CONTINUOUS
 62
     6
 10
229.789971
 20
163.831942
 11
229.921923
 21
164.005872
  0
LINE
  8
CSLAYER1
  6
CONTINUOUS
 62
     6
 10
229.921923
 20
164.005872
 11
230.055955
 21
164.178293
  0
LINE
  8
CSLAYER1
  6
CONTINUOUS
 62
     6
 10
230.055955
 20
164.178293
 11
230.190236
 21
164.347778
  0
LINE
  8
CSLAYER1
  6
CONTINUOUS
 62
     6
 10
230.190236
 20
164.347778
 11
230.322935
 21
164.512900
  0
LINE
  8
CSLAYER1
  6
CONTINUOUS
 62
     6
 10
230.322935
 20
164.512900
 11
230.452221
 21
164.672230
  0
LINE
  8
CSLAYER1
  6
CONTINUOUS
 62
     6
 10
230.452221
 20
164.672230
 11
230.576263
 21
164.824342
  0
LINE
  8
CSLAYER1
  6
CONTINUOUS
 62
     6
 10
230.576263
 20
164.824342
 11
230.745520
 21
165.031943
  0
ARC
  8
CSLAYER1
  6
CONTINUOUS
 62
     6
 10
229.663270
 20
164.602171
 40
1.164461
 50
21.658505
 51
86.024005
  0
ARC
  8
CSLAYER1
  6
CONTINUOUS
 62
     6
 10
228.697616
 20
165.252925
 40
1.164461
 50
26.024005
 51
86.024005
  0
ARC
  8
CSLAYER1
  6
CONTINUOUS
 62
     6
 10
229.824754
 20
166.925487
 40
1.164461
 50
206.024005
 51
266.024005
  0
LINE
  8
CSLAYER1
  6
CONTINUOUS
 62
     6
 10
228.778344
 20
166.414586
 11
228.657163
 21
166.266672
  0
LINE
  8
CSLAYER1
  6
CONTINUOUS
 62
     6
 10
228.657163
 20
166.266672
 11
228.528153
 21
166.109273
  0
LINE
  8
CSLAYER1
  6
CONTINUOUS
 62
     6
 10
228.528153
 20
166.109273
 11
228.393351
 21
165.943961
  0
LINE
  8
CSLAYER1
  6
CONTINUOUS
 62
     6
 10
228.393351
 20
165.943961
 11
228.254794
 21
165.772309
  0
LINE
  8
CSLAYER1
  6
CONTINUOUS
 62
     6
 10
228.254794
 20
165.772309
 11
228.114519
 21
165.595887
  0
LINE
  8
CSLAYER1
  6
CONTINUOUS
 62
     6
 10
228.114519
 20
165.595887
 11
227.974561
 21
165.416269
  0
LINE
  8
CSLAYER1
  6
CONTINUOUS
 62
     6
 10
227.974561
 20
165.416269
 11
227.836958
 21
165.235026
  0
LINE
  8
CSLAYER1
  6
CONTINUOUS
 62
     6
 10
227.836958
 20
165.235026
 11
227.703746
 21
165.053729
  0
LINE
  8
CSLAYER1
  6
CONTINUOUS
 62
     6
 10
227.703746
 20
165.053729
 11
227.576962
 21
164.873952
  0
LINE
  8
CSLAYER1
  6
CONTINUOUS
 62
     6
 10
227.576962
 20
164.873952
 11
227.458643
 21
164.697266
  0
LINE
  8
CSLAYER1
  6
CONTINUOUS
 62
     6
 10
227.458643
 20
164.697266
 11
227.350824
 21
164.525242
  0
LINE
  8
CSLAYER1
  6
CONTINUOUS
 62
     6
 10
227.350824
 20
164.525242
 11
227.253185
 21
164.361481
  0
LINE
  8
CSLAYER1
  6
CONTINUOUS
 62
     6
 10
227.253185
 20
164.361481
 11
227.153556
 21
164.192214
  0
LINE
  8
CSLAYER1
  6
CONTINUOUS
 62
     6
 10
227.153556
 20
164.192214
 11
227.051730
 21
164.018743
  0
LINE
  8
CSLAYER1
  6
CONTINUOUS
 62
     6
 10
227.051730
 20
164.018743
 11
226.947500
 21
163.842370
  0
LINE
  8
CSLAYER1
  6
CONTINUOUS
 62
     6
 10
226.947500
 20
163.842370
 11
226.840660
 21
163.664397
  0
LINE
  8
CSLAYER1
  6
CONTINUOUS
 62
     6
 10
226.840660
 20
163.664397
 11
226.731002
 21
163.486128
  0
LINE
  8
CSLAYER1
  6
CONTINUOUS
 62
     6
 10
226.731002
 20
163.486128
 11
226.618322
 21
163.308863
  0
LINE
  8
CSLAYER1
  6
CONTINUOUS
 62
     6
 10
226.618322
 20
163.308863
 11
226.502411
 21
163.133905
  0
LINE
  8
CSLAYER1
  6
CONTINUOUS
 62
     6
 10
226.502411
 20
163.133905
 11
226.383064
 21
162.962557
  0
LINE
  8
CSLAYER1
  6
CONTINUOUS
 62
     6
 10
226.383064
 20
162.962557
 11
226.260074
 21
162.796121
  0
LINE
  8
CSLAYER1
  6
CONTINUOUS
 62
     6
 10
226.260074
 20
162.796121
 11
226.133233
 21
162.635899
  0
LINE
  8
CSLAYER1
  6
CONTINUOUS
 62
     6
 10
226.133233
 20
162.635899
 11
226.034412
 21
162.519386
  0
LINE
  8
CSLAYER1
  6
CONTINUOUS
 62
     6
 10
226.034412
 20
162.519386
 11
225.932200
 21
162.405627
  0
LINE
  8
CSLAYER1
  6
CONTINUOUS
 62
     6
 10
225.932200
 20
162.405627
 11
225.826936
 21
162.294346
  0
LINE
  8
CSLAYER1
  6
CONTINUOUS
 62
     6
 10
225.826936
 20
162.294346
 11
225.718959
 21
162.185268
  0
LINE
  8
CSLAYER1
  6
CONTINUOUS
 62
     6
 10
225.718959
 20
162.185268
 11
225.608608
 21
162.078117
  0
LINE
  8
CSLAYER1
  6
CONTINUOUS
 62
     6
 10
225.608608
 20
162.078117
 11
225.496222
 21
161.972619
  0
LINE
  8
CSLAYER1
  6
CONTINUOUS
 62
     6
 10
225.496222
 20
161.972619
 11
225.382141
 21
161.868497
  0
LINE
  8
CSLAYER1
  6
CONTINUOUS
 62
     6
 10
225.382141
 20
161.868497
 11
225.266704
 21
161.765477
  0
LINE
  8
CSLAYER1
  6
CONTINUOUS
 62
     6
 10
225.266704
 20
161.765477
 11
225.150249
 21
161.663282
  0
LINE
  8
CSLAYER1
  6
CONTINUOUS
 62
     6
 10
225.150249
 20
161.663282
 11
225.054222
 21
161.579954
  0
LINE
  8
CSLAYER1
  6
CONTINUOUS
 62
     6
 10
225.507773
 20
161.285466
 11
222.761926
 21
158.782628
  0
LINE
  8
CSLAYER1
  6
CONTINUOUS
 62
     6
 10
223.376275
 20
158.569981
 11
225.819271
 21
160.964616
  0
LINE
  8
CSLAYER1
  6
CONTINUOUS
 62
     6
 10
226.099741
 20
160.441379
 11
223.848810
 21
158.002873
  0
LINE
  8
CSLAYER1
  6
CONTINUOUS
 62
     6
 10
225.629388
 20
168.429905
 11
225.732342
 21
168.470206
  0
LINE
  8
CSLAYER1
  6
CONTINUOUS
 62
     6
 10
225.732342
 20
168.470206
 11
225.835110
 21
168.510783
  0
LINE
  8
CSLAYER1
  6
CONTINUOUS
 62
     6
 10
225.835110
 20
168.510783
 11
225.937507
 21
168.551909
  0
LINE
  8
CSLAYER1
  6
CONTINUOUS
 62
     6
 10
225.937507
 20
168.551909
 11
226.039346
 21
168.593861
  0
LINE
  8
CSLAYER1
  6
CONTINUOUS
 62
     6
 10
226.039346
 20
168.593861
 11
226.140442
 21
168.636912
  0
LINE
  8
CSLAYER1
  6
CONTINUOUS
 62
     6
 10
226.140442
 20
168.636912
 11
226.240608
 21
168.681338
  0
LINE
  8
CSLAYER1
  6
CONTINUOUS
 62
     6
 10
226.240608
 20
168.681338
 11
226.339660
 21
168.727415
  0
LINE
  8
CSLAYER1
  6
CONTINUOUS
 62
     6
 10
226.339660
 20
168.727415
 11
226.437411
 21
168.775416
  0
LINE
  8
CSLAYER1
  6
CONTINUOUS
 62
     6
 10
226.437411
 20
168.775416
 11
226.533676
 21
168.825617
  0
LINE
  8
CSLAYER1
  6
CONTINUOUS
 62
     6
 10
226.533676
 20
168.825617
 11
226.628268
 21
168.878294
  0
LINE
  8
CSLAYER1
  6
CONTINUOUS
 62
     6
 10
226.628268
 20
168.878294
 11
226.721002
 21
168.933720
  0
LINE
  8
CSLAYER1
  6
CONTINUOUS
 62
     6
 10
226.721002
 20
168.933720
 11
226.891285
 21
169.046253
  0
LINE
  8
CSLAYER1
  6
CONTINUOUS
 62
     6
 10
226.891285
 20
169.046253
 11
227.057589
 21
169.169193
  0
LINE
  8
CSLAYER1
  6
CONTINUOUS
 62
     6
 10
227.057589
 20
169.169193
 11
227.219813
 21
169.300983
  0
LINE
  8
CSLAYER1
  6
CONTINUOUS
 62
     6
 10
227.219813
 20
169.300983
 11
227.377854
 21
169.440068
  0
LINE
  8
CSLAYER1
  6
CONTINUOUS
 62
     6
 10
227.377854
 20
169.440068
 11
227.531610
 21
169.584892
  0
LINE
  8
CSLAYER1
  6
CONTINUOUS
 62
     6
 10
227.531610
 20
169.584892
 11
227.680981
 21
169.733899
  0
LINE
  8
CSLAYER1
  6
CONTINUOUS
 62
     6
 10
227.680981
 20
169.733899
 11
227.825864
 21
169.885532
  0
LINE
  8
CSLAYER1
  6
CONTINUOUS
 62
     6
 10
227.825864
 20
169.885532
 11
227.966157
 21
170.038237
  0
LINE
  8
CSLAYER1
  6
CONTINUOUS
 62
     6
 10
227.966157
 20
170.038237
 11
228.101760
 21
170.190457
  0
LINE
  8
CSLAYER1
  6
CONTINUOUS
 62
     6
 10
228.101760
 20
170.190457
 11
228.232569
 21
170.340635
  0
LINE
  8
CSLAYER1
  6
CONTINUOUS
 62
     6
 10
228.232569
 20
170.340635
 11
228.358484
 21
170.487217
  0
LINE
  8
CSLAYER1
  6
CONTINUOUS
 62
     6
 10
228.358484
 20
170.487217
 11
228.497012
 21
170.643407
  0
LINE
  8
CSLAYER1
  6
CONTINUOUS
 62
     6
 10
228.497012
 20
170.643407
 11
228.645028
 21
170.800583
  0
LINE
  8
CSLAYER1
  6
CONTINUOUS
 62
     6
 10
228.645028
 20
170.800583
 11
228.800567
 21
170.958435
  0
LINE
  8
CSLAYER1
  6
CONTINUOUS
 62
     6
 10
228.800567
 20
170.958435
 11
228.961664
 21
171.116655
  0
LINE
  8
CSLAYER1
  6
CONTINUOUS
 62
     6
 10
228.961664
 20
171.116655
 11
229.126354
 21
171.274935
  0
LINE
  8
CSLAYER1
  6
CONTINUOUS
 62
     6
 10
229.126354
 20
171.274935
 11
229.292672
 21
171.432966
  0
LINE
  8
CSLAYER1
  6
CONTINUOUS
 62
     6
 10
229.292672
 20
171.432966
 11
229.458652
 21
171.590440
  0
LINE
  8
CSLAYER1
  6
CONTINUOUS
 62
     6
 10
229.458652
 20
171.590440
 11
229.622329
 21
171.747048
  0
LINE
  8
CSLAYER1
  6
CONTINUOUS
 62
     6
 10
229.622329
 20
171.747048
 11
229.781738
 21
171.902481
  0
LINE
  8
CSLAYER1
  6
CONTINUOUS
 62
     6
 10
229.781738
 20
171.902481
 11
229.934913
 21
172.056432
  0
LINE
  8
CSLAYER1
  6
CONTINUOUS
 62
     6
 10
229.934913
 20
172.056432
 11
230.079889
 21
172.208592
  0
LINE
  8
CSLAYER1
  6
CONTINUOUS
 62
     6
 10
230.079889
 20
172.208592
 11
230.202104
 21
172.341021
  0
LINE
  8
CSLAYER1
  6
CONTINUOUS
 62
     6
 10
230.202104
 20
172.341021
 11
230.327703
 21
172.478671
  0
LINE
  8
CSLAYER1
  6
CONTINUOUS
 62
     6
 10
230.327703
 20
172.478671
 11
230.455552
 21
172.620643
  0
LINE
  8
CSLAYER1
  6
CONTINUOUS
 62
     6
 10
230.455552
 20
172.620643
 11
230.584519
 21
172.766038
  0
LINE
  8
CSLAYER1
  6
CONTINUOUS
 62
     6
 10
230.584519
 20
172.766038
 11
230.713472
 21
172.913956
  0
LINE
  8
CSLAYER1
  6
CONTINUOUS
 62
     6
 10
230.713472
 20
172.913956
 11
230.841277
 21
173.063499
  0
LINE
  8
CSLAYER1
  6
CONTINUOUS
 62
     6
 10
230.841277
 20
173.063499
 11
230.966803
 21
173.213767
  0
LINE
  8
CSLAYER1
  6
CONTINUOUS
 62
     6
 10
230.966803
 20
173.213767
 11
231.088917
 21
173.363861
  0
LINE
  8
CSLAYER1
  6
CONTINUOUS
 62
     6
 10
231.088917
 20
173.363861
 11
231.206485
 21
173.512883
  0
LINE
  8
CSLAYER1
  6
CONTINUOUS
 62
     6
 10
231.206485
 20
173.512883
 11
231.318376
 21
173.659933
  0
LINE
  8
CSLAYER1
  6
CONTINUOUS
 62
     6
 10
231.318376
 20
173.659933
 11
231.423456
 21
173.804112
  0
LINE
  8
CSLAYER1
  6
CONTINUOUS
 62
     6
 10
231.423456
 20
173.804112
 11
231.551701
 21
173.986326
  0
LINE
  8
CSLAYER1
  6
CONTINUOUS
 62
     6
 10
231.551701
 20
173.986326
 11
231.684232
 21
174.178351
  0
LINE
  8
CSLAYER1
  6
CONTINUOUS
 62
     6
 10
231.684232
 20
174.178351
 11
231.819468
 21
174.378001
  0
LINE
  8
CSLAYER1
  6
CONTINUOUS
 62
     6
 10
231.819468
 20
174.378001
 11
231.955829
 21
174.583088
  0
LINE
  8
CSLAYER1
  6
CONTINUOUS
 62
     6
 10
231.955829
 20
174.583088
 11
232.091731
 21
174.791428
  0
LINE
  8
CSLAYER1
  6
CONTINUOUS
 62
     6
 10
232.091731
 20
174.791428
 11
232.225593
 21
175.000834
  0
LINE
  8
CSLAYER1
  6
CONTINUOUS
 62
     6
 10
232.225593
 20
175.000834
 11
232.355835
 21
175.209119
  0
LINE
  8
CSLAYER1
  6
CONTINUOUS
 62
     6
 10
232.355835
 20
175.209119
 11
232.480873
 21
175.414099
  0
LINE
  8
CSLAYER1
  6
CONTINUOUS
 62
     6
 10
232.480873
 20
175.414099
 11
232.599127
 21
175.613586
  0
LINE
  8
CSLAYER1
  6
CONTINUOUS
 62
     6
 10
232.599127
 20
175.613586
 11
232.709014
 21
175.805395
  0
LINE
  8
CSLAYER1
  6
CONTINUOUS
 62
     6
 10
232.709014
 20
175.805395
 11
232.757261
 21
175.893229
  0
LINE
  8
CSLAYER1
  6
CONTINUOUS
 62
     6
 10
232.753154
 20
175.870326
 11
232.692125
 21
175.557015
  0
LINE
  8
CSLAYER1
  6
CONTINUOUS
 62
     6
 10
232.692125
 20
175.557015
 11
232.625768
 21
175.237927
  0
LINE
  8
CSLAYER1
  6
CONTINUOUS
 62
     6
 10
232.625768
 20
175.237927
 11
232.555216
 21
174.916316
  0
LINE
  8
CSLAYER1
  6
CONTINUOUS
 62
     6
 10
232.555216
 20
174.916316
 11
232.481600
 21
174.595434
  0
LINE
  8
CSLAYER1
  6
CONTINUOUS
 62
     6
 10
232.481600
 20
174.595434
 11
232.406054
 21
174.278534
  0
LINE
  8
CSLAYER1
  6
CONTINUOUS
 62
     6
 10
232.406054
 20
174.278534
 11
232.329710
 21
173.968869
  0
LINE
  8
CSLAYER1
  6
CONTINUOUS
 62
     6
 10
232.329710
 20
173.968869
 11
232.253702
 21
173.669690
  0
LINE
  8
CSLAYER1
  6
CONTINUOUS
 62
     6
 10
232.253702
 20
173.669690
 11
232.179162
 21
173.384251
  0
LINE
  8
CSLAYER1
  6
CONTINUOUS
 62
     6
 10
232.179162
 20
173.384251
 11
232.103692
 21
173.114758
  0
LINE
  8
CSLAYER1
  6
CONTINUOUS
 62
     6
 10
232.103692
 20
173.114758
 11
232.018846
 21
172.840043
  0
LINE
  8
CSLAYER1
  6
CONTINUOUS
 62
     6
 10
232.018846
 20
172.840043
 11
231.925401
 21
172.561237
  0
LINE
  8
CSLAYER1
  6
CONTINUOUS
 62
     6
 10
231.925401
 20
172.561237
 11
231.824136
 21
172.279472
  0
LINE
  8
CSLAYER1
  6
CONTINUOUS
 62
     6
 10
231.824136
 20
172.279472
 11
231.715827
 21
171.995879
  0
LINE
  8
CSLAYER1
  6
CONTINUOUS
 62
     6
 10
231.715827
 20
171.995879
 11
231.601252
 21
171.711589
  0
LINE
  8
CSLAYER1
  6
CONTINUOUS
 62
     6
 10
231.601252
 20
171.711589
 11
231.481189
 21
171.427733
  0
LINE
  8
CSLAYER1
  6
CONTINUOUS
 62
     6
 10
231.481189
 20
171.427733
 11
231.356415
 21
171.145443
  0
LINE
  8
CSLAYER1
  6
CONTINUOUS
 62
     6
 10
231.356415
 20
171.145443
 11
231.227707
 21
170.865850
  0
LINE
  8
CSLAYER1
  6
CONTINUOUS
 62
     6
 10
231.227707
 20
170.865850
 11
231.095844
 21
170.590085
  0
LINE
  8
CSLAYER1
  6
CONTINUOUS
 62
     6
 10
231.095844
 20
170.590085
 11
230.961603
 21
170.319279
  0
LINE
  8
CSLAYER1
  6
CONTINUOUS
 62
     6
 10
230.961603
 20
170.319279
 11
230.841458
 21
170.084851
  0
LINE
  8
CSLAYER1
  6
CONTINUOUS
 62
     6
 10
230.841458
 20
170.084851
 11
230.718561
 21
169.851970
  0
LINE
  8
CSLAYER1
  6
CONTINUOUS
 62
     6
 10
230.718561
 20
169.851970
 11
230.593187
 21
169.620480
  0
LINE
  8
CSLAYER1
  6
CONTINUOUS
 62
     6
 10
230.593187
 20
169.620480
 11
230.465611
 21
169.390228
  0
LINE
  8
CSLAYER1
  6
CONTINUOUS
 62
     6
 10
230.465611
 20
169.390228
 11
230.336109
 21
169.161058
  0
LINE
  8
CSLAYER1
  6
CONTINUOUS
 62
     6
 10
230.336109
 20
169.161058
 11
230.204956
 21
168.932816
  0
LINE
  8
CSLAYER1
  6
CONTINUOUS
 62
     6
 10
230.204956
 20
168.932816
 11
230.072426
 21
168.705348
  0
LINE
  8
CSLAYER1
  6
CONTINUOUS
 62
     6
 10
230.072426
 20
168.705348
 11
229.938796
 21
168.478498
  0
LINE
  8
CSLAYER1
  6
CONTINUOUS
 62
     6
 10
229.938796
 20
168.478498
 11
229.804339
 21
168.252112
  0
LINE
  8
CSLAYER1
  6
CONTINUOUS
 62
     6
 10
229.804339
 20
168.252112
 11
229.669333
 21
168.026036
  0
LINE
  8
CSLAYER1
  6
CONTINUOUS
 62
     6
 10
229.669333
 20
168.026036
 11
229.534051
 21
167.800114
  0
ARC
  8
CSLAYER1
  6
CONTINUOUS
 62
     6
 10
230.568454
 20
168.408469
 40
1.200008
 50
210.461486
 51
270.461486
  0
ARC
  8
CSLAYER1
  6
CONTINUOUS
 62
     6
 10
231.612490
 20
167.816855
 40
1.200008
 50
210.461486
 51
270.461486
  0
ARC
  8
CSLAYER1
  6
CONTINUOUS
 62
     6
 10
230.587785
 20
166.008531
 40
1.200008
 50
30.461486
 51
90.461486
  0
LINE
  8
CSLAYER1
  6
CONTINUOUS
 62
     6
 10
231.622156
 20
166.616887
 11
231.764942
 21
166.855783
  0
LINE
  8
CSLAYER1
  6
CONTINUOUS
 62
     6
 10
231.764942
 20
166.855783
 11
231.907447
 21
167.094837
  0
LINE
  8
CSLAYER1
  6
CONTINUOUS
 62
     6
 10
231.907447
 20
167.094837
 11
232.049391
 21
167.334209
  0
LINE
  8
CSLAYER1
  6
CONTINUOUS
 62
     6
 10
232.049391
 20
167.334209
 11
232.190493
 21
167.574056
  0
LINE
  8
CSLAYER1
  6
CONTINUOUS
 62
     6
 10
232.190493
 20
167.574056
 11
232.330471
 21
167.814538
  0
LINE
  8
CSLAYER1
  6
CONTINUOUS
 62
     6
 10
232.330471
 20
167.814538
 11
232.469046
 21
168.055813
  0
LINE
  8
CSLAYER1
  6
CONTINUOUS
 62
     6
 10
232.469046
 20
168.055813
 11
232.605936
 21
168.298040
  0
LINE
  8
CSLAYER1
  6
CONTINUOUS
 62
     6
 10
232.605936
 20
168.298040
 11
232.740861
 21
168.541377
  0
LINE
  8
CSLAYER1
  6
CONTINUOUS
 62
     6
 10
232.740861
 20
168.541377
 11
232.873540
 21
168.785983
  0
LINE
  8
CSLAYER1
  6
CONTINUOUS
 62
     6
 10
232.873540
 20
168.785983
 11
233.003692
 21
169.032017
  0
LINE
  8
CSLAYER1
  6
CONTINUOUS
 62
     6
 10
233.003692
 20
169.032017
 11
233.131036
 21
169.279637
  0
LINE
  8
CSLAYER1
  6
CONTINUOUS
 62
     6
 10
233.131036
 20
169.279637
 11
233.280710
 21
169.580458
  0
LINE
  8
CSLAYER1
  6
CONTINUOUS
 62
     6
 10
233.280710
 20
169.580458
 11
233.427665
 21
169.886840
  0
LINE
  8
CSLAYER1
  6
CONTINUOUS
 62
     6
 10
233.427665
 20
169.886840
 11
233.571032
 21
170.197522
  0
LINE
  8
CSLAYER1
  6
CONTINUOUS
 62
     6
 10
233.571032
 20
170.197522
 11
233.709941
 21
170.511246
  0
LINE
  8
CSLAYER1
  6
CONTINUOUS
 62
     6
 10
233.709941
 20
170.511246
 11
233.843523
 21
170.826752
  0
LINE
  8
CSLAYER1
  6
CONTINUOUS
 62
     6
 10
233.843523
 20
170.826752
 11
233.970910
 21
171.142780
  0
LINE
  8
CSLAYER1
  6
CONTINUOUS
 62
     6
 10
233.970910
 20
171.142780
 11
234.091232
 21
171.458071
  0
LINE
  8
CSLAYER1
  6
CONTINUOUS
 62
     6
 10
234.091232
 20
171.458071
 11
234.203620
 21
171.771367
  0
LINE
  8
CSLAYER1
  6
CONTINUOUS
 62
     6
 10
234.203620
 20
171.771367
 11
234.307206
 21
172.081406
  0
LINE
  8
CSLAYER1
  6
CONTINUOUS
 62
     6
 10
234.307206
 20
172.081406
 11
234.401119
 21
172.386930
  0
LINE
  8
CSLAYER1
  6
CONTINUOUS
 62
     6
 10
234.401119
 20
172.386930
 11
234.484491
 21
172.686680
  0
LINE
  8
CSLAYER1
  6
CONTINUOUS
 62
     6
 10
234.484491
 20
172.686680
 11
234.562908
 21
172.989097
  0
LINE
  8
CSLAYER1
  6
CONTINUOUS
 62
     6
 10
234.562908
 20
172.989097
 11
234.642973
 21
173.305898
  0
LINE
  8
CSLAYER1
  6
CONTINUOUS
 62
     6
 10
234.642973
 20
173.305898
 11
234.723489
 21
173.633689
  0
LINE
  8
CSLAYER1
  6
CONTINUOUS
 62
     6
 10
234.723489
 20
173.633689
 11
234.803263
 21
173.969075
  0
LINE
  8
CSLAYER1
  6
CONTINUOUS
 62
     6
 10
234.803263
 20
173.969075
 11
234.881099
 21
174.308659
  0
LINE
  8
CSLAYER1
  6
CONTINUOUS
 62
     6
 10
234.881099
 20
174.308659
 11
234.955802
 21
174.649046
  0
LINE
  8
CSLAYER1
  6
CONTINUOUS
 62
     6
 10
234.955802
 20
174.649046
 11
235.026178
 21
174.986843
  0
LINE
  8
CSLAYER1
  6
CONTINUOUS
 62
     6
 10
235.026178
 20
174.986843
 11
235.091031
 21
175.318652
  0
LINE
  8
CSLAYER1
  6
CONTINUOUS
 62
     6
 10
235.091031
 20
175.318652
 11
235.149166
 21
175.641079
  0
LINE
  8
CSLAYER1
  6
CONTINUOUS
 62
     6
 10
235.149166
 20
175.641079
 11
235.314284
 21
176.659123
  0
LINE
  8
CSLAYER1
  6
CONTINUOUS
 62
     6
 10
236.209758
 20
177.611882
 11
236.154674
 21
178.241704
  0
ARC
  8
CSLAYER1
  6
CONTINUOUS
 62
     6
 10
236.353923
 20
178.259129
 40
0.200000
 50
90.000003
 51
185.000154
  0
ARC
  8
CSLAYER1
  6
CONTINUOUS
 62
     6
 10
236.085673
 20
178.559117
 40
0.100000
 50
180.000005
 51
270.000001
  0
LINE
  8
CSLAYER1
  6
CONTINUOUS
 62
     6
 10
235.985637
 20
178.559117
 11
235.985637
 21
179.059117
  0
ARC
  8
CSLAYER1
  6
CONTINUOUS
 62
     6
 10
236.085673
 20
179.059117
 40
0.100000
 50
90.000003
 51
180.000005
  0
LINE
  8
CSLAYER1
  6
CONTINUOUS
 62
     6
 10
236.085673
 20
178.459111
 11
238.885661
 21
178.459111
  0
LINE
  8
CSLAYER1
  6
CONTINUOUS
 62
     6
 10
238.885661
 20
178.459111
 11
241.685649
 21
178.459141
  0
ARC
  8
CSLAYER1
  6
CONTINUOUS
 62
     6
 10
241.685649
 20
178.559117
 40
0.100000
 50
270.000001
 51
359.942691
  0
LINE
  8
CSLAYER1
  6
CONTINUOUS
 62
     6
 10
241.785625
 20
178.559117
 11
241.785625
 21
179.059117
  0
ARC
  8
CSLAYER1
  6
CONTINUOUS
 62
     6
 10
241.685649
 20
179.059117
 40
0.100000
 50
0.000010
 51
90.000016
  0
ARC
  8
CSLAYER1
  6
CONTINUOUS
 62
     6
 10
241.417399
 20
178.259129
 40
0.200000
 50
-5.000126
 51
90.000019
  0
LINE
  8
CSLAYER1
  6
CONTINUOUS
 62
     6
 10
241.616618
 20
178.241704
 11
241.561503
 21
177.611882
  0
ARC
  8
CSLAYER1
  6
CONTINUOUS
 62
     6
 10
240.565318
 20
177.699040
 40
1.000000
 50
286.257408
 51
354.999902
  0
ARC
  8
CSLAYER1
  6
CONTINUOUS
 62
     6
 10
238.885661
 20
183.459111
 40
7.000000
 50
253.743003
 51
286.257026
  0
ARC
  8
CSLAYER1
  6
CONTINUOUS
 62
     6
 10
237.205974
 20
177.699040
 40
1.000000
 50
185.000113
 51
253.742620
  0
LINE
  8
CSLAYER1
  6
CONTINUOUS
 62
     6
 10
237.224286
 20
176.659123
 11
228.135661
 21
176.659123
  0
ARC
  8
CSLAYER1
  6
CONTINUOUS
 62
     6
 10
228.135661
 20
178.659123
 40
2.000000
 50
180.000000
 51
270.000000
  0
LINE
  8
CSLAYER1
  6
CONTINUOUS
 62
     6
 10
226.135661
 20
178.659123
 11
226.135661
 21
179.159123
  0
LINE
  8
CSLAYER1
  6
CONTINUOUS
 62
     6
 10
225.885661
 20
179.159123
 11
251.885661
 21
179.159123
  0
LINE
  8
CSLAYER1
  6
CONTINUOUS
 62
     6
 10
251.885661
 20
177.159123
 11
264.885661
 21
177.159123
  0
LINE
  8
CSLAYER1
  6
CONTINUOUS
 62
     6
 10
264.885661
 20
176.159123
 11
380.885661
 21
176.159123
  0
LINE
  8
CSLAYER1
  6
CONTINUOUS
 62
     6
 10
379.885661
 20
176.159123
 11
379.885661
 21
266.159123
  0
LINE
  8
CSLAYER1
  6
CONTINUOUS
 62
     6
 10
380.885661
 20
266.159123
 11
264.885661
 21
266.159123
  0
LINE
  8
CSLAYER1
  6
CONTINUOUS
 62
     6
 10
264.885661
 20
266.159123
 11
264.885661
 21
176.159123
  0
LINE
  8
CSLAYER1
  6
CONTINUOUS
 62
     6
 10
251.885661
 20
177.159123
 11
251.885661
 21
181.159123
  0
LINE
  8
CSLAYER1
  6
CONTINUOUS
 62
     6
 10
251.885661
 20
181.159123
 11
225.885661
 21
181.159123
  0
LINE
  8
CSLAYER1
  6
CONTINUOUS
 62
     6
 10
225.885661
 20
181.159123
 11
225.885661
 21
177.159123
  0
LINE
  8
CSLAYER1
  6
CONTINUOUS
 62
     6
 10
225.885661
 20
177.159123
 11
219.885661
 21
177.159123
  0
LINE
  8
CSLAYER1
  6
CONTINUOUS
 62
     6
 10
224.875932
 20
170.454877
 11
225.126537
 21
170.638372
  0
LINE
  8
CSLAYER1
  6
CONTINUOUS
 62
     6
 10
225.126537
 20
170.638372
 11
225.375890
 21
170.823631
  0
LINE
  8
CSLAYER1
  6
CONTINUOUS
 62
     6
 10
225.375890
 20
170.823631
 11
225.623739
 21
171.011006
  0
LINE
  8
CSLAYER1
  6
CONTINUOUS
 62
     6
 10
225.623739
 20
171.011006
 11
225.869834
 21
171.200851
  0
LINE
  8
CSLAYER1
  6
CONTINUOUS
 62
     6
 10
225.869834
 20
171.200851
 11
226.113924
 21
171.393519
  0
LINE
  8
CSLAYER1
  6
CONTINUOUS
 62
     6
 10
226.113924
 20
171.393519
 11
226.355758
 21
171.589361
  0
LINE
  8
CSLAYER1
  6
CONTINUOUS
 62
     6
 10
226.355758
 20
171.589361
 11
226.595086
 21
171.788731
  0
LINE
  8
CSLAYER1
  6
CONTINUOUS
 62
     6
 10
226.595086
 20
171.788731
 11
226.752351
 21
171.923028
  0
LINE
  8
CSLAYER1
  6
CONTINUOUS
 62
     6
 10
226.752351
 20
171.923028
 11
226.909400
 21
172.060052
  0
LINE
  8
CSLAYER1
  6
CONTINUOUS
 62
     6
 10
226.909400
 20
172.060052
 11
227.065491
 21
172.199612
  0
LINE
  8
CSLAYER1
  6
CONTINUOUS
 62
     6
 10
227.065491
 20
172.199612
 11
227.219881
 21
172.341514
  0
LINE
  8
CSLAYER1
  6
CONTINUOUS
 62
     6
 10
227.219881
 20
172.341514
 11
227.371825
 21
172.485567
  0
LINE
  8
CSLAYER1
  6
CONTINUOUS
 62
     6
 10
227.371825
 20
172.485567
 11
227.520582
 21
172.631577
  0
LINE
  8
CSLAYER1
  6
CONTINUOUS
 62
     6
 10
227.520582
 20
172.631577
 11
227.665408
 21
172.779352
  0
LINE
  8
CSLAYER1
  6
CONTINUOUS
 62
     6
 10
227.665408
 20
172.779352
 11
227.805561
 21
172.928699
  0
LINE
  8
CSLAYER1
  6
CONTINUOUS
 62
     6
 10
227.805561
 20
172.928699
 11
227.940297
 21
173.079427
  0
LINE
  8
CSLAYER1
  6
CONTINUOUS
 62
     6
 10
227.940297
 20
173.079427
 11
228.068872
 21
173.231342
  0
LINE
  8
CSLAYER1
  6
CONTINUOUS
 62
     6
 10
228.068872
 20
173.231342
 11
228.190545
 21
173.384251
  0
LINE
  8
CSLAYER1
  6
CONTINUOUS
 62
     6
 10
228.190545
 20
173.384251
 11
228.305000
 21
173.535577
  0
LINE
  8
CSLAYER1
  6
CONTINUOUS
 62
     6
 10
228.305000
 20
173.535577
 11
228.420301
 21
173.692831
  0
LINE
  8
CSLAYER1
  6
CONTINUOUS
 62
     6
 10
228.420301
 20
173.692831
 11
228.535914
 21
173.854889
  0
LINE
  8
CSLAYER1
  6
CONTINUOUS
 62
     6
 10
228.535914
 20
173.854889
 11
228.651307
 21
174.020629
  0
LINE
  8
CSLAYER1
  6
CONTINUOUS
 62
     6
 10
228.651307
 20
174.020629
 11
228.765947
 21
174.188928
  0
LINE
  8
CSLAYER1
  6
CONTINUOUS
 62
     6
 10
228.765947
 20
174.188928
 11
228.879301
 21
174.358664
  0
LINE
  8
CSLAYER1
  6
CONTINUOUS
 62
     6
 10
228.879301
 20
174.358664
 11
228.990836
 21
174.528715
  0
LINE
  8
CSLAYER1
  6
CONTINUOUS
 62
     6
 10
228.990836
 20
174.528715
 11
229.100021
 21
174.697957
  0
LINE
  8
CSLAYER1
  6
CONTINUOUS
 62
     6
 10
229.100021
 20
174.697957
 11
229.206320
 21
174.865269
  0
LINE
  8
CSLAYER1
  6
CONTINUOUS
 62
     6
 10
229.206320
 20
174.865269
 11
229.309203
 21
175.029528
  0
LINE
  8
CSLAYER1
  6
CONTINUOUS
 62
     6
 10
229.309203
 20
175.029528
 11
229.408136
 21
175.189610
  0
LINE
  8
CSLAYER1
  6
CONTINUOUS
 62
     6
 10
229.408136
 20
175.189610
 11
229.494610
 21
175.327836
  0
LINE
  8
CSLAYER1
  6
CONTINUOUS
 62
     6
 10
229.494610
 20
175.327836
 11
229.586562
 21
175.470294
  0
LINE
  8
CSLAYER1
  6
CONTINUOUS
 62
     6
 10
229.586562
 20
175.470294
 11
229.682762
 21
175.615774
  0
LINE
  8
CSLAYER1
  6
CONTINUOUS
 62
     6
 10
229.682762
 20
175.615774
 11
229.781981
 21
175.763064
  0
LINE
  8
CSLAYER1
  6
CONTINUOUS
 62
     6
 10
229.781981
 20
175.763064
 11
229.882989
 21
175.910954
  0
LINE
  8
CSLAYER1
  6
CONTINUOUS
 62
     6
 10
229.882989
 20
175.910954
 11
229.984557
 21
176.058233
  0
LINE
  8
CSLAYER1
  6
CONTINUOUS
 62
     6
 10
229.984557
 20
176.058233
 11
230.085455
 21
176.203689
  0
LINE
  8
CSLAYER1
  6
CONTINUOUS
 62
     6
 10
230.085455
 20
176.203689
 11
230.184454
 21
176.346113
  0
LINE
  8
CSLAYER1
  6
CONTINUOUS
 62
     6
 10
230.184454
 20
176.346113
 11
230.280323
 21
176.484293
  0
LINE
  8
CSLAYER1
  6
CONTINUOUS
 62
     6
 10
230.280323
 20
176.484293
 11
230.400865
 21
176.659123
  0
LINE
  8
CSLAYER1
  6
CONTINUOUS
 62
     6
 10
232.807720
 20
176.174609
 11
232.885661
 21
176.659123
  0
LINE
  8
CSLAYER1
  6
CONTINUOUS
 62
     6
 10
232.807720
 20
176.174609
 11
232.753154
 21
175.870326
  0
LINE
  8
CSLAYER1
  6
CONTINUOUS
 62
     6
 10
238.537700
 20
179.159123
 11
238.981578
 21
178.459141
  0
LINE
  8
CSLAYER1
  6
CONTINUOUS
 62
     6
 10
239.481578
 20
178.459141
 11
239.037700
 21
179.159123
  0
LINE
  8
CSLAYER1
  6
CONTINUOUS
 62
     6
 10
224.875932
 20
170.454877
 11
224.624324
 21
170.272793
  0
LINE
  8
CSLAYER1
  6
CONTINUOUS
 62
     6
 10
224.624324
 20
170.272793
 11
224.371964
 21
170.091767
  0
LINE
  8
CSLAYER1
  6
CONTINUOUS
 62
     6
 10
224.371964
 20
170.091767
 11
224.119103
 21
169.911447
  0
LINE
  8
CSLAYER1
  6
CONTINUOUS
 62
     6
 10
224.119103
 20
169.911447
 11
223.865991
 21
169.731480
  0
ARC
  8
CSLAYER1
  6
CONTINUOUS
 62
     6
 10
224.870419
 20
170.169660
 40
1.095863
 50
203.568976
 51
263.568976
  0
ARC
  8
CSLAYER1
  6
CONTINUOUS
 62
     6
 10
225.752120
 20
169.518877
 40
1.095863
 50
203.568976
 51
263.568976
  0
ARC
  8
CSLAYER1
  6
CONTINUOUS
 62
     6
 10
224.624930
 20
167.991726
 40
1.095863
 50
23.568976
 51
83.568976
  0
LINE
  8
CSLAYER1
  6
CONTINUOUS
 62
     6
 10
217.274552
 20
187.385088
 11
217.274552
 21
187.776038
  0
LINE
  8
CSLAYER1
  6
CONTINUOUS
 62
     6
 10
217.274552
 20
187.776038
 11
217.391958
 21
187.800093
  0
LINE
  8
CSLAYER1
  6
CONTINUOUS
 62
     6
 10
217.391958
 20
187.800093
 11
217.542941
 21
187.843252
  0
LINE
  8
CSLAYER1
  6
CONTINUOUS
 62
     6
 10
217.542941
 20
187.843252
 11
217.687746
 21
187.897075
  0
LINE
  8
CSLAYER1
  6
CONTINUOUS
 62
     6
 10
217.687746
 20
187.897075
 11
217.825095
 21
187.960846
  0
LINE
  8
CSLAYER1
  6
CONTINUOUS
 62
     6
 10
217.825095
 20
187.960846
 11
217.953833
 21
188.033726
  0
LINE
  8
CSLAYER1
  6
CONTINUOUS
 62
     6
 10
217.953833
 20
188.033726
 11
218.072952
 21
188.114778
  0
LINE
  8
CSLAYER1
  6
CONTINUOUS
 62
     6
 10
218.072952
 20
188.114778
 11
218.181611
 21
188.202987
  0
LINE
  8
CSLAYER1
  6
CONTINUOUS
 62
     6
 10
218.181611
 20
188.202987
 11
218.246769
 21
188.265988
  0
LINE
  8
CSLAYER1
  6
CONTINUOUS
 62
     6
 10
218.246769
 20
188.265988
 11
218.246769
 21
188.653320
  0
LINE
  8
CSLAYER1
  6
CONTINUOUS
 62
     6
 10
218.246769
 20
188.653320
 11
218.181611
 21
188.590319
  0
LINE
  8
CSLAYER1
  6
CONTINUOUS
 62
     6
 10
218.181611
 20
188.590319
 11
218.072952
 21
188.502110
  0
LINE
  8
CSLAYER1
  6
CONTINUOUS
 62
     6
 10
218.072952
 20
188.502110
 11
217.953833
 21
188.421059
  0
LINE
  8
CSLAYER1
  6
CONTINUOUS
 62
     6
 10
217.953833
 20
188.421059
 11
217.825095
 21
188.348178
  0
LINE
  8
CSLAYER1
  6
CONTINUOUS
 62
     6
 10
217.825095
 20
188.348178
 11
217.687746
 21
188.284408
  0
LINE
  8
CSLAYER1
  6
CONTINUOUS
 62
     6
 10
217.687746
 20
188.284408
 11
217.542941
 21
188.230585
  0
LINE
  8
CSLAYER1
  6
CONTINUOUS
 62
     6
 10
217.542941
 20
188.230585
 11
217.391958
 21
188.187426
  0
LINE
  8
CSLAYER1
  6
CONTINUOUS
 62
     6
 10
217.391958
 20
188.187426
 11
217.274552
 21
188.163371
  0
LINE
  8
CSLAYER1
  6
CONTINUOUS
 62
     6
 10
217.274552
 20
188.163371
 11
217.274552
 21
189.376094
  0
ARC
  8
CSLAYER1
  6
CONTINUOUS
 62
     6
 10
217.134552
 20
189.376094
 40
0.140000
 50
0.000000
 51
90.000000
  0
LINE
  8
CSLAYER1
  6
CONTINUOUS
 62
     6
 10
217.134552
 20
189.516094
 11
216.636768
 21
189.516094
  0
ARC
  8
CSLAYER1
  6
CONTINUOUS
 62
     6
 10
216.636768
 20
189.376094
 40
0.140000
 50
90.000000
 51
180.000000
  0
LINE
  8
CSLAYER1
  6
CONTINUOUS
 62
     6
 10
216.496768
 20
189.376094
 11
216.496768
 21
188.163371
  0
LINE
  8
CSLAYER1
  6
CONTINUOUS
 62
     6
 10
216.496768
 20
188.163675
 11
216.437667
 21
188.174033
  0
LINE
  8
CSLAYER1
  6
CONTINUOUS
 62
     6
 10
216.437667
 20
188.174033
 11
216.284707
 21
188.213010
  0
LINE
  8
CSLAYER1
  6
CONTINUOUS
 62
     6
 10
216.284707
 20
188.213010
 11
216.137414
 21
188.262886
  0
LINE
  8
CSLAYER1
  6
CONTINUOUS
 62
     6
 10
216.137414
 20
188.262886
 11
215.997109
 21
188.322994
  0
LINE
  8
CSLAYER1
  6
CONTINUOUS
 62
     6
 10
215.997109
 20
188.322994
 11
215.864994
 21
188.392542
  0
LINE
  8
CSLAYER1
  6
CONTINUOUS
 62
     6
 10
215.864994
 20
188.392542
 11
215.742137
 21
188.470626
  0
LINE
  8
CSLAYER1
  6
CONTINUOUS
 62
     6
 10
215.742137
 20
188.470626
 11
215.629442
 21
188.556256
  0
LINE
  8
CSLAYER1
  6
CONTINUOUS
 62
     6
 10
215.629442
 20
188.556256
 11
215.524547
 21
188.651189
  0
LINE
  8
CSLAYER1
  6
CONTINUOUS
 62
     6
 10
215.524547
 20
188.651189
 11
215.524547
 21
188.263857
  0
LINE
  8
CSLAYER1
  6
CONTINUOUS
 62
     6
 10
215.524547
 20
188.263857
 11
215.629442
 21
188.168924
  0
LINE
  8
CSLAYER1
  6
CONTINUOUS
 62
     6
 10
215.629442
 20
188.168924
 11
215.742137
 21
188.083293
  0
LINE
  8
CSLAYER1
  6
CONTINUOUS
 62
     6
 10
215.742137
 20
188.083293
 11
215.864994
 21
188.005210
  0
LINE
  8
CSLAYER1
  6
CONTINUOUS
 62
     6
 10
215.864994
 20
188.005210
 11
215.997109
 21
187.935662
  0
LINE
  8
CSLAYER1
  6
CONTINUOUS
 62
     6
 10
215.997109
 20
187.935662
 11
216.137414
 21
187.875553
  0
LINE
  8
CSLAYER1
  6
CONTINUOUS
 62
     6
 10
216.137414
 20
187.875553
 11
216.284707
 21
187.825678
  0
LINE
  8
CSLAYER1
  6
CONTINUOUS
 62
     6
 10
216.284707
 20
187.825678
 11
216.437667
 21
187.786701
  0
LINE
  8
CSLAYER1
  6
CONTINUOUS
 62
     6
 10
216.437667
 20
187.786701
 11
216.496768
 21
187.776342
  0
LINE
  8
CSLAYER1
  6
CONTINUOUS
 62
     6
 10
216.496768
 20
187.776038
 11
216.496768
 21
187.385089
  0
LINE
  8
CSLAYER1
  6
CONTINUOUS
 62
     6
 10
224.885661
 20
196.159123
 11
224.885661
 21
197.159123
  0
ARC
  8
CSLAYER1
  6
CONTINUOUS
 62
     6
 10
225.885661
 20
197.159123
 40
1.000000
 50
89.999999
 51
179.999981
  0
LINE
  8
CSLAYER1
  6
CONTINUOUS
 62
     6
 10
225.885661
 20
198.159123
 11
261.885661
 21
198.159123
  0
ARC
  8
CSLAYER1
  6
CONTINUOUS
 62
     6
 10
261.885661
 20
197.159123
 40
1.000000
 50
0.057309
 51
89.999999
  0
LINE
  8
CSLAYER1
  6
CONTINUOUS
 62
     6
 10
262.885661
 20
197.159123
 11
262.885661
 21
196.159123
  0
ARC
  8
CSLAYER1
  6
CONTINUOUS
 62
     6
 10
261.885661
 20
196.159123
 40
1.000000
 50
269.999997
 51
360.000000
  0
LINE
  8
CSLAYER1
  6
CONTINUOUS
 62
     6
 10
261.885661
 20
195.159123
 11
225.885661
 21
195.159123
  0
ARC
  8
CSLAYER1
  6
CONTINUOUS
 62
     6
 10
225.885661
 20
196.159123
 40
1.000000
 50
179.999995
 51
269.999984
  0
ARC
  8
CSLAYER1
  6
CONTINUOUS
 62
     6
 10
225.885661
 20
203.159123
 40
1.000000
 50
179.999995
 51
269.999984
  0
LINE
  8
CSLAYER1
  6
CONTINUOUS
 62
     6
 10
224.885661
 20
203.159123
 11
224.885661
 21
204.159123
  0
ARC
  8
CSLAYER1
  6
CONTINUOUS
 62
     6
 10
225.885661
 20
204.159123
 40
1.000000
 50
89.999999
 51
179.999981
  0
LINE
  8
CSLAYER1
  6
CONTINUOUS
 62
     6
 10
225.885661
 20
205.159123
 11
230.656901
 21
205.159123
  0
ARC
  8
CSLAYER1
  6
CONTINUOUS
 62
     6
 10
230.656901
 20
206.159123
 40
1.000000
 50
-89.999999
 51
48.590386
  0
ARC
  8
CSLAYER1
  6
CONTINUOUS
 62
     6
 10
243.885661
 20
221.159123
 40
19.000000
 50
131.409657
 51
228.590367
  0
ARC
  8
CSLAYER1
  6
CONTINUOUS
 62
     6
 10
230.656901
 20
236.159123
 40
1.000000
 50
-48.590366
 51
90.000019
  0
LINE
  8
CSLAYER1
  6
CONTINUOUS
 62
     6
 10
230.656901
 20
237.159123
 11
225.885661
 21
237.159123
  0
ARC
  8
CSLAYER1
  6
CONTINUOUS
 62
     6
 10
225.885661
 20
238.159123
 40
1.000000
 50
180.000019
 51
270.000001
  0
LINE
  8
CSLAYER1
  6
CONTINUOUS
 62
     6
 10
224.885661
 20
238.159123
 11
224.885661
 21
239.159123
  0
ARC
  8
CSLAYER1
  6
CONTINUOUS
 62
     6
 10
225.885661
 20
239.159123
 40
1.000000
 50
90.000016
 51
180.000005
  0
LINE
  8
CSLAYER1
  6
CONTINUOUS
 62
     6
 10
225.885661
 20
240.159123
 11
261.885661
 21
240.159123
  0
ARC
  8
CSLAYER1
  6
CONTINUOUS
 62
     6
 10
261.885661
 20
239.159123
 40
1.000000
 50
0.000000
 51
90.000003
  0
LINE
  8
CSLAYER1
  6
CONTINUOUS
 62
     6
 10
262.885661
 20
239.159123
 11
262.885661
 21
238.159123
  0
ARC
  8
CSLAYER1
  6
CONTINUOUS
 62
     6
 10
261.885661
 20
238.159123
 40
1.000000
 50
270.000001
 51
359.942691
  0
LINE
  8
CSLAYER1
  6
CONTINUOUS
 62
     6
 10
261.885661
 20
237.159123
 11
257.114421
 21
237.159123
  0
ARC
  8
CSLAYER1
  6
CONTINUOUS
 62
     6
 10
257.114421
 20
236.159123
 40
1.000000
 50
90.000003
 51
228.590367
  0
ARC
  8
CSLAYER1
  6
CONTINUOUS
 62
     6
 10
243.885661
 20
221.159123
 40
19.000000
 50
-48.590366
 51
48.590386
  0
ARC
  8
CSLAYER1
  6
CONTINUOUS
 62
     6
 10
257.114421
 20
206.159123
 40
1.000000
 50
131.409643
 51
270.000001
  0
LINE
  8
CSLAYER1
  6
CONTINUOUS
 62
     6
 10
257.114421
 20
205.159123
 11
261.885661
 21
205.159123
  0
ARC
  8
CSLAYER1
  6
CONTINUOUS
 62
     6
 10
261.885661
 20
204.159123
 40
1.000000
 50
0.057309
 51
89.999999
  0
LINE
  8
CSLAYER1
  6
CONTINUOUS
 62
     6
 10
262.885661
 20
204.159123
 11
262.885661
 21
203.159123
  0
ARC
  8
CSLAYER1
  6
CONTINUOUS
 62
     6
 10
261.885661
 20
203.159123
 40
1.000000
 50
269.999997
 51
360.000000
  0
LINE
  8
CSLAYER1
  6
CONTINUOUS
 62
     6
 10
261.885661
 20
202.159123
 11
225.885661
 21
202.159123
  0
LINE
  8
CSLAYER1
  6
CONTINUOUS
 62
     6
 10
225.786052
 20
135.159108
 11
261.985210
 21
135.159108
  0
ARC
  8
CSLAYER1
  6
CONTINUOUS
 62
     6
 10
261.985210
 20
134.159108
 40
1.000000
 50
6.000003
 51
90.000016
  0
LINE
  8
CSLAYER1
  6
CONTINUOUS
 62
     6
 10
262.979777
 20
134.263600
 11
263.627727
 21
128.098378
  0
ARC
  8
CSLAYER1
  6
CONTINUOUS
 62
     6
 10
264.622295
 20
128.202931
 40
1.000000
 50
186.000026
 51
270.000001
  0
LINE
  8
CSLAYER1
  6
CONTINUOUS
 62
     6
 10
264.885661
 20
130.159108
 11
263.410625
 21
130.159108
  0
LINE
  8
CSLAYER1
  6
CONTINUOUS
 62
     6
 10
262.979777
 20
130.263600
 11
263.677409
 21
123.626149
  0
ARC
  8
CSLAYER1
  6
CONTINUOUS
 62
     6
 10
264.671916
 20
123.730641
 40
1.000000
 50
186.000026
 51
270.000001
  0
LINE
  8
CSLAYER1
  6
CONTINUOUS
 62
     6
 10
259.528728
 20
122.552296
 11
227.571635
 21
122.552296
  0
LINE
  8
CSLAYER1
  6
CONTINUOUS
 62
     6
 10
224.093913
 20
123.626149
 11
224.791545
 21
130.263600
  0
ARC
  8
CSLAYER1
  6
CONTINUOUS
 62
     6
 10
225.786052
 20
130.159108
 40
1.000000
 50
90.000003
 51
173.999998
  0
LINE
  8
CSLAYER1
  6
CONTINUOUS
 62
     6
 10
225.786052
 20
131.159108
 11
261.985210
 21
131.159108
  0
ARC
  8
CSLAYER1
  6
CONTINUOUS
 62
     6
 10
261.985210
 20
130.159108
 40
1.000000
 50
6.000003
 51
90.000016
  0
LINE
  8
CSLAYER1
  6
CONTINUOUS
 62
     6
 10
264.885661
 20
131.159123
 11
264.885661
 21
41.159123
  0
LINE
  8
CSLAYER1
  6
CONTINUOUS
 62
     6
 10
264.885661
 20
41.159123
 11
380.885661
 21
41.159123
  0
LINE
  8
CSLAYER1
  6
CONTINUOUS
 62
     6
 10
379.885661
 20
41.159123
 11
379.885661
 21
131.159123
  0
LINE
  8
CSLAYER1
  6
CONTINUOUS
 62
     6
 10
380.885661
 20
131.159123
 11
264.885661
 21
131.159123
  0
ARC
  8
CSLAYER1
  6
CONTINUOUS
 62
     6
 10
225.786052
 20
134.159108
 40
1.000000
 50
90.000003
 51
173.999998
  0
LINE
  8
CSLAYER1
  6
CONTINUOUS
 62
     6
 10
224.791545
 20
134.263600
 11
224.143535
 21
128.098378
  0
ARC
  8
CSLAYER1
  6
CONTINUOUS
 62
     6
 10
223.149028
 20
128.202931
 40
1.000000
 50
270.000001
 51
353.999989
  0
LINE
  8
CSLAYER1
  6
CONTINUOUS
 62
     6
 10
224.360087
 20
130.159108
 11
219.885661
 21
130.159108
  0
LINE
  8
CSLAYER1
  6
CONTINUOUS
 62
     6
 10
219.885661
 20
131.159123
 11
219.885661
 21
82.115261
  0
ARC
  8
CSLAYER1
  6
CONTINUOUS
 62
     6
 10
219.018501
 20
80.891319
 40
1.500000
 50
18.366208
 51
78.366208
  0
ARC
  8
CSLAYER1
  6
CONTINUOUS
 62
     6
 10
220.744577
 20
82.833138
 40
1.500000
 50
198.366208
 51
258.366208
  0
LINE
  8
CSLAYER1
  6
CONTINUOUS
 62
     6
 10
219.320976
 20
82.360558
 11
219.218775
 21
82.271319
  0
LINE
  8
CSLAYER1
  6
CONTINUOUS
 62
     6
 10
219.218775
 20
82.271319
 11
219.114600
 21
82.174226
  0
LINE
  8
CSLAYER1
  6
CONTINUOUS
 62
     6
 10
219.114600
 20
82.174226
 11
219.009376
 21
82.070480
  0
LINE
  8
CSLAYER1
  6
CONTINUOUS
 62
     6
 10
219.009376
 20
82.070480
 11
218.904026
 21
81.961283
  0
LINE
  8
CSLAYER1
  6
CONTINUOUS
 62
     6
 10
218.904026
 20
81.961283
 11
218.799474
 21
81.847836
  0
LINE
  8
CSLAYER1
  6
CONTINUOUS
 62
     6
 10
218.799474
 20
81.847836
 11
218.696645
 21
81.731338
  0
LINE
  8
CSLAYER1
  6
CONTINUOUS
 62
     6
 10
218.696645
 20
81.731338
 11
218.596462
 21
81.612993
  0
LINE
  8
CSLAYER1
  6
CONTINUOUS
 62
     6
 10
218.596462
 20
81.612993
 11
218.499850
 21
81.494000
  0
LINE
  8
CSLAYER1
  6
CONTINUOUS
 62
     6
 10
218.499850
 20
81.494000
 11
218.407732
 21
81.375560
  0
LINE
  8
CSLAYER1
  6
CONTINUOUS
 62
     6
 10
218.407732
 20
81.375560
 11
218.321032
 21
81.258875
  0
LINE
  8
CSLAYER1
  6
CONTINUOUS
 62
     6
 10
218.321032
 20
81.258875
 11
218.240675
 21
81.145146
  0
LINE
  8
CSLAYER1
  6
CONTINUOUS
 62
     6
 10
218.240675
 20
81.145146
 11
218.159358
 21
81.019660
  0
LINE
  8
CSLAYER1
  6
CONTINUOUS
 62
     6
 10
218.159358
 20
81.019660
 11
218.082329
 21
80.886961
  0
LINE
  8
CSLAYER1
  6
CONTINUOUS
 62
     6
 10
218.082329
 20
80.886961
 11
218.009308
 21
80.747996
  0
LINE
  8
CSLAYER1
  6
CONTINUOUS
 62
     6
 10
218.009308
 20
80.747996
 11
217.940017
 21
80.603713
  0
LINE
  8
CSLAYER1
  6
CONTINUOUS
 62
     6
 10
217.940017
 20
80.603713
 11
217.874177
 21
80.455058
  0
LINE
  8
CSLAYER1
  6
CONTINUOUS
 62
     6
 10
217.874177
 20
80.455058
 11
217.811508
 21
80.302980
  0
LINE
  8
CSLAYER1
  6
CONTINUOUS
 62
     6
 10
217.811508
 20
80.302980
 11
217.751732
 21
80.148425
  0
LINE
  8
CSLAYER1
  6
CONTINUOUS
 62
     6
 10
217.751732
 20
80.148425
 11
217.694570
 21
79.992341
  0
LINE
  8
CSLAYER1
  6
CONTINUOUS
 62
     6
 10
217.694570
 20
79.992341
 11
217.639742
 21
79.835675
  0
LINE
  8
CSLAYER1
  6
CONTINUOUS
 62
     6
 10
217.639742
 20
79.835675
 11
217.586969
 21
79.679374
  0
LINE
  8
CSLAYER1
  6
CONTINUOUS
 62
     6
 10
217.586969
 20
79.679374
 11
217.535974
 21
79.524386
  0
LINE
  8
CSLAYER1
  6
CONTINUOUS
 62
     6
 10
217.535974
 20
79.524386
 11
217.489467
 21
79.380639
  0
LINE
  8
CSLAYER1
  6
CONTINUOUS
 62
     6
 10
217.489467
 20
79.380639
 11
217.443643
 21
79.236996
  0
LINE
  8
CSLAYER1
  6
CONTINUOUS
 62
     6
 10
217.443643
 20
79.236996
 11
217.398435
 21
79.093448
  0
LINE
  8
CSLAYER1
  6
CONTINUOUS
 62
     6
 10
217.398435
 20
79.093448
 11
217.353773
 21
78.949984
  0
LINE
  8
CSLAYER1
  6
CONTINUOUS
 62
     6
 10
217.353773
 20
78.949984
 11
217.309590
 21
78.806594
  0
LINE
  8
CSLAYER1
  6
CONTINUOUS
 62
     6
 10
217.309590
 20
78.806594
 11
217.265817
 21
78.663266
  0
LINE
  8
CSLAYER1
  6
CONTINUOUS
 62
     6
 10
217.265817
 20
78.663266
 11
217.222386
 21
78.519991
  0
LINE
  8
CSLAYER1
  6
CONTINUOUS
 62
     6
 10
217.222386
 20
78.519991
 11
217.179229
 21
78.376759
  0
LINE
  8
CSLAYER1
  6
CONTINUOUS
 62
     6
 10
217.179229
 20
78.376759
 11
217.136276
 21
78.233557
  0
LINE
  8
CSLAYER1
  6
CONTINUOUS
 62
     6
 10
217.136276
 20
78.233557
 11
217.093460
 21
78.090377
  0
LINE
  8
CSLAYER1
  6
CONTINUOUS
 62
     6
 10
217.093460
 20
78.090377
 11
217.050713
 21
77.947207
  0
ARC
  8
CSLAYER1
  6
CONTINUOUS
 62
     6
 10
218.149574
 20
78.968268
 40
1.500000
 50
222.897147
 51
282.897147
  0
ARC
  8
CSLAYER1
  6
CONTINUOUS
 62
     6
 10
219.583242
 20
78.527136
 40
1.500000
 50
222.897147
 51
282.897147
  0
ARC
  8
CSLAYER1
  6
CONTINUOUS
 62
     6
 10
218.819179
 20
76.043951
 40
1.500000
 50
42.897147
 51
102.897147
  0
LINE
  8
CSLAYER1
  6
CONTINUOUS
 62
     6
 10
218.385455
 20
77.486931
 11
217.591882
 21
74.454308
  0
LINE
  8
CSLAYER1
  6
CONTINUOUS
 62
     6
 10
216.872116
 20
74.972588
 11
217.724484
 21
77.529762
  0
LINE
  8
CSLAYER1
  6
CONTINUOUS
 62
     6
 10
219.135524
 20
77.095512
 11
218.455573
 21
74.080054
  0
LINE
  8
CSLAYER1
  6
CONTINUOUS
 62
     6
 10
219.885661
 20
77.057938
 11
219.885661
 21
41.159123
  0
LINE
  8
CSLAYER1
  6
CONTINUOUS
 62
     6
 10
219.885661
 20
41.159123
 11
176.885661
 21
41.159123
  0
ARC
  8
CSLAYER1
  6
CONTINUOUS
 62
     6
 10
177.101653
 20
51.372895
 40
10.216056
 50
179.796819
 51
268.788542
  0
LINE
  8
CSLAYER1
  6
CONTINUOUS
 62
     6
 10
166.885661
 20
51.409123
 11
166.885661
 21
121.159123
  0
ARC
  8
CSLAYER1
  6
CONTINUOUS
 62
     6
 10
176.885661
 20
121.159123
 40
10.000000
 50
90.000000
 51
180.000000
  0
LINE
  8
CSLAYER1
  6
CONTINUOUS
 62
     6
 10
176.885661
 20
131.159123
 11
219.885661
 21
131.159123
  0
ARC
  8
CSLAYER1
  6
CONTINUOUS
 62
     6
 10
223.099345
 20
123.730641
 40
1.000000
 50
270.000001
 51
353.999989
  0
LINE
  8
CSLAYER1
  6
CONTINUOUS
 62
     6
 10
218.246769
 20
119.052258
 11
218.246769
 21
118.664926
  0
LINE
  8
CSLAYER1
  6
CONTINUOUS
 62
     6
 10
218.246769
 20
118.664926
 11
218.181611
 21
118.727927
  0
LINE
  8
CSLAYER1
  6
CONTINUOUS
 62
     6
 10
218.181611
 20
118.727927
 11
218.072952
 21
118.816136
  0
LINE
  8
CSLAYER1
  6
CONTINUOUS
 62
     6
 10
218.072952
 20
118.816136
 11
217.953833
 21
118.897187
  0
LINE
  8
CSLAYER1
  6
CONTINUOUS
 62
     6
 10
217.953833
 20
118.897187
 11
217.825095
 21
118.970068
  0
LINE
  8
CSLAYER1
  6
CONTINUOUS
 62
     6
 10
217.825095
 20
118.970068
 11
217.687746
 21
119.033838
  0
LINE
  8
CSLAYER1
  6
CONTINUOUS
 62
     6
 10
217.687746
 20
119.033838
 11
217.542941
 21
119.087661
  0
LINE
  8
CSLAYER1
  6
CONTINUOUS
 62
     6
 10
217.542941
 20
119.087661
 11
217.391958
 21
119.130820
  0
LINE
  8
CSLAYER1
  6
CONTINUOUS
 62
     6
 10
217.391958
 20
119.130820
 11
217.274552
 21
119.154875
  0
LINE
  8
CSLAYER1
  6
CONTINUOUS
 62
     6
 10
217.274552
 20
119.154875
 11
217.274552
 21
117.942151
  0
ARC
  8
CSLAYER1
  6
CONTINUOUS
 62
     6
 10
217.134552
 20
117.942151
 40
0.140000
 50
270.000000
 51
360.000000
  0
LINE
  8
CSLAYER1
  6
CONTINUOUS
 62
     6
 10
217.134552
 20
117.802151
 11
216.636768
 21
117.802151
  0
ARC
  8
CSLAYER1
  6
CONTINUOUS
 62
     6
 10
216.636768
 20
117.942151
 40
0.140000
 50
180.000000
 51
270.000000
  0
LINE
  8
CSLAYER1
  6
CONTINUOUS
 62
     6
 10
216.496768
 20
117.942151
 11
216.496768
 21
119.154875
  0
LINE
  8
CSLAYER1
  6
CONTINUOUS
 62
     6
 10
216.496768
 20
119.154571
 11
216.437667
 21
119.144213
  0
LINE
  8
CSLAYER1
  6
CONTINUOUS
 62
     6
 10
216.437667
 20
119.144213
 11
216.284707
 21
119.105236
  0
LINE
  8
CSLAYER1
  6
CONTINUOUS
 62
     6
 10
216.284707
 20
119.105236
 11
216.137414
 21
119.055360
  0
LINE
  8
CSLAYER1
  6
CONTINUOUS
 62
     6
 10
216.137414
 20
119.055360
 11
215.997109
 21
118.995252
  0
LINE
  8
CSLAYER1
  6
CONTINUOUS
 62
     6
 10
215.997109
 20
118.995252
 11
215.864994
 21
118.925704
  0
LINE
  8
CSLAYER1
  6
CONTINUOUS
 62
     6
 10
215.864994
 20
118.925704
 11
215.742137
 21
118.847620
  0
LINE
  8
CSLAYER1
  6
CONTINUOUS
 62
     6
 10
215.742137
 20
118.847620
 11
215.629442
 21
118.761990
  0
LINE
  8
CSLAYER1
  6
CONTINUOUS
 62
     6
 10
215.629442
 20
118.761990
 11
215.524547
 21
118.667057
  0
LINE
  8
CSLAYER1
  6
CONTINUOUS
 62
     6
 10
215.524547
 20
118.667057
 11
215.524547
 21
119.054389
  0
LINE
  8
CSLAYER1
  6
CONTINUOUS
 62
     6
 10
215.524547
 20
119.054389
 11
215.629442
 21
119.149322
  0
LINE
  8
CSLAYER1
  6
CONTINUOUS
 62
     6
 10
215.629442
 20
119.149322
 11
215.742137
 21
119.234953
  0
LINE
  8
CSLAYER1
  6
CONTINUOUS
 62
     6
 10
215.742137
 20
119.234953
 11
215.864994
 21
119.313036
  0
LINE
  8
CSLAYER1
  6
CONTINUOUS
 62
     6
 10
215.864994
 20
119.313036
 11
215.997109
 21
119.382584
  0
LINE
  8
CSLAYER1
  6
CONTINUOUS
 62
     6
 10
215.997109
 20
119.382584
 11
216.137414
 21
119.442693
  0
LINE
  8
CSLAYER1
  6
CONTINUOUS
 62
     6
 10
216.137414
 20
119.442693
 11
216.284707
 21
119.492568
  0
LINE
  8
CSLAYER1
  6
CONTINUOUS
 62
     6
 10
216.284707
 20
119.492568
 11
216.437667
 21
119.531545
  0
LINE
  8
CSLAYER1
  6
CONTINUOUS
 62
     6
 10
216.437667
 20
119.531545
 11
216.496768
 21
119.541904
  0
LINE
  8
CSLAYER1
  6
CONTINUOUS
 62
     6
 10
216.496768
 20
119.542208
 11
216.496768
 21
119.933157
  0
LINE
  8
CSLAYER1
  6
CONTINUOUS
 62
     6
 10
217.274552
 20
119.933158
 11
217.274552
 21
119.542208
  0
LINE
  8
CSLAYER1
  6
CONTINUOUS
 62
     6
 10
217.274552
 20
119.542208
 11
217.391958
 21
119.518153
  0
LINE
  8
CSLAYER1
  6
CONTINUOUS
 62
     6
 10
217.391958
 20
119.518153
 11
217.542941
 21
119.474994
  0
LINE
  8
CSLAYER1
  6
CONTINUOUS
 62
     6
 10
217.542941
 20
119.474994
 11
217.687746
 21
119.421171
  0
LINE
  8
CSLAYER1
  6
CONTINUOUS
 62
     6
 10
217.687746
 20
119.421171
 11
217.825095
 21
119.357400
  0
LINE
  8
CSLAYER1
  6
CONTINUOUS
 62
     6
 10
217.825095
 20
119.357400
 11
217.953833
 21
119.284520
  0
LINE
  8
CSLAYER1
  6
CONTINUOUS
 62
     6
 10
217.953833
 20
119.284520
 11
218.072952
 21
119.203468
  0
LINE
  8
CSLAYER1
  6
CONTINUOUS
 62
     6
 10
218.072952
 20
119.203468
 11
218.181611
 21
119.115259
  0
LINE
  8
CSLAYER1
  6
CONTINUOUS
 62
     6
 10
218.181611
 20
119.115259
 11
218.246769
 21
119.052258
  0
LINE
  8
CSLAYER1
  6
CONTINUOUS
 62
     6
 10
227.885661
 20
104.159123
 11
249.885661
 21
104.159123
  0
ARC
  8
CSLAYER1
  6
CONTINUOUS
 62
     6
 10
249.885661
 20
102.159123
 40
2.000000
 50
0.000000
 51
90.000000
  0
LINE
  8
CSLAYER1
  6
CONTINUOUS
 62
     6
 10
251.885661
 20
102.159123
 11
251.885661
 21
70.159123
  0
ARC
  8
CSLAYER1
  6
CONTINUOUS
 62
     6
 10
249.885661
 20
70.159123
 40
2.000000
 50
270.000000
 51
360.000000
  0
LINE
  8
CSLAYER1
  6
CONTINUOUS
 62
     6
 10
249.885661
 20
68.159123
 11
227.885661
 21
68.159123
  0
ARC
  8
CSLAYER1
  6
CONTINUOUS
 62
     6
 10
227.885661
 20
70.159123
 40
2.000000
 50
180.000000
 51
270.000000
  0
LINE
  8
CSLAYER1
  6
CONTINUOUS
 62
     6
 10
225.885661
 20
70.159123
 11
225.885661
 21
83.036150
  0
LINE
  8
CSLAYER1
  6
CONTINUOUS
 62
     6
 10
225.885809
 20
83.036150
 11
226.050029
 21
83.076469
  0
LINE
  8
CSLAYER1
  6
CONTINUOUS
 62
     6
 10
226.050029
 20
83.076469
 11
226.211560
 21
83.109844
  0
LINE
  8
CSLAYER1
  6
CONTINUOUS
 62
     6
 10
226.211560
 20
83.109844
 11
226.397814
 21
83.143190
  0
LINE
  8
CSLAYER1
  6
CONTINUOUS
 62
     6
 10
226.397814
 20
83.143190
 11
226.590926
 21
83.174957
  0
LINE
  8
CSLAYER1
  6
CONTINUOUS
 62
     6
 10
226.590926
 20
83.174957
 11
226.789470
 21
83.204506
  0
LINE
  8
CSLAYER1
  6
CONTINUOUS
 62
     6
 10
226.789470
 20
83.204506
 11
226.992026
 21
83.231195
  0
LINE
  8
CSLAYER1
  6
CONTINUOUS
 62
     6
 10
226.992026
 20
83.231195
 11
227.197170
 21
83.254383
  0
LINE
  8
CSLAYER1
  6
CONTINUOUS
 62
     6
 10
227.197170
 20
83.254383
 11
227.403479
 21
83.273431
  0
LINE
  8
CSLAYER1
  6
CONTINUOUS
 62
     6
 10
227.403479
 20
83.273431
 11
227.609530
 21
83.287696
  0
LINE
  8
CSLAYER1
  6
CONTINUOUS
 62
     6
 10
227.609530
 20
83.287696
 11
227.813900
 21
83.296539
  0
LINE
  8
CSLAYER1
  6
CONTINUOUS
 62
     6
 10
227.813900
 20
83.296539
 11
228.015167
 21
83.299318
  0
LINE
  8
CSLAYER1
  6
CONTINUOUS
 62
     6
 10
228.015167
 20
83.299318
 11
228.211907
 21
83.295394
  0
LINE
  8
CSLAYER1
  6
CONTINUOUS
 62
     6
 10
228.211907
 20
83.295394
 11
228.402698
 21
83.284124
  0
LINE
  8
CSLAYER1
  6
CONTINUOUS
 62
     6
 10
228.402698
 20
83.284124
 11
228.570296
 21
83.270631
  0
LINE
  8
CSLAYER1
  6
CONTINUOUS
 62
     6
 10
228.570296
 20
83.270631
 11
228.742637
 21
83.256748
  0
LINE
  8
CSLAYER1
  6
CONTINUOUS
 62
     6
 10
228.742637
 20
83.256748
 11
228.918634
 21
83.242353
  0
LINE
  8
CSLAYER1
  6
CONTINUOUS
 62
     6
 10
228.918634
 20
83.242353
 11
229.097199
 21
83.227328
  0
LINE
  8
CSLAYER1
  6
CONTINUOUS
 62
     6
 10
229.097199
 20
83.227328
 11
229.277245
 21
83.211551
  0
LINE
  8
CSLAYER1
  6
CONTINUOUS
 62
     6
 10
229.277245
 20
83.211551
 11
229.457683
 21
83.194902
  0
LINE
  8
CSLAYER1
  6
CONTINUOUS
 62
     6
 10
229.457683
 20
83.194902
 11
229.637425
 21
83.177263
  0
LINE
  8
CSLAYER1
  6
CONTINUOUS
 62
     6
 10
229.637425
 20
83.177263
 11
229.815385
 21
83.158511
  0
LINE
  8
CSLAYER1
  6
CONTINUOUS
 62
     6
 10
229.815385
 20
83.158511
 11
229.990474
 21
83.138528
  0
LINE
  8
CSLAYER1
  6
CONTINUOUS
 62
     6
 10
229.990474
 20
83.138528
 11
230.161604
 21
83.117193
  0
LINE
  8
CSLAYER1
  6
CONTINUOUS
 62
     6
 10
230.161604
 20
83.117193
 11
230.327688
 21
83.094387
  0
LINE
  8
CSLAYER1
  6
CONTINUOUS
 62
     6
 10
230.327688
 20
83.094387
 11
230.493627
 21
83.071524
  0
LINE
  8
CSLAYER1
  6
CONTINUOUS
 62
     6
 10
230.493627
 20
83.071524
 11
230.665067
 21
83.050068
  0
LINE
  8
CSLAYER1
  6
CONTINUOUS
 62
     6
 10
230.665067
 20
83.050068
 11
230.840767
 21
83.030149
  0
LINE
  8
CSLAYER1
  6
CONTINUOUS
 62
     6
 10
230.840767
 20
83.030149
 11
231.019489
 21
83.011896
  0
LINE
  8
CSLAYER1
  6
CONTINUOUS
 62
     6
 10
231.019489
 20
83.011896
 11
231.199990
 21
82.995441
  0
LINE
  8
CSLAYER1
  6
CONTINUOUS
 62
     6
 10
231.199990
 20
82.995441
 11
231.381033
 21
82.980913
  0
LINE
  8
CSLAYER1
  6
CONTINUOUS
 62
     6
 10
231.381033
 20
82.980913
 11
231.561376
 21
82.968443
  0
LINE
  8
CSLAYER1
  6
CONTINUOUS
 62
     6
 10
231.561376
 20
82.968443
 11
231.739780
 21
82.958161
  0
LINE
  8
CSLAYER1
  6
CONTINUOUS
 62
     6
 10
231.739780
 20
82.958161
 11
231.915004
 21
82.950198
  0
LINE
  8
CSLAYER1
  6
CONTINUOUS
 62
     6
 10
231.915004
 20
82.950198
 11
232.085810
 21
82.944683
  0
LINE
  8
CSLAYER1
  6
CONTINUOUS
 62
     6
 10
232.085810
 20
82.944683
 11
232.250956
 21
82.941748
  0
LINE
  8
CSLAYER1
  6
CONTINUOUS
 62
     6
 10
232.250956
 20
82.941748
 11
232.410343
 21
82.941215
  0
LINE
  8
CSLAYER1
  6
CONTINUOUS
 62
     6
 10
232.410343
 20
82.941215
 11
232.576830
 21
82.942632
  0
LINE
  8
CSLAYER1
  6
CONTINUOUS
 62
     6
 10
232.576830
 20
82.942632
 11
232.748622
 21
82.945917
  0
LINE
  8
CSLAYER1
  6
CONTINUOUS
 62
     6
 10
232.748622
 20
82.945917
 11
232.923927
 21
82.950987
  0
LINE
  8
CSLAYER1
  6
CONTINUOUS
 62
     6
 10
232.923927
 20
82.950987
 11
233.100952
 21
82.957759
  0
LINE
  8
CSLAYER1
  6
CONTINUOUS
 62
     6
 10
233.100952
 20
82.957759
 11
233.277903
 21
82.966149
  0
LINE
  8
CSLAYER1
  6
CONTINUOUS
 62
     6
 10
233.277903
 20
82.966149
 11
233.452986
 21
82.976075
  0
LINE
  8
CSLAYER1
  6
CONTINUOUS
 62
     6
 10
233.452986
 20
82.976075
 11
233.624409
 21
82.987453
  0
LINE
  8
CSLAYER1
  6
CONTINUOUS
 62
     6
 10
233.624409
 20
82.987453
 11
233.790377
 21
83.000201
  0
LINE
  8
CSLAYER1
  6
CONTINUOUS
 62
     6
 10
233.790377
 20
83.000201
 11
233.949098
 21
83.014235
  0
LINE
  8
CSLAYER1
  6
CONTINUOUS
 62
     6
 10
233.949098
 20
83.014235
 11
234.098778
 21
83.029473
  0
ARC
  8
CSLAYER1
  6
CONTINUOUS
 62
     6
 10
234.063157
 20
84.528665
 40
1.500000
 50
-88.640300
 51
91.359720
  0
ARC
  8
CSLAYER1
  6
CONTINUOUS
 62
     6
 10
234.117409
 20
87.525142
 40
1.500000
 50
-93.433378
 51
86.566642
  0
LINE
  8
CSLAYER1
  6
CONTINUOUS
 62
     6
 10
234.207280
 20
89.022427
 11
233.977066
 21
89.030454
  0
LINE
  8
CSLAYER1
  6
CONTINUOUS
 62
     6
 10
233.977066
 20
89.030454
 11
233.733628
 21
89.039695
  0
LINE
  8
CSLAYER1
  6
CONTINUOUS
 62
     6
 10
233.733628
 20
89.039695
 11
233.479521
 21
89.050243
  0
LINE
  8
CSLAYER1
  6
CONTINUOUS
 62
     6
 10
233.479521
 20
89.050243
 11
233.217299
 21
89.062190
  0
LINE
  8
CSLAYER1
  6
CONTINUOUS
 62
     6
 10
233.217299
 20
89.062190
 11
232.949518
 21
89.075628
  0
LINE
  8
CSLAYER1
  6
CONTINUOUS
 62
     6
 10
232.949518
 20
89.075628
 11
232.678732
 21
89.090647
  0
LINE
  8
CSLAYER1
  6
CONTINUOUS
 62
     6
 10
232.678732
 20
89.090647
 11
232.407496
 21
89.107342
  0
LINE
  8
CSLAYER1
  6
CONTINUOUS
 62
     6
 10
232.407496
 20
89.107342
 11
232.138365
 21
89.125803
  0
LINE
  8
CSLAYER1
  6
CONTINUOUS
 62
     6
 10
232.138365
 20
89.125803
 11
231.873893
 21
89.146122
  0
LINE
  8
CSLAYER1
  6
CONTINUOUS
 62
     6
 10
231.873893
 20
89.146122
 11
231.616635
 21
89.168391
  0
LINE
  8
CSLAYER1
  6
CONTINUOUS
 62
     6
 10
231.616635
 20
89.168391
 11
231.369147
 21
89.192703
  0
LINE
  8
CSLAYER1
  6
CONTINUOUS
 62
     6
 10
231.369147
 20
89.192703
 11
231.106255
 21
89.219805
  0
LINE
  8
CSLAYER1
  6
CONTINUOUS
 62
     6
 10
231.106255
 20
89.219805
 11
230.836257
 21
89.246989
  0
LINE
  8
CSLAYER1
  6
CONTINUOUS
 62
     6
 10
230.836257
 20
89.246989
 11
230.560722
 21
89.274535
  0
LINE
  8
CSLAYER1
  6
CONTINUOUS
 62
     6
 10
230.560722
 20
89.274535
 11
230.281218
 21
89.302725
  0
LINE
  8
CSLAYER1
  6
CONTINUOUS
 62
     6
 10
230.281218
 20
89.302725
 11
229.999312
 21
89.331836
  0
LINE
  8
CSLAYER1
  6
CONTINUOUS
 62
     6
 10
229.999312
 20
89.331836
 11
229.716574
 21
89.362150
  0
LINE
  8
CSLAYER1
  6
CONTINUOUS
 62
     6
 10
229.716574
 20
89.362150
 11
229.434572
 21
89.393946
  0
LINE
  8
CSLAYER1
  6
CONTINUOUS
 62
     6
 10
229.434572
 20
89.393946
 11
229.154873
 21
89.427504
  0
LINE
  8
CSLAYER1
  6
CONTINUOUS
 62
     6
 10
229.154873
 20
89.427504
 11
228.879047
 21
89.463104
  0
LINE
  8
CSLAYER1
  6
CONTINUOUS
 62
     6
 10
228.879047
 20
89.463104
 11
228.608661
 21
89.501026
  0
LINE
  8
CSLAYER1
  6
CONTINUOUS
 62
     6
 10
228.608661
 20
89.501026
 11
228.345283
 21
89.541550
  0
LINE
  8
CSLAYER1
  6
CONTINUOUS
 62
     6
 10
228.345283
 20
89.541550
 11
227.941342
 21
89.603377
  0
LINE
  8
CSLAYER1
  6
CONTINUOUS
 62
     6
 10
227.941342
 20
89.603377
 11
227.527514
 21
89.659070
  0
LINE
  8
CSLAYER1
  6
CONTINUOUS
 62
     6
 10
227.527514
 20
89.659070
 11
227.105695
 21
89.707117
  0
LINE
  8
CSLAYER1
  6
CONTINUOUS
 62
     6
 10
227.105695
 20
89.707117
 11
226.677777
 21
89.746001
  0
LINE
  8
CSLAYER1
  6
CONTINUOUS
 62
     6
 10
226.677777
 20
89.746001
 11
226.245655
 21
89.774210
  0
LINE
  8
CSLAYER1
  6
CONTINUOUS
 62
     6
 10
226.245655
 20
89.774210
 11
225.811222
 21
89.790227
  0
LINE
  8
CSLAYER1
  6
CONTINUOUS
 62
     6
 10
225.811222
 20
89.790227
 11
225.376373
 21
89.792539
  0
LINE
  8
CSLAYER1
  6
CONTINUOUS
 62
     6
 10
225.376373
 20
89.792539
 11
224.943000
 21
89.779630
  0
LINE
  8
CSLAYER1
  6
CONTINUOUS
 62
     6
 10
224.943000
 20
89.779630
 11
224.512997
 21
89.749986
  0
LINE
  8
CSLAYER1
  6
CONTINUOUS
 62
     6
 10
224.512997
 20
89.749986
 11
224.088259
 21
89.702092
  0
LINE
  8
CSLAYER1
  6
CONTINUOUS
 62
     6
 10
224.088259
 20
89.702092
 11
223.670679
 21
89.634434
  0
LINE
  8
CSLAYER1
  6
CONTINUOUS
 62
     6
 10
223.670679
 20
89.634434
 11
223.404955
 21
89.579417
  0
LINE
  8
CSLAYER1
  6
CONTINUOUS
 62
     6
 10
223.404955
 20
89.579417
 11
223.140781
 21
89.515603
  0
LINE
  8
CSLAYER1
  6
CONTINUOUS
 62
     6
 10
223.140781
 20
89.515603
 11
222.878000
 21
89.443871
  0
LINE
  8
CSLAYER1
  6
CONTINUOUS
 62
     6
 10
222.878000
 20
89.443871
 11
222.616459
 21
89.365102
  0
LINE
  8
CSLAYER1
  6
CONTINUOUS
 62
     6
 10
222.616459
 20
89.365102
 11
222.356002
 21
89.280174
  0
LINE
  8
CSLAYER1
  6
CONTINUOUS
 62
     6
 10
222.356002
 20
89.280174
 11
222.096475
 21
89.189968
  0
LINE
  8
CSLAYER1
  6
CONTINUOUS
 62
     6
 10
222.096475
 20
89.189968
 11
221.837722
 21
89.095363
  0
LINE
  8
CSLAYER1
  6
CONTINUOUS
 62
     6
 10
221.837722
 20
89.095363
 11
221.579589
 21
88.997239
  0
LINE
  8
CSLAYER1
  6
CONTINUOUS
 62
     6
 10
221.579589
 20
88.997239
 11
221.321920
 21
88.896476
  0
LINE
  8
CSLAYER1
  6
CONTINUOUS
 62
     6
 10
221.321920
 20
88.896476
 11
221.064562
 21
88.793954
  0
LINE
  8
CSLAYER1
  6
CONTINUOUS
 62
     6
 10
221.064562
 20
88.793954
 11
220.807358
 21
88.690552
  0
ARC
  8
CSLAYER1
  6
CONTINUOUS
 62
     6
 10
222.275951
 20
88.384950
 40
1.499994
 50
168.245911
 51
228.245911
  0
ARC
  8
CSLAYER1
  6
CONTINUOUS
 62
     6
 10
220.278154
 20
86.146929
 40
1.499994
 50
-11.754089
 51
48.245911
  0
ARC
  8
CSLAYER1
  6
CONTINUOUS
 62
     6
 10
222.745593
 20
86.960373
 40
1.499994
 50
168.245911
 51
228.245911
  0
LINE
  8
CSLAYER1
  6
CONTINUOUS
 62
     6
 10
221.746647
 20
85.841384
 11
221.960198
 21
85.926933
  0
LINE
  8
CSLAYER1
  6
CONTINUOUS
 62
     6
 10
221.960198
 20
85.926933
 11
222.173875
 21
86.011765
  0
LINE
  8
CSLAYER1
  6
CONTINUOUS
 62
     6
 10
222.173875
 20
86.011765
 11
222.387802
 21
86.095166
  0
LINE
  8
CSLAYER1
  6
CONTINUOUS
 62
     6
 10
222.387802
 20
86.095166
 11
222.602104
 21
86.176418
  0
LINE
  8
CSLAYER1
  6
CONTINUOUS
 62
     6
 10
222.602104
 20
86.176418
 11
222.816906
 21
86.254805
  0
LINE
  8
CSLAYER1
  6
CONTINUOUS
 62
     6
 10
222.816906
 20
86.254805
 11
223.032334
 21
86.329612
  0
LINE
  8
CSLAYER1
  6
CONTINUOUS
 62
     6
 10
223.032334
 20
86.329612
 11
223.248511
 21
86.400123
  0
LINE
  8
CSLAYER1
  6
CONTINUOUS
 62
     6
 10
223.248511
 20
86.400123
 11
223.465564
 21
86.465620
  0
LINE
  8
CSLAYER1
  6
CONTINUOUS
 62
     6
 10
223.465564
 20
86.465620
 11
223.683617
 21
86.525388
  0
LINE
  8
CSLAYER1
  6
CONTINUOUS
 62
     6
 10
223.683617
 20
86.525388
 11
223.902796
 21
86.578712
  0
LINE
  8
CSLAYER1
  6
CONTINUOUS
 62
     6
 10
223.902796
 20
86.578712
 11
224.123225
 21
86.624874
  0
LINE
  8
CSLAYER1
  6
CONTINUOUS
 62
     6
 10
224.123225
 20
86.624874
 11
224.482292
 21
86.683893
  0
LINE
  8
CSLAYER1
  6
CONTINUOUS
 62
     6
 10
224.482292
 20
86.683893
 11
224.847840
 21
86.725749
  0
LINE
  8
CSLAYER1
  6
CONTINUOUS
 62
     6
 10
224.847840
 20
86.725749
 11
225.218134
 21
86.751744
  0
LINE
  8
CSLAYER1
  6
CONTINUOUS
 62
     6
 10
225.218134
 20
86.751744
 11
225.591440
 21
86.763181
  0
LINE
  8
CSLAYER1
  6
CONTINUOUS
 62
     6
 10
225.591440
 20
86.763181
 11
225.966023
 21
86.761362
  0
LINE
  8
CSLAYER1
  6
CONTINUOUS
 62
     6
 10
225.966023
 20
86.761362
 11
226.340148
 21
86.747589
  0
LINE
  8
CSLAYER1
  6
CONTINUOUS
 62
     6
 10
226.340148
 20
86.747589
 11
226.712079
 21
86.723164
  0
LINE
  8
CSLAYER1
  6
CONTINUOUS
 62
     6
 10
226.712079
 20
86.723164
 11
227.080084
 21
86.689390
  0
LINE
  8
CSLAYER1
  6
CONTINUOUS
 62
     6
 10
227.080084
 20
86.689390
 11
227.442426
 21
86.647570
  0
LINE
  8
CSLAYER1
  6
CONTINUOUS
 62
     6
 10
227.442426
 20
86.647570
 11
227.797371
 21
86.599004
  0
LINE
  8
CSLAYER1
  6
CONTINUOUS
 62
     6
 10
227.797371
 20
86.599004
 11
228.143185
 21
86.544996
  0
LINE
  8
CSLAYER1
  6
CONTINUOUS
 62
     6
 10
228.143185
 20
86.544996
 11
228.400347
 21
86.504742
  0
LINE
  8
CSLAYER1
  6
CONTINUOUS
 62
     6
 10
228.400347
 20
86.504742
 11
228.665044
 21
86.467317
  0
LINE
  8
CSLAYER1
  6
CONTINUOUS
 62
     6
 10
228.665044
 20
86.467317
 11
228.935588
 21
86.432390
  0
LINE
  8
CSLAYER1
  6
CONTINUOUS
 62
     6
 10
228.935588
 20
86.432390
 11
229.210286
 21
86.399627
  0
LINE
  8
CSLAYER1
  6
CONTINUOUS
 62
     6
 10
229.210286
 20
86.399627
 11
229.487450
 21
86.368697
  0
LINE
  8
CSLAYER1
  6
CONTINUOUS
 62
     6
 10
229.487450
 20
86.368697
 11
229.765389
 21
86.339266
  0
LINE
  8
CSLAYER1
  6
CONTINUOUS
 62
     6
 10
229.765389
 20
86.339266
 11
230.042413
 21
86.311002
  0
LINE
  8
CSLAYER1
  6
CONTINUOUS
 62
     6
 10
230.042413
 20
86.311002
 11
230.316831
 21
86.283573
  0
LINE
  8
CSLAYER1
  6
CONTINUOUS
 62
     6
 10
230.316831
 20
86.283573
 11
230.586954
 21
86.256647
  0
LINE
  8
CSLAYER1
  6
CONTINUOUS
 62
     6
 10
230.586954
 20
86.256647
 11
230.851092
 21
86.229890
  0
LINE
  8
CSLAYER1
  6
CONTINUOUS
 62
     6
 10
230.851092
 20
86.229890
 11
231.107554
 21
86.202970
  0
LINE
  8
CSLAYER1
  6
CONTINUOUS
 62
     6
 10
231.107554
 20
86.202970
 11
231.360903
 21
86.177542
  0
LINE
  8
CSLAYER1
  6
CONTINUOUS
 62
     6
 10
231.360903
 20
86.177542
 11
231.624918
 21
86.154343
  0
LINE
  8
CSLAYER1
  6
CONTINUOUS
 62
     6
 10
231.624918
 20
86.154343
 11
231.896851
 21
86.133263
  0
LINE
  8
CSLAYER1
  6
CONTINUOUS
 62
     6
 10
231.896851
 20
86.133263
 11
232.173954
 21
86.114192
  0
LINE
  8
CSLAYER1
  6
CONTINUOUS
 62
     6
 10
232.173954
 20
86.114192
 11
232.453479
 21
86.097020
  0
LINE
  8
CSLAYER1
  6
CONTINUOUS
 62
     6
 10
232.453479
 20
86.097020
 11
232.732678
 21
86.081639
  0
LINE
  8
CSLAYER1
  6
CONTINUOUS
 62
     6
 10
232.732678
 20
86.081639
 11
233.008804
 21
86.067939
  0
LINE
  8
CSLAYER1
  6
CONTINUOUS
 62
     6
 10
233.008804
 20
86.067939
 11
233.279107
 21
86.055809
  0
LINE
  8
CSLAYER1
  6
CONTINUOUS
 62
     6
 10
233.279107
 20
86.055809
 11
233.540841
 21
86.045141
  0
LINE
  8
CSLAYER1
  6
CONTINUOUS
 62
     6
 10
233.540841
 20
86.045141
 11
233.791258
 21
86.035825
  0
LINE
  8
CSLAYER1
  6
CONTINUOUS
 62
     6
 10
233.791258
 20
86.035825
 11
234.027608
 21
86.027751
  0
LINE
  8
CSLAYER1
  6
CONTINUOUS
 62
     6
 10
233.956439
 20
86.026088
 11
233.822350
 21
86.012369
  0
LINE
  8
CSLAYER1
  6
CONTINUOUS
 62
     6
 10
233.822350
 20
86.012369
 11
233.680273
 21
85.999724
  0
LINE
  8
CSLAYER1
  6
CONTINUOUS
 62
     6
 10
233.680273
 20
85.999724
 11
233.531763
 21
85.988230
  0
LINE
  8
CSLAYER1
  6
CONTINUOUS
 62
     6
 10
233.531763
 20
85.988230
 11
233.378376
 21
85.977970
  0
LINE
  8
CSLAYER1
  6
CONTINUOUS
 62
     6
 10
233.378376
 20
85.977970
 11
233.221667
 21
85.969021
  0
LINE
  8
CSLAYER1
  6
CONTINUOUS
 62
     6
 10
233.221667
 20
85.969021
 11
233.063192
 21
85.961463
  0
LINE
  8
CSLAYER1
  6
CONTINUOUS
 62
     6
 10
233.063192
 20
85.961463
 11
232.904506
 21
85.955376
  0
LINE
  8
CSLAYER1
  6
CONTINUOUS
 62
     6
 10
232.904506
 20
85.955376
 11
232.747165
 21
85.950840
  0
LINE
  8
CSLAYER1
  6
CONTINUOUS
 62
     6
 10
232.747165
 20
85.950840
 11
232.592723
 21
85.947934
  0
LINE
  8
CSLAYER1
  6
CONTINUOUS
 62
     6
 10
232.592723
 20
85.947934
 11
232.442738
 21
85.946738
  0
LINE
  8
CSLAYER1
  6
CONTINUOUS
 62
     6
 10
232.442738
 20
85.946738
 11
232.298764
 21
85.947331
  0
LINE
  8
CSLAYER1
  6
CONTINUOUS
 62
     6
 10
232.298764
 20
85.947331
 11
232.151523
 21
85.950109
  0
LINE
  8
CSLAYER1
  6
CONTINUOUS
 62
     6
 10
232.151523
 20
85.950109
 11
231.999910
 21
85.955227
  0
LINE
  8
CSLAYER1
  6
CONTINUOUS
 62
     6
 10
231.999910
 20
85.955227
 11
231.844864
 21
85.962540
  0
LINE
  8
CSLAYER1
  6
CONTINUOUS
 62
     6
 10
231.844864
 20
85.962540
 11
231.687328
 21
85.971903
  0
LINE
  8
CSLAYER1
  6
CONTINUOUS
 62
     6
 10
231.687328
 20
85.971903
 11
231.528242
 21
85.983171
  0
LINE
  8
CSLAYER1
  6
CONTINUOUS
 62
     6
 10
231.528242
 20
85.983171
 11
231.368547
 21
85.996199
  0
LINE
  8
CSLAYER1
  6
CONTINUOUS
 62
     6
 10
231.368547
 20
85.996199
 11
231.209185
 21
86.010841
  0
LINE
  8
CSLAYER1
  6
CONTINUOUS
 62
     6
 10
231.209185
 20
86.010841
 11
231.051097
 21
86.026953
  0
LINE
  8
CSLAYER1
  6
CONTINUOUS
 62
     6
 10
231.051097
 20
86.026953
 11
230.895223
 21
86.044390
  0
LINE
  8
CSLAYER1
  6
CONTINUOUS
 62
     6
 10
230.895223
 20
86.044390
 11
230.742505
 21
86.063006
  0
LINE
  8
CSLAYER1
  6
CONTINUOUS
 62
     6
 10
230.742505
 20
86.063006
 11
230.593885
 21
86.082657
  0
LINE
  8
CSLAYER1
  6
CONTINUOUS
 62
     6
 10
230.593885
 20
86.082657
 11
230.405336
 21
86.107511
  0
LINE
  8
CSLAYER1
  6
CONTINUOUS
 62
     6
 10
230.405336
 20
86.107511
 11
230.212072
 21
86.131002
  0
LINE
  8
CSLAYER1
  6
CONTINUOUS
 62
     6
 10
230.212072
 20
86.131002
 11
230.015128
 21
86.153219
  0
LINE
  8
CSLAYER1
  6
CONTINUOUS
 62
     6
 10
230.015128
 20
86.153219
 11
229.815538
 21
86.174252
  0
LINE
  8
CSLAYER1
  6
CONTINUOUS
 62
     6
 10
229.815538
 20
86.174252
 11
229.614336
 21
86.194192
  0
LINE
  8
CSLAYER1
  6
CONTINUOUS
 62
     6
 10
229.614336
 20
86.194192
 11
229.412558
 21
86.213129
  0
LINE
  8
CSLAYER1
  6
CONTINUOUS
 62
     6
 10
229.412558
 20
86.213129
 11
229.211237
 21
86.231153
  0
LINE
  8
CSLAYER1
  6
CONTINUOUS
 62
     6
 10
229.211237
 20
86.231153
 11
229.011408
 21
86.248354
  0
LINE
  8
CSLAYER1
  6
CONTINUOUS
 62
     6
 10
229.011408
 20
86.248354
 11
228.814106
 21
86.264821
  0
LINE
  8
CSLAYER1
  6
CONTINUOUS
 62
     6
 10
228.814106
 20
86.264821
 11
228.620366
 21
86.280647
  0
LINE
  8
CSLAYER1
  6
CONTINUOUS
 62
     6
 10
228.620366
 20
86.280647
 11
228.431221
 21
86.295919
  0
LINE
  8
CSLAYER1
  6
CONTINUOUS
 62
     6
 10
228.431221
 20
86.295919
 11
228.179393
 21
86.310679
  0
LINE
  8
CSLAYER1
  6
CONTINUOUS
 62
     6
 10
228.179393
 20
86.310679
 11
227.920280
 21
86.315656
  0
LINE
  8
CSLAYER1
  6
CONTINUOUS
 62
     6
 10
227.920280
 20
86.315656
 11
227.655668
 21
86.311739
  0
LINE
  8
CSLAYER1
  6
CONTINUOUS
 62
     6
 10
227.655668
 20
86.311739
 11
227.387346
 21
86.299820
  0
LINE
  8
CSLAYER1
  6
CONTINUOUS
 62
     6
 10
227.387346
 20
86.299820
 11
227.117101
 21
86.280789
  0
LINE
  8
CSLAYER1
  6
CONTINUOUS
 62
     6
 10
227.117101
 20
86.280789
 11
226.846721
 21
86.255536
  0
LINE
  8
CSLAYER1
  6
CONTINUOUS
 62
     6
 10
226.846721
 20
86.255536
 11
226.577993
 21
86.224952
  0
LINE
  8
CSLAYER1
  6
CONTINUOUS
 62
     6
 10
226.577993
 20
86.224952
 11
226.312704
 21
86.189927
  0
LINE
  8
CSLAYER1
  6
CONTINUOUS
 62
     6
 10
226.312704
 20
86.189927
 11
226.052644
 21
86.151351
  0
LINE
  8
CSLAYER1
  6
CONTINUOUS
 62
     6
 10
226.052644
 20
86.151351
 11
225.799599
 21
86.110116
  0
LINE
  8
CSLAYER1
  6
CONTINUOUS
 62
     6
 10
225.799599
 20
86.110116
 11
225.555356
 21
86.067111
  0
LINE
  8
CSLAYER1
  6
CONTINUOUS
 62
     6
 10
225.555356
 20
86.067111
 11
225.330685
 21
86.021509
  0
LINE
  8
CSLAYER1
  6
CONTINUOUS
 62
     6
 10
225.330685
 20
86.021509
 11
225.102146
 21
85.966152
  0
LINE
  8
CSLAYER1
  6
CONTINUOUS
 62
     6
 10
225.102146
 20
85.966152
 11
224.870779
 21
85.901648
  0
LINE
  8
CSLAYER1
  6
CONTINUOUS
 62
     6
 10
224.870779
 20
85.901648
 11
224.637627
 21
85.828603
  0
LINE
  8
CSLAYER1
  6
CONTINUOUS
 62
     6
 10
224.637627
 20
85.828603
 11
224.403731
 21
85.747624
  0
LINE
  8
CSLAYER1
  6
CONTINUOUS
 62
     6
 10
224.403731
 20
85.747624
 11
224.170132
 21
85.659319
  0
LINE
  8
CSLAYER1
  6
CONTINUOUS
 62
     6
 10
224.170132
 20
85.659319
 11
223.937872
 21
85.564294
  0
LINE
  8
CSLAYER1
  6
CONTINUOUS
 62
     6
 10
223.937872
 20
85.564294
 11
223.707992
 21
85.463157
  0
LINE
  8
CSLAYER1
  6
CONTINUOUS
 62
     6
 10
223.707992
 20
85.463157
 11
223.481533
 21
85.356514
  0
LINE
  8
CSLAYER1
  6
CONTINUOUS
 62
     6
 10
223.481533
 20
85.356514
 11
223.259538
 21
85.244974
  0
LINE
  8
CSLAYER1
  6
CONTINUOUS
 62
     6
 10
223.259538
 20
85.244974
 11
223.043047
 21
85.129143
  0
LINE
  8
CSLAYER1
  6
CONTINUOUS
 62
     6
 10
223.043047
 20
85.129143
 11
222.888331
 21
85.041748
  0
LINE
  8
CSLAYER1
  6
CONTINUOUS
 62
     6
 10
222.888331
 20
85.041748
 11
222.735304
 21
84.951527
  0
LINE
  8
CSLAYER1
  6
CONTINUOUS
 62
     6
 10
222.735304
 20
84.951527
 11
222.583798
 21
84.858763
  0
LINE
  8
CSLAYER1
  6
CONTINUOUS
 62
     6
 10
222.583798
 20
84.858763
 11
222.433642
 21
84.763737
  0
LINE
  8
CSLAYER1
  6
CONTINUOUS
 62
     6
 10
222.433642
 20
84.763737
 11
222.284669
 21
84.666734
  0
LINE
  8
CSLAYER1
  6
CONTINUOUS
 62
     6
 10
222.284669
 20
84.666734
 11
222.136709
 21
84.568034
  0
LINE
  8
CSLAYER1
  6
CONTINUOUS
 62
     6
 10
222.136709
 20
84.568034
 11
221.989594
 21
84.467921
  0
LINE
  8
CSLAYER1
  6
CONTINUOUS
 62
     6
 10
221.989594
 20
84.467921
 11
221.843154
 21
84.366678
  0
LINE
  8
CSLAYER1
  6
CONTINUOUS
 62
     6
 10
221.843154
 20
84.366678
 11
221.697221
 21
84.264587
  0
LINE
  8
CSLAYER1
  6
CONTINUOUS
 62
     6
 10
221.697221
 20
84.264587
 11
221.551626
 21
84.161930
  0
LINE
  8
CSLAYER1
  6
CONTINUOUS
 62
     6
 10
221.551626
 20
84.161930
 11
221.406200
 21
84.058991
  0
ARC
  8
CSLAYER1
  6
CONTINUOUS
 62
     6
 10
222.903933
 20
84.142101
 40
1.500006
 50
183.178280
 51
243.178280
  0
ARC
  8
CSLAYER1
  6
CONTINUOUS
 62
     6
 10
223.724805
 20
82.886639
 40
1.500006
 50
183.178280
 51
243.178280
  0
ARC
  8
CSLAYER1
  6
CONTINUOUS
 62
     6
 10
221.550280
 20
81.464847
 40
1.500006
 50
3.178280
 51
63.178280
  0
LINE
  8
CSLAYER1
  6
CONTINUOUS
 62
     6
 10
223.047942
 20
81.548063
 11
223.168312
 21
81.633812
  0
LINE
  8
CSLAYER1
  6
CONTINUOUS
 62
     6
 10
223.168312
 20
81.633812
 11
223.288833
 21
81.719307
  0
LINE
  8
CSLAYER1
  6
CONTINUOUS
 62
     6
 10
223.288833
 20
81.719307
 11
223.409658
 21
81.804294
  0
LINE
  8
CSLAYER1
  6
CONTINUOUS
 62
     6
 10
223.409658
 20
81.804294
 11
223.530937
 21
81.888520
  0
LINE
  8
CSLAYER1
  6
CONTINUOUS
 62
     6
 10
223.530937
 20
81.888520
 11
223.652823
 21
81.971731
  0
LINE
  8
CSLAYER1
  6
CONTINUOUS
 62
     6
 10
223.652823
 20
81.971731
 11
223.775466
 21
82.053674
  0
LINE
  8
CSLAYER1
  6
CONTINUOUS
 62
     6
 10
223.775466
 20
82.053674
 11
223.899018
 21
82.134094
  0
LINE
  8
CSLAYER1
  6
CONTINUOUS
 62
     6
 10
223.899018
 20
82.134094
 11
224.023631
 21
82.212737
  0
LINE
  8
CSLAYER1
  6
CONTINUOUS
 62
     6
 10
224.023631
 20
82.212737
 11
224.149457
 21
82.289351
  0
LINE
  8
CSLAYER1
  6
CONTINUOUS
 62
     6
 10
224.149457
 20
82.289351
 11
224.276646
 21
82.363681
  0
LINE
  8
CSLAYER1
  6
CONTINUOUS
 62
     6
 10
224.276646
 20
82.363681
 11
224.405351
 21
82.435474
  0
LINE
  8
CSLAYER1
  6
CONTINUOUS
 62
     6
 10
224.405351
 20
82.435474
 11
224.561448
 21
82.517929
  0
LINE
  8
CSLAYER1
  6
CONTINUOUS
 62
     6
 10
224.561448
 20
82.517929
 11
224.721321
 21
82.597510
  0
LINE
  8
CSLAYER1
  6
CONTINUOUS
 62
     6
 10
224.721321
 20
82.597510
 11
224.884250
 21
82.673767
  0
LINE
  8
CSLAYER1
  6
CONTINUOUS
 62
     6
 10
224.884250
 20
82.673767
 11
225.049519
 21
82.746246
  0
LINE
  8
CSLAYER1
  6
CONTINUOUS
 62
     6
 10
225.049519
 20
82.746246
 11
225.216409
 21
82.814495
  0
LINE
  8
CSLAYER1
  6
CONTINUOUS
 62
     6
 10
225.216409
 20
82.814495
 11
225.384201
 21
82.878062
  0
LINE
  8
CSLAYER1
  6
CONTINUOUS
 62
     6
 10
225.384201
 20
82.878062
 11
225.552177
 21
82.936495
  0
LINE
  8
CSLAYER1
  6
CONTINUOUS
 62
     6
 10
225.552177
 20
82.936495
 11
225.719619
 21
82.989342
  0
LINE
  8
CSLAYER1
  6
CONTINUOUS
 62
     6
 10
225.719619
 20
82.989342
 11
225.885809
 21
83.036150
  0
ARC
  8
CSLAYER1
  6
CONTINUOUS
 62
     6
 10
232.885640
 20
86.159085
 40
6.750000
 50
-154.073524
 51
148.329015
  0
LINE
  8
CSLAYER1
  6
CONTINUOUS
 62
     6
 10
225.885661
 20
89.787483
 11
225.885661
 21
102.159123
  0
ARC
  8
CSLAYER1
  6
CONTINUOUS
 62
     6
 10
227.885661
 20
102.159123
 40
2.000000
 50
90.000000
 51
180.000000
  0
ARC
  8
CSLAYER1
  6
CONTINUOUS
 62
     6
 10
238.885658
 20
101.159135
 40
1.527778
 50
163.398416
 51
196.601577
  0
LINE
  8
CSLAYER1
  6
CONTINUOUS
 62
     6
 10
237.421572
 20
100.722622
 11
238.012631
 21
100.722622
  0
ARC
  8
CSLAYER1
  6
CONTINUOUS
 62
     6
 10
238.012631
 20
100.286131
 40
0.436508
 50
0.000005
 51
89.942654
  0
LINE
  8
CSLAYER1
  6
CONTINUOUS
 62
     6
 10
238.449144
 20
100.286131
 11
238.449144
 21
99.695027
  0
ARC
  8
CSLAYER1
  6
CONTINUOUS
 62
     6
 10
238.885658
 20
101.159135
 40
1.527778
 50
253.398422
 51
286.601583
  0
LINE
  8
CSLAYER1
  6
CONTINUOUS
 62
     6
 10
239.322171
 20
99.695027
 11
239.322171
 21
100.286131
  0
ARC
  8
CSLAYER1
  6
CONTINUOUS
 62
     6
 10
239.758684
 20
100.286131
 40
0.436508
 50
90.000001
 51
179.942691
  0
LINE
  8
CSLAYER1
  6
CONTINUOUS
 62
     6
 10
239.758684
 20
100.722622
 11
240.349743
 21
100.722622
  0
ARC
  8
CSLAYER1
  6
CONTINUOUS
 62
     6
 10
238.885658
 20
101.159135
 40
1.527778
 50
-16.601562
 51
16.601572
  0
LINE
  8
CSLAYER1
  6
CONTINUOUS
 62
     6
 10
240.349743
 20
101.595649
 11
239.758684
 21
101.595649
  0
ARC
  8
CSLAYER1
  6
CONTINUOUS
 62
     6
 10
239.758684
 20
102.032139
 40
0.436508
 50
180.000010
 51
270.000016
  0
LINE
  8
CSLAYER1
  6
CONTINUOUS
 62
     6
 10
239.322171
 20
102.032139
 11
239.322171
 21
102.623243
  0
ARC
  8
CSLAYER1
  6
CONTINUOUS
 62
     6
 10
238.885658
 20
101.159135
 40
1.527778
 50
73.398406
 51
106.601595
  0
LINE
  8
CSLAYER1
  6
CONTINUOUS
 62
     6
 10
238.449144
 20
102.623243
 11
238.449144
 21
102.032139
  0
ARC
  8
CSLAYER1
  6
CONTINUOUS
 62
     6
 10
238.012631
 20
102.032139
 40
0.436508
 50
-89.999984
 51
0.000005
  0
LINE
  8
CSLAYER1
  6
CONTINUOUS
 62
     6
 10
238.012631
 20
101.595649
 11
237.421572
 21
101.595649
  0
CIRCLE
  8
CSLAYER1
  6
CONTINUOUS
 62
     6
 10
238.885668
 20
101.159135
 40
2.750000
  0
ARC
  8
CSLAYER1
  6
CONTINUOUS
 62
     6
 10
232.885640
 20
86.159085
 40
4.000000
 50
-129.735526
 51
128.465835
  0
ARC
  8
CSLAYER1
  6
CONTINUOUS
 62
     6
 10
232.885640
 20
86.159085
 40
4.000000
 50
176.007555
 51
178.572301
  0
ARC
  8
CSLAYER1
  6
CONTINUOUS
 62
     6
 10
232.885640
 20
86.159085
 40
6.750000
 50
174.942367
 51
179.961149
  0
LINE
  8
CSLAYER1
  6
CONTINUOUS
 62
     6
 10
225.885633
 20
86.159065
 11
225.885690
 21
86.760418
  0
LINE
  8
CSLAYER1
  6
CONTINUOUS
 62
     6
 10
225.885661
 20
86.761752
 11
225.885661
 21
86.124140
  0
ARC
  8
CSLAYER1
  6
CONTINUOUS
 62
     6
 10
218.200335
 20
84.723428
 40
1.499998
 50
2.735346
 51
62.735346
  0
ARC
  8
CSLAYER1
  6
CONTINUOUS
 62
     6
 10
219.574637
 20
87.390124
 40
1.499998
 50
182.735346
 51
242.735346
  0
ARC
  8
CSLAYER1
  6
CONTINUOUS
 62
     6
 10
217.389197
 20
85.985192
 40
1.499998
 50
2.735346
 51
62.735346
  0
LINE
  8
CSLAYER1
  6
CONTINUOUS
 62
     6
 10
219.572439
 20
84.733695
 11
219.698573
 21
84.794960
  0
LINE
  8
CSLAYER1
  6
CONTINUOUS
 62
     6
 10
219.572439
 20
84.733695
 11
219.441483
 21
84.664415
  0
LINE
  8
CSLAYER1
  6
CONTINUOUS
 62
     6
 10
219.441483
 20
84.664415
 11
219.306952
 21
84.588240
  0
LINE
  8
CSLAYER1
  6
CONTINUOUS
 62
     6
 10
219.306952
 20
84.588240
 11
219.170093
 21
84.506288
  0
LINE
  8
CSLAYER1
  6
CONTINUOUS
 62
     6
 10
219.170093
 20
84.506288
 11
219.032152
 21
84.419677
  0
LINE
  8
CSLAYER1
  6
CONTINUOUS
 62
     6
 10
219.032152
 20
84.419677
 11
218.894376
 21
84.329527
  0
LINE
  8
CSLAYER1
  6
CONTINUOUS
 62
     6
 10
218.894376
 20
84.329527
 11
218.758013
 21
84.236957
  0
LINE
  8
CSLAYER1
  6
CONTINUOUS
 62
     6
 10
218.758013
 20
84.236957
 11
218.624308
 21
84.143084
  0
LINE
  8
CSLAYER1
  6
CONTINUOUS
 62
     6
 10
218.624308
 20
84.143084
 11
218.494508
 21
84.049028
  0
LINE
  8
CSLAYER1
  6
CONTINUOUS
 62
     6
 10
218.494508
 20
84.049028
 11
218.369861
 21
83.955907
  0
LINE
  8
CSLAYER1
  6
CONTINUOUS
 62
     6
 10
218.369861
 20
83.955907
 11
218.251612
 21
83.864840
  0
LINE
  8
CSLAYER1
  6
CONTINUOUS
 62
     6
 10
218.251612
 20
83.864840
 11
218.159430
 21
83.789688
  0
LINE
  8
CSLAYER1
  6
CONTINUOUS
 62
     6
 10
218.159430
 20
83.789688
 11
218.068020
 21
83.709289
  0
LINE
  8
CSLAYER1
  6
CONTINUOUS
 62
     6
 10
218.068020
 20
83.709289
 11
217.977605
 21
83.624185
  0
LINE
  8
CSLAYER1
  6
CONTINUOUS
 62
     6
 10
217.977605
 20
83.624185
 11
217.888408
 21
83.534918
  0
LINE
  8
CSLAYER1
  6
CONTINUOUS
 62
     6
 10
217.888408
 20
83.534918
 11
217.800651
 21
83.442027
  0
LINE
  8
CSLAYER1
  6
CONTINUOUS
 62
     6
 10
217.800651
 20
83.442027
 11
217.714560
 21
83.346055
  0
LINE
  8
CSLAYER1
  6
CONTINUOUS
 62
     6
 10
217.714560
 20
83.346055
 11
217.630356
 21
83.247543
  0
LINE
  8
CSLAYER1
  6
CONTINUOUS
 62
     6
 10
217.630356
 20
83.247543
 11
217.548263
 21
83.147031
  0
LINE
  8
CSLAYER1
  6
CONTINUOUS
 62
     6
 10
217.548263
 20
83.147031
 11
217.468504
 21
83.045062
  0
LINE
  8
CSLAYER1
  6
CONTINUOUS
 62
     6
 10
217.468504
 20
83.045062
 11
217.391302
 21
82.942176
  0
LINE
  8
CSLAYER1
  6
CONTINUOUS
 62
     6
 10
217.391302
 20
82.942176
 11
217.316881
 21
82.838914
  0
LINE
  8
CSLAYER1
  6
CONTINUOUS
 62
     6
 10
217.316881
 20
82.838914
 11
217.223214
 21
82.702568
  0
LINE
  8
CSLAYER1
  6
CONTINUOUS
 62
     6
 10
217.223214
 20
82.702568
 11
217.133038
 21
82.564111
  0
LINE
  8
CSLAYER1
  6
CONTINUOUS
 62
     6
 10
217.133038
 20
82.564111
 11
217.046003
 21
82.423754
  0
LINE
  8
CSLAYER1
  6
CONTINUOUS
 62
     6
 10
217.046003
 20
82.423754
 11
216.961760
 21
82.281708
  0
LINE
  8
CSLAYER1
  6
CONTINUOUS
 62
     6
 10
216.961760
 20
82.281708
 11
216.879961
 21
82.138184
  0
LINE
  8
CSLAYER1
  6
CONTINUOUS
 62
     6
 10
216.879961
 20
82.138184
 11
216.800256
 21
81.993394
  0
LINE
  8
CSLAYER1
  6
CONTINUOUS
 62
     6
 10
216.800256
 20
81.993394
 11
216.722296
 21
81.847548
  0
LINE
  8
CSLAYER1
  6
CONTINUOUS
 62
     6
 10
216.722296
 20
81.847548
 11
216.645732
 21
81.700857
  0
LINE
  8
CSLAYER1
  6
CONTINUOUS
 62
     6
 10
216.645732
 20
81.700857
 11
216.570216
 21
81.553533
  0
LINE
  8
CSLAYER1
  6
CONTINUOUS
 62
     6
 10
216.570216
 20
81.553533
 11
216.495398
 21
81.405787
  0
LINE
  8
CSLAYER1
  6
CONTINUOUS
 62
     6
 10
216.495398
 20
81.405787
 11
216.420928
 21
81.257829
  0
ARC
  8
CSLAYER1
  6
CONTINUOUS
 62
     6
 10
216.408857
 20
82.757824
 40
1.499998
 50
210.461270
 51
270.461270
  0
ARC
  8
CSLAYER1
  6
CONTINUOUS
 62
     6
 10
215.127977
 20
80.497442
 40
1.499998
 50
30.461270
 51
90.461270
  0
LINE
  8
CSLAYER1
  6
CONTINUOUS
 62
     6
 10
215.532986
 20
81.540103
 11
214.655258
 21
78.312225
  0
LINE
  8
CSLAYER1
  6
CONTINUOUS
 62
     6
 10
213.791569
 20
78.600110
 11
214.957026
 21
82.004543
  0
ARC
  8
CSLAYER1
  6
CONTINUOUS
 62
     6
 10
215.103825
 20
83.497341
 40
1.499998
 50
210.461270
 51
270.461270
  0
LINE
  8
CSLAYER1
  6
CONTINUOUS
 62
     6
 10
213.810844
 20
82.736903
 11
213.900149
 21
82.911477
  0
LINE
  8
CSLAYER1
  6
CONTINUOUS
 62
     6
 10
213.900149
 20
82.911477
 11
213.989815
 21
83.085839
  0
LINE
  8
CSLAYER1
  6
CONTINUOUS
 62
     6
 10
213.989815
 20
83.085839
 11
214.080203
 21
83.259778
  0
LINE
  8
CSLAYER1
  6
CONTINUOUS
 62
     6
 10
214.080203
 20
83.259778
 11
214.171676
 21
83.433081
  0
LINE
  8
CSLAYER1
  6
CONTINUOUS
 62
     6
 10
214.171676
 20
83.433081
 11
214.264594
 21
83.605538
  0
LINE
  8
CSLAYER1
  6
CONTINUOUS
 62
     6
 10
214.264594
 20
83.605538
 11
214.359319
 21
83.776935
  0
LINE
  8
CSLAYER1
  6
CONTINUOUS
 62
     6
 10
214.359319
 20
83.776935
 11
214.456213
 21
83.947062
  0
LINE
  8
CSLAYER1
  6
CONTINUOUS
 62
     6
 10
214.456213
 20
83.947062
 11
214.555635
 21
84.115707
  0
LINE
  8
CSLAYER1
  6
CONTINUOUS
 62
     6
 10
214.555635
 20
84.115707
 11
214.657949
 21
84.282658
  0
LINE
  8
CSLAYER1
  6
CONTINUOUS
 62
     6
 10
214.657949
 20
84.282658
 11
214.763515
 21
84.447703
  0
LINE
  8
CSLAYER1
  6
CONTINUOUS
 62
     6
 10
214.763515
 20
84.447703
 11
214.872695
 21
84.610630
  0
LINE
  8
CSLAYER1
  6
CONTINUOUS
 62
     6
 10
214.872695
 20
84.610630
 11
214.984395
 21
84.769617
  0
LINE
  8
CSLAYER1
  6
CONTINUOUS
 62
     6
 10
214.984395
 20
84.769617
 11
215.100786
 21
84.927866
  0
LINE
  8
CSLAYER1
  6
CONTINUOUS
 62
     6
 10
215.100786
 20
84.927866
 11
215.221499
 21
85.084509
  0
LINE
  8
CSLAYER1
  6
CONTINUOUS
 62
     6
 10
215.221499
 20
85.084509
 11
215.346167
 21
85.238679
  0
LINE
  8
CSLAYER1
  6
CONTINUOUS
 62
     6
 10
215.346167
 20
85.238679
 11
215.474422
 21
85.389509
  0
LINE
  8
CSLAYER1
  6
CONTINUOUS
 62
     6
 10
215.474422
 20
85.389509
 11
215.605895
 21
85.536132
  0
LINE
  8
CSLAYER1
  6
CONTINUOUS
 62
     6
 10
215.605895
 20
85.536132
 11
215.740220
 21
85.677681
  0
LINE
  8
CSLAYER1
  6
CONTINUOUS
 62
     6
 10
215.740220
 20
85.677681
 11
215.877028
 21
85.813289
  0
LINE
  8
CSLAYER1
  6
CONTINUOUS
 62
     6
 10
215.877028
 20
85.813289
 11
216.015951
 21
85.942088
  0
LINE
  8
CSLAYER1
  6
CONTINUOUS
 62
     6
 10
216.015951
 20
85.942088
 11
216.156622
 21
86.063211
  0
LINE
  8
CSLAYER1
  6
CONTINUOUS
 62
     6
 10
216.156622
 20
86.063211
 11
216.298672
 21
86.175792
  0
LINE
  8
CSLAYER1
  6
CONTINUOUS
 62
     6
 10
216.298672
 20
86.175792
 11
216.445123
 21
86.285499
  0
LINE
  8
CSLAYER1
  6
CONTINUOUS
 62
     6
 10
216.445123
 20
86.285499
 11
216.598847
 21
86.398093
  0
LINE
  8
CSLAYER1
  6
CONTINUOUS
 62
     6
 10
216.598847
 20
86.398093
 11
216.758431
 21
86.512226
  0
LINE
  8
CSLAYER1
  6
CONTINUOUS
 62
     6
 10
216.758431
 20
86.512226
 11
216.922459
 21
86.626546
  0
LINE
  8
CSLAYER1
  6
CONTINUOUS
 62
     6
 10
216.922459
 20
86.626546
 11
217.089517
 21
86.739703
  0
LINE
  8
CSLAYER1
  6
CONTINUOUS
 62
     6
 10
217.089517
 20
86.739703
 11
217.258190
 21
86.850346
  0
LINE
  8
CSLAYER1
  6
CONTINUOUS
 62
     6
 10
217.258190
 20
86.850346
 11
217.427064
 21
86.957126
  0
LINE
  8
CSLAYER1
  6
CONTINUOUS
 62
     6
 10
217.427064
 20
86.957126
 11
217.594723
 21
87.058692
  0
LINE
  8
CSLAYER1
  6
CONTINUOUS
 62
     6
 10
217.594723
 20
87.058692
 11
217.759754
 21
87.153693
  0
LINE
  8
CSLAYER1
  6
CONTINUOUS
 62
     6
 10
217.759754
 20
87.153693
 11
217.920741
 21
87.240779
  0
LINE
  8
CSLAYER1
  6
CONTINUOUS
 62
     6
 10
217.920741
 20
87.240779
 11
218.076271
 21
87.318600
  0
LINE
  8
CSLAYER1
  6
CONTINUOUS
 62
     6
 10
219.885661
 20
90.159123
 11
206.357797
 21
90.159123
  0
LINE
  8
CSLAYER1
  6
CONTINUOUS
 62
     6
 10
201.733500
 20
87.823613
 11
201.625706
 21
87.766290
  0
LINE
  8
CSLAYER1
  6
CONTINUOUS
 62
     6
 10
201.625706
 20
87.766290
 11
201.511521
 21
87.706021
  0
LINE
  8
CSLAYER1
  6
CONTINUOUS
 62
     6
 10
201.511521
 20
87.706021
 11
201.392092
 21
87.643524
  0
LINE
  8
CSLAYER1
  6
CONTINUOUS
 62
     6
 10
201.392092
 20
87.643524
 11
201.268568
 21
87.579519
  0
LINE
  8
CSLAYER1
  6
CONTINUOUS
 62
     6
 10
201.268568
 20
87.579519
 11
201.142097
 21
87.514725
  0
LINE
  8
CSLAYER1
  6
CONTINUOUS
 62
     6
 10
201.142097
 20
87.514725
 11
201.013828
 21
87.449860
  0
LINE
  8
CSLAYER1
  6
CONTINUOUS
 62
     6
 10
201.013828
 20
87.449860
 11
200.884909
 21
87.385645
  0
LINE
  8
CSLAYER1
  6
CONTINUOUS
 62
     6
 10
200.884909
 20
87.385645
 11
200.756487
 21
87.322799
  0
LINE
  8
CSLAYER1
  6
CONTINUOUS
 62
     6
 10
200.756487
 20
87.322799
 11
200.629712
 21
87.262040
  0
LINE
  8
CSLAYER1
  6
CONTINUOUS
 62
     6
 10
200.629712
 20
87.262040
 11
200.505731
 21
87.204089
  0
LINE
  8
CSLAYER1
  6
CONTINUOUS
 62
     6
 10
200.505731
 20
87.204089
 11
200.385692
 21
87.149663
  0
LINE
  8
CSLAYER1
  6
CONTINUOUS
 62
     6
 10
200.385692
 20
87.149663
 11
200.257845
 21
87.092436
  0
LINE
  8
CSLAYER1
  6
CONTINUOUS
 62
     6
 10
200.257845
 20
87.092436
 11
200.126714
 21
87.033364
  0
LINE
  8
CSLAYER1
  6
CONTINUOUS
 62
     6
 10
200.126714
 20
87.033364
 11
199.992945
 21
86.972991
  0
LINE
  8
CSLAYER1
  6
CONTINUOUS
 62
     6
 10
199.992945
 20
86.972991
 11
199.857184
 21
86.911861
  0
LINE
  8
CSLAYER1
  6
CONTINUOUS
 62
     6
 10
199.857184
 20
86.911861
 11
199.720077
 21
86.850518
  0
LINE
  8
CSLAYER1
  6
CONTINUOUS
 62
     6
 10
199.720077
 20
86.850518
 11
199.582269
 21
86.789506
  0
LINE
  8
CSLAYER1
  6
CONTINUOUS
 62
     6
 10
199.582269
 20
86.789506
 11
199.444406
 21
86.729370
  0
LINE
  8
CSLAYER1
  6
CONTINUOUS
 62
     6
 10
199.444406
 20
86.729370
 11
199.307133
 21
86.670653
  0
LINE
  8
CSLAYER1
  6
CONTINUOUS
 62
     6
 10
199.307133
 20
86.670653
 11
199.171096
 21
86.613899
  0
LINE
  8
CSLAYER1
  6
CONTINUOUS
 62
     6
 10
199.171096
 20
86.613899
 11
199.036942
 21
86.559653
  0
LINE
  8
CSLAYER1
  6
CONTINUOUS
 62
     6
 10
199.036942
 20
86.559653
 11
198.905314
 21
86.508458
  0
LINE
  8
CSLAYER1
  6
CONTINUOUS
 62
     6
 10
198.905314
 20
86.508458
 11
198.703524
 21
86.429791
  0
LINE
  8
CSLAYER1
  6
CONTINUOUS
 62
     6
 10
198.703524
 20
86.429791
 11
198.498821
 21
86.345690
  0
LINE
  8
CSLAYER1
  6
CONTINUOUS
 62
     6
 10
198.498821
 20
86.345690
 11
198.292476
 21
86.255961
  0
LINE
  8
CSLAYER1
  6
CONTINUOUS
 62
     6
 10
198.292476
 20
86.255961
 11
198.085760
 21
86.160410
  0
LINE
  8
CSLAYER1
  6
CONTINUOUS
 62
     6
 10
198.085760
 20
86.160410
 11
197.879944
 21
86.058846
  0
LINE
  8
CSLAYER1
  6
CONTINUOUS
 62
     6
 10
197.879944
 20
86.058846
 11
197.676297
 21
85.951073
  0
LINE
  8
CSLAYER1
  6
CONTINUOUS
 62
     6
 10
197.676297
 20
85.951073
 11
197.476092
 21
85.836899
  0
LINE
  8
CSLAYER1
  6
CONTINUOUS
 62
     6
 10
197.476092
 20
85.836899
 11
197.280597
 21
85.716130
  0
LINE
  8
CSLAYER1
  6
CONTINUOUS
 62
     6
 10
197.280597
 20
85.716130
 11
197.091085
 21
85.588573
  0
LINE
  8
CSLAYER1
  6
CONTINUOUS
 62
     6
 10
197.091085
 20
85.588573
 11
196.908824
 21
85.454034
  0
LINE
  8
CSLAYER1
  6
CONTINUOUS
 62
     6
 10
196.908824
 20
85.454034
 11
196.735087
 21
85.312321
  0
LINE
  8
CSLAYER1
  6
CONTINUOUS
 62
     6
 10
196.735087
 20
85.312321
 11
196.627701
 21
85.216652
  0
LINE
  8
CSLAYER1
  6
CONTINUOUS
 62
     6
 10
196.627701
 20
85.216652
 11
196.523358
 21
85.117355
  0
LINE
  8
CSLAYER1
  6
CONTINUOUS
 62
     6
 10
196.523358
 20
85.117355
 11
196.421752
 21
85.014794
  0
LINE
  8
CSLAYER1
  6
CONTINUOUS
 62
     6
 10
196.421752
 20
85.014794
 11
196.322580
 21
84.909331
  0
LINE
  8
CSLAYER1
  6
CONTINUOUS
 62
     6
 10
196.322580
 20
84.909331
 11
196.225538
 21
84.801328
  0
LINE
  8
CSLAYER1
  6
CONTINUOUS
 62
     6
 10
196.225538
 20
84.801328
 11
196.130321
 21
84.691149
  0
LINE
  8
CSLAYER1
  6
CONTINUOUS
 62
     6
 10
196.130321
 20
84.691149
 11
196.036626
 21
84.579157
  0
LINE
  8
CSLAYER1
  6
CONTINUOUS
 62
     6
 10
196.036626
 20
84.579157
 11
195.944147
 21
84.465714
  0
LINE
  8
CSLAYER1
  6
CONTINUOUS
 62
     6
 10
195.944147
 20
84.465714
 11
195.852581
 21
84.351182
  0
LINE
  8
CSLAYER1
  6
CONTINUOUS
 62
     6
 10
195.852581
 20
84.351182
 11
195.761623
 21
84.235925
  0
LINE
  8
CSLAYER1
  6
CONTINUOUS
 62
     6
 10
195.761623
 20
84.235925
 11
195.670970
 21
84.120305
  0
ARC
  8
CSLAYER1
  6
CONTINUOUS
 62
     6
 10
196.426029
 20
84.369213
 40
0.794997
 50
198.245911
 51
258.245911
  0
ARC
  8
CSLAYER1
  6
CONTINUOUS
 62
     6
 10
196.102129
 20
82.812559
 40
0.794997
 50
18.245911
 51
78.245911
  0
ARC
  8
CSLAYER1
  6
CONTINUOUS
 62
     6
 10
197.019105
 20
83.839796
 40
0.794997
 50
198.245911
 51
258.245911
  0
ARC
  8
CSLAYER1
  6
CONTINUOUS
 62
     6
 10
201.885661
 20
86.159123
 40
6.000000
 50
210.631356
 51
219.545929
  0
LINE
  8
CSLAYER1
  6
CONTINUOUS
 62
     6
 10
197.252292
 20
82.324630
 11
197.292221
 21
82.410161
  0
LINE
  8
CSLAYER1
  6
CONTINUOUS
 62
     6
 10
197.292221
 20
82.410161
 11
197.332606
 21
82.495438
  0
LINE
  8
CSLAYER1
  6
CONTINUOUS
 62
     6
 10
197.332606
 20
82.495438
 11
197.373601
 21
82.580374
  0
LINE
  8
CSLAYER1
  6
CONTINUOUS
 62
     6
 10
197.373601
 20
82.580374
 11
197.415358
 21
82.664886
  0
LINE
  8
CSLAYER1
  6
CONTINUOUS
 62
     6
 10
197.415358
 20
82.664886
 11
197.458030
 21
82.748888
  0
LINE
  8
CSLAYER1
  6
CONTINUOUS
 62
     6
 10
197.458030
 20
82.748888
 11
197.501769
 21
82.832295
  0
LINE
  8
CSLAYER1
  6
CONTINUOUS
 62
     6
 10
197.501769
 20
82.832295
 11
197.546727
 21
82.915023
  0
LINE
  8
CSLAYER1
  6
CONTINUOUS
 62
     6
 10
197.546727
 20
82.915023
 11
197.593056
 21
82.996986
  0
LINE
  8
CSLAYER1
  6
CONTINUOUS
 62
     6
 10
197.593056
 20
82.996986
 11
197.640910
 21
83.078099
  0
LINE
  8
CSLAYER1
  6
CONTINUOUS
 62
     6
 10
197.640910
 20
83.078099
 11
197.709583
 21
83.188635
  0
LINE
  8
CSLAYER1
  6
CONTINUOUS
 62
     6
 10
197.709583
 20
83.188635
 11
197.781919
 21
83.298660
  0
LINE
  8
CSLAYER1
  6
CONTINUOUS
 62
     6
 10
197.781919
 20
83.298660
 11
197.857602
 21
83.407620
  0
LINE
  8
CSLAYER1
  6
CONTINUOUS
 62
     6
 10
197.857602
 20
83.407620
 11
197.936314
 21
83.514959
  0
LINE
  8
CSLAYER1
  6
CONTINUOUS
 62
     6
 10
197.936314
 20
83.514959
 11
198.017739
 21
83.620124
  0
LINE
  8
CSLAYER1
  6
CONTINUOUS
 62
     6
 10
198.017739
 20
83.620124
 11
198.101558
 21
83.722559
  0
LINE
  8
CSLAYER1
  6
CONTINUOUS
 62
     6
 10
198.101558
 20
83.722559
 11
198.187455
 21
83.821710
  0
LINE
  8
CSLAYER1
  6
CONTINUOUS
 62
     6
 10
198.187455
 20
83.821710
 11
198.275114
 21
83.917023
  0
LINE
  8
CSLAYER1
  6
CONTINUOUS
 62
     6
 10
198.275114
 20
83.917023
 11
198.364216
 21
84.007942
  0
LINE
  8
CSLAYER1
  6
CONTINUOUS
 62
     6
 10
198.364216
 20
84.007942
 11
198.454444
 21
84.093913
  0
LINE
  8
CSLAYER1
  6
CONTINUOUS
 62
     6
 10
198.454444
 20
84.093913
 11
198.545482
 21
84.174382
  0
LINE
  8
CSLAYER1
  6
CONTINUOUS
 62
     6
 10
198.545482
 20
84.174382
 11
198.646192
 21
84.258845
  0
LINE
  8
CSLAYER1
  6
CONTINUOUS
 62
     6
 10
198.646192
 20
84.258845
 11
198.751410
 21
84.344829
  0
LINE
  8
CSLAYER1
  6
CONTINUOUS
 62
     6
 10
198.751410
 20
84.344829
 11
198.860554
 21
84.431451
  0
LINE
  8
CSLAYER1
  6
CONTINUOUS
 62
     6
 10
198.860554
 20
84.431451
 11
198.973038
 21
84.517829
  0
LINE
  8
CSLAYER1
  6
CONTINUOUS
 62
     6
 10
198.973038
 20
84.517829
 11
199.088277
 21
84.603080
  0
LINE
  8
CSLAYER1
  6
CONTINUOUS
 62
     6
 10
199.088277
 20
84.603080
 11
199.205688
 21
84.686321
  0
LINE
  8
CSLAYER1
  6
CONTINUOUS
 62
     6
 10
199.205688
 20
84.686321
 11
199.324686
 21
84.766671
  0
LINE
  8
CSLAYER1
  6
CONTINUOUS
 62
     6
 10
199.324686
 20
84.766671
 11
199.444685
 21
84.843247
  0
LINE
  8
CSLAYER1
  6
CONTINUOUS
 62
     6
 10
199.444685
 20
84.843247
 11
199.565102
 21
84.915167
  0
LINE
  8
CSLAYER1
  6
CONTINUOUS
 62
     6
 10
199.565102
 20
84.915167
 11
199.685353
 21
84.981548
  0
LINE
  8
CSLAYER1
  6
CONTINUOUS
 62
     6
 10
199.685353
 20
84.981548
 11
199.804851
 21
85.041508
  0
LINE
  8
CSLAYER1
  6
CONTINUOUS
 62
     6
 10
199.804851
 20
85.041508
 11
199.895715
 21
85.084621
  0
LINE
  8
CSLAYER1
  6
CONTINUOUS
 62
     6
 10
199.895715
 20
85.084621
 11
199.988834
 21
85.128699
  0
LINE
  8
CSLAYER1
  6
CONTINUOUS
 62
     6
 10
199.988834
 20
85.128699
 11
200.083758
 21
85.173425
  0
LINE
  8
CSLAYER1
  6
CONTINUOUS
 62
     6
 10
200.083758
 20
85.173425
 11
200.180036
 21
85.218485
  0
LINE
  8
CSLAYER1
  6
CONTINUOUS
 62
     6
 10
200.180036
 20
85.218485
 11
200.277218
 21
85.263562
  0
LINE
  8
CSLAYER1
  6
CONTINUOUS
 62
     6
 10
200.277218
 20
85.263562
 11
200.374851
 21
85.308341
  0
LINE
  8
CSLAYER1
  6
CONTINUOUS
 62
     6
 10
200.374851
 20
85.308341
 11
200.472485
 21
85.352507
  0
LINE
  8
CSLAYER1
  6
CONTINUOUS
 62
     6
 10
200.472485
 20
85.352507
 11
200.569670
 21
85.395745
  0
LINE
  8
CSLAYER1
  6
CONTINUOUS
 62
     6
 10
200.569670
 20
85.395745
 11
200.665953
 21
85.437738
  0
LINE
  8
CSLAYER1
  6
CONTINUOUS
 62
     6
 10
200.665953
 20
85.437738
 11
200.760885
 21
85.478170
  0
LINE
  8
CSLAYER1
  6
CONTINUOUS
 62
     6
 10
200.760885
 20
85.478170
 11
200.854014
 21
85.516728
  0
LINE
  8
CSLAYER1
  6
CONTINUOUS
 62
     6
 10
200.854014
 20
85.516728
 11
200.927438
 21
85.547093
  0
LINE
  8
CSLAYER1
  6
CONTINUOUS
 62
     6
 10
200.927438
 20
85.547093
 11
201.002467
 21
85.579018
  0
LINE
  8
CSLAYER1
  6
CONTINUOUS
 62
     6
 10
201.002467
 20
85.579018
 11
201.078633
 21
85.612321
  0
LINE
  8
CSLAYER1
  6
CONTINUOUS
 62
     6
 10
201.078633
 20
85.612321
 11
201.155464
 21
85.646819
  0
LINE
  8
CSLAYER1
  6
CONTINUOUS
 62
     6
 10
201.155464
 20
85.646819
 11
201.232491
 21
85.682329
  0
LINE
  8
CSLAYER1
  6
CONTINUOUS
 62
     6
 10
201.232491
 20
85.682329
 11
201.309242
 21
85.718669
  0
LINE
  8
CSLAYER1
  6
CONTINUOUS
 62
     6
 10
201.309242
 20
85.718669
 11
201.385247
 21
85.755655
  0
LINE
  8
CSLAYER1
  6
CONTINUOUS
 62
     6
 10
201.385247
 20
85.755655
 11
201.460036
 21
85.793105
  0
LINE
  8
CSLAYER1
  6
CONTINUOUS
 62
     6
 10
201.460036
 20
85.793105
 11
201.533139
 21
85.830835
  0
LINE
  8
CSLAYER1
  6
CONTINUOUS
 62
     6
 10
201.533139
 20
85.830835
 11
201.604085
 21
85.868663
  0
LINE
  8
CSLAYER1
  6
CONTINUOUS
 62
     6
 10
201.604085
 20
85.868663
 11
201.672404
 21
85.906407
  0
LINE
  8
CSLAYER1
  6
CONTINUOUS
 62
     6
 10
201.672404
 20
85.906407
 11
201.738644
 21
85.944288
  0
LINE
  8
CSLAYER1
  6
CONTINUOUS
 62
     6
 10
201.738644
 20
85.944288
 11
201.807170
 21
85.984583
  0
LINE
  8
CSLAYER1
  6
CONTINUOUS
 62
     6
 10
201.807170
 20
85.984583
 11
201.877287
 21
86.026844
  0
LINE
  8
CSLAYER1
  6
CONTINUOUS
 62
     6
 10
201.877287
 20
86.026844
 11
201.948304
 21
86.070621
  0
LINE
  8
CSLAYER1
  6
CONTINUOUS
 62
     6
 10
201.948304
 20
86.070621
 11
202.019527
 21
86.115467
  0
LINE
  8
CSLAYER1
  6
CONTINUOUS
 62
     6
 10
202.019527
 20
86.115467
 11
202.090263
 21
86.160932
  0
LINE
  8
CSLAYER1
  6
CONTINUOUS
 62
     6
 10
202.090263
 20
86.160932
 11
202.159820
 21
86.206567
  0
LINE
  8
CSLAYER1
  6
CONTINUOUS
 62
     6
 10
202.159820
 20
86.206567
 11
202.227504
 21
86.251924
  0
LINE
  8
CSLAYER1
  6
CONTINUOUS
 62
     6
 10
202.227504
 20
86.251924
 11
202.292624
 21
86.296555
  0
LINE
  8
CSLAYER1
  6
CONTINUOUS
 62
     6
 10
202.292624
 20
86.296555
 11
202.354485
 21
86.340010
  0
LINE
  8
CSLAYER1
  6
CONTINUOUS
 62
     6
 10
202.354485
 20
86.340010
 11
202.412395
 21
86.381840
  0
ARC
  8
CSLAYER1
  6
CONTINUOUS
 62
     6
 10
202.858195
 20
85.722813
 40
0.795000
 50
-58.640300
 51
121.359720
  0
LINE
  8
CSLAYER1
  6
CONTINUOUS
 62
     6
 10
203.271831
 20
85.044133
 11
203.207167
 21
84.997474
  0
LINE
  8
CSLAYER1
  6
CONTINUOUS
 62
     6
 10
203.207167
 20
84.997474
 11
203.138034
 21
84.948971
  0
LINE
  8
CSLAYER1
  6
CONTINUOUS
 62
     6
 10
203.138034
 20
84.948971
 11
203.065234
 21
84.899138
  0
LINE
  8
CSLAYER1
  6
CONTINUOUS
 62
     6
 10
203.065234
 20
84.899138
 11
202.989567
 21
84.848489
  0
LINE
  8
CSLAYER1
  6
CONTINUOUS
 62
     6
 10
202.989567
 20
84.848489
 11
202.911836
 21
84.797536
  0
LINE
  8
CSLAYER1
  6
CONTINUOUS
 62
     6
 10
202.911836
 20
84.797536
 11
202.832840
 21
84.746793
  0
LINE
  8
CSLAYER1
  6
CONTINUOUS
 62
     6
 10
202.832840
 20
84.746793
 11
202.753381
 21
84.696773
  0
LINE
  8
CSLAYER1
  6
CONTINUOUS
 62
     6
 10
202.753381
 20
84.696773
 11
202.674261
 21
84.647990
  0
LINE
  8
CSLAYER1
  6
CONTINUOUS
 62
     6
 10
202.674261
 20
84.647990
 11
202.596280
 21
84.600957
  0
LINE
  8
CSLAYER1
  6
CONTINUOUS
 62
     6
 10
202.596280
 20
84.600957
 11
202.520239
 21
84.556188
  0
LINE
  8
CSLAYER1
  6
CONTINUOUS
 62
     6
 10
202.520239
 20
84.556188
 11
202.446940
 21
84.514195
  0
LINE
  8
CSLAYER1
  6
CONTINUOUS
 62
     6
 10
202.446940
 20
84.514195
 11
202.370361
 21
84.471778
  0
LINE
  8
CSLAYER1
  6
CONTINUOUS
 62
     6
 10
202.370361
 20
84.471778
 11
202.290501
 21
84.429046
  0
LINE
  8
CSLAYER1
  6
CONTINUOUS
 62
     6
 10
202.290501
 20
84.429046
 11
202.207964
 21
84.386267
  0
LINE
  8
CSLAYER1
  6
CONTINUOUS
 62
     6
 10
202.207964
 20
84.386267
 11
202.123353
 21
84.343709
  0
LINE
  8
CSLAYER1
  6
CONTINUOUS
 62
     6
 10
202.123353
 20
84.343709
 11
202.037272
 21
84.301642
  0
LINE
  8
CSLAYER1
  6
CONTINUOUS
 62
     6
 10
202.037272
 20
84.301642
 11
201.950325
 21
84.260334
  0
LINE
  8
CSLAYER1
  6
CONTINUOUS
 62
     6
 10
201.950325
 20
84.260334
 11
201.863115
 21
84.220054
  0
LINE
  8
CSLAYER1
  6
CONTINUOUS
 62
     6
 10
201.863115
 20
84.220054
 11
201.776246
 21
84.181070
  0
LINE
  8
CSLAYER1
  6
CONTINUOUS
 62
     6
 10
201.776246
 20
84.181070
 11
201.690322
 21
84.143653
  0
LINE
  8
CSLAYER1
  6
CONTINUOUS
 62
     6
 10
201.690322
 20
84.143653
 11
201.605947
 21
84.108069
  0
LINE
  8
CSLAYER1
  6
CONTINUOUS
 62
     6
 10
201.605947
 20
84.108069
 11
201.523723
 21
84.074589
  0
LINE
  8
CSLAYER1
  6
CONTINUOUS
 62
     6
 10
201.523723
 20
84.074589
 11
201.441448
 21
84.041045
  0
LINE
  8
CSLAYER1
  6
CONTINUOUS
 62
     6
 10
201.441448
 20
84.041045
 11
201.357247
 21
84.005488
  0
LINE
  8
CSLAYER1
  6
CONTINUOUS
 62
     6
 10
201.357247
 20
84.005488
 11
201.271587
 21
83.968262
  0
LINE
  8
CSLAYER1
  6
CONTINUOUS
 62
     6
 10
201.271587
 20
83.968262
 11
201.184935
 21
83.929709
  0
LINE
  8
CSLAYER1
  6
CONTINUOUS
 62
     6
 10
201.184935
 20
83.929709
 11
201.097760
 21
83.890174
  0
LINE
  8
CSLAYER1
  6
CONTINUOUS
 62
     6
 10
201.097760
 20
83.890174
 11
201.010528
 21
83.849999
  0
LINE
  8
CSLAYER1
  6
CONTINUOUS
 62
     6
 10
201.010528
 20
83.849999
 11
200.923708
 21
83.809529
  0
LINE
  8
CSLAYER1
  6
CONTINUOUS
 62
     6
 10
200.923708
 20
83.809529
 11
200.837766
 21
83.769105
  0
LINE
  8
CSLAYER1
  6
CONTINUOUS
 62
     6
 10
200.837766
 20
83.769105
 11
200.753170
 21
83.729073
  0
LINE
  8
CSLAYER1
  6
CONTINUOUS
 62
     6
 10
200.753170
 20
83.729073
 11
200.589885
 21
83.651555
  0
LINE
  8
CSLAYER1
  6
CONTINUOUS
 62
     6
 10
200.589885
 20
83.651555
 11
200.499327
 21
83.606168
  0
LINE
  8
CSLAYER1
  6
CONTINUOUS
 62
     6
 10
200.499327
 20
83.606168
 11
200.407984
 21
83.555833
  0
LINE
  8
CSLAYER1
  6
CONTINUOUS
 62
     6
 10
200.407984
 20
83.555833
 11
200.316341
 21
83.501222
  0
LINE
  8
CSLAYER1
  6
CONTINUOUS
 62
     6
 10
200.316341
 20
83.501222
 11
200.224880
 21
83.443005
  0
LINE
  8
CSLAYER1
  6
CONTINUOUS
 62
     6
 10
200.224880
 20
83.443005
 11
200.134084
 21
83.381854
  0
LINE
  8
CSLAYER1
  6
CONTINUOUS
 62
     6
 10
200.134084
 20
83.381854
 11
200.044437
 21
83.318439
  0
LINE
  8
CSLAYER1
  6
CONTINUOUS
 62
     6
 10
200.044437
 20
83.318439
 11
199.956422
 21
83.253433
  0
LINE
  8
CSLAYER1
  6
CONTINUOUS
 62
     6
 10
199.956422
 20
83.253433
 11
199.870523
 21
83.187505
  0
LINE
  8
CSLAYER1
  6
CONTINUOUS
 62
     6
 10
199.870523
 20
83.187505
 11
199.787223
 21
83.121328
  0
LINE
  8
CSLAYER1
  6
CONTINUOUS
 62
     6
 10
199.787223
 20
83.121328
 11
199.707004
 21
83.055573
  0
LINE
  8
CSLAYER1
  6
CONTINUOUS
 62
     6
 10
199.707004
 20
83.055573
 11
199.630351
 21
82.990910
  0
LINE
  8
CSLAYER1
  6
CONTINUOUS
 62
     6
 10
199.630351
 20
82.990910
 11
199.565054
 21
82.932785
  0
LINE
  8
CSLAYER1
  6
CONTINUOUS
 62
     6
 10
199.565054
 20
82.932785
 11
199.500363
 21
82.870761
  0
LINE
  8
CSLAYER1
  6
CONTINUOUS
 62
     6
 10
199.500363
 20
82.870761
 11
199.436487
 21
82.805236
  0
LINE
  8
CSLAYER1
  6
CONTINUOUS
 62
     6
 10
199.436487
 20
82.805236
 11
199.373636
 21
82.736607
  0
LINE
  8
CSLAYER1
  6
CONTINUOUS
 62
     6
 10
199.373636
 20
82.736607
 11
199.312021
 21
82.665273
  0
LINE
  8
CSLAYER1
  6
CONTINUOUS
 62
     6
 10
199.312021
 20
82.665273
 11
199.251851
 21
82.591631
  0
LINE
  8
CSLAYER1
  6
CONTINUOUS
 62
     6
 10
199.251851
 20
82.591631
 11
199.193336
 21
82.516080
  0
LINE
  8
CSLAYER1
  6
CONTINUOUS
 62
     6
 10
199.193336
 20
82.516080
 11
199.136685
 21
82.439016
  0
LINE
  8
CSLAYER1
  6
CONTINUOUS
 62
     6
 10
199.136685
 20
82.439016
 11
199.082110
 21
82.360839
  0
LINE
  8
CSLAYER1
  6
CONTINUOUS
 62
     6
 10
199.082110
 20
82.360839
 11
199.029818
 21
82.281945
  0
LINE
  8
CSLAYER1
  6
CONTINUOUS
 62
     6
 10
199.029818
 20
82.281945
 11
198.980021
 21
82.202733
  0
LINE
  8
CSLAYER1
  6
CONTINUOUS
 62
     6
 10
198.980021
 20
82.202733
 11
198.939972
 21
82.135674
  0
LINE
  8
CSLAYER1
  6
CONTINUOUS
 62
     6
 10
198.939972
 20
82.135674
 11
198.901290
 21
82.067852
  0
LINE
  8
CSLAYER1
  6
CONTINUOUS
 62
     6
 10
198.901290
 20
82.067852
 11
198.863840
 21
81.999343
  0
LINE
  8
CSLAYER1
  6
CONTINUOUS
 62
     6
 10
198.863840
 20
81.999343
 11
198.827483
 21
81.930223
  0
LINE
  8
CSLAYER1
  6
CONTINUOUS
 62
     6
 10
198.827483
 20
81.930223
 11
198.792085
 21
81.860570
  0
LINE
  8
CSLAYER1
  6
CONTINUOUS
 62
     6
 10
198.792085
 20
81.860570
 11
198.757507
 21
81.790458
  0
LINE
  8
CSLAYER1
  6
CONTINUOUS
 62
     6
 10
198.757507
 20
81.790458
 11
198.723614
 21
81.719965
  0
LINE
  8
CSLAYER1
  6
CONTINUOUS
 62
     6
 10
198.723614
 20
81.719965
 11
198.690267
 21
81.649167
  0
LINE
  8
CSLAYER1
  6
CONTINUOUS
 62
     6
 10
198.690267
 20
81.649167
 11
198.657331
 21
81.578140
  0
LINE
  8
CSLAYER1
  6
CONTINUOUS
 62
     6
 10
198.657331
 20
81.578140
 11
198.624669
 21
81.506960
  0
LINE
  8
CSLAYER1
  6
CONTINUOUS
 62
     6
 10
198.624669
 20
81.506960
 11
198.592143
 21
81.435704
  0
ARC
  8
CSLAYER1
  6
CONTINUOUS
 62
     6
 10
197.926779
 20
81.000628
 40
0.795003
 50
33.178280
 51
93.178280
  0
ARC
  8
CSLAYER1
  6
CONTINUOUS
 62
     6
 10
198.548096
 20
82.229470
 40
0.795003
 50
213.178280
 51
273.178280
  0
ARC
  8
CSLAYER1
  6
CONTINUOUS
 62
     6
 10
197.838624
 20
82.588188
 40
0.795003
 50
213.178280
 51
273.178280
  0
LINE
  8
CSLAYER1
  6
CONTINUOUS
 62
     6
 10
197.173198
 20
82.153142
 11
197.212669
 21
82.238928
  0
LINE
  8
CSLAYER1
  6
CONTINUOUS
 62
     6
 10
197.212669
 20
82.238928
 11
197.252292
 21
82.324630
  0
ARC
  8
CSLAYER1
  6
CONTINUOUS
 62
     6
 10
201.885661
 20
86.159123
 40
6.000000
 50
-133.355299
 51
194.723430
  0
LINE
  8
CSLAYER1
  6
CONTINUOUS
 62
     6
 10
197.317869
 20
83.626268
 11
197.398407
 21
83.715919
  0
LINE
  8
CSLAYER1
  6
CONTINUOUS
 62
     6
 10
197.398407
 20
83.715919
 11
197.480676
 21
83.803500
  0
LINE
  8
CSLAYER1
  6
CONTINUOUS
 62
     6
 10
197.480676
 20
83.803500
 11
197.564923
 21
83.888718
  0
LINE
  8
CSLAYER1
  6
CONTINUOUS
 62
     6
 10
197.564923
 20
83.888718
 11
197.651394
 21
83.971275
  0
LINE
  8
CSLAYER1
  6
CONTINUOUS
 62
     6
 10
197.651394
 20
83.971275
 11
197.740336
 21
84.050877
  0
LINE
  8
CSLAYER1
  6
CONTINUOUS
 62
     6
 10
197.740336
 20
84.050877
 11
197.889506
 21
84.173119
  0
LINE
  8
CSLAYER1
  6
CONTINUOUS
 62
     6
 10
197.889506
 20
84.173119
 11
198.046198
 21
84.289201
  0
LINE
  8
CSLAYER1
  6
CONTINUOUS
 62
     6
 10
198.046198
 20
84.289201
 11
198.209272
 21
84.399261
  0
LINE
  8
CSLAYER1
  6
CONTINUOUS
 62
     6
 10
198.209272
 20
84.399261
 11
198.377586
 21
84.503436
  0
LINE
  8
CSLAYER1
  6
CONTINUOUS
 62
     6
 10
198.377586
 20
84.503436
 11
198.549999
 21
84.601866
  0
LINE
  8
CSLAYER1
  6
CONTINUOUS
 62
     6
 10
198.549999
 20
84.601866
 11
198.725370
 21
84.694687
  0
LINE
  8
CSLAYER1
  6
CONTINUOUS
 62
     6
 10
198.725370
 20
84.694687
 11
198.902557
 21
84.782038
  0
LINE
  8
CSLAYER1
  6
CONTINUOUS
 62
     6
 10
198.902557
 20
84.782038
 11
199.080418
 21
84.864057
  0
LINE
  8
CSLAYER1
  6
CONTINUOUS
 62
     6
 10
199.080418
 20
84.864057
 11
199.257813
 21
84.940882
  0
LINE
  8
CSLAYER1
  6
CONTINUOUS
 62
     6
 10
199.257813
 20
84.940882
 11
199.433601
 21
85.012652
  0
LINE
  8
CSLAYER1
  6
CONTINUOUS
 62
     6
 10
199.433601
 20
85.012652
 11
199.606639
 21
85.079503
  0
LINE
  8
CSLAYER1
  6
CONTINUOUS
 62
     6
 10
199.606639
 20
85.079503
 11
199.735342
 21
85.129174
  0
LINE
  8
CSLAYER1
  6
CONTINUOUS
 62
     6
 10
199.735342
 20
85.129174
 11
199.866754
 21
85.182142
  0
LINE
  8
CSLAYER1
  6
CONTINUOUS
 62
     6
 10
199.866754
 20
85.182142
 11
200.000187
 21
85.237804
  0
LINE
  8
CSLAYER1
  6
CONTINUOUS
 62
     6
 10
200.000187
 20
85.237804
 11
200.134954
 21
85.295561
  0
LINE
  8
CSLAYER1
  6
CONTINUOUS
 62
     6
 10
200.134954
 20
85.295561
 11
200.270367
 21
85.354813
  0
LINE
  8
CSLAYER1
  6
CONTINUOUS
 62
     6
 10
200.270367
 20
85.354813
 11
200.405739
 21
85.414958
  0
LINE
  8
CSLAYER1
  6
CONTINUOUS
 62
     6
 10
200.405739
 20
85.414958
 11
200.540381
 21
85.475397
  0
LINE
  8
CSLAYER1
  6
CONTINUOUS
 62
     6
 10
200.540381
 20
85.475397
 11
200.673606
 21
85.535528
  0
LINE
  8
CSLAYER1
  6
CONTINUOUS
 62
     6
 10
200.673606
 20
85.535528
 11
200.804726
 21
85.594751
  0
LINE
  8
CSLAYER1
  6
CONTINUOUS
 62
     6
 10
200.804726
 20
85.594751
 11
200.933054
 21
85.652467
  0
LINE
  8
CSLAYER1
  6
CONTINUOUS
 62
     6
 10
200.933054
 20
85.652467
 11
201.057902
 21
85.708073
  0
LINE
  8
CSLAYER1
  6
CONTINUOUS
 62
     6
 10
201.057902
 20
85.708073
 11
201.180926
 21
85.763539
  0
LINE
  8
CSLAYER1
  6
CONTINUOUS
 62
     6
 10
201.180926
 20
85.763539
 11
201.308255
 21
85.822855
  0
LINE
  8
CSLAYER1
  6
CONTINUOUS
 62
     6
 10
201.308255
 20
85.822855
 11
201.438657
 21
85.885241
  0
LINE
  8
CSLAYER1
  6
CONTINUOUS
 62
     6
 10
201.438657
 20
85.885241
 11
201.570899
 21
85.949920
  0
LINE
  8
CSLAYER1
  6
CONTINUOUS
 62
     6
 10
201.570899
 20
85.949920
 11
201.703750
 21
86.016113
  0
LINE
  8
CSLAYER1
  6
CONTINUOUS
 62
     6
 10
201.703750
 20
86.016113
 11
201.835976
 21
86.083041
  0
LINE
  8
CSLAYER1
  6
CONTINUOUS
 62
     6
 10
201.835976
 20
86.083041
 11
201.966347
 21
86.149926
  0
LINE
  8
CSLAYER1
  6
CONTINUOUS
 62
     6
 10
201.966347
 20
86.149926
 11
202.093629
 21
86.215989
  0
LINE
  8
CSLAYER1
  6
CONTINUOUS
 62
     6
 10
202.093629
 20
86.215989
 11
202.216590
 21
86.280452
  0
LINE
  8
CSLAYER1
  6
CONTINUOUS
 62
     6
 10
202.216590
 20
86.280452
 11
202.333998
 21
86.342536
  0
LINE
  8
CSLAYER1
  6
CONTINUOUS
 62
     6
 10
202.333998
 20
86.342536
 11
202.444621
 21
86.401463
  0
ARC
  8
CSLAYER1
  6
CONTINUOUS
 62
     6
 10
202.089030
 20
87.112553
 40
0.795000
 50
-63.433378
 51
116.566642
  0
ARC
  8
CSLAYER1
  6
CONTINUOUS
 62
     6
 10
201.885661
 20
86.159123
 40
2.500000
 50
-111.435592
 51
166.755183
  0
ARC
  8
CSLAYER1
  6
CONTINUOUS
 62
     6
 10
201.885661
 20
86.159123
 40
2.500000
 50
205.424472
 51
208.156383
  0
LINE
  8
CSLAYER1
  6
CONTINUOUS
 62
     6
 10
197.317869
 20
83.626268
 11
197.238813
 21
83.534844
  0
LINE
  8
CSLAYER1
  6
CONTINUOUS
 62
     6
 10
197.238813
 20
83.534844
 11
197.160993
 21
83.441942
  0
LINE
  8
CSLAYER1
  6
CONTINUOUS
 62
     6
 10
197.160993
 20
83.441942
 11
197.084161
 21
83.347857
  0
LINE
  8
CSLAYER1
  6
CONTINUOUS
 62
     6
 10
197.084161
 20
83.347857
 11
197.008071
 21
83.252887
  0
LINE
  8
CSLAYER1
  6
CONTINUOUS
 62
     6
 10
197.008071
 20
83.252887
 11
196.932476
 21
83.157325
  0
LINE
  8
CSLAYER1
  6
CONTINUOUS
 62
     6
 10
196.932476
 20
83.157325
 11
196.857127
 21
83.061467
  0
ARC
  8
CSLAYER1
  6
CONTINUOUS
 62
     6
 10
195.525652
 20
81.608560
 40
0.794999
 50
32.735346
 51
92.735346
  0
ARC
  8
CSLAYER1
  6
CONTINUOUS
 62
     6
 10
194.818977
 20
81.972750
 40
0.794999
 50
32.735346
 51
92.735346
  0
ARC
  8
CSLAYER1
  6
CONTINUOUS
 62
     6
 10
195.449773
 20
83.196746
 40
0.794999
 50
212.735346
 51
272.735346
  0
LINE
  8
CSLAYER1
  6
CONTINUOUS
 62
     6
 10
196.152718
 20
81.976880
 11
196.194377
 21
82.038426
  0
LINE
  8
CSLAYER1
  6
CONTINUOUS
 62
     6
 10
196.152718
 20
81.976880
 11
196.110969
 21
81.910377
  0
LINE
  8
CSLAYER1
  6
CONTINUOUS
 62
     6
 10
196.110969
 20
81.910377
 11
196.069406
 21
81.839763
  0
LINE
  8
CSLAYER1
  6
CONTINUOUS
 62
     6
 10
196.069406
 20
81.839763
 11
196.028306
 21
81.765880
  0
LINE
  8
CSLAYER1
  6
CONTINUOUS
 62
     6
 10
196.028306
 20
81.765880
 11
195.987944
 21
81.689572
  0
LINE
  8
CSLAYER1
  6
CONTINUOUS
 62
     6
 10
195.987944
 20
81.689572
 11
195.948596
 21
81.611683
  0
LINE
  8
CSLAYER1
  6
CONTINUOUS
 62
     6
 10
195.948596
 20
81.611683
 11
195.910537
 21
81.533057
  0
LINE
  8
CSLAYER1
  6
CONTINUOUS
 62
     6
 10
195.910537
 20
81.533057
 11
195.874043
 21
81.454539
  0
LINE
  8
CSLAYER1
  6
CONTINUOUS
 62
     6
 10
195.874043
 20
81.454539
 11
195.839391
 21
81.376971
  0
LINE
  8
CSLAYER1
  6
CONTINUOUS
 62
     6
 10
195.839391
 20
81.376971
 11
195.806856
 21
81.301197
  0
LINE
  8
CSLAYER1
  6
CONTINUOUS
 62
     6
 10
195.806856
 20
81.301197
 11
195.776713
 21
81.228062
  0
LINE
  8
CSLAYER1
  6
CONTINUOUS
 62
     6
 10
195.776713
 20
81.228062
 11
195.754318
 21
81.169139
  0
LINE
  8
CSLAYER1
  6
CONTINUOUS
 62
     6
 10
195.754318
 20
81.169139
 11
195.733667
 21
81.108013
  0
LINE
  8
CSLAYER1
  6
CONTINUOUS
 62
     6
 10
195.733667
 20
81.108013
 11
195.714719
 21
81.044991
  0
LINE
  8
CSLAYER1
  6
CONTINUOUS
 62
     6
 10
195.714719
 20
81.044991
 11
195.697434
 21
80.980381
  0
LINE
  8
CSLAYER1
  6
CONTINUOUS
 62
     6
 10
195.697434
 20
80.980381
 11
195.681771
 21
80.914489
  0
LINE
  8
CSLAYER1
  6
CONTINUOUS
 62
     6
 10
195.681771
 20
80.914489
 11
195.667688
 21
80.847624
  0
LINE
  8
CSLAYER1
  6
CONTINUOUS
 62
     6
 10
195.667688
 20
80.847624
 11
195.655144
 21
80.780094
  0
LINE
  8
CSLAYER1
  6
CONTINUOUS
 62
     6
 10
195.655144
 20
80.780094
 11
195.644100
 21
80.712205
  0
LINE
  8
CSLAYER1
  6
CONTINUOUS
 62
     6
 10
195.644100
 20
80.712205
 11
195.634513
 21
80.644266
  0
LINE
  8
CSLAYER1
  6
CONTINUOUS
 62
     6
 10
195.634513
 20
80.644266
 11
195.626343
 21
80.576583
  0
LINE
  8
CSLAYER1
  6
CONTINUOUS
 62
     6
 10
195.626343
 20
80.576583
 11
195.619548
 21
80.509465
  0
LINE
  8
CSLAYER1
  6
CONTINUOUS
 62
     6
 10
195.619548
 20
80.509465
 11
195.612687
 21
80.422061
  0
LINE
  8
CSLAYER1
  6
CONTINUOUS
 62
     6
 10
195.612687
 20
80.422061
 11
195.607988
 21
80.334614
  0
LINE
  8
CSLAYER1
  6
CONTINUOUS
 62
     6
 10
195.607988
 20
80.334614
 11
195.605234
 21
80.247127
  0
LINE
  8
CSLAYER1
  6
CONTINUOUS
 62
     6
 10
195.605234
 20
80.247127
 11
195.604209
 21
80.159604
  0
LINE
  8
CSLAYER1
  6
CONTINUOUS
 62
     6
 10
195.604209
 20
80.159604
 11
195.604698
 21
80.072051
  0
LINE
  8
CSLAYER1
  6
CONTINUOUS
 62
     6
 10
195.604698
 20
80.072051
 11
195.606483
 21
79.984471
  0
LINE
  8
CSLAYER1
  6
CONTINUOUS
 62
     6
 10
195.606483
 20
79.984471
 11
195.609350
 21
79.896869
  0
LINE
  8
CSLAYER1
  6
CONTINUOUS
 62
     6
 10
195.609350
 20
79.896869
 11
195.613080
 21
79.809250
  0
LINE
  8
CSLAYER1
  6
CONTINUOUS
 62
     6
 10
195.613080
 20
79.809250
 11
195.617460
 21
79.721617
  0
LINE
  8
CSLAYER1
  6
CONTINUOUS
 62
     6
 10
195.617460
 20
79.721617
 11
195.622271
 21
79.633976
  0
LINE
  8
CSLAYER1
  6
CONTINUOUS
 62
     6
 10
195.622271
 20
79.633976
 11
195.627299
 21
79.546330
  0
ARC
  8
CSLAYER1
  6
CONTINUOUS
 62
     6
 10
195.235346
 20
78.854685
 40
0.794999
 50
60.461270
 51
120.461270
  0
ARC
  8
CSLAYER1
  6
CONTINUOUS
 62
     6
 10
195.224260
 20
80.231619
 40
0.794999
 50
240.461270
 51
300.461270
  0
LINE
  8
CSLAYER1
  6
CONTINUOUS
 62
     6
 10
195.137340
 20
79.469365
 11
195.597453
 21
77.726414
  0
LINE
  8
CSLAYER1
  6
CONTINUOUS
 62
     6
 10
195.124736
 20
77.629674
 11
194.780009
 21
79.386418
  0
ARC
  8
CSLAYER1
  6
CONTINUOUS
 62
     6
 10
194.429287
 20
80.225219
 40
0.794999
 50
240.461270
 51
300.461270
  0
LINE
  8
CSLAYER1
  6
CONTINUOUS
 62
     6
 10
194.037333
 20
79.533543
 11
194.032061
 21
79.637337
  0
LINE
  8
CSLAYER1
  6
CONTINUOUS
 62
     6
 10
194.032061
 20
79.637337
 11
194.027011
 21
79.741129
  0
LINE
  8
CSLAYER1
  6
CONTINUOUS
 62
     6
 10
194.027011
 20
79.741129
 11
194.022405
 21
79.844919
  0
LINE
  8
CSLAYER1
  6
CONTINUOUS
 62
     6
 10
194.022405
 20
79.844919
 11
194.018465
 21
79.948705
  0
LINE
  8
CSLAYER1
  6
CONTINUOUS
 62
     6
 10
194.018465
 20
79.948705
 11
194.015413
 21
80.052484
  0
LINE
  8
CSLAYER1
  6
CONTINUOUS
 62
     6
 10
194.015413
 20
80.052484
 11
194.013471
 21
80.156257
  0
LINE
  8
CSLAYER1
  6
CONTINUOUS
 62
     6
 10
194.013471
 20
80.156257
 11
194.012861
 21
80.260021
  0
LINE
  8
CSLAYER1
  6
CONTINUOUS
 62
     6
 10
194.012861
 20
80.260021
 11
194.013804
 21
80.363775
  0
LINE
  8
CSLAYER1
  6
CONTINUOUS
 62
     6
 10
194.013804
 20
80.363775
 11
194.016524
 21
80.467517
  0
LINE
  8
CSLAYER1
  6
CONTINUOUS
 62
     6
 10
194.016524
 20
80.467517
 11
194.021241
 21
80.571247
  0
LINE
  8
CSLAYER1
  6
CONTINUOUS
 62
     6
 10
194.021241
 20
80.571247
 11
194.028178
 21
80.674962
  0
LINE
  8
CSLAYER1
  6
CONTINUOUS
 62
     6
 10
194.028178
 20
80.674962
 11
194.037316
 21
80.777537
  0
LINE
  8
CSLAYER1
  6
CONTINUOUS
 62
     6
 10
194.037316
 20
80.777537
 11
194.048803
 21
80.881015
  0
LINE
  8
CSLAYER1
  6
CONTINUOUS
 62
     6
 10
194.048803
 20
80.881015
 11
194.062699
 21
80.984902
  0
LINE
  8
CSLAYER1
  6
CONTINUOUS
 62
     6
 10
194.062699
 20
80.984902
 11
194.079066
 21
81.088702
  0
LINE
  8
CSLAYER1
  6
CONTINUOUS
 62
     6
 10
194.079066
 20
81.088702
 11
194.097964
 21
81.191920
  0
LINE
  8
CSLAYER1
  6
CONTINUOUS
 62
     6
 10
194.097964
 20
81.191920
 11
194.119454
 21
81.294059
  0
LINE
  8
CSLAYER1
  6
CONTINUOUS
 62
     6
 10
194.119454
 20
81.294059
 11
194.143598
 21
81.394626
  0
LINE
  8
CSLAYER1
  6
CONTINUOUS
 62
     6
 10
194.143598
 20
81.394626
 11
194.170456
 21
81.493123
  0
LINE
  8
CSLAYER1
  6
CONTINUOUS
 62
     6
 10
194.170456
 20
81.493123
 11
194.200089
 21
81.589055
  0
LINE
  8
CSLAYER1
  6
CONTINUOUS
 62
     6
 10
194.200089
 20
81.589055
 11
194.232558
 21
81.681928
  0
LINE
  8
CSLAYER1
  6
CONTINUOUS
 62
     6
 10
194.232558
 20
81.681928
 11
194.267924
 21
81.771245
  0
LINE
  8
CSLAYER1
  6
CONTINUOUS
 62
     6
 10
194.267924
 20
81.771245
 11
194.306072
 21
81.860409
  0
LINE
  8
CSLAYER1
  6
CONTINUOUS
 62
     6
 10
194.306072
 20
81.860409
 11
194.346793
 21
81.952826
  0
LINE
  8
CSLAYER1
  6
CONTINUOUS
 62
     6
 10
194.346793
 20
81.952826
 11
194.389796
 21
82.047502
  0
LINE
  8
CSLAYER1
  6
CONTINUOUS
 62
     6
 10
194.389796
 20
82.047502
 11
194.434789
 21
82.143441
  0
LINE
  8
CSLAYER1
  6
CONTINUOUS
 62
     6
 10
194.434789
 20
82.143441
 11
194.481481
 21
82.239650
  0
LINE
  8
CSLAYER1
  6
CONTINUOUS
 62
     6
 10
194.481481
 20
82.239650
 11
194.529580
 21
82.335133
  0
LINE
  8
CSLAYER1
  6
CONTINUOUS
 62
     6
 10
194.529580
 20
82.335133
 11
194.578795
 21
82.428896
  0
LINE
  8
CSLAYER1
  6
CONTINUOUS
 62
     6
 10
194.578795
 20
82.428896
 11
194.628835
 21
82.519944
  0
LINE
  8
CSLAYER1
  6
CONTINUOUS
 62
     6
 10
194.628835
 20
82.519944
 11
194.679408
 21
82.607282
  0
LINE
  8
CSLAYER1
  6
CONTINUOUS
 62
     6
 10
194.679408
 20
82.607282
 11
194.730222
 21
82.689915
  0
LINE
  8
CSLAYER1
  6
CONTINUOUS
 62
     6
 10
194.730222
 20
82.689915
 11
194.780986
 21
82.766850
  0
LINE
  8
CSLAYER1
  6
CONTINUOUS
 62
     6
 10
196.666179
 20
80.820988
 11
196.642918
 21
80.752944
  0
LINE
  8
CSLAYER1
  6
CONTINUOUS
 62
     6
 10
196.642918
 20
80.752944
 11
196.620832
 21
80.680773
  0
LINE
  8
CSLAYER1
  6
CONTINUOUS
 62
     6
 10
196.620832
 20
80.680773
 11
196.600027
 21
80.605270
  0
LINE
  8
CSLAYER1
  6
CONTINUOUS
 62
     6
 10
196.600027
 20
80.605270
 11
196.580609
 21
80.527232
  0
LINE
  8
CSLAYER1
  6
CONTINUOUS
 62
     6
 10
196.580609
 20
80.527232
 11
196.562685
 21
80.447454
  0
LINE
  8
CSLAYER1
  6
CONTINUOUS
 62
     6
 10
196.562685
 20
80.447454
 11
196.546358
 21
80.366732
  0
LINE
  8
CSLAYER1
  6
CONTINUOUS
 62
     6
 10
196.546358
 20
80.366732
 11
196.531737
 21
80.285864
  0
LINE
  8
CSLAYER1
  6
CONTINUOUS
 62
     6
 10
196.531737
 20
80.285864
 11
196.518925
 21
80.205645
  0
LINE
  8
CSLAYER1
  6
CONTINUOUS
 62
     6
 10
196.518925
 20
80.205645
 11
196.508030
 21
80.126871
  0
LINE
  8
CSLAYER1
  6
CONTINUOUS
 62
     6
 10
196.508030
 20
80.126871
 11
196.499157
 21
80.050338
  0
LINE
  8
CSLAYER1
  6
CONTINUOUS
 62
     6
 10
196.499157
 20
80.050338
 11
196.492412
 21
79.976842
  0
LINE
  8
CSLAYER1
  6
CONTINUOUS
 62
     6
 10
196.492412
 20
79.976842
 11
196.488342
 21
79.897696
  0
LINE
  8
CSLAYER1
  6
CONTINUOUS
 62
     6
 10
196.488342
 20
79.897696
 11
196.488151
 21
79.816375
  0
LINE
  8
CSLAYER1
  6
CONTINUOUS
 62
     6
 10
196.488151
 20
79.816375
 11
196.491461
 21
79.733240
  0
LINE
  8
CSLAYER1
  6
CONTINUOUS
 62
     6
 10
196.491461
 20
79.733240
 11
196.497892
 21
79.648653
  0
LINE
  8
CSLAYER1
  6
CONTINUOUS
 62
     6
 10
196.497892
 20
79.648653
 11
196.507065
 21
79.562974
  0
LINE
  8
CSLAYER1
  6
CONTINUOUS
 62
     6
 10
196.507065
 20
79.562974
 11
196.518601
 21
79.476564
  0
LINE
  8
CSLAYER1
  6
CONTINUOUS
 62
     6
 10
196.518601
 20
79.476564
 11
196.532122
 21
79.389784
  0
LINE
  8
CSLAYER1
  6
CONTINUOUS
 62
     6
 10
196.532122
 20
79.389784
 11
196.547247
 21
79.302994
  0
LINE
  8
CSLAYER1
  6
CONTINUOUS
 62
     6
 10
196.547247
 20
79.302994
 11
196.563597
 21
79.216556
  0
LINE
  8
CSLAYER1
  6
CONTINUOUS
 62
     6
 10
196.563597
 20
79.216556
 11
196.580795
 21
79.130830
  0
LINE
  8
CSLAYER1
  6
CONTINUOUS
 62
     6
 10
196.580795
 20
79.130830
 11
196.598460
 21
79.046178
  0
LINE
  8
CSLAYER1
  6
CONTINUOUS
 62
     6
 10
196.598460
 20
79.046178
 11
196.615207
 21
78.967874
  0
LINE
  8
CSLAYER1
  6
CONTINUOUS
 62
     6
 10
196.615207
 20
78.967874
 11
196.632239
 21
78.889800
  0
LINE
  8
CSLAYER1
  6
CONTINUOUS
 62
     6
 10
196.632239
 20
78.889800
 11
196.649529
 21
78.811932
  0
LINE
  8
CSLAYER1
  6
CONTINUOUS
 62
     6
 10
196.649529
 20
78.811932
 11
196.667048
 21
78.734248
  0
LINE
  8
CSLAYER1
  6
CONTINUOUS
 62
     6
 10
196.667048
 20
78.734248
 11
196.684767
 21
78.656724
  0
LINE
  8
CSLAYER1
  6
CONTINUOUS
 62
     6
 10
196.684767
 20
78.656724
 11
196.702657
 21
78.579338
  0
LINE
  8
CSLAYER1
  6
CONTINUOUS
 62
     6
 10
196.702657
 20
78.579338
 11
196.720690
 21
78.502067
  0
LINE
  8
CSLAYER1
  6
CONTINUOUS
 62
     6
 10
196.720690
 20
78.502067
 11
196.738838
 21
78.424887
  0
LINE
  8
CSLAYER1
  6
CONTINUOUS
 62
     6
 10
196.738838
 20
78.424887
 11
196.757071
 21
78.347776
  0
LINE
  8
CSLAYER1
  6
CONTINUOUS
 62
     6
 10
196.757071
 20
78.347776
 11
196.775362
 21
78.270711
  0
LINE
  8
CSLAYER1
  6
CONTINUOUS
 62
     6
 10
196.775362
 20
78.270711
 11
196.793681
 21
78.193669
  0
ARC
  8
CSLAYER1
  6
CONTINUOUS
 62
     6
 10
197.027470
 20
78.953528
 40
0.795000
 50
252.897147
 51
312.897147
  0
ARC
  8
CSLAYER1
  6
CONTINUOUS
 62
     6
 10
197.802414
 20
79.130973
 40
0.795000
 50
252.897147
 51
312.897147
  0
ARC
  8
CSLAYER1
  6
CONTINUOUS
 62
     6
 10
198.109758
 20
77.788730
 40
0.795000
 50
72.897147
 51
132.897147
  0
LINE
  8
CSLAYER1
  6
CONTINUOUS
 62
     6
 10
197.521342
 20
78.361455
 11
197.967692
 21
76.733861
  0
LINE
  8
CSLAYER1
  6
CONTINUOUS
 62
     6
 10
197.499980
 20
76.781010
 11
197.229106
 21
78.104649
  0
LINE
  8
CSLAYER1
  6
CONTINUOUS
 62
     6
 10
197.989024
 20
78.314335
 11
198.463298
 21
76.790959
  0
LINE
  8
CSLAYER1
  6
CONTINUOUS
 62
     6
 10
198.343547
 20
78.548558
 11
198.326918
 21
78.617713
  0
LINE
  8
CSLAYER1
  6
CONTINUOUS
 62
     6
 10
198.326918
 20
78.617713
 11
198.310322
 21
78.686892
  0
LINE
  8
CSLAYER1
  6
CONTINUOUS
 62
     6
 10
198.310322
 20
78.686892
 11
198.293795
 21
78.756118
  0
LINE
  8
CSLAYER1
  6
CONTINUOUS
 62
     6
 10
198.293795
 20
78.756118
 11
198.277371
 21
78.825416
  0
LINE
  8
CSLAYER1
  6
CONTINUOUS
 62
     6
 10
198.277371
 20
78.825416
 11
198.261084
 21
78.894809
  0
LINE
  8
CSLAYER1
  6
CONTINUOUS
 62
     6
 10
198.261084
 20
78.894809
 11
198.244969
 21
78.964320
  0
LINE
  8
CSLAYER1
  6
CONTINUOUS
 62
     6
 10
198.244969
 20
78.964320
 11
198.229059
 21
79.033974
  0
LINE
  8
CSLAYER1
  6
CONTINUOUS
 62
     6
 10
198.229059
 20
79.033974
 11
198.213389
 21
79.103794
  0
LINE
  8
CSLAYER1
  6
CONTINUOUS
 62
     6
 10
198.213389
 20
79.103794
 11
198.197994
 21
79.173803
  0
LINE
  8
CSLAYER1
  6
CONTINUOUS
 62
     6
 10
198.197994
 20
79.173803
 11
198.182906
 21
79.244027
  0
LINE
  8
CSLAYER1
  6
CONTINUOUS
 62
     6
 10
198.182906
 20
79.244027
 11
198.168162
 21
79.314488
  0
LINE
  8
CSLAYER1
  6
CONTINUOUS
 62
     6
 10
198.168162
 20
79.314488
 11
198.157221
 21
79.368220
  0
LINE
  8
CSLAYER1
  6
CONTINUOUS
 62
     6
 10
198.157221
 20
79.368220
 11
198.146566
 21
79.422544
  0
LINE
  8
CSLAYER1
  6
CONTINUOUS
 62
     6
 10
198.146566
 20
79.422544
 11
198.136425
 21
79.477256
  0
LINE
  8
CSLAYER1
  6
CONTINUOUS
 62
     6
 10
198.136425
 20
79.477256
 11
198.127022
 21
79.532156
  0
LINE
  8
CSLAYER1
  6
CONTINUOUS
 62
     6
 10
198.127022
 20
79.532156
 11
198.118586
 21
79.587042
  0
LINE
  8
CSLAYER1
  6
CONTINUOUS
 62
     6
 10
198.118586
 20
79.587042
 11
198.111340
 21
79.641712
  0
LINE
  8
CSLAYER1
  6
CONTINUOUS
 62
     6
 10
198.111340
 20
79.641712
 11
198.105513
 21
79.695964
  0
LINE
  8
CSLAYER1
  6
CONTINUOUS
 62
     6
 10
198.105513
 20
79.695964
 11
198.101329
 21
79.749596
  0
LINE
  8
CSLAYER1
  6
CONTINUOUS
 62
     6
 10
198.101329
 20
79.749596
 11
198.099015
 21
79.802407
  0
LINE
  8
CSLAYER1
  6
CONTINUOUS
 62
     6
 10
198.099015
 20
79.802407
 11
198.098798
 21
79.854195
  0
LINE
  8
CSLAYER1
  6
CONTINUOUS
 62
     6
 10
198.098798
 20
79.854195
 11
198.100902
 21
79.904759
  0
LINE
  8
CSLAYER1
  6
CONTINUOUS
 62
     6
 10
198.100902
 20
79.904759
 11
198.105174
 21
79.957029
  0
LINE
  8
CSLAYER1
  6
CONTINUOUS
 62
     6
 10
198.105174
 20
79.957029
 11
198.111090
 21
80.011346
  0
LINE
  8
CSLAYER1
  6
CONTINUOUS
 62
     6
 10
198.111090
 20
80.011346
 11
198.118560
 21
80.067152
  0
LINE
  8
CSLAYER1
  6
CONTINUOUS
 62
     6
 10
198.118560
 20
80.067152
 11
198.127495
 21
80.123891
  0
LINE
  8
CSLAYER1
  6
CONTINUOUS
 62
     6
 10
198.127495
 20
80.123891
 11
198.137806
 21
80.181005
  0
LINE
  8
CSLAYER1
  6
CONTINUOUS
 62
     6
 10
198.137806
 20
80.181005
 11
198.149403
 21
80.237938
  0
LINE
  8
CSLAYER1
  6
CONTINUOUS
 62
     6
 10
198.149403
 20
80.237938
 11
198.162197
 21
80.294131
  0
LINE
  8
CSLAYER1
  6
CONTINUOUS
 62
     6
 10
198.162197
 20
80.294131
 11
198.176098
 21
80.349028
  0
LINE
  8
CSLAYER1
  6
CONTINUOUS
 62
     6
 10
198.176098
 20
80.349028
 11
198.191018
 21
80.402072
  0
LINE
  8
CSLAYER1
  6
CONTINUOUS
 62
     6
 10
198.191018
 20
80.402072
 11
198.206865
 21
80.452705
  0
LINE
  8
CSLAYER1
  6
CONTINUOUS
 62
     6
 10
198.206865
 20
80.452705
 11
198.223552
 21
80.500371
  0
ARC
  8
CSLAYER1
  6
CONTINUOUS
 62
     6
 10
197.695361
 20
79.906145
 40
0.795000
 50
48.366208
 51
108.366208
  0
ARC
  8
CSLAYER1
  6
CONTINUOUS
 62
     6
 10
197.194369
 20
81.415153
 40
0.795000
 50
228.366208
 51
288.366208
  0
ARC
  8
CSLAYER1
  6
CONTINUOUS
 62
     6
 10
196.916693
 20
80.066461
 40
0.795000
 50
48.366208
 51
108.366208
  0
LINE
  8
CSLAYER1
  6
CONTINUOUS
 62
     6
 10
194.406840
 20
79.452885
 11
194.570109
 21
77.644231
  0
LINE
  8
CSLAYER1
  6
CONTINUOUS
 62
     6
 10
206.357797
 20
82.159123
 11
214.426207
 21
82.159123
  0
LINE
  8
CSLAYER1
  6
CONTINUOUS
 62
     6
 10
214.320700
 20
82.218002
 11
212.899036
 21
79.147129
  0
LINE
  8
CSLAYER1
  6
CONTINUOUS
 62
     6
 10
211.885661
 20
82.159123
 11
211.885661
 21
90.159123
  0
LINE
  8
CSLAYER1
  6
CONTINUOUS
 62
     6
 10
216.891894
 20
82.159123
 11
219.099282
 21
82.159123
  0
ARC
  8
CSLAYER1
  6
CONTINUOUS
 62
     6
 10
220.139610
 20
79.894768
 40
1.500000
 50
18.366208
 51
78.366208
  0
LINE
  8
CSLAYER1
  6
CONTINUOUS
 62
     6
 10
221.563271
 20
80.367447
 11
221.491037
 21
80.305303
  0
LINE
  8
CSLAYER1
  6
CONTINUOUS
 62
     6
 10
221.491037
 20
80.305303
 11
221.417374
 21
80.237518
  0
LINE
  8
CSLAYER1
  6
CONTINUOUS
 62
     6
 10
221.417374
 20
80.237518
 11
221.342954
 21
80.164919
  0
LINE
  8
CSLAYER1
  6
CONTINUOUS
 62
     6
 10
221.342954
 20
80.164919
 11
221.268450
 21
80.088331
  0
LINE
  8
CSLAYER1
  6
CONTINUOUS
 62
     6
 10
221.268450
 20
80.088331
 11
221.194532
 21
80.008580
  0
LINE
  8
CSLAYER1
  6
CONTINUOUS
 62
     6
 10
221.194532
 20
80.008580
 11
221.121872
 21
79.926493
  0
LINE
  8
CSLAYER1
  6
CONTINUOUS
 62
     6
 10
221.121872
 20
79.926493
 11
221.051143
 21
79.842895
  0
LINE
  8
CSLAYER1
  6
CONTINUOUS
 62
     6
 10
221.051143
 20
79.842895
 11
220.983015
 21
79.758612
  0
LINE
  8
CSLAYER1
  6
CONTINUOUS
 62
     6
 10
220.983015
 20
79.758612
 11
220.918162
 21
79.674471
  0
LINE
  8
CSLAYER1
  6
CONTINUOUS
 62
     6
 10
220.918162
 20
79.674471
 11
220.857253
 21
79.591298
  0
LINE
  8
CSLAYER1
  6
CONTINUOUS
 62
     6
 10
220.857253
 20
79.591298
 11
220.800961
 21
79.509918
  0
LINE
  8
CSLAYER1
  6
CONTINUOUS
 62
     6
 10
220.800961
 20
79.509918
 11
220.749821
 21
79.429282
  0
LINE
  8
CSLAYER1
  6
CONTINUOUS
 62
     6
 10
220.749821
 20
79.429282
 11
220.701320
 21
79.344455
  0
LINE
  8
CSLAYER1
  6
CONTINUOUS
 62
     6
 10
220.701320
 20
79.344455
 11
220.655278
 21
79.255978
  0
LINE
  8
CSLAYER1
  6
CONTINUOUS
 62
     6
 10
220.655278
 20
79.255978
 11
220.611518
 21
79.164395
  0
LINE
  8
CSLAYER1
  6
CONTINUOUS
 62
     6
 10
220.611518
 20
79.164395
 11
220.569859
 21
79.070249
  0
LINE
  8
CSLAYER1
  6
CONTINUOUS
 62
     6
 10
220.569859
 20
79.070249
 11
220.530123
 21
78.974083
  0
LINE
  8
CSLAYER1
  6
CONTINUOUS
 62
     6
 10
220.530123
 20
78.974083
 11
220.492130
 21
78.876440
  0
LINE
  8
CSLAYER1
  6
CONTINUOUS
 62
     6
 10
220.492130
 20
78.876440
 11
220.455701
 21
78.777863
  0
LINE
  8
CSLAYER1
  6
CONTINUOUS
 62
     6
 10
220.455701
 20
78.777863
 11
220.420657
 21
78.678894
  0
LINE
  8
CSLAYER1
  6
CONTINUOUS
 62
     6
 10
220.420657
 20
78.678894
 11
220.386818
 21
78.580078
  0
LINE
  8
CSLAYER1
  6
CONTINUOUS
 62
     6
 10
220.386818
 20
78.580078
 11
220.354005
 21
78.481957
  0
LINE
  8
CSLAYER1
  6
CONTINUOUS
 62
     6
 10
220.354005
 20
78.481957
 11
220.311625
 21
78.352913
  0
LINE
  8
CSLAYER1
  6
CONTINUOUS
 62
     6
 10
220.311625
 20
78.352913
 11
220.270029
 21
78.223934
  0
LINE
  8
CSLAYER1
  6
CONTINUOUS
 62
     6
 10
220.270029
 20
78.223934
 11
220.229138
 21
78.095013
  0
LINE
  8
CSLAYER1
  6
CONTINUOUS
 62
     6
 10
220.229138
 20
78.095013
 11
220.188875
 21
77.966144
  0
LINE
  8
CSLAYER1
  6
CONTINUOUS
 62
     6
 10
220.188875
 20
77.966144
 11
220.149161
 21
77.837319
  0
LINE
  8
CSLAYER1
  6
CONTINUOUS
 62
     6
 10
220.149161
 20
77.837319
 11
220.109917
 21
77.708534
  0
LINE
  8
CSLAYER1
  6
CONTINUOUS
 62
     6
 10
220.109917
 20
77.708534
 11
220.071065
 21
77.579781
  0
LINE
  8
CSLAYER1
  6
CONTINUOUS
 62
     6
 10
220.071065
 20
77.579781
 11
220.032527
 21
77.451053
  0
LINE
  8
CSLAYER1
  6
CONTINUOUS
 62
     6
 10
220.032527
 20
77.451053
 11
219.994224
 21
77.322345
  0
LINE
  8
CSLAYER1
  6
CONTINUOUS
 62
     6
 10
219.994224
 20
77.322345
 11
219.956078
 21
77.193650
  0
LINE
  8
CSLAYER1
  6
CONTINUOUS
 62
     6
 10
219.956078
 20
77.193650
 11
219.918011
 21
77.064962
  0
ARC
  8
CSLAYER1
  6
CONTINUOUS
 62
     6
 10
238.885658
 20
71.159111
 40
1.527778
 50
163.398423
 51
196.601584
  0
LINE
  8
CSLAYER1
  6
CONTINUOUS
 62
     6
 10
237.421572
 20
70.722597
 11
238.012631
 21
70.722597
  0
ARC
  8
CSLAYER1
  6
CONTINUOUS
 62
     6
 10
238.012631
 20
70.286107
 40
0.436508
 50
-0.000005
 51
89.999984
  0
LINE
  8
CSLAYER1
  6
CONTINUOUS
 62
     6
 10
238.449144
 20
70.286107
 11
238.449144
 21
69.695003
  0
ARC
  8
CSLAYER1
  6
CONTINUOUS
 62
     6
 10
238.885658
 20
71.159111
 40
1.527778
 50
253.398405
 51
286.601594
  0
LINE
  8
CSLAYER1
  6
CONTINUOUS
 62
     6
 10
239.322171
 20
69.695003
 11
239.322171
 21
70.286107
  0
ARC
  8
CSLAYER1
  6
CONTINUOUS
 62
     6
 10
239.758684
 20
70.286107
 40
0.436508
 50
89.999984
 51
179.999990
  0
LINE
  8
CSLAYER1
  6
CONTINUOUS
 62
     6
 10
239.758684
 20
70.722597
 11
240.349743
 21
70.722597
  0
ARC
  8
CSLAYER1
  6
CONTINUOUS
 62
     6
 10
238.885658
 20
71.159111
 40
1.527778
 50
-16.601572
 51
16.601562
  0
LINE
  8
CSLAYER1
  6
CONTINUOUS
 62
     6
 10
240.349743
 20
71.595624
 11
239.758684
 21
71.595624
  0
ARC
  8
CSLAYER1
  6
CONTINUOUS
 62
     6
 10
239.758684
 20
72.032115
 40
0.436508
 50
180.057309
 51
269.999999
  0
LINE
  8
CSLAYER1
  6
CONTINUOUS
 62
     6
 10
239.322171
 20
72.032115
 11
239.322171
 21
72.623219
  0
ARC
  8
CSLAYER1
  6
CONTINUOUS
 62
     6
 10
238.885658
 20
71.159111
 40
1.527778
 50
73.398417
 51
106.601578
  0
LINE
  8
CSLAYER1
  6
CONTINUOUS
 62
     6
 10
238.449144
 20
72.623219
 11
238.449144
 21
72.032115
  0
ARC
  8
CSLAYER1
  6
CONTINUOUS
 62
     6
 10
238.012631
 20
72.032115
 40
0.436508
 50
270.057346
 51
359.999995
  0
LINE
  8
CSLAYER1
  6
CONTINUOUS
 62
     6
 10
238.012631
 20
71.595624
 11
237.421572
 21
71.595624
  0
CIRCLE
  8
CSLAYER1
  6
CONTINUOUS
 62
     6
 10
238.885668
 20
71.159111
 40
2.750000
  0
LINE
  8
CSLAYER1
  6
CONTINUOUS
 62
     6
 10
227.571635
 20
49.765919
 11
259.528728
 21
49.765919
  0
ARC
  8
CSLAYER1
  6
CONTINUOUS
 62
     6
 10
264.671916
 20
48.587513
 40
1.000000
 50
90.000009
 51
173.999984
  0
LINE
  8
CSLAYER1
  6
CONTINUOUS
 62
     6
 10
263.677409
 20
48.692067
 11
262.979777
 21
42.054554
  0
ARC
  8
CSLAYER1
  6
CONTINUOUS
 62
     6
 10
261.985210
 20
42.159108
 40
1.000000
 50
270.000001
 51
354.000017
  0
LINE
  8
CSLAYER1
  6
CONTINUOUS
 62
     6
 10
261.985210
 20
41.159108
 11
225.786052
 21
41.159108
  0
ARC
  8
CSLAYER1
  6
CONTINUOUS
 62
     6
 10
225.786052
 20
42.159108
 40
1.000000
 50
186.000012
 51
270.000001
  0
LINE
  8
CSLAYER1
  6
CONTINUOUS
 62
     6
 10
224.791545
 20
42.054554
 11
224.093913
 21
48.692067
  0
ARC
  8
CSLAYER1
  6
CONTINUOUS
 62
     6
 10
223.099345
 20
48.587513
 40
1.000000
 50
6.000021
 51
90.000009
  0
ARC
  8
CSLAYER1
  6
CONTINUOUS
 62
     6
 10
223.149028
 20
44.115284
 40
1.000000
 50
6.000021
 51
90.000009
  0
LINE
  8
CSLAYER1
  6
CONTINUOUS
 62
     6
 10
224.143535
 20
44.219838
 11
224.791545
 21
38.054554
  0
ARC
  8
CSLAYER1
  6
CONTINUOUS
 62
     6
 10
225.786052
 20
38.159108
 40
1.000000
 50
186.000012
 51
270.000001
  0
LINE
  8
CSLAYER1
  6
CONTINUOUS
 62
     6
 10
225.786052
 20
37.159108
 11
261.985210
 21
37.159108
  0
ARC
  8
CSLAYER1
  6
CONTINUOUS
 62
     6
 10
261.985210
 20
38.159108
 40
1.000000
 50
270.000001
 51
354.000017
  0
LINE
  8
CSLAYER1
  6
CONTINUOUS
 62
     6
 10
262.979777
 20
38.054554
 11
263.627727
 21
44.219838
  0
ARC
  8
CSLAYER1
  6
CONTINUOUS
 62
     6
 10
264.622295
 20
44.115284
 40
1.000000
 50
90.000009
 51
173.999984
  0
LINE
  8
CSLAYER1
  6
CONTINUOUS
 62
     6
 10
264.885661
 20
42.159108
 11
263.410625
 21
42.159108
  0
LINE
  8
CSLAYER1
  6
CONTINUOUS
 62
     6
 10
224.360087
 20
42.159108
 11
219.885661
 21
42.159108
  0
LINE
  8
CSLAYER1
  6
CONTINUOUS
 62
     6
 10
217.274552
 20
52.385088
 11
217.274552
 21
52.776038
  0
LINE
  8
CSLAYER1
  6
CONTINUOUS
 62
     6
 10
217.274552
 20
52.776038
 11
217.391958
 21
52.800093
  0
LINE
  8
CSLAYER1
  6
CONTINUOUS
 62
     6
 10
217.391958
 20
52.800093
 11
217.542941
 21
52.843252
  0
LINE
  8
CSLAYER1
  6
CONTINUOUS
 62
     6
 10
217.542941
 20
52.843252
 11
217.687746
 21
52.897075
  0
LINE
  8
CSLAYER1
  6
CONTINUOUS
 62
     6
 10
217.687746
 20
52.897075
 11
217.825095
 21
52.960846
  0
LINE
  8
CSLAYER1
  6
CONTINUOUS
 62
     6
 10
217.825095
 20
52.960846
 11
217.953833
 21
53.033726
  0
LINE
  8
CSLAYER1
  6
CONTINUOUS
 62
     6
 10
217.953833
 20
53.033726
 11
218.072952
 21
53.114778
  0
LINE
  8
CSLAYER1
  6
CONTINUOUS
 62
     6
 10
218.072952
 20
53.114778
 11
218.181611
 21
53.202987
  0
LINE
  8
CSLAYER1
  6
CONTINUOUS
 62
     6
 10
218.181611
 20
53.202987
 11
218.246769
 21
53.265988
  0
LINE
  8
CSLAYER1
  6
CONTINUOUS
 62
     6
 10
218.246769
 20
53.265988
 11
218.246769
 21
53.653320
  0
LINE
  8
CSLAYER1
  6
CONTINUOUS
 62
     6
 10
218.246769
 20
53.653320
 11
218.181611
 21
53.590319
  0
LINE
  8
CSLAYER1
  6
CONTINUOUS
 62
     6
 10
218.181611
 20
53.590319
 11
218.072952
 21
53.502110
  0
LINE
  8
CSLAYER1
  6
CONTINUOUS
 62
     6
 10
218.072952
 20
53.502110
 11
217.953833
 21
53.421059
  0
LINE
  8
CSLAYER1
  6
CONTINUOUS
 62
     6
 10
217.953833
 20
53.421059
 11
217.825095
 21
53.348178
  0
LINE
  8
CSLAYER1
  6
CONTINUOUS
 62
     6
 10
217.825095
 20
53.348178
 11
217.687746
 21
53.284408
  0
LINE
  8
CSLAYER1
  6
CONTINUOUS
 62
     6
 10
217.687746
 20
53.284408
 11
217.542941
 21
53.230585
  0
LINE
  8
CSLAYER1
  6
CONTINUOUS
 62
     6
 10
217.542941
 20
53.230585
 11
217.391958
 21
53.187426
  0
LINE
  8
CSLAYER1
  6
CONTINUOUS
 62
     6
 10
217.391958
 20
53.187426
 11
217.274552
 21
53.163371
  0
LINE
  8
CSLAYER1
  6
CONTINUOUS
 62
     6
 10
217.274552
 20
53.163371
 11
217.274552
 21
54.376094
  0
ARC
  8
CSLAYER1
  6
CONTINUOUS
 62
     6
 10
217.134552
 20
54.376094
 40
0.140000
 50
0.000000
 51
90.000000
  0
LINE
  8
CSLAYER1
  6
CONTINUOUS
 62
     6
 10
217.134552
 20
54.516094
 11
216.636768
 21
54.516094
  0
ARC
  8
CSLAYER1
  6
CONTINUOUS
 62
     6
 10
216.636768
 20
54.376094
 40
0.140000
 50
90.000000
 51
180.000000
  0
LINE
  8
CSLAYER1
  6
CONTINUOUS
 62
     6
 10
216.496768
 20
54.376094
 11
216.496768
 21
53.163371
  0
LINE
  8
CSLAYER1
  6
CONTINUOUS
 62
     6
 10
216.496768
 20
53.163675
 11
216.437667
 21
53.174033
  0
LINE
  8
CSLAYER1
  6
CONTINUOUS
 62
     6
 10
216.437667
 20
53.174033
 11
216.284707
 21
53.213010
  0
LINE
  8
CSLAYER1
  6
CONTINUOUS
 62
     6
 10
216.284707
 20
53.213010
 11
216.137414
 21
53.262886
  0
LINE
  8
CSLAYER1
  6
CONTINUOUS
 62
     6
 10
216.137414
 20
53.262886
 11
215.997109
 21
53.322994
  0
LINE
  8
CSLAYER1
  6
CONTINUOUS
 62
     6
 10
215.997109
 20
53.322994
 11
215.864994
 21
53.392542
  0
LINE
  8
CSLAYER1
  6
CONTINUOUS
 62
     6
 10
215.864994
 20
53.392542
 11
215.742137
 21
53.470626
  0
LINE
  8
CSLAYER1
  6
CONTINUOUS
 62
     6
 10
215.742137
 20
53.470626
 11
215.629442
 21
53.556256
  0
LINE
  8
CSLAYER1
  6
CONTINUOUS
 62
     6
 10
215.629442
 20
53.556256
 11
215.524547
 21
53.651189
  0
LINE
  8
CSLAYER1
  6
CONTINUOUS
 62
     6
 10
215.524547
 20
53.651189
 11
215.524547
 21
53.263857
  0
LINE
  8
CSLAYER1
  6
CONTINUOUS
 62
     6
 10
215.524547
 20
53.263857
 11
215.629442
 21
53.168924
  0
LINE
  8
CSLAYER1
  6
CONTINUOUS
 62
     6
 10
215.629442
 20
53.168924
 11
215.742137
 21
53.083293
  0
LINE
  8
CSLAYER1
  6
CONTINUOUS
 62
     6
 10
215.742137
 20
53.083293
 11
215.864994
 21
53.005210
  0
LINE
  8
CSLAYER1
  6
CONTINUOUS
 62
     6
 10
215.864994
 20
53.005210
 11
215.997109
 21
52.935662
  0
LINE
  8
CSLAYER1
  6
CONTINUOUS
 62
     6
 10
215.997109
 20
52.935662
 11
216.137414
 21
52.875553
  0
LINE
  8
CSLAYER1
  6
CONTINUOUS
 62
     6
 10
216.137414
 20
52.875553
 11
216.284707
 21
52.825678
  0
LINE
  8
CSLAYER1
  6
CONTINUOUS
 62
     6
 10
216.284707
 20
52.825678
 11
216.437667
 21
52.786701
  0
LINE
  8
CSLAYER1
  6
CONTINUOUS
 62
     6
 10
216.437667
 20
52.786701
 11
216.496768
 21
52.776342
  0
LINE
  8
CSLAYER1
  6
CONTINUOUS
 62
     6
 10
216.496768
 20
52.776038
 11
216.496768
 21
52.385089
  0
LINE
  8
CSLAYER1
  6
CONTINUOUS
 62
     6
 10
380.885661
 20
59.097905
 11
380.885661
 21
36.159123
  0
LINE
  8
CSLAYER1
  6
CONTINUOUS
 62
     6
 10
380.885570
 20
36.159123
 11
390.885631
 21
36.159123
  0
LINE
  8
CSLAYER1
  6
CONTINUOUS
 62
     6
 10
390.885661
 20
36.159123
 11
390.885661
 21
136.159123
  0
LINE
  8
CSLAYER1
  6
CONTINUOUS
 62
     6
 10
390.885631
 20
136.159123
 11
380.885570
 21
136.159123
  0
LINE
  8
CSLAYER1
  6
CONTINUOUS
 62
     6
 10
380.885661
 20
136.159123
 11
380.885661
 21
113.220372
  0
LINE
  8
CSLAYER1
  6
CONTINUOUS
 62
     6
 10
390.885661
 20
116.159123
 11
393.885661
 21
116.159123
  0
LINE
  8
CSLAYER1
  6
CONTINUOUS
 62
     6
 10
393.885661
 20
116.159123
 11
393.885661
 21
56.159123
  0
LINE
  8
CSLAYER1
  6
CONTINUOUS
 62
     6
 10
393.885661
 20
56.159123
 11
390.885661
 21
56.159123
  0
LINE
  8
CSLAYER1
  6
CONTINUOUS
 62
     6
 10
386.885661
 20
46.159123
 11
386.885661
 21
126.159123
  0
LINE
  8
CSLAYER1
  6
CONTINUOUS
 62
     6
 10
390.885631
 20
171.159123
 11
380.885570
 21
171.159123
  0
LINE
  8
CSLAYER1
  6
CONTINUOUS
 62
     6
 10
380.885661
 20
171.159123
 11
380.885661
 21
194.097905
  0
LINE
  8
CSLAYER1
  6
CONTINUOUS
 62
     6
 10
390.885661
 20
191.159123
 11
393.885661
 21
191.159123
  0
LINE
  8
CSLAYER1
  6
CONTINUOUS
 62
     6
 10
393.885661
 20
191.159123
 11
393.885661
 21
251.159123
  0
LINE
  8
CSLAYER1
  6
CONTINUOUS
 62
     6
 10
393.885661
 20
251.159123
 11
390.885661
 21
251.159123
  0
LINE
  8
CSLAYER1
  6
CONTINUOUS
 62
     6
 10
380.885661
 20
248.220372
 11
380.885661
 21
271.159123
  0
LINE
  8
CSLAYER1
  6
CONTINUOUS
 62
     6
 10
380.885570
 20
271.159123
 11
390.885631
 21
271.159123
  0
LINE
  8
CSLAYER1
  6
CONTINUOUS
 62
     6
 10
390.885661
 20
271.159123
 11
390.885661
 21
171.159123
  0
LINE
  8
CSLAYER1
  6
CONTINUOUS
 62
     6
 10
386.885661
 20
181.159123
 11
386.885661
 21
261.159123
  0
LINE
  8
CSLAYER1
  6
CONTINUOUS
 62
     6
 10
393.885661
 20
227.159123
 11
430.885661
 21
227.159123
  0
LINE
  8
CSLAYER1
  6
CONTINUOUS
 62
     6
 10
430.885661
 20
227.159123
 11
430.885661
 21
215.159123
  0
LINE
  8
CSLAYER1
  6
CONTINUOUS
 62
     6
 10
430.885661
 20
215.159123
 11
393.885661
 21
215.159123
  0
LINE
  8
CSLAYER1
  6
CONTINUOUS
 62
     6
 10
390.885661
 20
296.159123
 11
390.885661
 21
396.159123
  0
LINE
  8
CSLAYER1
  6
CONTINUOUS
 62
     6
 10
390.885631
 20
396.159123
 11
380.885570
 21
396.159123
  0
LINE
  8
CSLAYER1
  6
CONTINUOUS
 62
     6
 10
380.885661
 20
396.159123
 11
380.885661
 21
373.220372
  0
LINE
  8
CSLAYER1
  6
CONTINUOUS
 62
     6
 10
390.885661
 20
376.159123
 11
393.885661
 21
376.159123
  0
LINE
  8
CSLAYER1
  6
CONTINUOUS
 62
     6
 10
393.885661
 20
376.159123
 11
393.885661
 21
316.159123
  0
LINE
  8
CSLAYER1
  6
CONTINUOUS
 62
     6
 10
393.885661
 20
316.159123
 11
390.885661
 21
316.159123
  0
LINE
  8
CSLAYER1
  6
CONTINUOUS
 62
     6
 10
380.885661
 20
319.097905
 11
380.885661
 21
296.159123
  0
LINE
  8
CSLAYER1
  6
CONTINUOUS
 62
     6
 10
380.885570
 20
296.159123
 11
390.885631
 21
296.159123
  0
LINE
  8
CSLAYER1
  6
CONTINUOUS
 62
     6
 10
386.885661
 20
306.159123
 11
386.885661
 21
386.159123
  0
LINE
  8
CSLAYER1
  6
CONTINUOUS
 62
     6
 10
380.885661
 20
391.159123
 11
264.885661
 21
391.159123
  0
LINE
  8
CSLAYER1
  6
CONTINUOUS
 62
     6
 10
264.885661
 20
391.159123
 11
264.885661
 21
301.159123
  0
LINE
  8
CSLAYER1
  6
CONTINUOUS
 62
     6
 10
264.885661
 20
301.159123
 11
380.885661
 21
301.159123
  0
LINE
  8
CSLAYER1
  6
CONTINUOUS
 62
     6
 10
379.885661
 20
301.159123
 11
379.885661
 21
391.159123
  0
LINE
  8
CSLAYER1
  6
CONTINUOUS
 62
     6
 10
393.885661
 20
352.159123
 11
430.885661
 21
352.159123
  0
LINE
  8
CSLAYER1
  6
CONTINUOUS
 62
     6
 10
430.885661
 20
352.159123
 11
430.885661
 21
340.159123
  0
LINE
  8
CSLAYER1
  6
CONTINUOUS
 62
     6
 10
430.885661
 20
340.159123
 11
393.885661
 21
340.159123
  0
ARC
  8
CSLAYER1
  6
CONTINUOUS
 62
     6
 10
469.474454
 20
263.659123
 40
7.500000
 50
90.000000
 51
180.000000
  0
LINE
  8
CSLAYER1
  6
CONTINUOUS
 62
     6
 10
461.974454
 20
263.659123
 11
461.974454
 21
178.659123
  0
ARC
  8
CSLAYER1
  6
CONTINUOUS
 62
     6
 10
469.474454
 20
178.659123
 40
7.500000
 50
180.000000
 51
270.000000
  0
LINE
  8
CSLAYER1
  6
CONTINUOUS
 62
     6
 10
469.474454
 20
171.159123
 11
554.474454
 21
171.159123
  0
ARC
  8
CSLAYER1
  6
CONTINUOUS
 62
     6
 10
554.474454
 20
178.659123
 40
7.500000
 50
270.000000
 51
360.000000
  0
LINE
  8
CSLAYER1
  6
CONTINUOUS
 62
     6
 10
561.974454
 20
178.659123
 11
561.974454
 21
263.659123
  0
ARC
  8
CSLAYER1
  6
CONTINUOUS
 62
     6
 10
554.474454
 20
263.659123
 40
7.500000
 50
0.000000
 51
90.000000
  0
LINE
  8
CSLAYER1
  6
CONTINUOUS
 62
     6
 10
554.474454
 20
271.159123
 11
469.474454
 21
271.159123
  0
CIRCLE
  8
CSLAYER1
  6
CONTINUOUS
 62
     6
 10
469.474454
 20
263.659123
 40
3.500000
  0
ARC
  8
CSLAYER1
  6
CONTINUOUS
 62
     6
 10
511.974448
 20
258.159146
 40
2.916667
 50
163.398416
 51
196.601577
  0
LINE
  8
CSLAYER1
  6
CONTINUOUS
 62
     6
 10
509.179376
 20
257.325803
 11
510.307761
 21
257.325803
  0
ARC
  8
CSLAYER1
  6
CONTINUOUS
 62
     6
 10
510.307761
 20
256.492503
 40
0.833333
 50
0.000005
 51
89.942654
  0
LINE
  8
CSLAYER1
  6
CONTINUOUS
 62
     6
 10
511.141104
 20
256.492503
 11
511.141104
 21
255.364031
  0
ARC
  8
CSLAYER1
  6
CONTINUOUS
 62
     6
 10
511.974448
 20
258.159146
 40
2.916667
 50
253.398422
 51
286.601583
  0
LINE
  8
CSLAYER1
  6
CONTINUOUS
 62
     6
 10
512.807791
 20
255.364031
 11
512.807791
 21
256.492503
  0
ARC
  8
CSLAYER1
  6
CONTINUOUS
 62
     6
 10
513.641135
 20
256.492503
 40
0.833333
 50
90.000001
 51
179.942691
  0
LINE
  8
CSLAYER1
  6
CONTINUOUS
 62
     6
 10
513.641135
 20
257.325803
 11
514.769520
 21
257.325803
  0
ARC
  8
CSLAYER1
  6
CONTINUOUS
 62
     6
 10
511.974448
 20
258.159146
 40
2.916667
 50
-16.601562
 51
16.601572
  0
LINE
  8
CSLAYER1
  6
CONTINUOUS
 62
     6
 10
514.769520
 20
258.992490
 11
513.641135
 21
258.992490
  0
ARC
  8
CSLAYER1
  6
CONTINUOUS
 62
     6
 10
513.641135
 20
259.825790
 40
0.833333
 50
180.000010
 51
270.000016
  0
LINE
  8
CSLAYER1
  6
CONTINUOUS
 62
     6
 10
512.807791
 20
259.825790
 11
512.807791
 21
260.954262
  0
ARC
  8
CSLAYER1
  6
CONTINUOUS
 62
     6
 10
511.974448
 20
258.159146
 40
2.916667
 50
73.398406
 51
106.601595
  0
LINE
  8
CSLAYER1
  6
CONTINUOUS
 62
     6
 10
511.141104
 20
260.954262
 11
511.141104
 21
259.825790
  0
ARC
  8
CSLAYER1
  6
CONTINUOUS
 62
     6
 10
510.307761
 20
259.825790
 40
0.833333
 50
-89.999984
 51
0.000005
  0
LINE
  8
CSLAYER1
  6
CONTINUOUS
 62
     6
 10
510.307761
 20
258.992490
 11
509.179376
 21
258.992490
  0
CIRCLE
  8
CSLAYER1
  6
CONTINUOUS
 62
     6
 10
511.974454
 20
258.159123
 40
7.500000
  0
CIRCLE
  8
CSLAYER1
  6
CONTINUOUS
 62
     6
 10
511.974467
 20
258.159145
 40
5.250000
  0
ARC
  8
CSLAYER1
  6
CONTINUOUS
 62
     6
 10
511.974454
 20
221.159123
 40
30.000000
 50
-85.368215
 51
85.368215
  0
LINE
  8
CSLAYER1
  6
CONTINUOUS
 62
     6
 10
512.807791
 20
186.954215
 11
512.807791
 21
185.825743
  0
ARC
  8
CSLAYER1
  6
CONTINUOUS
 62
     6
 10
513.641135
 20
185.825743
 40
0.833333
 50
180.057309
 51
269.999999
  0
LINE
  8
CSLAYER1
  6
CONTINUOUS
 62
     6
 10
513.641135
 20
184.992443
 11
514.769520
 21
184.992443
  0
ARC
  8
CSLAYER1
  6
CONTINUOUS
 62
     6
 10
511.974448
 20
184.159099
 40
2.916667
 50
-16.601572
 51
16.601562
  0
LINE
  8
CSLAYER1
  6
CONTINUOUS
 62
     6
 10
514.769520
 20
183.325756
 11
513.641135
 21
183.325756
  0
ARC
  8
CSLAYER1
  6
CONTINUOUS
 62
     6
 10
513.641135
 20
182.492456
 40
0.833333
 50
89.999984
 51
179.999990
  0
LINE
  8
CSLAYER1
  6
CONTINUOUS
 62
     6
 10
512.807791
 20
182.492456
 11
512.807791
 21
181.363984
  0
ARC
  8
CSLAYER1
  6
CONTINUOUS
 62
     6
 10
511.974448
 20
184.159099
 40
2.916667
 50
253.398405
 51
286.601594
  0
LINE
  8
CSLAYER1
  6
CONTINUOUS
 62
     6
 10
511.141104
 20
181.363984
 11
511.141104
 21
182.492456
  0
ARC
  8
CSLAYER1
  6
CONTINUOUS
 62
     6
 10
510.307761
 20
182.492456
 40
0.833333
 50
-0.000005
 51
89.999984
  0
LINE
  8
CSLAYER1
  6
CONTINUOUS
 62
     6
 10
510.307761
 20
183.325756
 11
509.179376
 21
183.325756
  0
ARC
  8
CSLAYER1
  6
CONTINUOUS
 62
     6
 10
511.974448
 20
184.159099
 40
2.916667
 50
163.398423
 51
196.601584
  0
LINE
  8
CSLAYER1
  6
CONTINUOUS
 62
     6
 10
509.179376
 20
184.992443
 11
510.307761
 21
184.992443
  0
ARC
  8
CSLAYER1
  6
CONTINUOUS
 62
     6
 10
510.307761
 20
185.825743
 40
0.833333
 50
270.057346
 51
359.999995
  0
LINE
  8
CSLAYER1
  6
CONTINUOUS
 62
     6
 10
511.141104
 20
185.825743
 11
511.141104
 21
186.954215
  0
ARC
  8
CSLAYER1
  6
CONTINUOUS
 62
     6
 10
511.974448
 20
184.159099
 40
2.916667
 50
73.398417
 51
106.601578
  0
CIRCLE
  8
CSLAYER1
  6
CONTINUOUS
 62
     6
 10
511.974454
 20
184.159123
 40
7.500000
  0
CIRCLE
  8
CSLAYER1
  6
CONTINUOUS
 62
     6
 10
511.974467
 20
184.159100
 40
5.250000
  0
ARC
  8
CSLAYER1
  6
CONTINUOUS
 62
     6
 10
511.974454
 20
221.159123
 40
30.000000
 50
94.631785
 51
265.368215
  0
CIRCLE
  8
CSLAYER1
  6
CONTINUOUS
 62
     6
 10
511.974454
 20
221.159123
 40
6.000000
  0
CIRCLE
  8
CSLAYER1
  6
CONTINUOUS
 62
     6
 10
511.974454
 20
221.159123
 40
16.000000
  0
CIRCLE
  8
CSLAYER1
  6
CONTINUOUS
 62
     6
 10
511.974454
 20
221.159123
 40
7.500000
  0
ARC
  8
CSLAYER1
  6
CONTINUOUS
 62
     6
 10
521.823648
 20
212.644912
 40
1.454544
 50
230.236329
 51
322.096590
  0
ARC
  8
CSLAYER1
  6
CONTINUOUS
 62
     6
 10
511.974454
 20
220.313126
 40
13.936877
 50
-37.903067
 51
217.903051
  0
ARC
  8
CSLAYER1
  6
CONTINUOUS
 62
     6
 10
502.125248
 20
212.644912
 40
1.454544
 50
217.903413
 51
309.763730
  0
ARC
  8
CSLAYER1
  6
CONTINUOUS
 62
     6
 10
505.049517
 20
209.130605
 40
3.117293
 50
-23.481547
 51
129.764151
  0
LINE
  8
CSLAYER1
  6
CONTINUOUS
 62
     6
 10
507.908659
 20
207.888515
 11
507.287491
 21
205.861027
  0
CIRCLE
  8
CSLAYER1
  6
CONTINUOUS
 62
     6
 10
505.049517
 20
209.130605
 40
1.454544
  0
LINE
  8
CSLAYER1
  6
CONTINUOUS
 62
     6
 10
516.040237
 20
207.888515
 11
516.661405
 21
205.861027
  0
ARC
  8
CSLAYER1
  6
CONTINUOUS
 62
     6
 10
518.899382
 20
209.130605
 40
3.117293
 50
50.235851
 51
203.481549
  0
CIRCLE
  8
CSLAYER1
  6
CONTINUOUS
 62
     6
 10
554.474454
 20
263.659123
 40
3.500000
  0
CIRCLE
  8
CSLAYER1
  6
CONTINUOUS
 62
     6
 10
518.899382
 20
209.130605
 40
1.454544
  0
CIRCLE
  8
CSLAYER1
  6
CONTINUOUS
 62
     6
 10
554.474454
 20
178.659123
 40
3.500000
  0
CIRCLE
  8
CSLAYER1
  6
CONTINUOUS
 62
     6
 10
469.474454
 20
178.659123
 40
3.500000
  0
LINE
  8
CSLAYER1
  6
CONTINUOUS
 62
     6
 10
430.885661
 20
92.159123
 11
393.885661
 21
92.159123
  0
LINE
  8
CSLAYER1
  6
CONTINUOUS
 62
     6
 10
393.885661
 20
80.159123
 11
430.885661
 21
80.159123
  0
LINE
  8
CSLAYER1
  6
CONTINUOUS
 62
     6
 10
430.885661
 20
80.159123
 11
430.885661
 21
92.159123
  0
LINE
  8
CSLAYER1
  6
CONTINUOUS
 62
     6
 10
249.885661
 20
220.259129
 11
249.885661
 21
222.059117
  0
LINE
  8
CSLAYER1
  6
CONTINUOUS
 62
     6
 10
249.885661
 20
222.059117
 11
237.885661
 21
222.059117
  0
LINE
  8
CSLAYER1
  6
CONTINUOUS
 62
     6
 10
237.885661
 20
222.059117
 11
237.885661
 21
220.259129
  0
LINE
  8
CSLAYER1
  6
CONTINUOUS
 62
     6
 10
237.885661
 20
220.259129
 11
249.885661
 21
220.259129
  0
CIRCLE
  8
CSLAYER1
  6
CONTINUOUS
 62
     6
 10
243.885661
 20
221.159123
 40
12.000000
  0
CIRCLE
  8
CSLAYER1
  6
CONTINUOUS
 62
     6
 10
243.885661
 20
221.159123
 40
15.000000
  0
CIRCLE
  8
CSLAYER1
  6
CONTINUOUS
 62
     6
 10
243.885661
 20
221.159123
 40
16.000000
  0
ARC
  8
CSLAYER1
  6
CONTINUOUS
 62
     6
 10
225.885661
 20
245.159123
 40
1.000000
 50
180.000019
 51
270.000001
  0
LINE
  8
CSLAYER1
  6
CONTINUOUS
 62
     6
 10
224.885661
 20
245.159123
 11
224.885661
 21
246.159123
  0
ARC
  8
CSLAYER1
  6
CONTINUOUS
 62
     6
 10
225.885661
 20
246.159123
 40
1.000000
 50
90.000016
 51
180.000005
  0
LINE
  8
CSLAYER1
  6
CONTINUOUS
 62
     6
 10
225.885661
 20
247.159123
 11
261.885661
 21
247.159123
  0
ARC
  8
CSLAYER1
  6
CONTINUOUS
 62
     6
 10
261.885661
 20
246.159123
 40
1.000000
 50
0.000000
 51
90.000003
  0
LINE
  8
CSLAYER1
  6
CONTINUOUS
 62
     6
 10
262.885661
 20
246.159123
 11
262.885661
 21
245.159123
  0
ARC
  8
CSLAYER1
  6
CONTINUOUS
 62
     6
 10
261.885661
 20
245.159123
 40
1.000000
 50
270.000001
 51
359.942691
  0
LINE
  8
CSLAYER1
  6
CONTINUOUS
 62
     6
 10
261.885661
 20
244.159123
 11
225.885661
 21
244.159123
  0
LINE
  8
CSLAYER1
  6
CONTINUOUS
 62
     6
 10
218.246769
 20
253.664926
 11
218.246769
 21
254.052258
  0
LINE
  8
CSLAYER1
  6
CONTINUOUS
 62
     6
 10
218.246769
 20
254.052258
 11
218.181611
 21
254.115259
  0
LINE
  8
CSLAYER1
  6
CONTINUOUS
 62
     6
 10
218.181611
 20
254.115259
 11
218.072952
 21
254.203468
  0
LINE
  8
CSLAYER1
  6
CONTINUOUS
 62
     6
 10
218.072952
 20
254.203468
 11
217.953833
 21
254.284520
  0
LINE
  8
CSLAYER1
  6
CONTINUOUS
 62
     6
 10
217.953833
 20
254.284520
 11
217.825095
 21
254.357400
  0
LINE
  8
CSLAYER1
  6
CONTINUOUS
 62
     6
 10
217.825095
 20
254.357400
 11
217.687746
 21
254.421171
  0
LINE
  8
CSLAYER1
  6
CONTINUOUS
 62
     6
 10
217.687746
 20
254.421171
 11
217.542941
 21
254.474994
  0
LINE
  8
CSLAYER1
  6
CONTINUOUS
 62
     6
 10
217.542941
 20
254.474994
 11
217.391958
 21
254.518153
  0
LINE
  8
CSLAYER1
  6
CONTINUOUS
 62
     6
 10
217.391958
 20
254.518153
 11
217.274552
 21
254.542208
  0
LINE
  8
CSLAYER1
  6
CONTINUOUS
 62
     6
 10
217.274552
 20
254.542208
 11
217.274552
 21
254.933158
  0
LINE
  8
CSLAYER1
  6
CONTINUOUS
 62
     6
 10
216.496768
 20
254.933157
 11
216.496768
 21
254.542208
  0
LINE
  8
CSLAYER1
  6
CONTINUOUS
 62
     6
 10
216.496768
 20
254.541904
 11
216.437667
 21
254.531545
  0
LINE
  8
CSLAYER1
  6
CONTINUOUS
 62
     6
 10
216.437667
 20
254.531545
 11
216.284707
 21
254.492568
  0
LINE
  8
CSLAYER1
  6
CONTINUOUS
 62
     6
 10
216.284707
 20
254.492568
 11
216.137414
 21
254.442693
  0
LINE
  8
CSLAYER1
  6
CONTINUOUS
 62
     6
 10
216.137414
 20
254.442693
 11
215.997109
 21
254.382584
  0
LINE
  8
CSLAYER1
  6
CONTINUOUS
 62
     6
 10
215.997109
 20
254.382584
 11
215.864994
 21
254.313036
  0
LINE
  8
CSLAYER1
  6
CONTINUOUS
 62
     6
 10
215.864994
 20
254.313036
 11
215.742137
 21
254.234953
  0
LINE
  8
CSLAYER1
  6
CONTINUOUS
 62
     6
 10
215.742137
 20
254.234953
 11
215.629442
 21
254.149322
  0
LINE
  8
CSLAYER1
  6
CONTINUOUS
 62
     6
 10
215.629442
 20
254.149322
 11
215.524547
 21
254.054389
  0
LINE
  8
CSLAYER1
  6
CONTINUOUS
 62
     6
 10
215.524547
 20
254.054389
 11
215.524547
 21
253.667057
  0
LINE
  8
CSLAYER1
  6
CONTINUOUS
 62
     6
 10
215.524547
 20
253.667057
 11
215.629442
 21
253.761990
  0
LINE
  8
CSLAYER1
  6
CONTINUOUS
 62
     6
 10
215.629442
 20
253.761990
 11
215.742137
 21
253.847620
  0
LINE
  8
CSLAYER1
  6
CONTINUOUS
 62
     6
 10
215.742137
 20
253.847620
 11
215.864994
 21
253.925704
  0
LINE
  8
CSLAYER1
  6
CONTINUOUS
 62
     6
 10
215.864994
 20
253.925704
 11
215.997109
 21
253.995252
  0
LINE
  8
CSLAYER1
  6
CONTINUOUS
 62
     6
 10
215.997109
 20
253.995252
 11
216.137414
 21
254.055360
  0
LINE
  8
CSLAYER1
  6
CONTINUOUS
 62
     6
 10
216.137414
 20
254.055360
 11
216.284707
 21
254.105236
  0
LINE
  8
CSLAYER1
  6
CONTINUOUS
 62
     6
 10
216.284707
 20
254.105236
 11
216.437667
 21
254.144213
  0
LINE
  8
CSLAYER1
  6
CONTINUOUS
 62
     6
 10
216.437667
 20
254.144213
 11
216.496768
 21
254.154571
  0
LINE
  8
CSLAYER1
  6
CONTINUOUS
 62
     6
 10
216.496768
 20
254.154875
 11
216.496768
 21
252.942151
  0
ARC
  8
CSLAYER1
  6
CONTINUOUS
 62
     6
 10
216.636768
 20
252.942151
 40
0.140000
 50
180.000000
 51
270.000000
  0
LINE
  8
CSLAYER1
  6
CONTINUOUS
 62
     6
 10
216.636768
 20
252.802151
 11
217.134552
 21
252.802151
  0
ARC
  8
CSLAYER1
  6
CONTINUOUS
 62
     6
 10
217.134552
 20
252.942151
 40
0.140000
 50
270.000000
 51
360.000000
  0
LINE
  8
CSLAYER1
  6
CONTINUOUS
 62
     6
 10
217.274552
 20
252.942151
 11
217.274552
 21
254.154875
  0
LINE
  8
CSLAYER1
  6
CONTINUOUS
 62
     6
 10
217.274552
 20
254.154875
 11
217.391958
 21
254.130820
  0
LINE
  8
CSLAYER1
  6
CONTINUOUS
 62
     6
 10
217.391958
 20
254.130820
 11
217.542941
 21
254.087661
  0
LINE
  8
CSLAYER1
  6
CONTINUOUS
 62
     6
 10
217.542941
 20
254.087661
 11
217.687746
 21
254.033838
  0
LINE
  8
CSLAYER1
  6
CONTINUOUS
 62
     6
 10
217.687746
 20
254.033838
 11
217.825095
 21
253.970068
  0
LINE
  8
CSLAYER1
  6
CONTINUOUS
 62
     6
 10
217.825095
 20
253.970068
 11
217.953833
 21
253.897187
  0
LINE
  8
CSLAYER1
  6
CONTINUOUS
 62
     6
 10
217.953833
 20
253.897187
 11
218.072952
 21
253.816136
  0
LINE
  8
CSLAYER1
  6
CONTINUOUS
 62
     6
 10
218.072952
 20
253.816136
 11
218.181611
 21
253.727927
  0
LINE
  8
CSLAYER1
  6
CONTINUOUS
 62
     6
 10
218.181611
 20
253.727927
 11
218.246769
 21
253.664926
  0
LINE
  8
CSLAYER1
  6
CONTINUOUS
 62
     6
 10
219.885661
 20
265.047581
 11
264.885661
 21
265.047581
  0
ARC
  8
CSLAYER1
  6
CONTINUOUS
 62
     6
 10
261.985210
 20
298.159108
 40
1.000000
 50
270.000001
 51
354.000017
  0
LINE
  8
CSLAYER1
  6
CONTINUOUS
 62
     6
 10
262.979777
 20
298.054554
 11
263.627727
 21
304.219838
  0
ARC
  8
CSLAYER1
  6
CONTINUOUS
 62
     6
 10
264.622295
 20
304.115284
 40
1.000000
 50
90.000009
 51
173.999984
  0
LINE
  8
CSLAYER1
  6
CONTINUOUS
 62
     6
 10
264.885661
 20
302.159108
 11
263.410625
 21
302.159108
  0
LINE
  8
CSLAYER1
  6
CONTINUOUS
 62
     6
 10
262.979777
 20
302.054554
 11
263.677409
 21
308.692067
  0
ARC
  8
CSLAYER1
  6
CONTINUOUS
 62
     6
 10
264.671916
 20
308.587513
 40
1.000000
 50
90.000009
 51
173.999984
  0
LINE
  8
CSLAYER1
  6
CONTINUOUS
 62
     6
 10
259.528728
 20
309.765919
 11
227.571635
 21
309.765919
  0
LINE
  8
CSLAYER1
  6
CONTINUOUS
 62
     6
 10
224.093913
 20
308.692067
 11
224.791545
 21
302.054554
  0
ARC
  8
CSLAYER1
  6
CONTINUOUS
 62
     6
 10
225.786052
 20
302.159108
 40
1.000000
 50
186.000012
 51
270.000001
  0
LINE
  8
CSLAYER1
  6
CONTINUOUS
 62
     6
 10
225.786052
 20
301.159108
 11
261.985210
 21
301.159108
  0
ARC
  8
CSLAYER1
  6
CONTINUOUS
 62
     6
 10
261.985210
 20
302.159108
 40
1.000000
 50
270.000001
 51
354.000017
  0
LINE
  8
CSLAYER1
  6
CONTINUOUS
 62
     6
 10
261.985210
 20
297.159108
 11
225.786052
 21
297.159108
  0
ARC
  8
CSLAYER1
  6
CONTINUOUS
 62
     6
 10
225.786052
 20
298.159108
 40
1.000000
 50
186.000012
 51
270.000001
  0
LINE
  8
CSLAYER1
  6
CONTINUOUS
 62
     6
 10
224.791545
 20
298.054554
 11
224.143535
 21
304.219838
  0
ARC
  8
CSLAYER1
  6
CONTINUOUS
 62
     6
 10
223.149028
 20
304.115284
 40
1.000000
 50
6.000021
 51
90.000009
  0
LINE
  8
CSLAYER1
  6
CONTINUOUS
 62
     6
 10
224.360087
 20
302.159108
 11
219.885661
 21
302.159108
  0
LINE
  8
CSLAYER1
  6
CONTINUOUS
 62
     6
 10
219.885661
 20
301.159123
 11
176.885661
 21
301.159123
  0
ARC
  8
CSLAYER1
  6
CONTINUOUS
 62
     6
 10
177.101653
 20
311.372895
 40
10.216056
 50
179.796819
 51
268.788542
  0
LINE
  8
CSLAYER1
  6
CONTINUOUS
 62
     6
 10
166.885661
 20
311.409123
 11
166.885661
 21
381.159123
  0
ARC
  8
CSLAYER1
  6
CONTINUOUS
 62
     6
 10
176.885661
 20
381.159123
 40
10.000000
 50
90.000000
 51
180.000000
  0
LINE
  8
CSLAYER1
  6
CONTINUOUS
 62
     6
 10
176.885661
 20
391.159123
 11
219.885661
 21
391.159123
  0
LINE
  8
CSLAYER1
  6
CONTINUOUS
 62
     6
 10
219.885661
 20
391.159123
 11
219.885661
 21
301.159123
  0
ARC
  8
CSLAYER1
  6
CONTINUOUS
 62
     6
 10
223.099345
 20
308.587513
 40
1.000000
 50
6.000021
 51
90.000009
  0
LINE
  8
CSLAYER1
  6
CONTINUOUS
 62
     6
 10
218.246769
 20
313.265988
 11
218.246769
 21
313.653320
  0
LINE
  8
CSLAYER1
  6
CONTINUOUS
 62
     6
 10
218.246769
 20
313.653320
 11
218.181611
 21
313.590319
  0
LINE
  8
CSLAYER1
  6
CONTINUOUS
 62
     6
 10
218.181611
 20
313.590319
 11
218.072952
 21
313.502110
  0
LINE
  8
CSLAYER1
  6
CONTINUOUS
 62
     6
 10
218.072952
 20
313.502110
 11
217.953833
 21
313.421059
  0
LINE
  8
CSLAYER1
  6
CONTINUOUS
 62
     6
 10
217.953833
 20
313.421059
 11
217.825095
 21
313.348178
  0
LINE
  8
CSLAYER1
  6
CONTINUOUS
 62
     6
 10
217.825095
 20
313.348178
 11
217.687746
 21
313.284408
  0
LINE
  8
CSLAYER1
  6
CONTINUOUS
 62
     6
 10
217.687746
 20
313.284408
 11
217.542941
 21
313.230585
  0
LINE
  8
CSLAYER1
  6
CONTINUOUS
 62
     6
 10
217.542941
 20
313.230585
 11
217.391958
 21
313.187426
  0
LINE
  8
CSLAYER1
  6
CONTINUOUS
 62
     6
 10
217.391958
 20
313.187426
 11
217.274552
 21
313.163371
  0
LINE
  8
CSLAYER1
  6
CONTINUOUS
 62
     6
 10
217.274552
 20
313.163371
 11
217.274552
 21
314.376094
  0
ARC
  8
CSLAYER1
  6
CONTINUOUS
 62
     6
 10
217.134552
 20
314.376094
 40
0.140000
 50
0.000000
 51
90.000000
  0
LINE
  8
CSLAYER1
  6
CONTINUOUS
 62
     6
 10
217.134552
 20
314.516094
 11
216.636768
 21
314.516094
  0
ARC
  8
CSLAYER1
  6
CONTINUOUS
 62
     6
 10
216.636768
 20
314.376094
 40
0.140000
 50
90.000000
 51
180.000000
  0
LINE
  8
CSLAYER1
  6
CONTINUOUS
 62
     6
 10
216.496768
 20
314.376094
 11
216.496768
 21
313.163371
  0
LINE
  8
CSLAYER1
  6
CONTINUOUS
 62
     6
 10
216.496768
 20
313.163675
 11
216.437667
 21
313.174033
  0
LINE
  8
CSLAYER1
  6
CONTINUOUS
 62
     6
 10
216.437667
 20
313.174033
 11
216.284707
 21
313.213010
  0
LINE
  8
CSLAYER1
  6
CONTINUOUS
 62
     6
 10
216.284707
 20
313.213010
 11
216.137414
 21
313.262886
  0
LINE
  8
CSLAYER1
  6
CONTINUOUS
 62
     6
 10
216.137414
 20
313.262886
 11
215.997109
 21
313.322994
  0
LINE
  8
CSLAYER1
  6
CONTINUOUS
 62
     6
 10
215.997109
 20
313.322994
 11
215.864994
 21
313.392542
  0
LINE
  8
CSLAYER1
  6
CONTINUOUS
 62
     6
 10
215.864994
 20
313.392542
 11
215.742137
 21
313.470626
  0
LINE
  8
CSLAYER1
  6
CONTINUOUS
 62
     6
 10
215.742137
 20
313.470626
 11
215.629442
 21
313.556256
  0
LINE
  8
CSLAYER1
  6
CONTINUOUS
 62
     6
 10
215.629442
 20
313.556256
 11
215.524547
 21
313.651189
  0
LINE
  8
CSLAYER1
  6
CONTINUOUS
 62
     6
 10
215.524547
 20
313.651189
 11
215.524547
 21
313.263857
  0
LINE
  8
CSLAYER1
  6
CONTINUOUS
 62
     6
 10
215.524547
 20
313.263857
 11
215.629442
 21
313.168924
  0
LINE
  8
CSLAYER1
  6
CONTINUOUS
 62
     6
 10
215.629442
 20
313.168924
 11
215.742137
 21
313.083293
  0
LINE
  8
CSLAYER1
  6
CONTINUOUS
 62
     6
 10
215.742137
 20
313.083293
 11
215.864994
 21
313.005210
  0
LINE
  8
CSLAYER1
  6
CONTINUOUS
 62
     6
 10
215.864994
 20
313.005210
 11
215.997109
 21
312.935662
  0
LINE
  8
CSLAYER1
  6
CONTINUOUS
 62
     6
 10
215.997109
 20
312.935662
 11
216.137414
 21
312.875553
  0
LINE
  8
CSLAYER1
  6
CONTINUOUS
 62
     6
 10
216.137414
 20
312.875553
 11
216.284707
 21
312.825678
  0
LINE
  8
CSLAYER1
  6
CONTINUOUS
 62
     6
 10
216.284707
 20
312.825678
 11
216.437667
 21
312.786701
  0
LINE
  8
CSLAYER1
  6
CONTINUOUS
 62
     6
 10
216.437667
 20
312.786701
 11
216.496768
 21
312.776342
  0
LINE
  8
CSLAYER1
  6
CONTINUOUS
 62
     6
 10
216.496768
 20
312.776038
 11
216.496768
 21
312.385089
  0
LINE
  8
CSLAYER1
  6
CONTINUOUS
 62
     6
 10
217.274552
 20
312.385088
 11
217.274552
 21
312.776038
  0
LINE
  8
CSLAYER1
  6
CONTINUOUS
 62
     6
 10
217.274552
 20
312.776038
 11
217.391958
 21
312.800093
  0
LINE
  8
CSLAYER1
  6
CONTINUOUS
 62
     6
 10
217.391958
 20
312.800093
 11
217.542941
 21
312.843252
  0
LINE
  8
CSLAYER1
  6
CONTINUOUS
 62
     6
 10
217.542941
 20
312.843252
 11
217.687746
 21
312.897075
  0
LINE
  8
CSLAYER1
  6
CONTINUOUS
 62
     6
 10
217.687746
 20
312.897075
 11
217.825095
 21
312.960846
  0
LINE
  8
CSLAYER1
  6
CONTINUOUS
 62
     6
 10
217.825095
 20
312.960846
 11
217.953833
 21
313.033726
  0
LINE
  8
CSLAYER1
  6
CONTINUOUS
 62
     6
 10
217.953833
 20
313.033726
 11
218.072952
 21
313.114778
  0
LINE
  8
CSLAYER1
  6
CONTINUOUS
 62
     6
 10
218.072952
 20
313.114778
 11
218.181611
 21
313.202987
  0
LINE
  8
CSLAYER1
  6
CONTINUOUS
 62
     6
 10
218.181611
 20
313.202987
 11
218.246769
 21
313.265988
  0
ARC
  8
CSLAYER1
  6
CONTINUOUS
 62
     6
 10
217.134552
 20
377.942151
 40
0.140000
 50
270.000000
 51
360.000000
  0
LINE
  8
CSLAYER1
  6
CONTINUOUS
 62
     6
 10
217.274552
 20
377.942151
 11
217.274552
 21
379.154875
  0
LINE
  8
CSLAYER1
  6
CONTINUOUS
 62
     6
 10
217.274552
 20
379.154875
 11
217.391958
 21
379.130820
  0
LINE
  8
CSLAYER1
  6
CONTINUOUS
 62
     6
 10
217.391958
 20
379.130820
 11
217.542941
 21
379.087661
  0
LINE
  8
CSLAYER1
  6
CONTINUOUS
 62
     6
 10
217.542941
 20
379.087661
 11
217.687746
 21
379.033838
  0
LINE
  8
CSLAYER1
  6
CONTINUOUS
 62
     6
 10
217.687746
 20
379.033838
 11
217.825095
 21
378.970068
  0
LINE
  8
CSLAYER1
  6
CONTINUOUS
 62
     6
 10
217.825095
 20
378.970068
 11
217.953833
 21
378.897187
  0
LINE
  8
CSLAYER1
  6
CONTINUOUS
 62
     6
 10
217.953833
 20
378.897187
 11
218.072952
 21
378.816136
  0
LINE
  8
CSLAYER1
  6
CONTINUOUS
 62
     6
 10
218.072952
 20
378.816136
 11
218.181611
 21
378.727927
  0
LINE
  8
CSLAYER1
  6
CONTINUOUS
 62
     6
 10
218.181611
 20
378.727927
 11
218.246769
 21
378.664926
  0
LINE
  8
CSLAYER1
  6
CONTINUOUS
 62
     6
 10
218.246769
 20
378.664926
 11
218.246769
 21
379.052258
  0
LINE
  8
CSLAYER1
  6
CONTINUOUS
 62
     6
 10
218.246769
 20
379.052258
 11
218.181611
 21
379.115259
  0
LINE
  8
CSLAYER1
  6
CONTINUOUS
 62
     6
 10
218.181611
 20
379.115259
 11
218.072952
 21
379.203468
  0
LINE
  8
CSLAYER1
  6
CONTINUOUS
 62
     6
 10
218.072952
 20
379.203468
 11
217.953833
 21
379.284520
  0
LINE
  8
CSLAYER1
  6
CONTINUOUS
 62
     6
 10
217.953833
 20
379.284520
 11
217.825095
 21
379.357400
  0
LINE
  8
CSLAYER1
  6
CONTINUOUS
 62
     6
 10
217.825095
 20
379.357400
 11
217.687746
 21
379.421171
  0
LINE
  8
CSLAYER1
  6
CONTINUOUS
 62
     6
 10
217.687746
 20
379.421171
 11
217.542941
 21
379.474994
  0
LINE
  8
CSLAYER1
  6
CONTINUOUS
 62
     6
 10
217.542941
 20
379.474994
 11
217.391958
 21
379.518153
  0
LINE
  8
CSLAYER1
  6
CONTINUOUS
 62
     6
 10
217.391958
 20
379.518153
 11
217.274552
 21
379.542208
  0
LINE
  8
CSLAYER1
  6
CONTINUOUS
 62
     6
 10
217.274552
 20
379.542208
 11
217.274552
 21
379.933158
  0
LINE
  8
CSLAYER1
  6
CONTINUOUS
 62
     6
 10
216.496768
 20
379.933157
 11
216.496768
 21
379.542208
  0
LINE
  8
CSLAYER1
  6
CONTINUOUS
 62
     6
 10
216.496768
 20
379.541904
 11
216.437667
 21
379.531545
  0
LINE
  8
CSLAYER1
  6
CONTINUOUS
 62
     6
 10
216.437667
 20
379.531545
 11
216.284707
 21
379.492568
  0
LINE
  8
CSLAYER1
  6
CONTINUOUS
 62
     6
 10
216.284707
 20
379.492568
 11
216.137414
 21
379.442693
  0
LINE
  8
CSLAYER1
  6
CONTINUOUS
 62
     6
 10
216.137414
 20
379.442693
 11
215.997109
 21
379.382584
  0
LINE
  8
CSLAYER1
  6
CONTINUOUS
 62
     6
 10
215.997109
 20
379.382584
 11
215.864994
 21
379.313036
  0
LINE
  8
CSLAYER1
  6
CONTINUOUS
 62
     6
 10
215.864994
 20
379.313036
 11
215.742137
 21
379.234953
  0
LINE
  8
CSLAYER1
  6
CONTINUOUS
 62
     6
 10
215.742137
 20
379.234953
 11
215.629442
 21
379.149322
  0
LINE
  8
CSLAYER1
  6
CONTINUOUS
 62
     6
 10
215.629442
 20
379.149322
 11
215.524547
 21
379.054389
  0
LINE
  8
CSLAYER1
  6
CONTINUOUS
 62
     6
 10
215.524547
 20
379.054389
 11
215.524547
 21
378.667057
  0
LINE
  8
CSLAYER1
  6
CONTINUOUS
 62
     6
 10
215.524547
 20
378.667057
 11
215.629442
 21
378.761990
  0
LINE
  8
CSLAYER1
  6
CONTINUOUS
 62
     6
 10
215.629442
 20
378.761990
 11
215.742137
 21
378.847620
  0
LINE
  8
CSLAYER1
  6
CONTINUOUS
 62
     6
 10
215.742137
 20
378.847620
 11
215.864994
 21
378.925704
  0
LINE
  8
CSLAYER1
  6
CONTINUOUS
 62
     6
 10
215.864994
 20
378.925704
 11
215.997109
 21
378.995252
  0
LINE
  8
CSLAYER1
  6
CONTINUOUS
 62
     6
 10
215.997109
 20
378.995252
 11
216.137414
 21
379.055360
  0
LINE
  8
CSLAYER1
  6
CONTINUOUS
 62
     6
 10
216.137414
 20
379.055360
 11
216.284707
 21
379.105236
  0
LINE
  8
CSLAYER1
  6
CONTINUOUS
 62
     6
 10
216.284707
 20
379.105236
 11
216.437667
 21
379.144213
  0
LINE
  8
CSLAYER1
  6
CONTINUOUS
 62
     6
 10
216.437667
 20
379.144213
 11
216.496768
 21
379.154571
  0
LINE
  8
CSLAYER1
  6
CONTINUOUS
 62
     6
 10
216.496768
 20
379.154875
 11
216.496768
 21
377.942151
  0
ARC
  8
CSLAYER1
  6
CONTINUOUS
 62
     6
 10
216.636768
 20
377.942151
 40
0.140000
 50
180.000000
 51
270.000000
  0
LINE
  8
CSLAYER1
  6
CONTINUOUS
 62
     6
 10
216.636768
 20
377.802151
 11
217.134552
 21
377.802151
  0
ARC
  8
CSLAYER1
  6
CONTINUOUS
 62
     6
 10
223.099345
 20
383.730641
 40
1.000000
 50
270.000001
 51
353.999989
  0
LINE
  8
CSLAYER1
  6
CONTINUOUS
 62
     6
 10
224.093913
 20
383.626149
 11
224.791545
 21
390.263600
  0
ARC
  8
CSLAYER1
  6
CONTINUOUS
 62
     6
 10
225.786052
 20
390.159108
 40
1.000000
 50
90.000003
 51
173.999998
  0
LINE
  8
CSLAYER1
  6
CONTINUOUS
 62
     6
 10
225.786052
 20
391.159108
 11
261.985210
 21
391.159108
  0
ARC
  8
CSLAYER1
  6
CONTINUOUS
 62
     6
 10
261.985210
 20
390.159108
 40
1.000000
 50
6.000003
 51
90.000016
  0
LINE
  8
CSLAYER1
  6
CONTINUOUS
 62
     6
 10
262.979777
 20
390.263600
 11
263.677409
 21
383.626149
  0
ARC
  8
CSLAYER1
  6
CONTINUOUS
 62
     6
 10
264.671916
 20
383.730641
 40
1.000000
 50
186.000026
 51
270.000001
  0
ARC
  8
CSLAYER1
  6
CONTINUOUS
 62
     6
 10
264.622295
 20
388.202931
 40
1.000000
 50
186.000026
 51
270.000001
  0
LINE
  8
CSLAYER1
  6
CONTINUOUS
 62
     6
 10
263.627727
 20
388.098378
 11
262.979777
 21
394.263600
  0
ARC
  8
CSLAYER1
  6
CONTINUOUS
 62
     6
 10
261.985210
 20
394.159108
 40
1.000000
 50
6.000003
 51
90.000016
  0
LINE
  8
CSLAYER1
  6
CONTINUOUS
 62
     6
 10
261.985210
 20
395.159108
 11
225.786052
 21
395.159108
  0
ARC
  8
CSLAYER1
  6
CONTINUOUS
 62
     6
 10
225.786052
 20
394.159108
 40
1.000000
 50
90.000003
 51
173.999998
  0
LINE
  8
CSLAYER1
  6
CONTINUOUS
 62
     6
 10
224.791545
 20
394.263600
 11
224.143535
 21
388.098378
  0
ARC
  8
CSLAYER1
  6
CONTINUOUS
 62
     6
 10
223.149028
 20
388.202931
 40
1.000000
 50
270.000001
 51
353.999989
  0
LINE
  8
CSLAYER1
  6
CONTINUOUS
 62
     6
 10
224.360087
 20
390.159108
 11
219.885661
 21
390.159108
  0
LINE
  8
CSLAYER1
  6
CONTINUOUS
 62
     6
 10
227.571635
 20
382.552296
 11
259.528728
 21
382.552296
  0
LINE
  8
CSLAYER1
  6
CONTINUOUS
 62
     6
 10
263.410625
 20
390.159108
 11
264.885661
 21
390.159108
  0
POLYLINE
  8
CSLAYER1
  6
CONTINUOUS
 62
     6
 66
     1
 10
0.0
 20
0.0
 30
0.0
  0
VERTEX
  8
CSLAYER1
  6
CONTINUOUS
 62
     6
 10
219.335329
 20
377.825204
 30
0.0
  0
VERTEX
  8
CSLAYER1
  6
CONTINUOUS
 62
     6
 10
219.329523
 20
378.008337
 30
0.0
  0
VERTEX
  8
CSLAYER1
  6
CONTINUOUS
 62
     6
 10
219.305118
 20
378.190341
 30
0.0
  0
VERTEX
  8
CSLAYER1
  6
CONTINUOUS
 62
     6
 10
219.262300
 20
378.369828
 30
0.0
  0
VERTEX
  8
CSLAYER1
  6
CONTINUOUS
 62
     6
 10
219.201394
 20
378.545434
 30
0.0
  0
VERTEX
  8
CSLAYER1
  6
CONTINUOUS
 62
     6
 10
219.122863
 20
378.715821
 30
0.0
  0
VERTEX
  8
CSLAYER1
  6
CONTINUOUS
 62
     6
 10
219.027306
 20
378.879694
 30
0.0
  0
VERTEX
  8
CSLAYER1
  6
CONTINUOUS
 62
     6
 10
218.915450
 20
379.035804
 30
0.0
  0
VERTEX
  8
CSLAYER1
  6
CONTINUOUS
 62
     6
 10
218.788146
 20
379.182964
 30
0.0
  0
VERTEX
  8
CSLAYER1
  6
CONTINUOUS
 62
     6
 10
218.646364
 20
379.320054
 30
0.0
  0
VERTEX
  8
CSLAYER1
  6
CONTINUOUS
 62
     6
 10
218.491181
 20
379.446031
 30
0.0
  0
VERTEX
  8
CSLAYER1
  6
CONTINUOUS
 62
     6
 10
218.323779
 20
379.559935
 30
0.0
  0
VERTEX
  8
CSLAYER1
  6
CONTINUOUS
 62
     6
 10
218.145432
 20
379.660899
 30
0.0
  0
VERTEX
  8
CSLAYER1
  6
CONTINUOUS
 62
     6
 10
217.957497
 20
379.748157
 30
0.0
  0
VERTEX
  8
CSLAYER1
  6
CONTINUOUS
 62
     6
 10
217.761405
 20
379.821042
 30
0.0
  0
VERTEX
  8
CSLAYER1
  6
CONTINUOUS
 62
     6
 10
217.558649
 20
379.879001
 30
0.0
  0
VERTEX
  8
CSLAYER1
  6
CONTINUOUS
 62
     6
 10
217.350770
 20
379.921593
 30
0.0
  0
VERTEX
  8
CSLAYER1
  6
CONTINUOUS
 62
     6
 10
217.139352
 20
379.948493
 30
0.0
  0
VERTEX
  8
CSLAYER1
  6
CONTINUOUS
 62
     6
 10
216.926002
 20
379.959497
 30
0.0
  0
VERTEX
  8
CSLAYER1
  6
CONTINUOUS
 62
     6
 10
216.712346
 20
379.954521
 30
0.0
  0
VERTEX
  8
CSLAYER1
  6
CONTINUOUS
 62
     6
 10
216.500009
 20
379.933602
 30
0.0
  0
VERTEX
  8
CSLAYER1
  6
CONTINUOUS
 62
     6
 10
216.290607
 20
379.896900
 30
0.0
  0
VERTEX
  8
CSLAYER1
  6
CONTINUOUS
 62
     6
 10
216.085734
 20
379.844695
 30
0.0
  0
VERTEX
  8
CSLAYER1
  6
CONTINUOUS
 62
     6
 10
215.886948
 20
379.777383
 30
0.0
  0
VERTEX
  8
CSLAYER1
  6
CONTINUOUS
 62
     6
 10
215.695764
 20
379.695478
 30
0.0
  0
VERTEX
  8
CSLAYER1
  6
CONTINUOUS
 62
     6
 10
215.513635
 20
379.599601
 30
0.0
  0
VERTEX
  8
CSLAYER1
  6
CONTINUOUS
 62
     6
 10
215.341948
 20
379.490483
 30
0.0
  0
VERTEX
  8
CSLAYER1
  6
CONTINUOUS
 62
     6
 10
215.182010
 20
379.368955
 30
0.0
  0
VERTEX
  8
CSLAYER1
  6
CONTINUOUS
 62
     6
 10
215.035038
 20
379.235941
 30
0.0
  0
VERTEX
  8
CSLAYER1
  6
CONTINUOUS
 62
     6
 10
214.902150
 20
379.092454
 30
0.0
  0
VERTEX
  8
CSLAYER1
  6
CONTINUOUS
 62
     6
 10
214.784357
 20
378.939585
 30
0.0
  0
VERTEX
  8
CSLAYER1
  6
CONTINUOUS
 62
     6
 10
214.682557
 20
378.778498
 30
0.0
  0
VERTEX
  8
CSLAYER1
  6
CONTINUOUS
 62
     6
 10
214.597524
 20
378.610420
 30
0.0
  0
VERTEX
  8
CSLAYER1
  6
CONTINUOUS
 62
     6
 10
214.529905
 20
378.436628
 30
0.0
  0
VERTEX
  8
CSLAYER1
  6
CONTINUOUS
 62
     6
 10
214.480214
 20
378.258446
 30
0.0
  0
VERTEX
  8
CSLAYER1
  6
CONTINUOUS
 62
     6
 10
214.448831
 20
378.077231
 30
0.0
  0
VERTEX
  8
CSLAYER1
  6
CONTINUOUS
 62
     6
 10
214.435993
 20
377.894360
 30
0.0
  0
VERTEX
  8
CSLAYER1
  6
CONTINUOUS
 62
     6
 10
214.435993
 20
377.825204
 30
0.0
  0
SEQEND
  0
POLYLINE
  8
CSLAYER1
  6
CONTINUOUS
 62
     6
 66
     1
 10
0.0
 20
0.0
 30
0.0
  0
VERTEX
  8
CSLAYER1
  6
CONTINUOUS
 62
     6
 10
214.435661
 20
377.802151
 30
0.0
  0
VERTEX
  8
CSLAYER1
  6
CONTINUOUS
 62
     6
 10
214.444984
 20
377.702466
 30
0.0
  0
VERTEX
  8
CSLAYER1
  6
CONTINUOUS
 62
     6
 10
214.472882
 20
377.603540
 30
0.0
  0
VERTEX
  8
CSLAYER1
  6
CONTINUOUS
 62
     6
 10
214.519143
 20
377.506125
 30
0.0
  0
VERTEX
  8
CSLAYER1
  6
CONTINUOUS
 62
     6
 10
214.583414
 20
377.410963
 30
0.0
  0
VERTEX
  8
CSLAYER1
  6
CONTINUOUS
 62
     6
 10
214.665207
 20
377.318779
 30
0.0
  0
VERTEX
  8
CSLAYER1
  6
CONTINUOUS
 62
     6
 10
214.763899
 20
377.230273
 30
0.0
  0
VERTEX
  8
CSLAYER1
  6
CONTINUOUS
 62
     6
 10
214.878739
 20
377.146119
 30
0.0
  0
VERTEX
  8
CSLAYER1
  6
CONTINUOUS
 62
     6
 10
215.008852
 20
377.066958
 30
0.0
  0
VERTEX
  8
CSLAYER1
  6
CONTINUOUS
 62
     6
 10
215.153250
 20
376.993393
 30
0.0
  0
VERTEX
  8
CSLAYER1
  6
CONTINUOUS
 62
     6
 10
215.310832
 20
376.925982
 30
0.0
  0
VERTEX
  8
CSLAYER1
  6
CONTINUOUS
 62
     6
 10
215.480399
 20
376.865240
 30
0.0
  0
VERTEX
  8
CSLAYER1
  6
CONTINUOUS
 62
     6
 10
215.660661
 20
376.811628
 30
0.0
  0
VERTEX
  8
CSLAYER1
  6
CONTINUOUS
 62
     6
 10
215.850246
 20
376.765555
 30
0.0
  0
VERTEX
  8
CSLAYER1
  6
CONTINUOUS
 62
     6
 10
216.047712
 20
376.727371
 30
0.0
  0
VERTEX
  8
CSLAYER1
  6
CONTINUOUS
 62
     6
 10
216.251555
 20
376.697366
 30
0.0
  0
VERTEX
  8
CSLAYER1
  6
CONTINUOUS
 62
     6
 10
216.460223
 20
376.675770
 30
0.0
  0
VERTEX
  8
CSLAYER1
  6
CONTINUOUS
 62
     6
 10
216.672130
 20
376.662746
 30
0.0
  0
VERTEX
  8
CSLAYER1
  6
CONTINUOUS
 62
     6
 10
216.885661
 20
376.658394
 30
0.0
  0
VERTEX
  8
CSLAYER1
  6
CONTINUOUS
 62
     6
 10
217.099193
 20
376.662746
 30
0.0
  0
VERTEX
  8
CSLAYER1
  6
CONTINUOUS
 62
     6
 10
217.311099
 20
376.675770
 30
0.0
  0
VERTEX
  8
CSLAYER1
  6
CONTINUOUS
 62
     6
 10
217.519768
 20
376.697366
 30
0.0
  0
VERTEX
  8
CSLAYER1
  6
CONTINUOUS
 62
     6
 10
217.723611
 20
376.727371
 30
0.0
  0
VERTEX
  8
CSLAYER1
  6
CONTINUOUS
 62
     6
 10
217.921076
 20
376.765555
 30
0.0
  0
VERTEX
  8
CSLAYER1
  6
CONTINUOUS
 62
     6
 10
218.110661
 20
376.811628
 30
0.0
  0
VERTEX
  8
CSLAYER1
  6
CONTINUOUS
 62
     6
 10
218.290923
 20
376.865240
 30
0.0
  0
VERTEX
  8
CSLAYER1
  6
CONTINUOUS
 62
     6
 10
218.460491
 20
376.925982
 30
0.0
  0
VERTEX
  8
CSLAYER1
  6
CONTINUOUS
 62
     6
 10
218.618073
 20
376.993393
 30
0.0
  0
VERTEX
  8
CSLAYER1
  6
CONTINUOUS
 62
     6
 10
218.762470
 20
377.066958
 30
0.0
  0
VERTEX
  8
CSLAYER1
  6
CONTINUOUS
 62
     6
 10
218.892584
 20
377.146119
 30
0.0
  0
VERTEX
  8
CSLAYER1
  6
CONTINUOUS
 62
     6
 10
219.007423
 20
377.230273
 30
0.0
  0
VERTEX
  8
CSLAYER1
  6
CONTINUOUS
 62
     6
 10
219.106115
 20
377.318779
 30
0.0
  0
VERTEX
  8
CSLAYER1
  6
CONTINUOUS
 62
     6
 10
219.187908
 20
377.410963
 30
0.0
  0
VERTEX
  8
CSLAYER1
  6
CONTINUOUS
 62
     6
 10
219.252179
 20
377.506125
 30
0.0
  0
VERTEX
  8
CSLAYER1
  6
CONTINUOUS
 62
     6
 10
219.298440
 20
377.603540
 30
0.0
  0
VERTEX
  8
CSLAYER1
  6
CONTINUOUS
 62
     6
 10
219.326338
 20
377.702466
 30
0.0
  0
VERTEX
  8
CSLAYER1
  6
CONTINUOUS
 62
     6
 10
219.335661
 20
377.802151
 30
0.0
  0
SEQEND
  0
POLYLINE
  8
CSLAYER1
  6
CONTINUOUS
 62
     6
 66
     1
 10
0.0
 20
0.0
 30
0.0
  0
VERTEX
  8
CSLAYER1
  6
CONTINUOUS
 62
     6
 10
214.850362
 20
378.967859
 30
0.0
  0
VERTEX
  8
CSLAYER1
  6
CONTINUOUS
 62
     6
 10
214.690515
 20
378.855886
 30
0.0
  0
VERTEX
  8
CSLAYER1
  6
CONTINUOUS
 62
     6
 10
214.547374
 20
378.735894
 30
0.0
  0
VERTEX
  8
CSLAYER1
  6
CONTINUOUS
 62
     6
 10
214.422029
 20
378.608796
 30
0.0
  0
VERTEX
  8
CSLAYER1
  6
CONTINUOUS
 62
     6
 10
214.315434
 20
378.475558
 30
0.0
  0
VERTEX
  8
CSLAYER1
  6
CONTINUOUS
 62
     6
 10
214.228400
 20
378.337196
 30
0.0
  0
VERTEX
  8
CSLAYER1
  6
CONTINUOUS
 62
     6
 10
214.161589
 20
378.194761
 30
0.0
  0
VERTEX
  8
CSLAYER1
  6
CONTINUOUS
 62
     6
 10
214.115510
 20
378.049339
 30
0.0
  0
VERTEX
  8
CSLAYER1
  6
CONTINUOUS
 62
     6
 10
214.090513
 20
377.902035
 30
0.0
  0
VERTEX
  8
CSLAYER1
  6
CONTINUOUS
 62
     6
 10
214.086789
 20
377.753971
 30
0.0
  0
VERTEX
  8
CSLAYER1
  6
CONTINUOUS
 62
     6
 10
214.104367
 20
377.606274
 30
0.0
  0
VERTEX
  8
CSLAYER1
  6
CONTINUOUS
 62
     6
 10
214.143111
 20
377.460068
 30
0.0
  0
VERTEX
  8
CSLAYER1
  6
CONTINUOUS
 62
     6
 10
214.202729
 20
377.316465
 30
0.0
  0
VERTEX
  8
CSLAYER1
  6
CONTINUOUS
 62
     6
 10
214.282764
 20
377.176558
 30
0.0
  0
VERTEX
  8
CSLAYER1
  6
CONTINUOUS
 62
     6
 10
214.382610
 20
377.041412
 30
0.0
  0
VERTEX
  8
CSLAYER1
  6
CONTINUOUS
 62
     6
 10
214.501505
 20
376.912057
 30
0.0
  0
VERTEX
  8
CSLAYER1
  6
CONTINUOUS
 62
     6
 10
214.638545
 20
376.789475
 30
0.0
  0
VERTEX
  8
CSLAYER1
  6
CONTINUOUS
 62
     6
 10
214.792687
 20
376.674600
 30
0.0
  0
VERTEX
  8
CSLAYER1
  6
CONTINUOUS
 62
     6
 10
214.962758
 20
376.568307
 30
0.0
  0
VERTEX
  8
CSLAYER1
  6
CONTINUOUS
 62
     6
 10
215.147463
 20
376.471404
 30
0.0
  0
VERTEX
  8
CSLAYER1
  6
CONTINUOUS
 62
     6
 10
215.345397
 20
376.384629
 30
0.0
  0
VERTEX
  8
CSLAYER1
  6
CONTINUOUS
 62
     6
 10
215.555054
 20
376.308642
 30
0.0
  0
VERTEX
  8
CSLAYER1
  6
CONTINUOUS
 62
     6
 10
215.774837
 20
376.244022
 30
0.0
  0
VERTEX
  8
CSLAYER1
  6
CONTINUOUS
 62
     6
 10
216.003074
 20
376.191259
 30
0.0
  0
VERTEX
  8
CSLAYER1
  6
CONTINUOUS
 62
     6
 10
216.238028
 20
376.150757
 30
0.0
  0
VERTEX
  8
CSLAYER1
  6
CONTINUOUS
 62
     6
 10
216.477911
 20
376.122823
 30
0.0
  0
VERTEX
  8
CSLAYER1
  6
CONTINUOUS
 62
     6
 10
216.720897
 20
376.107670
 30
0.0
  0
VERTEX
  8
CSLAYER1
  6
CONTINUOUS
 62
     6
 10
216.965137
 20
376.105412
 30
0.0
  0
VERTEX
  8
CSLAYER1
  6
CONTINUOUS
 62
     6
 10
217.208773
 20
376.116068
 30
0.0
  0
VERTEX
  8
CSLAYER1
  6
CONTINUOUS
 62
     6
 10
217.449949
 20
376.139556
 30
0.0
  0
VERTEX
  8
CSLAYER1
  6
CONTINUOUS
 62
     6
 10
217.686830
 20
376.175697
 30
0.0
  0
VERTEX
  8
CSLAYER1
  6
CONTINUOUS
 62
     6
 10
217.917615
 20
376.224217
 30
0.0
  0
VERTEX
  8
CSLAYER1
  6
CONTINUOUS
 62
     6
 10
218.140545
 20
376.284745
 30
0.0
  0
VERTEX
  8
CSLAYER1
  6
CONTINUOUS
 62
     6
 10
218.353925
 20
376.356822
 30
0.0
  0
VERTEX
  8
CSLAYER1
  6
CONTINUOUS
 62
     6
 10
218.556131
 20
376.439899
 30
0.0
  0
VERTEX
  8
CSLAYER1
  6
CONTINUOUS
 62
     6
 10
218.745624
 20
376.533343
 30
0.0
  0
VERTEX
  8
CSLAYER1
  6
CONTINUOUS
 62
     6
 10
218.920960
 20
376.636444
 30
0.0
  0
VERTEX
  8
CSLAYER1
  6
CONTINUOUS
 62
     6
 10
219.080808
 20
376.748417
 30
0.0
  0
VERTEX
  8
CSLAYER1
  6
CONTINUOUS
 62
     6
 10
219.223948
 20
376.868409
 30
0.0
  0
VERTEX
  8
CSLAYER1
  6
CONTINUOUS
 62
     6
 10
219.349293
 20
376.995507
 30
0.0
  0
VERTEX
  8
CSLAYER1
  6
CONTINUOUS
 62
     6
 10
219.455889
 20
377.128744
 30
0.0
  0
VERTEX
  8
CSLAYER1
  6
CONTINUOUS
 62
     6
 10
219.542923
 20
377.267107
 30
0.0
  0
VERTEX
  8
CSLAYER1
  6
CONTINUOUS
 62
     6
 10
219.609734
 20
377.409541
 30
0.0
  0
VERTEX
  8
CSLAYER1
  6
CONTINUOUS
 62
     6
 10
219.655813
 20
377.554964
 30
0.0
  0
VERTEX
  8
CSLAYER1
  6
CONTINUOUS
 62
     6
 10
219.680809
 20
377.702268
 30
0.0
  0
VERTEX
  8
CSLAYER1
  6
CONTINUOUS
 62
     6
 10
219.684533
 20
377.850332
 30
0.0
  0
VERTEX
  8
CSLAYER1
  6
CONTINUOUS
 62
     6
 10
219.666956
 20
377.998029
 30
0.0
  0
VERTEX
  8
CSLAYER1
  6
CONTINUOUS
 62
     6
 10
219.628211
 20
378.144235
 30
0.0
  0
VERTEX
  8
CSLAYER1
  6
CONTINUOUS
 62
     6
 10
219.568594
 20
378.287838
 30
0.0
  0
VERTEX
  8
CSLAYER1
  6
CONTINUOUS
 62
     6
 10
219.488558
 20
378.427745
 30
0.0
  0
VERTEX
  8
CSLAYER1
  6
CONTINUOUS
 62
     6
 10
219.388713
 20
378.562890
 30
0.0
  0
VERTEX
  8
CSLAYER1
  6
CONTINUOUS
 62
     6
 10
219.269817
 20
378.692246
 30
0.0
  0
VERTEX
  8
CSLAYER1
  6
CONTINUOUS
 62
     6
 10
219.132777
 20
378.814828
 30
0.0
  0
VERTEX
  8
CSLAYER1
  6
CONTINUOUS
 62
     6
 10
218.978635
 20
378.929702
 30
0.0
  0
VERTEX
  8
CSLAYER1
  6
CONTINUOUS
 62
     6
 10
218.970244
 20
378.935401
 30
0.0
  0
SEQEND
  0
POLYLINE
  8
CSLAYER1
  6
CONTINUOUS
 62
     6
 66
     1
 10
0.0
 20
0.0
 30
0.0
  0
VERTEX
  8
CSLAYER1
  6
CONTINUOUS
 62
     6
 10
214.435993
 20
314.493042
 30
0.0
  0
VERTEX
  8
CSLAYER1
  6
CONTINUOUS
 62
     6
 10
214.441799
 20
314.309909
 30
0.0
  0
VERTEX
  8
CSLAYER1
  6
CONTINUOUS
 62
     6
 10
214.466204
 20
314.127905
 30
0.0
  0
VERTEX
  8
CSLAYER1
  6
CONTINUOUS
 62
     6
 10
214.509023
 20
313.948418
 30
0.0
  0
VERTEX
  8
CSLAYER1
  6
CONTINUOUS
 62
     6
 10
214.569929
 20
313.772812
 30
0.0
  0
VERTEX
  8
CSLAYER1
  6
CONTINUOUS
 62
     6
 10
214.648459
 20
313.602425
 30
0.0
  0
VERTEX
  8
CSLAYER1
  6
CONTINUOUS
 62
     6
 10
214.744016
 20
313.438552
 30
0.0
  0
VERTEX
  8
CSLAYER1
  6
CONTINUOUS
 62
     6
 10
214.855872
 20
313.282442
 30
0.0
  0
VERTEX
  8
CSLAYER1
  6
CONTINUOUS
 62
     6
 10
214.983176
 20
313.135282
 30
0.0
  0
VERTEX
  8
CSLAYER1
  6
CONTINUOUS
 62
     6
 10
215.124959
 20
312.998192
 30
0.0
  0
VERTEX
  8
CSLAYER1
  6
CONTINUOUS
 62
     6
 10
215.280142
 20
312.872215
 30
0.0
  0
VERTEX
  8
CSLAYER1
  6
CONTINUOUS
 62
     6
 10
215.447544
 20
312.758311
 30
0.0
  0
VERTEX
  8
CSLAYER1
  6
CONTINUOUS
 62
     6
 10
215.625891
 20
312.657346
 30
0.0
  0
VERTEX
  8
CSLAYER1
  6
CONTINUOUS
 62
     6
 10
215.813825
 20
312.570089
 30
0.0
  0
VERTEX
  8
CSLAYER1
  6
CONTINUOUS
 62
     6
 10
216.009917
 20
312.497204
 30
0.0
  0
VERTEX
  8
CSLAYER1
  6
CONTINUOUS
 62
     6
 10
216.212674
 20
312.439244
 30
0.0
  0
VERTEX
  8
CSLAYER1
  6
CONTINUOUS
 62
     6
 10
216.420552
 20
312.396653
 30
0.0
  0
VERTEX
  8
CSLAYER1
  6
CONTINUOUS
 62
     6
 10
216.631971
 20
312.369753
 30
0.0
  0
VERTEX
  8
CSLAYER1
  6
CONTINUOUS
 62
     6
 10
216.845320
 20
312.358749
 30
0.0
  0
VERTEX
  8
CSLAYER1
  6
CONTINUOUS
 62
     6
 10
217.058976
 20
312.363725
 30
0.0
  0
VERTEX
  8
CSLAYER1
  6
CONTINUOUS
 62
     6
 10
217.271313
 20
312.384644
 30
0.0
  0
VERTEX
  8
CSLAYER1
  6
CONTINUOUS
 62
     6
 10
217.480715
 20
312.421345
 30
0.0
  0
VERTEX
  8
CSLAYER1
  6
CONTINUOUS
 62
     6
 10
217.685589
 20
312.473551
 30
0.0
  0
VERTEX
  8
CSLAYER1
  6
CONTINUOUS
 62
     6
 10
217.884374
 20
312.540862
 30
0.0
  0
VERTEX
  8
CSLAYER1
  6
CONTINUOUS
 62
     6
 10
218.075559
 20
312.622768
 30
0.0
  0
VERTEX
  8
CSLAYER1
  6
CONTINUOUS
 62
     6
 10
218.257687
 20
312.718645
 30
0.0
  0
VERTEX
  8
CSLAYER1
  6
CONTINUOUS
 62
     6
 10
218.429374
 20
312.827762
 30
0.0
  0
VERTEX
  8
CSLAYER1
  6
CONTINUOUS
 62
     6
 10
218.589312
 20
312.949291
 30
0.0
  0
VERTEX
  8
CSLAYER1
  6
CONTINUOUS
 62
     6
 10
218.736285
 20
313.082305
 30
0.0
  0
VERTEX
  8
CSLAYER1
  6
CONTINUOUS
 62
     6
 10
218.869173
 20
313.225792
 30
0.0
  0
VERTEX
  8
CSLAYER1
  6
CONTINUOUS
 62
     6
 10
218.986965
 20
313.378661
 30
0.0
  0
VERTEX
  8
CSLAYER1
  6
CONTINUOUS
 62
     6
 10
219.088765
 20
313.539748
 30
0.0
  0
VERTEX
  8
CSLAYER1
  6
CONTINUOUS
 62
     6
 10
219.173798
 20
313.707826
 30
0.0
  0
VERTEX
  8
CSLAYER1
  6
CONTINUOUS
 62
     6
 10
219.241418
 20
313.881618
 30
0.0
  0
VERTEX
  8
CSLAYER1
  6
CONTINUOUS
 62
     6
 10
219.291108
 20
314.059800
 30
0.0
  0
VERTEX
  8
CSLAYER1
  6
CONTINUOUS
 62
     6
 10
219.322491
 20
314.241015
 30
0.0
  0
VERTEX
  8
CSLAYER1
  6
CONTINUOUS
 62
     6
 10
219.335329
 20
314.423886
 30
0.0
  0
VERTEX
  8
CSLAYER1
  6
CONTINUOUS
 62
     6
 10
219.335329
 20
314.493042
 30
0.0
  0
SEQEND
  0
POLYLINE
  8
CSLAYER1
  6
CONTINUOUS
 62
     6
 66
     1
 10
0.0
 20
0.0
 30
0.0
  0
VERTEX
  8
CSLAYER1
  6
CONTINUOUS
 62
     6
 10
219.335661
 20
314.516094
 30
0.0
  0
VERTEX
  8
CSLAYER1
  6
CONTINUOUS
 62
     6
 10
219.326338
 20
314.615780
 30
0.0
  0
VERTEX
  8
CSLAYER1
  6
CONTINUOUS
 62
     6
 10
219.298440
 20
314.714706
 30
0.0
  0
VERTEX
  8
CSLAYER1
  6
CONTINUOUS
 62
     6
 10
219.252179
 20
314.812121
 30
0.0
  0
VERTEX
  8
CSLAYER1
  6
CONTINUOUS
 62
     6
 10
219.187908
 20
314.907283
 30
0.0
  0
VERTEX
  8
CSLAYER1
  6
CONTINUOUS
 62
     6
 10
219.106115
 20
314.999467
 30
0.0
  0
VERTEX
  8
CSLAYER1
  6
CONTINUOUS
 62
     6
 10
219.007423
 20
315.087973
 30
0.0
  0
VERTEX
  8
CSLAYER1
  6
CONTINUOUS
 62
     6
 10
218.892584
 20
315.172127
 30
0.0
  0
VERTEX
  8
CSLAYER1
  6
CONTINUOUS
 62
     6
 10
218.762470
 20
315.251288
 30
0.0
  0
VERTEX
  8
CSLAYER1
  6
CONTINUOUS
 62
     6
 10
218.618073
 20
315.324853
 30
0.0
  0
VERTEX
  8
CSLAYER1
  6
CONTINUOUS
 62
     6
 10
218.460491
 20
315.392264
 30
0.0
  0
VERTEX
  8
CSLAYER1
  6
CONTINUOUS
 62
     6
 10
218.290923
 20
315.453006
 30
0.0
  0
VERTEX
  8
CSLAYER1
  6
CONTINUOUS
 62
     6
 10
218.110661
 20
315.506618
 30
0.0
  0
VERTEX
  8
CSLAYER1
  6
CONTINUOUS
 62
     6
 10
217.921076
 20
315.552691
 30
0.0
  0
VERTEX
  8
CSLAYER1
  6
CONTINUOUS
 62
     6
 10
217.723611
 20
315.590875
 30
0.0
  0
VERTEX
  8
CSLAYER1
  6
CONTINUOUS
 62
     6
 10
217.519768
 20
315.620879
 30
0.0
  0
VERTEX
  8
CSLAYER1
  6
CONTINUOUS
 62
     6
 10
217.311099
 20
315.642476
 30
0.0
  0
VERTEX
  8
CSLAYER1
  6
CONTINUOUS
 62
     6
 10
217.099193
 20
315.655500
 30
0.0
  0
VERTEX
  8
CSLAYER1
  6
CONTINUOUS
 62
     6
 10
216.885661
 20
315.659852
 30
0.0
  0
VERTEX
  8
CSLAYER1
  6
CONTINUOUS
 62
     6
 10
216.672130
 20
315.655500
 30
0.0
  0
VERTEX
  8
CSLAYER1
  6
CONTINUOUS
 62
     6
 10
216.460223
 20
315.642476
 30
0.0
  0
VERTEX
  8
CSLAYER1
  6
CONTINUOUS
 62
     6
 10
216.251555
 20
315.620879
 30
0.0
  0
VERTEX
  8
CSLAYER1
  6
CONTINUOUS
 62
     6
 10
216.047712
 20
315.590875
 30
0.0
  0
VERTEX
  8
CSLAYER1
  6
CONTINUOUS
 62
     6
 10
215.850246
 20
315.552691
 30
0.0
  0
VERTEX
  8
CSLAYER1
  6
CONTINUOUS
 62
     6
 10
215.660661
 20
315.506618
 30
0.0
  0
VERTEX
  8
CSLAYER1
  6
CONTINUOUS
 62
     6
 10
215.480399
 20
315.453006
 30
0.0
  0
VERTEX
  8
CSLAYER1
  6
CONTINUOUS
 62
     6
 10
215.310832
 20
315.392264
 30
0.0
  0
VERTEX
  8
CSLAYER1
  6
CONTINUOUS
 62
     6
 10
215.153250
 20
315.324853
 30
0.0
  0
VERTEX
  8
CSLAYER1
  6
CONTINUOUS
 62
     6
 10
215.008852
 20
315.251288
 30
0.0
  0
VERTEX
  8
CSLAYER1
  6
CONTINUOUS
 62
     6
 10
214.878739
 20
315.172127
 30
0.0
  0
VERTEX
  8
CSLAYER1
  6
CONTINUOUS
 62
     6
 10
214.763899
 20
315.087973
 30
0.0
  0
VERTEX
  8
CSLAYER1
  6
CONTINUOUS
 62
     6
 10
214.665207
 20
314.999467
 30
0.0
  0
VERTEX
  8
CSLAYER1
  6
CONTINUOUS
 62
     6
 10
214.583414
 20
314.907283
 30
0.0
  0
VERTEX
  8
CSLAYER1
  6
CONTINUOUS
 62
     6
 10
214.519143
 20
314.812121
 30
0.0
  0
VERTEX
  8
CSLAYER1
  6
CONTINUOUS
 62
     6
 10
214.472882
 20
314.714706
 30
0.0
  0
VERTEX
  8
CSLAYER1
  6
CONTINUOUS
 62
     6
 10
214.444984
 20
314.615780
 30
0.0
  0
VERTEX
  8
CSLAYER1
  6
CONTINUOUS
 62
     6
 10
214.435661
 20
314.516094
 30
0.0
  0
SEQEND
  0
POLYLINE
  8
CSLAYER1
  6
CONTINUOUS
 62
     6
 66
     1
 10
0.0
 20
0.0
 30
0.0
  0
VERTEX
  8
CSLAYER1
  6
CONTINUOUS
 62
     6
 10
218.970244
 20
313.382845
 30
0.0
  0
VERTEX
  8
CSLAYER1
  6
CONTINUOUS
 62
     6
 10
219.125237
 20
313.497298
 30
0.0
  0
VERTEX
  8
CSLAYER1
  6
CONTINUOUS
 62
     6
 10
219.263186
 20
313.619504
 30
0.0
  0
VERTEX
  8
CSLAYER1
  6
CONTINUOUS
 62
     6
 10
219.383040
 20
313.748535
 30
0.0
  0
VERTEX
  8
CSLAYER1
  6
CONTINUOUS
 62
     6
 10
219.483888
 20
313.883406
 30
0.0
  0
VERTEX
  8
CSLAYER1
  6
CONTINUOUS
 62
     6
 10
219.564961
 20
314.023093
 30
0.0
  0
VERTEX
  8
CSLAYER1
  6
CONTINUOUS
 62
     6
 10
219.625644
 20
314.166532
 30
0.0
  0
VERTEX
  8
CSLAYER1
  6
CONTINUOUS
 62
     6
 10
219.665473
 20
314.312631
 30
0.0
  0
VERTEX
  8
CSLAYER1
  6
CONTINUOUS
 62
     6
 10
219.684147
 20
314.460279
 30
0.0
  0
VERTEX
  8
CSLAYER1
  6
CONTINUOUS
 62
     6
 10
219.681522
 20
314.608352
 30
0.0
  0
VERTEX
  8
CSLAYER1
  6
CONTINUOUS
 62
     6
 10
219.657620
 20
314.755722
 30
0.0
  0
VERTEX
  8
CSLAYER1
  6
CONTINUOUS
 62
     6
 10
219.612621
 20
314.901269
 30
0.0
  0
VERTEX
  8
CSLAYER1
  6
CONTINUOUS
 62
     6
 10
219.546868
 20
315.043884
 30
0.0
  0
VERTEX
  8
CSLAYER1
  6
CONTINUOUS
 62
     6
 10
219.460861
 20
315.182483
 30
0.0
  0
VERTEX
  8
CSLAYER1
  6
CONTINUOUS
 62
     6
 10
219.355256
 20
315.316010
 30
0.0
  0
VERTEX
  8
CSLAYER1
  6
CONTINUOUS
 62
     6
 10
219.230856
 20
315.443449
 30
0.0
  0
VERTEX
  8
CSLAYER1
  6
CONTINUOUS
 62
     6
 10
219.088608
 20
315.563830
 30
0.0
  0
VERTEX
  8
CSLAYER1
  6
CONTINUOUS
 62
     6
 10
218.929593
 20
315.676238
 30
0.0
  0
VERTEX
  8
CSLAYER1
  6
CONTINUOUS
 62
     6
 10
218.755023
 20
315.779816
 30
0.0
  0
VERTEX
  8
CSLAYER1
  6
CONTINUOUS
 62
     6
 10
218.566227
 20
315.873776
 30
0.0
  0
VERTEX
  8
CSLAYER1
  6
CONTINUOUS
 62
     6
 10
218.364640
 20
315.957403
 30
0.0
  0
VERTEX
  8
CSLAYER1
  6
CONTINUOUS
 62
     6
 10
218.151797
 20
316.030062
 30
0.0
  0
VERTEX
  8
CSLAYER1
  6
CONTINUOUS
 62
     6
 10
217.929318
 20
316.091198
 30
0.0
  0
VERTEX
  8
CSLAYER1
  6
CONTINUOUS
 62
     6
 10
217.698896
 20
316.140347
 30
0.0
  0
VERTEX
  8
CSLAYER1
  6
CONTINUOUS
 62
     6
 10
217.462285
 20
316.177134
 30
0.0
  0
VERTEX
  8
CSLAYER1
  6
CONTINUOUS
 62
     6
 10
217.221285
 20
316.201279
 30
0.0
  0
VERTEX
  8
CSLAYER1
  6
CONTINUOUS
 62
     6
 10
216.977732
 20
316.212600
 30
0.0
  0
VERTEX
  8
CSLAYER1
  6
CONTINUOUS
 62
     6
 10
216.733477
 20
316.211009
 30
0.0
  0
VERTEX
  8
CSLAYER1
  6
CONTINUOUS
 62
     6
 10
216.490381
 20
316.196518
 30
0.0
  0
VERTEX
  8
CSLAYER1
  6
CONTINUOUS
 62
     6
 10
216.250293
 20
316.169239
 30
0.0
  0
VERTEX
  8
CSLAYER1
  6
CONTINUOUS
 62
     6
 10
216.015041
 20
316.129378
 30
0.0
  0
VERTEX
  8
CSLAYER1
  6
CONTINUOUS
 62
     6
 10
215.786414
 20
316.077239
 30
0.0
  0
VERTEX
  8
CSLAYER1
  6
CONTINUOUS
 62
     6
 10
215.566154
 20
316.013219
 30
0.0
  0
VERTEX
  8
CSLAYER1
  6
CONTINUOUS
 62
     6
 10
215.355935
 20
315.937805
 30
0.0
  0
VERTEX
  8
CSLAYER1
  6
CONTINUOUS
 62
     6
 10
215.157359
 20
315.851570
 30
0.0
  0
VERTEX
  8
CSLAYER1
  6
CONTINUOUS
 62
     6
 10
214.971937
 20
315.755172
 30
0.0
  0
VERTEX
  8
CSLAYER1
  6
CONTINUOUS
 62
     6
 10
214.801078
 20
315.649344
 30
0.0
  0
VERTEX
  8
CSLAYER1
  6
CONTINUOUS
 62
     6
 10
214.646085
 20
315.534891
 30
0.0
  0
VERTEX
  8
CSLAYER1
  6
CONTINUOUS
 62
     6
 10
214.508137
 20
315.412685
 30
0.0
  0
VERTEX
  8
CSLAYER1
  6
CONTINUOUS
 62
     6
 10
214.388282
 20
315.283654
 30
0.0
  0
VERTEX
  8
CSLAYER1
  6
CONTINUOUS
 62
     6
 10
214.287435
 20
315.148783
 30
0.0
  0
VERTEX
  8
CSLAYER1
  6
CONTINUOUS
 62
     6
 10
214.206361
 20
315.009096
 30
0.0
  0
VERTEX
  8
CSLAYER1
  6
CONTINUOUS
 62
     6
 10
214.145679
 20
314.865657
 30
0.0
  0
VERTEX
  8
CSLAYER1
  6
CONTINUOUS
 62
     6
 10
214.105849
 20
314.719558
 30
0.0
  0
VERTEX
  8
CSLAYER1
  6
CONTINUOUS
 62
     6
 10
214.087175
 20
314.571910
 30
0.0
  0
VERTEX
  8
CSLAYER1
  6
CONTINUOUS
 62
     6
 10
214.089800
 20
314.423837
 30
0.0
  0
VERTEX
  8
CSLAYER1
  6
CONTINUOUS
 62
     6
 10
214.113703
 20
314.276467
 30
0.0
  0
VERTEX
  8
CSLAYER1
  6
CONTINUOUS
 62
     6
 10
214.158702
 20
314.130920
 30
0.0
  0
VERTEX
  8
CSLAYER1
  6
CONTINUOUS
 62
     6
 10
214.224455
 20
313.988305
 30
0.0
  0
VERTEX
  8
CSLAYER1
  6
CONTINUOUS
 62
     6
 10
214.310461
 20
313.849706
 30
0.0
  0
VERTEX
  8
CSLAYER1
  6
CONTINUOUS
 62
     6
 10
214.416066
 20
313.716179
 30
0.0
  0
VERTEX
  8
CSLAYER1
  6
CONTINUOUS
 62
     6
 10
214.540466
 20
313.588740
 30
0.0
  0
VERTEX
  8
CSLAYER1
  6
CONTINUOUS
 62
     6
 10
214.682715
 20
313.468359
 30
0.0
  0
VERTEX
  8
CSLAYER1
  6
CONTINUOUS
 62
     6
 10
214.841729
 20
313.355951
 30
0.0
  0
VERTEX
  8
CSLAYER1
  6
CONTINUOUS
 62
     6
 10
214.850362
 20
313.350387
 30
0.0
  0
SEQEND
  0
POLYLINE
  8
CSLAYER1
  6
CONTINUOUS
 62
     6
 66
     1
 10
0.0
 20
0.0
 30
0.0
  0
VERTEX
  8
CSLAYER1
  6
CONTINUOUS
 62
     6
 10
219.335329
 20
117.825204
 30
0.0
  0
VERTEX
  8
CSLAYER1
  6
CONTINUOUS
 62
     6
 10
219.329523
 20
118.008337
 30
0.0
  0
VERTEX
  8
CSLAYER1
  6
CONTINUOUS
 62
     6
 10
219.305118
 20
118.190341
 30
0.0
  0
VERTEX
  8
CSLAYER1
  6
CONTINUOUS
 62
     6
 10
219.262300
 20
118.369828
 30
0.0
  0
VERTEX
  8
CSLAYER1
  6
CONTINUOUS
 62
     6
 10
219.201394
 20
118.545434
 30
0.0
  0
VERTEX
  8
CSLAYER1
  6
CONTINUOUS
 62
     6
 10
219.122863
 20
118.715821
 30
0.0
  0
VERTEX
  8
CSLAYER1
  6
CONTINUOUS
 62
     6
 10
219.027306
 20
118.879694
 30
0.0
  0
VERTEX
  8
CSLAYER1
  6
CONTINUOUS
 62
     6
 10
218.915450
 20
119.035804
 30
0.0
  0
VERTEX
  8
CSLAYER1
  6
CONTINUOUS
 62
     6
 10
218.788146
 20
119.182964
 30
0.0
  0
VERTEX
  8
CSLAYER1
  6
CONTINUOUS
 62
     6
 10
218.646364
 20
119.320054
 30
0.0
  0
VERTEX
  8
CSLAYER1
  6
CONTINUOUS
 62
     6
 10
218.491181
 20
119.446031
 30
0.0
  0
VERTEX
  8
CSLAYER1
  6
CONTINUOUS
 62
     6
 10
218.323779
 20
119.559935
 30
0.0
  0
VERTEX
  8
CSLAYER1
  6
CONTINUOUS
 62
     6
 10
218.145432
 20
119.660899
 30
0.0
  0
VERTEX
  8
CSLAYER1
  6
CONTINUOUS
 62
     6
 10
217.957497
 20
119.748157
 30
0.0
  0
VERTEX
  8
CSLAYER1
  6
CONTINUOUS
 62
     6
 10
217.761405
 20
119.821042
 30
0.0
  0
VERTEX
  8
CSLAYER1
  6
CONTINUOUS
 62
     6
 10
217.558649
 20
119.879001
 30
0.0
  0
VERTEX
  8
CSLAYER1
  6
CONTINUOUS
 62
     6
 10
217.350770
 20
119.921593
 30
0.0
  0
VERTEX
  8
CSLAYER1
  6
CONTINUOUS
 62
     6
 10
217.139352
 20
119.948493
 30
0.0
  0
VERTEX
  8
CSLAYER1
  6
CONTINUOUS
 62
     6
 10
216.926002
 20
119.959497
 30
0.0
  0
VERTEX
  8
CSLAYER1
  6
CONTINUOUS
 62
     6
 10
216.712346
 20
119.954521
 30
0.0
  0
VERTEX
  8
CSLAYER1
  6
CONTINUOUS
 62
     6
 10
216.500009
 20
119.933602
 30
0.0
  0
VERTEX
  8
CSLAYER1
  6
CONTINUOUS
 62
     6
 10
216.290607
 20
119.896900
 30
0.0
  0
VERTEX
  8
CSLAYER1
  6
CONTINUOUS
 62
     6
 10
216.085734
 20
119.844695
 30
0.0
  0
VERTEX
  8
CSLAYER1
  6
CONTINUOUS
 62
     6
 10
215.886948
 20
119.777383
 30
0.0
  0
VERTEX
  8
CSLAYER1
  6
CONTINUOUS
 62
     6
 10
215.695764
 20
119.695478
 30
0.0
  0
VERTEX
  8
CSLAYER1
  6
CONTINUOUS
 62
     6
 10
215.513635
 20
119.599601
 30
0.0
  0
VERTEX
  8
CSLAYER1
  6
CONTINUOUS
 62
     6
 10
215.341948
 20
119.490483
 30
0.0
  0
VERTEX
  8
CSLAYER1
  6
CONTINUOUS
 62
     6
 10
215.182010
 20
119.368955
 30
0.0
  0
VERTEX
  8
CSLAYER1
  6
CONTINUOUS
 62
     6
 10
215.035038
 20
119.235941
 30
0.0
  0
VERTEX
  8
CSLAYER1
  6
CONTINUOUS
 62
     6
 10
214.902150
 20
119.092454
 30
0.0
  0
VERTEX
  8
CSLAYER1
  6
CONTINUOUS
 62
     6
 10
214.784357
 20
118.939585
 30
0.0
  0
VERTEX
  8
CSLAYER1
  6
CONTINUOUS
 62
     6
 10
214.682557
 20
118.778498
 30
0.0
  0
VERTEX
  8
CSLAYER1
  6
CONTINUOUS
 62
     6
 10
214.597524
 20
118.610420
 30
0.0
  0
VERTEX
  8
CSLAYER1
  6
CONTINUOUS
 62
     6
 10
214.529905
 20
118.436628
 30
0.0
  0
VERTEX
  8
CSLAYER1
  6
CONTINUOUS
 62
     6
 10
214.480214
 20
118.258446
 30
0.0
  0
VERTEX
  8
CSLAYER1
  6
CONTINUOUS
 62
     6
 10
214.448831
 20
118.077231
 30
0.0
  0
VERTEX
  8
CSLAYER1
  6
CONTINUOUS
 62
     6
 10
214.435993
 20
117.894360
 30
0.0
  0
VERTEX
  8
CSLAYER1
  6
CONTINUOUS
 62
     6
 10
214.435993
 20
117.825204
 30
0.0
  0
SEQEND
  0
POLYLINE
  8
CSLAYER1
  6
CONTINUOUS
 62
     6
 66
     1
 10
0.0
 20
0.0
 30
0.0
  0
VERTEX
  8
CSLAYER1
  6
CONTINUOUS
 62
     6
 10
214.435661
 20
117.802151
 30
0.0
  0
VERTEX
  8
CSLAYER1
  6
CONTINUOUS
 62
     6
 10
214.444984
 20
117.702466
 30
0.0
  0
VERTEX
  8
CSLAYER1
  6
CONTINUOUS
 62
     6
 10
214.472882
 20
117.603540
 30
0.0
  0
VERTEX
  8
CSLAYER1
  6
CONTINUOUS
 62
     6
 10
214.519143
 20
117.506125
 30
0.0
  0
VERTEX
  8
CSLAYER1
  6
CONTINUOUS
 62
     6
 10
214.583414
 20
117.410963
 30
0.0
  0
VERTEX
  8
CSLAYER1
  6
CONTINUOUS
 62
     6
 10
214.665207
 20
117.318779
 30
0.0
  0
VERTEX
  8
CSLAYER1
  6
CONTINUOUS
 62
     6
 10
214.763899
 20
117.230273
 30
0.0
  0
VERTEX
  8
CSLAYER1
  6
CONTINUOUS
 62
     6
 10
214.878739
 20
117.146119
 30
0.0
  0
VERTEX
  8
CSLAYER1
  6
CONTINUOUS
 62
     6
 10
215.008852
 20
117.066958
 30
0.0
  0
VERTEX
  8
CSLAYER1
  6
CONTINUOUS
 62
     6
 10
215.153250
 20
116.993393
 30
0.0
  0
VERTEX
  8
CSLAYER1
  6
CONTINUOUS
 62
     6
 10
215.310832
 20
116.925982
 30
0.0
  0
VERTEX
  8
CSLAYER1
  6
CONTINUOUS
 62
     6
 10
215.480399
 20
116.865240
 30
0.0
  0
VERTEX
  8
CSLAYER1
  6
CONTINUOUS
 62
     6
 10
215.660661
 20
116.811628
 30
0.0
  0
VERTEX
  8
CSLAYER1
  6
CONTINUOUS
 62
     6
 10
215.850246
 20
116.765555
 30
0.0
  0
VERTEX
  8
CSLAYER1
  6
CONTINUOUS
 62
     6
 10
216.047712
 20
116.727371
 30
0.0
  0
VERTEX
  8
CSLAYER1
  6
CONTINUOUS
 62
     6
 10
216.251555
 20
116.697366
 30
0.0
  0
VERTEX
  8
CSLAYER1
  6
CONTINUOUS
 62
     6
 10
216.460223
 20
116.675770
 30
0.0
  0
VERTEX
  8
CSLAYER1
  6
CONTINUOUS
 62
     6
 10
216.672130
 20
116.662746
 30
0.0
  0
VERTEX
  8
CSLAYER1
  6
CONTINUOUS
 62
     6
 10
216.885661
 20
116.658394
 30
0.0
  0
VERTEX
  8
CSLAYER1
  6
CONTINUOUS
 62
     6
 10
217.099193
 20
116.662746
 30
0.0
  0
VERTEX
  8
CSLAYER1
  6
CONTINUOUS
 62
     6
 10
217.311099
 20
116.675770
 30
0.0
  0
VERTEX
  8
CSLAYER1
  6
CONTINUOUS
 62
     6
 10
217.519768
 20
116.697366
 30
0.0
  0
VERTEX
  8
CSLAYER1
  6
CONTINUOUS
 62
     6
 10
217.723611
 20
116.727371
 30
0.0
  0
VERTEX
  8
CSLAYER1
  6
CONTINUOUS
 62
     6
 10
217.921076
 20
116.765555
 30
0.0
  0
VERTEX
  8
CSLAYER1
  6
CONTINUOUS
 62
     6
 10
218.110661
 20
116.811628
 30
0.0
  0
VERTEX
  8
CSLAYER1
  6
CONTINUOUS
 62
     6
 10
218.290923
 20
116.865240
 30
0.0
  0
VERTEX
  8
CSLAYER1
  6
CONTINUOUS
 62
     6
 10
218.460491
 20
116.925982
 30
0.0
  0
VERTEX
  8
CSLAYER1
  6
CONTINUOUS
 62
     6
 10
218.618073
 20
116.993393
 30
0.0
  0
VERTEX
  8
CSLAYER1
  6
CONTINUOUS
 62
     6
 10
218.762470
 20
117.066958
 30
0.0
  0
VERTEX
  8
CSLAYER1
  6
CONTINUOUS
 62
     6
 10
218.892584
 20
117.146119
 30
0.0
  0
VERTEX
  8
CSLAYER1
  6
CONTINUOUS
 62
     6
 10
219.007423
 20
117.230273
 30
0.0
  0
VERTEX
  8
CSLAYER1
  6
CONTINUOUS
 62
     6
 10
219.106115
 20
117.318779
 30
0.0
  0
VERTEX
  8
CSLAYER1
  6
CONTINUOUS
 62
     6
 10
219.187908
 20
117.410963
 30
0.0
  0
VERTEX
  8
CSLAYER1
  6
CONTINUOUS
 62
     6
 10
219.252179
 20
117.506125
 30
0.0
  0
VERTEX
  8
CSLAYER1
  6
CONTINUOUS
 62
     6
 10
219.298440
 20
117.603540
 30
0.0
  0
VERTEX
  8
CSLAYER1
  6
CONTINUOUS
 62
     6
 10
219.326338
 20
117.702466
 30
0.0
  0
VERTEX
  8
CSLAYER1
  6
CONTINUOUS
 62
     6
 10
219.335661
 20
117.802151
 30
0.0
  0
SEQEND
  0
POLYLINE
  8
CSLAYER1
  6
CONTINUOUS
 62
     6
 66
     1
 10
0.0
 20
0.0
 30
0.0
  0
VERTEX
  8
CSLAYER1
  6
CONTINUOUS
 62
     6
 10
214.850362
 20
118.967859
 30
0.0
  0
VERTEX
  8
CSLAYER1
  6
CONTINUOUS
 62
     6
 10
214.690515
 20
118.855886
 30
0.0
  0
VERTEX
  8
CSLAYER1
  6
CONTINUOUS
 62
     6
 10
214.547374
 20
118.735894
 30
0.0
  0
VERTEX
  8
CSLAYER1
  6
CONTINUOUS
 62
     6
 10
214.422029
 20
118.608796
 30
0.0
  0
VERTEX
  8
CSLAYER1
  6
CONTINUOUS
 62
     6
 10
214.315434
 20
118.475558
 30
0.0
  0
VERTEX
  8
CSLAYER1
  6
CONTINUOUS
 62
     6
 10
214.228400
 20
118.337196
 30
0.0
  0
VERTEX
  8
CSLAYER1
  6
CONTINUOUS
 62
     6
 10
214.161589
 20
118.194761
 30
0.0
  0
VERTEX
  8
CSLAYER1
  6
CONTINUOUS
 62
     6
 10
214.115510
 20
118.049339
 30
0.0
  0
VERTEX
  8
CSLAYER1
  6
CONTINUOUS
 62
     6
 10
214.090513
 20
117.902035
 30
0.0
  0
VERTEX
  8
CSLAYER1
  6
CONTINUOUS
 62
     6
 10
214.086789
 20
117.753971
 30
0.0
  0
VERTEX
  8
CSLAYER1
  6
CONTINUOUS
 62
     6
 10
214.104367
 20
117.606274
 30
0.0
  0
VERTEX
  8
CSLAYER1
  6
CONTINUOUS
 62
     6
 10
214.143111
 20
117.460068
 30
0.0
  0
VERTEX
  8
CSLAYER1
  6
CONTINUOUS
 62
     6
 10
214.202729
 20
117.316465
 30
0.0
  0
VERTEX
  8
CSLAYER1
  6
CONTINUOUS
 62
     6
 10
214.282764
 20
117.176558
 30
0.0
  0
VERTEX
  8
CSLAYER1
  6
CONTINUOUS
 62
     6
 10
214.382610
 20
117.041412
 30
0.0
  0
VERTEX
  8
CSLAYER1
  6
CONTINUOUS
 62
     6
 10
214.501505
 20
116.912057
 30
0.0
  0
VERTEX
  8
CSLAYER1
  6
CONTINUOUS
 62
     6
 10
214.638545
 20
116.789475
 30
0.0
  0
VERTEX
  8
CSLAYER1
  6
CONTINUOUS
 62
     6
 10
214.792687
 20
116.674600
 30
0.0
  0
VERTEX
  8
CSLAYER1
  6
CONTINUOUS
 62
     6
 10
214.962758
 20
116.568307
 30
0.0
  0
VERTEX
  8
CSLAYER1
  6
CONTINUOUS
 62
     6
 10
215.147463
 20
116.471404
 30
0.0
  0
VERTEX
  8
CSLAYER1
  6
CONTINUOUS
 62
     6
 10
215.345397
 20
116.384629
 30
0.0
  0
VERTEX
  8
CSLAYER1
  6
CONTINUOUS
 62
     6
 10
215.555054
 20
116.308642
 30
0.0
  0
VERTEX
  8
CSLAYER1
  6
CONTINUOUS
 62
     6
 10
215.774837
 20
116.244022
 30
0.0
  0
VERTEX
  8
CSLAYER1
  6
CONTINUOUS
 62
     6
 10
216.003074
 20
116.191259
 30
0.0
  0
VERTEX
  8
CSLAYER1
  6
CONTINUOUS
 62
     6
 10
216.238028
 20
116.150757
 30
0.0
  0
VERTEX
  8
CSLAYER1
  6
CONTINUOUS
 62
     6
 10
216.477911
 20
116.122823
 30
0.0
  0
VERTEX
  8
CSLAYER1
  6
CONTINUOUS
 62
     6
 10
216.720897
 20
116.107670
 30
0.0
  0
VERTEX
  8
CSLAYER1
  6
CONTINUOUS
 62
     6
 10
216.965137
 20
116.105412
 30
0.0
  0
VERTEX
  8
CSLAYER1
  6
CONTINUOUS
 62
     6
 10
217.208773
 20
116.116068
 30
0.0
  0
VERTEX
  8
CSLAYER1
  6
CONTINUOUS
 62
     6
 10
217.449949
 20
116.139556
 30
0.0
  0
VERTEX
  8
CSLAYER1
  6
CONTINUOUS
 62
     6
 10
217.686830
 20
116.175697
 30
0.0
  0
VERTEX
  8
CSLAYER1
  6
CONTINUOUS
 62
     6
 10
217.917615
 20
116.224217
 30
0.0
  0
VERTEX
  8
CSLAYER1
  6
CONTINUOUS
 62
     6
 10
218.140545
 20
116.284745
 30
0.0
  0
VERTEX
  8
CSLAYER1
  6
CONTINUOUS
 62
     6
 10
218.353925
 20
116.356822
 30
0.0
  0
VERTEX
  8
CSLAYER1
  6
CONTINUOUS
 62
     6
 10
218.556131
 20
116.439899
 30
0.0
  0
VERTEX
  8
CSLAYER1
  6
CONTINUOUS
 62
     6
 10
218.745624
 20
116.533343
 30
0.0
  0
VERTEX
  8
CSLAYER1
  6
CONTINUOUS
 62
     6
 10
218.920960
 20
116.636444
 30
0.0
  0
VERTEX
  8
CSLAYER1
  6
CONTINUOUS
 62
     6
 10
219.080808
 20
116.748417
 30
0.0
  0
VERTEX
  8
CSLAYER1
  6
CONTINUOUS
 62
     6
 10
219.223948
 20
116.868409
 30
0.0
  0
VERTEX
  8
CSLAYER1
  6
CONTINUOUS
 62
     6
 10
219.349293
 20
116.995507
 30
0.0
  0
VERTEX
  8
CSLAYER1
  6
CONTINUOUS
 62
     6
 10
219.455889
 20
117.128744
 30
0.0
  0
VERTEX
  8
CSLAYER1
  6
CONTINUOUS
 62
     6
 10
219.542923
 20
117.267107
 30
0.0
  0
VERTEX
  8
CSLAYER1
  6
CONTINUOUS
 62
     6
 10
219.609734
 20
117.409541
 30
0.0
  0
VERTEX
  8
CSLAYER1
  6
CONTINUOUS
 62
     6
 10
219.655813
 20
117.554964
 30
0.0
  0
VERTEX
  8
CSLAYER1
  6
CONTINUOUS
 62
     6
 10
219.680809
 20
117.702268
 30
0.0
  0
VERTEX
  8
CSLAYER1
  6
CONTINUOUS
 62
     6
 10
219.684533
 20
117.850332
 30
0.0
  0
VERTEX
  8
CSLAYER1
  6
CONTINUOUS
 62
     6
 10
219.666956
 20
117.998029
 30
0.0
  0
VERTEX
  8
CSLAYER1
  6
CONTINUOUS
 62
     6
 10
219.628211
 20
118.144235
 30
0.0
  0
VERTEX
  8
CSLAYER1
  6
CONTINUOUS
 62
     6
 10
219.568594
 20
118.287838
 30
0.0
  0
VERTEX
  8
CSLAYER1
  6
CONTINUOUS
 62
     6
 10
219.488558
 20
118.427745
 30
0.0
  0
VERTEX
  8
CSLAYER1
  6
CONTINUOUS
 62
     6
 10
219.388713
 20
118.562890
 30
0.0
  0
VERTEX
  8
CSLAYER1
  6
CONTINUOUS
 62
     6
 10
219.269817
 20
118.692246
 30
0.0
  0
VERTEX
  8
CSLAYER1
  6
CONTINUOUS
 62
     6
 10
219.132777
 20
118.814828
 30
0.0
  0
VERTEX
  8
CSLAYER1
  6
CONTINUOUS
 62
     6
 10
218.978635
 20
118.929702
 30
0.0
  0
VERTEX
  8
CSLAYER1
  6
CONTINUOUS
 62
     6
 10
218.970244
 20
118.935401
 30
0.0
  0
SEQEND
  0
POLYLINE
  8
CSLAYER1
  6
CONTINUOUS
 62
     6
 66
     1
 10
0.0
 20
0.0
 30
0.0
  0
VERTEX
  8
CSLAYER1
  6
CONTINUOUS
 62
     6
 10
214.435993
 20
54.493042
 30
0.0
  0
VERTEX
  8
CSLAYER1
  6
CONTINUOUS
 62
     6
 10
214.441799
 20
54.309909
 30
0.0
  0
VERTEX
  8
CSLAYER1
  6
CONTINUOUS
 62
     6
 10
214.466204
 20
54.127905
 30
0.0
  0
VERTEX
  8
CSLAYER1
  6
CONTINUOUS
 62
     6
 10
214.509023
 20
53.948418
 30
0.0
  0
VERTEX
  8
CSLAYER1
  6
CONTINUOUS
 62
     6
 10
214.569929
 20
53.772812
 30
0.0
  0
VERTEX
  8
CSLAYER1
  6
CONTINUOUS
 62
     6
 10
214.648459
 20
53.602425
 30
0.0
  0
VERTEX
  8
CSLAYER1
  6
CONTINUOUS
 62
     6
 10
214.744016
 20
53.438552
 30
0.0
  0
VERTEX
  8
CSLAYER1
  6
CONTINUOUS
 62
     6
 10
214.855872
 20
53.282442
 30
0.0
  0
VERTEX
  8
CSLAYER1
  6
CONTINUOUS
 62
     6
 10
214.983176
 20
53.135282
 30
0.0
  0
VERTEX
  8
CSLAYER1
  6
CONTINUOUS
 62
     6
 10
215.124959
 20
52.998192
 30
0.0
  0
VERTEX
  8
CSLAYER1
  6
CONTINUOUS
 62
     6
 10
215.280142
 20
52.872215
 30
0.0
  0
VERTEX
  8
CSLAYER1
  6
CONTINUOUS
 62
     6
 10
215.447544
 20
52.758311
 30
0.0
  0
VERTEX
  8
CSLAYER1
  6
CONTINUOUS
 62
     6
 10
215.625891
 20
52.657346
 30
0.0
  0
VERTEX
  8
CSLAYER1
  6
CONTINUOUS
 62
     6
 10
215.813825
 20
52.570089
 30
0.0
  0
VERTEX
  8
CSLAYER1
  6
CONTINUOUS
 62
     6
 10
216.009917
 20
52.497204
 30
0.0
  0
VERTEX
  8
CSLAYER1
  6
CONTINUOUS
 62
     6
 10
216.212674
 20
52.439244
 30
0.0
  0
VERTEX
  8
CSLAYER1
  6
CONTINUOUS
 62
     6
 10
216.420552
 20
52.396653
 30
0.0
  0
VERTEX
  8
CSLAYER1
  6
CONTINUOUS
 62
     6
 10
216.631971
 20
52.369753
 30
0.0
  0
VERTEX
  8
CSLAYER1
  6
CONTINUOUS
 62
     6
 10
216.845320
 20
52.358749
 30
0.0
  0
VERTEX
  8
CSLAYER1
  6
CONTINUOUS
 62
     6
 10
217.058976
 20
52.363725
 30
0.0
  0
VERTEX
  8
CSLAYER1
  6
CONTINUOUS
 62
     6
 10
217.271313
 20
52.384644
 30
0.0
  0
VERTEX
  8
CSLAYER1
  6
CONTINUOUS
 62
     6
 10
217.480715
 20
52.421345
 30
0.0
  0
VERTEX
  8
CSLAYER1
  6
CONTINUOUS
 62
     6
 10
217.685589
 20
52.473551
 30
0.0
  0
VERTEX
  8
CSLAYER1
  6
CONTINUOUS
 62
     6
 10
217.884374
 20
52.540862
 30
0.0
  0
VERTEX
  8
CSLAYER1
  6
CONTINUOUS
 62
     6
 10
218.075559
 20
52.622768
 30
0.0
  0
VERTEX
  8
CSLAYER1
  6
CONTINUOUS
 62
     6
 10
218.257687
 20
52.718645
 30
0.0
  0
VERTEX
  8
CSLAYER1
  6
CONTINUOUS
 62
     6
 10
218.429374
 20
52.827762
 30
0.0
  0
VERTEX
  8
CSLAYER1
  6
CONTINUOUS
 62
     6
 10
218.589312
 20
52.949291
 30
0.0
  0
VERTEX
  8
CSLAYER1
  6
CONTINUOUS
 62
     6
 10
218.736285
 20
53.082305
 30
0.0
  0
VERTEX
  8
CSLAYER1
  6
CONTINUOUS
 62
     6
 10
218.869173
 20
53.225792
 30
0.0
  0
VERTEX
  8
CSLAYER1
  6
CONTINUOUS
 62
     6
 10
218.986965
 20
53.378661
 30
0.0
  0
VERTEX
  8
CSLAYER1
  6
CONTINUOUS
 62
     6
 10
219.088765
 20
53.539748
 30
0.0
  0
VERTEX
  8
CSLAYER1
  6
CONTINUOUS
 62
     6
 10
219.173798
 20
53.707826
 30
0.0
  0
VERTEX
  8
CSLAYER1
  6
CONTINUOUS
 62
     6
 10
219.241418
 20
53.881618
 30
0.0
  0
VERTEX
  8
CSLAYER1
  6
CONTINUOUS
 62
     6
 10
219.291108
 20
54.059800
 30
0.0
  0
VERTEX
  8
CSLAYER1
  6
CONTINUOUS
 62
     6
 10
219.322491
 20
54.241015
 30
0.0
  0
VERTEX
  8
CSLAYER1
  6
CONTINUOUS
 62
     6
 10
219.335329
 20
54.423886
 30
0.0
  0
VERTEX
  8
CSLAYER1
  6
CONTINUOUS
 62
     6
 10
219.335329
 20
54.493042
 30
0.0
  0
SEQEND
  0
POLYLINE
  8
CSLAYER1
  6
CONTINUOUS
 62
     6
 66
     1
 10
0.0
 20
0.0
 30
0.0
  0
VERTEX
  8
CSLAYER1
  6
CONTINUOUS
 62
     6
 10
219.335661
 20
54.516094
 30
0.0
  0
VERTEX
  8
CSLAYER1
  6
CONTINUOUS
 62
     6
 10
219.326338
 20
54.615780
 30
0.0
  0
VERTEX
  8
CSLAYER1
  6
CONTINUOUS
 62
     6
 10
219.298440
 20
54.714706
 30
0.0
  0
VERTEX
  8
CSLAYER1
  6
CONTINUOUS
 62
     6
 10
219.252179
 20
54.812121
 30
0.0
  0
VERTEX
  8
CSLAYER1
  6
CONTINUOUS
 62
     6
 10
219.187908
 20
54.907283
 30
0.0
  0
VERTEX
  8
CSLAYER1
  6
CONTINUOUS
 62
     6
 10
219.106115
 20
54.999467
 30
0.0
  0
VERTEX
  8
CSLAYER1
  6
CONTINUOUS
 62
     6
 10
219.007423
 20
55.087973
 30
0.0
  0
VERTEX
  8
CSLAYER1
  6
CONTINUOUS
 62
     6
 10
218.892584
 20
55.172127
 30
0.0
  0
VERTEX
  8
CSLAYER1
  6
CONTINUOUS
 62
     6
 10
218.762470
 20
55.251288
 30
0.0
  0
VERTEX
  8
CSLAYER1
  6
CONTINUOUS
 62
     6
 10
218.618073
 20
55.324853
 30
0.0
  0
VERTEX
  8
CSLAYER1
  6
CONTINUOUS
 62
     6
 10
218.460491
 20
55.392264
 30
0.0
  0
VERTEX
  8
CSLAYER1
  6
CONTINUOUS
 62
     6
 10
218.290923
 20
55.453006
 30
0.0
  0
VERTEX
  8
CSLAYER1
  6
CONTINUOUS
 62
     6
 10
218.110661
 20
55.506618
 30
0.0
  0
VERTEX
  8
CSLAYER1
  6
CONTINUOUS
 62
     6
 10
217.921076
 20
55.552691
 30
0.0
  0
VERTEX
  8
CSLAYER1
  6
CONTINUOUS
 62
     6
 10
217.723611
 20
55.590875
 30
0.0
  0
VERTEX
  8
CSLAYER1
  6
CONTINUOUS
 62
     6
 10
217.519768
 20
55.620879
 30
0.0
  0
VERTEX
  8
CSLAYER1
  6
CONTINUOUS
 62
     6
 10
217.311099
 20
55.642476
 30
0.0
  0
VERTEX
  8
CSLAYER1
  6
CONTINUOUS
 62
     6
 10
217.099193
 20
55.655500
 30
0.0
  0
VERTEX
  8
CSLAYER1
  6
CONTINUOUS
 62
     6
 10
216.885661
 20
55.659852
 30
0.0
  0
VERTEX
  8
CSLAYER1
  6
CONTINUOUS
 62
     6
 10
216.672130
 20
55.655500
 30
0.0
  0
VERTEX
  8
CSLAYER1
  6
CONTINUOUS
 62
     6
 10
216.460223
 20
55.642476
 30
0.0
  0
VERTEX
  8
CSLAYER1
  6
CONTINUOUS
 62
     6
 10
216.251555
 20
55.620879
 30
0.0
  0
VERTEX
  8
CSLAYER1
  6
CONTINUOUS
 62
     6
 10
216.047712
 20
55.590875
 30
0.0
  0
VERTEX
  8
CSLAYER1
  6
CONTINUOUS
 62
     6
 10
215.850246
 20
55.552691
 30
0.0
  0
VERTEX
  8
CSLAYER1
  6
CONTINUOUS
 62
     6
 10
215.660661
 20
55.506618
 30
0.0
  0
VERTEX
  8
CSLAYER1
  6
CONTINUOUS
 62
     6
 10
215.480399
 20
55.453006
 30
0.0
  0
VERTEX
  8
CSLAYER1
  6
CONTINUOUS
 62
     6
 10
215.310832
 20
55.392264
 30
0.0
  0
VERTEX
  8
CSLAYER1
  6
CONTINUOUS
 62
     6
 10
215.153250
 20
55.324853
 30
0.0
  0
VERTEX
  8
CSLAYER1
  6
CONTINUOUS
 62
     6
 10
215.008852
 20
55.251288
 30
0.0
  0
VERTEX
  8
CSLAYER1
  6
CONTINUOUS
 62
     6
 10
214.878739
 20
55.172127
 30
0.0
  0
VERTEX
  8
CSLAYER1
  6
CONTINUOUS
 62
     6
 10
214.763899
 20
55.087973
 30
0.0
  0
VERTEX
  8
CSLAYER1
  6
CONTINUOUS
 62
     6
 10
214.665207
 20
54.999467
 30
0.0
  0
VERTEX
  8
CSLAYER1
  6
CONTINUOUS
 62
     6
 10
214.583414
 20
54.907283
 30
0.0
  0
VERTEX
  8
CSLAYER1
  6
CONTINUOUS
 62
     6
 10
214.519143
 20
54.812121
 30
0.0
  0
VERTEX
  8
CSLAYER1
  6
CONTINUOUS
 62
     6
 10
214.472882
 20
54.714706
 30
0.0
  0
VERTEX
  8
CSLAYER1
  6
CONTINUOUS
 62
     6
 10
214.444984
 20
54.615780
 30
0.0
  0
VERTEX
  8
CSLAYER1
  6
CONTINUOUS
 62
     6
 10
214.435661
 20
54.516094
 30
0.0
  0
SEQEND
  0
POLYLINE
  8
CSLAYER1
  6
CONTINUOUS
 62
     6
 66
     1
 10
0.0
 20
0.0
 30
0.0
  0
VERTEX
  8
CSLAYER1
  6
CONTINUOUS
 62
     6
 10
218.970244
 20
53.382845
 30
0.0
  0
VERTEX
  8
CSLAYER1
  6
CONTINUOUS
 62
     6
 10
219.125237
 20
53.497298
 30
0.0
  0
VERTEX
  8
CSLAYER1
  6
CONTINUOUS
 62
     6
 10
219.263186
 20
53.619504
 30
0.0
  0
VERTEX
  8
CSLAYER1
  6
CONTINUOUS
 62
     6
 10
219.383040
 20
53.748535
 30
0.0
  0
VERTEX
  8
CSLAYER1
  6
CONTINUOUS
 62
     6
 10
219.483888
 20
53.883406
 30
0.0
  0
VERTEX
  8
CSLAYER1
  6
CONTINUOUS
 62
     6
 10
219.564961
 20
54.023093
 30
0.0
  0
VERTEX
  8
CSLAYER1
  6
CONTINUOUS
 62
     6
 10
219.625644
 20
54.166532
 30
0.0
  0
VERTEX
  8
CSLAYER1
  6
CONTINUOUS
 62
     6
 10
219.665473
 20
54.312631
 30
0.0
  0
VERTEX
  8
CSLAYER1
  6
CONTINUOUS
 62
     6
 10
219.684147
 20
54.460279
 30
0.0
  0
VERTEX
  8
CSLAYER1
  6
CONTINUOUS
 62
     6
 10
219.681522
 20
54.608352
 30
0.0
  0
VERTEX
  8
CSLAYER1
  6
CONTINUOUS
 62
     6
 10
219.657620
 20
54.755722
 30
0.0
  0
VERTEX
  8
CSLAYER1
  6
CONTINUOUS
 62
     6
 10
219.612621
 20
54.901269
 30
0.0
  0
VERTEX
  8
CSLAYER1
  6
CONTINUOUS
 62
     6
 10
219.546868
 20
55.043884
 30
0.0
  0
VERTEX
  8
CSLAYER1
  6
CONTINUOUS
 62
     6
 10
219.460861
 20
55.182483
 30
0.0
  0
VERTEX
  8
CSLAYER1
  6
CONTINUOUS
 62
     6
 10
219.355256
 20
55.316010
 30
0.0
  0
VERTEX
  8
CSLAYER1
  6
CONTINUOUS
 62
     6
 10
219.230856
 20
55.443449
 30
0.0
  0
VERTEX
  8
CSLAYER1
  6
CONTINUOUS
 62
     6
 10
219.088608
 20
55.563830
 30
0.0
  0
VERTEX
  8
CSLAYER1
  6
CONTINUOUS
 62
     6
 10
218.929593
 20
55.676238
 30
0.0
  0
VERTEX
  8
CSLAYER1
  6
CONTINUOUS
 62
     6
 10
218.755023
 20
55.779816
 30
0.0
  0
VERTEX
  8
CSLAYER1
  6
CONTINUOUS
 62
     6
 10
218.566227
 20
55.873776
 30
0.0
  0
VERTEX
  8
CSLAYER1
  6
CONTINUOUS
 62
     6
 10
218.364640
 20
55.957403
 30
0.0
  0
VERTEX
  8
CSLAYER1
  6
CONTINUOUS
 62
     6
 10
218.151797
 20
56.030062
 30
0.0
  0
VERTEX
  8
CSLAYER1
  6
CONTINUOUS
 62
     6
 10
217.929318
 20
56.091198
 30
0.0
  0
VERTEX
  8
CSLAYER1
  6
CONTINUOUS
 62
     6
 10
217.698896
 20
56.140347
 30
0.0
  0
VERTEX
  8
CSLAYER1
  6
CONTINUOUS
 62
     6
 10
217.462285
 20
56.177134
 30
0.0
  0
VERTEX
  8
CSLAYER1
  6
CONTINUOUS
 62
     6
 10
217.221285
 20
56.201279
 30
0.0
  0
VERTEX
  8
CSLAYER1
  6
CONTINUOUS
 62
     6
 10
216.977732
 20
56.212600
 30
0.0
  0
VERTEX
  8
CSLAYER1
  6
CONTINUOUS
 62
     6
 10
216.733477
 20
56.211009
 30
0.0
  0
VERTEX
  8
CSLAYER1
  6
CONTINUOUS
 62
     6
 10
216.490381
 20
56.196518
 30
0.0
  0
VERTEX
  8
CSLAYER1
  6
CONTINUOUS
 62
     6
 10
216.250293
 20
56.169239
 30
0.0
  0
VERTEX
  8
CSLAYER1
  6
CONTINUOUS
 62
     6
 10
216.015041
 20
56.129378
 30
0.0
  0
VERTEX
  8
CSLAYER1
  6
CONTINUOUS
 62
     6
 10
215.786414
 20
56.077239
 30
0.0
  0
VERTEX
  8
CSLAYER1
  6
CONTINUOUS
 62
     6
 10
215.566154
 20
56.013219
 30
0.0
  0
VERTEX
  8
CSLAYER1
  6
CONTINUOUS
 62
     6
 10
215.355935
 20
55.937805
 30
0.0
  0
VERTEX
  8
CSLAYER1
  6
CONTINUOUS
 62
     6
 10
215.157359
 20
55.851570
 30
0.0
  0
VERTEX
  8
CSLAYER1
  6
CONTINUOUS
 62
     6
 10
214.971937
 20
55.755172
 30
0.0
  0
VERTEX
  8
CSLAYER1
  6
CONTINUOUS
 62
     6
 10
214.801078
 20
55.649344
 30
0.0
  0
VERTEX
  8
CSLAYER1
  6
CONTINUOUS
 62
     6
 10
214.646085
 20
55.534891
 30
0.0
  0
VERTEX
  8
CSLAYER1
  6
CONTINUOUS
 62
     6
 10
214.508137
 20
55.412685
 30
0.0
  0
VERTEX
  8
CSLAYER1
  6
CONTINUOUS
 62
     6
 10
214.388282
 20
55.283654
 30
0.0
  0
VERTEX
  8
CSLAYER1
  6
CONTINUOUS
 62
     6
 10
214.287435
 20
55.148783
 30
0.0
  0
VERTEX
  8
CSLAYER1
  6
CONTINUOUS
 62
     6
 10
214.206361
 20
55.009096
 30
0.0
  0
VERTEX
  8
CSLAYER1
  6
CONTINUOUS
 62
     6
 10
214.145679
 20
54.865657
 30
0.0
  0
VERTEX
  8
CSLAYER1
  6
CONTINUOUS
 62
     6
 10
214.105849
 20
54.719558
 30
0.0
  0
VERTEX
  8
CSLAYER1
  6
CONTINUOUS
 62
     6
 10
214.087175
 20
54.571910
 30
0.0
  0
VERTEX
  8
CSLAYER1
  6
CONTINUOUS
 62
     6
 10
214.089800
 20
54.423837
 30
0.0
  0
VERTEX
  8
CSLAYER1
  6
CONTINUOUS
 62
     6
 10
214.113703
 20
54.276467
 30
0.0
  0
VERTEX
  8
CSLAYER1
  6
CONTINUOUS
 62
     6
 10
214.158702
 20
54.130920
 30
0.0
  0
VERTEX
  8
CSLAYER1
  6
CONTINUOUS
 62
     6
 10
214.224455
 20
53.988305
 30
0.0
  0
VERTEX
  8
CSLAYER1
  6
CONTINUOUS
 62
     6
 10
214.310461
 20
53.849706
 30
0.0
  0
VERTEX
  8
CSLAYER1
  6
CONTINUOUS
 62
     6
 10
214.416066
 20
53.716179
 30
0.0
  0
VERTEX
  8
CSLAYER1
  6
CONTINUOUS
 62
     6
 10
214.540466
 20
53.588740
 30
0.0
  0
VERTEX
  8
CSLAYER1
  6
CONTINUOUS
 62
     6
 10
214.682715
 20
53.468359
 30
0.0
  0
VERTEX
  8
CSLAYER1
  6
CONTINUOUS
 62
     6
 10
214.841729
 20
53.355951
 30
0.0
  0
VERTEX
  8
CSLAYER1
  6
CONTINUOUS
 62
     6
 10
214.850362
 20
53.350387
 30
0.0
  0
SEQEND
  0
POLYLINE
  8
CSLAYER1
  6
CONTINUOUS
 62
     6
 66
     1
 10
0.0
 20
0.0
 30
0.0
  0
VERTEX
  8
CSLAYER1
  6
CONTINUOUS
 62
     6
 10
219.335329
 20
252.825204
 30
0.0
  0
VERTEX
  8
CSLAYER1
  6
CONTINUOUS
 62
     6
 10
219.329523
 20
253.008337
 30
0.0
  0
VERTEX
  8
CSLAYER1
  6
CONTINUOUS
 62
     6
 10
219.305118
 20
253.190341
 30
0.0
  0
VERTEX
  8
CSLAYER1
  6
CONTINUOUS
 62
     6
 10
219.262300
 20
253.369828
 30
0.0
  0
VERTEX
  8
CSLAYER1
  6
CONTINUOUS
 62
     6
 10
219.201394
 20
253.545434
 30
0.0
  0
VERTEX
  8
CSLAYER1
  6
CONTINUOUS
 62
     6
 10
219.122863
 20
253.715821
 30
0.0
  0
VERTEX
  8
CSLAYER1
  6
CONTINUOUS
 62
     6
 10
219.027306
 20
253.879694
 30
0.0
  0
VERTEX
  8
CSLAYER1
  6
CONTINUOUS
 62
     6
 10
218.915450
 20
254.035804
 30
0.0
  0
VERTEX
  8
CSLAYER1
  6
CONTINUOUS
 62
     6
 10
218.788146
 20
254.182964
 30
0.0
  0
VERTEX
  8
CSLAYER1
  6
CONTINUOUS
 62
     6
 10
218.646364
 20
254.320054
 30
0.0
  0
VERTEX
  8
CSLAYER1
  6
CONTINUOUS
 62
     6
 10
218.491181
 20
254.446031
 30
0.0
  0
VERTEX
  8
CSLAYER1
  6
CONTINUOUS
 62
     6
 10
218.323779
 20
254.559935
 30
0.0
  0
VERTEX
  8
CSLAYER1
  6
CONTINUOUS
 62
     6
 10
218.145432
 20
254.660899
 30
0.0
  0
VERTEX
  8
CSLAYER1
  6
CONTINUOUS
 62
     6
 10
217.957497
 20
254.748157
 30
0.0
  0
VERTEX
  8
CSLAYER1
  6
CONTINUOUS
 62
     6
 10
217.761405
 20
254.821042
 30
0.0
  0
VERTEX
  8
CSLAYER1
  6
CONTINUOUS
 62
     6
 10
217.558649
 20
254.879001
 30
0.0
  0
VERTEX
  8
CSLAYER1
  6
CONTINUOUS
 62
     6
 10
217.350770
 20
254.921593
 30
0.0
  0
VERTEX
  8
CSLAYER1
  6
CONTINUOUS
 62
     6
 10
217.139352
 20
254.948493
 30
0.0
  0
VERTEX
  8
CSLAYER1
  6
CONTINUOUS
 62
     6
 10
216.926002
 20
254.959497
 30
0.0
  0
VERTEX
  8
CSLAYER1
  6
CONTINUOUS
 62
     6
 10
216.712346
 20
254.954521
 30
0.0
  0
VERTEX
  8
CSLAYER1
  6
CONTINUOUS
 62
     6
 10
216.500009
 20
254.933602
 30
0.0
  0
VERTEX
  8
CSLAYER1
  6
CONTINUOUS
 62
     6
 10
216.290607
 20
254.896900
 30
0.0
  0
VERTEX
  8
CSLAYER1
  6
CONTINUOUS
 62
     6
 10
216.085734
 20
254.844695
 30
0.0
  0
VERTEX
  8
CSLAYER1
  6
CONTINUOUS
 62
     6
 10
215.886948
 20
254.777383
 30
0.0
  0
VERTEX
  8
CSLAYER1
  6
CONTINUOUS
 62
     6
 10
215.695764
 20
254.695478
 30
0.0
  0
VERTEX
  8
CSLAYER1
  6
CONTINUOUS
 62
     6
 10
215.513635
 20
254.599601
 30
0.0
  0
VERTEX
  8
CSLAYER1
  6
CONTINUOUS
 62
     6
 10
215.341948
 20
254.490483
 30
0.0
  0
VERTEX
  8
CSLAYER1
  6
CONTINUOUS
 62
     6
 10
215.182010
 20
254.368955
 30
0.0
  0
VERTEX
  8
CSLAYER1
  6
CONTINUOUS
 62
     6
 10
215.035038
 20
254.235941
 30
0.0
  0
VERTEX
  8
CSLAYER1
  6
CONTINUOUS
 62
     6
 10
214.902150
 20
254.092454
 30
0.0
  0
VERTEX
  8
CSLAYER1
  6
CONTINUOUS
 62
     6
 10
214.784357
 20
253.939585
 30
0.0
  0
VERTEX
  8
CSLAYER1
  6
CONTINUOUS
 62
     6
 10
214.682557
 20
253.778498
 30
0.0
  0
VERTEX
  8
CSLAYER1
  6
CONTINUOUS
 62
     6
 10
214.597524
 20
253.610420
 30
0.0
  0
VERTEX
  8
CSLAYER1
  6
CONTINUOUS
 62
     6
 10
214.529905
 20
253.436628
 30
0.0
  0
VERTEX
  8
CSLAYER1
  6
CONTINUOUS
 62
     6
 10
214.480214
 20
253.258446
 30
0.0
  0
VERTEX
  8
CSLAYER1
  6
CONTINUOUS
 62
     6
 10
214.448831
 20
253.077231
 30
0.0
  0
VERTEX
  8
CSLAYER1
  6
CONTINUOUS
 62
     6
 10
214.435993
 20
252.894360
 30
0.0
  0
VERTEX
  8
CSLAYER1
  6
CONTINUOUS
 62
     6
 10
214.435993
 20
252.825204
 30
0.0
  0
SEQEND
  0
POLYLINE
  8
CSLAYER1
  6
CONTINUOUS
 62
     6
 66
     1
 10
0.0
 20
0.0
 30
0.0
  0
VERTEX
  8
CSLAYER1
  6
CONTINUOUS
 62
     6
 10
214.435661
 20
252.802151
 30
0.0
  0
VERTEX
  8
CSLAYER1
  6
CONTINUOUS
 62
     6
 10
214.444984
 20
252.702466
 30
0.0
  0
VERTEX
  8
CSLAYER1
  6
CONTINUOUS
 62
     6
 10
214.472882
 20
252.603540
 30
0.0
  0
VERTEX
  8
CSLAYER1
  6
CONTINUOUS
 62
     6
 10
214.519143
 20
252.506125
 30
0.0
  0
VERTEX
  8
CSLAYER1
  6
CONTINUOUS
 62
     6
 10
214.583414
 20
252.410963
 30
0.0
  0
VERTEX
  8
CSLAYER1
  6
CONTINUOUS
 62
     6
 10
214.665207
 20
252.318779
 30
0.0
  0
VERTEX
  8
CSLAYER1
  6
CONTINUOUS
 62
     6
 10
214.763899
 20
252.230273
 30
0.0
  0
VERTEX
  8
CSLAYER1
  6
CONTINUOUS
 62
     6
 10
214.878739
 20
252.146119
 30
0.0
  0
VERTEX
  8
CSLAYER1
  6
CONTINUOUS
 62
     6
 10
215.008852
 20
252.066958
 30
0.0
  0
VERTEX
  8
CSLAYER1
  6
CONTINUOUS
 62
     6
 10
215.153250
 20
251.993393
 30
0.0
  0
VERTEX
  8
CSLAYER1
  6
CONTINUOUS
 62
     6
 10
215.310832
 20
251.925982
 30
0.0
  0
VERTEX
  8
CSLAYER1
  6
CONTINUOUS
 62
     6
 10
215.480399
 20
251.865240
 30
0.0
  0
VERTEX
  8
CSLAYER1
  6
CONTINUOUS
 62
     6
 10
215.660661
 20
251.811628
 30
0.0
  0
VERTEX
  8
CSLAYER1
  6
CONTINUOUS
 62
     6
 10
215.850246
 20
251.765555
 30
0.0
  0
VERTEX
  8
CSLAYER1
  6
CONTINUOUS
 62
     6
 10
216.047712
 20
251.727371
 30
0.0
  0
VERTEX
  8
CSLAYER1
  6
CONTINUOUS
 62
     6
 10
216.251555
 20
251.697366
 30
0.0
  0
VERTEX
  8
CSLAYER1
  6
CONTINUOUS
 62
     6
 10
216.460223
 20
251.675770
 30
0.0
  0
VERTEX
  8
CSLAYER1
  6
CONTINUOUS
 62
     6
 10
216.672130
 20
251.662746
 30
0.0
  0
VERTEX
  8
CSLAYER1
  6
CONTINUOUS
 62
     6
 10
216.885661
 20
251.658394
 30
0.0
  0
VERTEX
  8
CSLAYER1
  6
CONTINUOUS
 62
     6
 10
217.099193
 20
251.662746
 30
0.0
  0
VERTEX
  8
CSLAYER1
  6
CONTINUOUS
 62
     6
 10
217.311099
 20
251.675770
 30
0.0
  0
VERTEX
  8
CSLAYER1
  6
CONTINUOUS
 62
     6
 10
217.519768
 20
251.697366
 30
0.0
  0
VERTEX
  8
CSLAYER1
  6
CONTINUOUS
 62
     6
 10
217.723611
 20
251.727371
 30
0.0
  0
VERTEX
  8
CSLAYER1
  6
CONTINUOUS
 62
     6
 10
217.921076
 20
251.765555
 30
0.0
  0
VERTEX
  8
CSLAYER1
  6
CONTINUOUS
 62
     6
 10
218.110661
 20
251.811628
 30
0.0
  0
VERTEX
  8
CSLAYER1
  6
CONTINUOUS
 62
     6
 10
218.290923
 20
251.865240
 30
0.0
  0
VERTEX
  8
CSLAYER1
  6
CONTINUOUS
 62
     6
 10
218.460491
 20
251.925982
 30
0.0
  0
VERTEX
  8
CSLAYER1
  6
CONTINUOUS
 62
     6
 10
218.618073
 20
251.993393
 30
0.0
  0
VERTEX
  8
CSLAYER1
  6
CONTINUOUS
 62
     6
 10
218.762470
 20
252.066958
 30
0.0
  0
VERTEX
  8
CSLAYER1
  6
CONTINUOUS
 62
     6
 10
218.892584
 20
252.146119
 30
0.0
  0
VERTEX
  8
CSLAYER1
  6
CONTINUOUS
 62
     6
 10
219.007423
 20
252.230273
 30
0.0
  0
VERTEX
  8
CSLAYER1
  6
CONTINUOUS
 62
     6
 10
219.106115
 20
252.318779
 30
0.0
  0
VERTEX
  8
CSLAYER1
  6
CONTINUOUS
 62
     6
 10
219.187908
 20
252.410963
 30
0.0
  0
VERTEX
  8
CSLAYER1
  6
CONTINUOUS
 62
     6
 10
219.252179
 20
252.506125
 30
0.0
  0
VERTEX
  8
CSLAYER1
  6
CONTINUOUS
 62
     6
 10
219.298440
 20
252.603540
 30
0.0
  0
VERTEX
  8
CSLAYER1
  6
CONTINUOUS
 62
     6
 10
219.326338
 20
252.702466
 30
0.0
  0
VERTEX
  8
CSLAYER1
  6
CONTINUOUS
 62
     6
 10
219.335661
 20
252.802151
 30
0.0
  0
SEQEND
  0
POLYLINE
  8
CSLAYER1
  6
CONTINUOUS
 62
     6
 66
     1
 10
0.0
 20
0.0
 30
0.0
  0
VERTEX
  8
CSLAYER1
  6
CONTINUOUS
 62
     6
 10
214.850362
 20
253.967859
 30
0.0
  0
VERTEX
  8
CSLAYER1
  6
CONTINUOUS
 62
     6
 10
214.690515
 20
253.855886
 30
0.0
  0
VERTEX
  8
CSLAYER1
  6
CONTINUOUS
 62
     6
 10
214.547374
 20
253.735894
 30
0.0
  0
VERTEX
  8
CSLAYER1
  6
CONTINUOUS
 62
     6
 10
214.422029
 20
253.608796
 30
0.0
  0
VERTEX
  8
CSLAYER1
  6
CONTINUOUS
 62
     6
 10
214.315434
 20
253.475558
 30
0.0
  0
VERTEX
  8
CSLAYER1
  6
CONTINUOUS
 62
     6
 10
214.228400
 20
253.337196
 30
0.0
  0
VERTEX
  8
CSLAYER1
  6
CONTINUOUS
 62
     6
 10
214.161589
 20
253.194761
 30
0.0
  0
VERTEX
  8
CSLAYER1
  6
CONTINUOUS
 62
     6
 10
214.115510
 20
253.049339
 30
0.0
  0
VERTEX
  8
CSLAYER1
  6
CONTINUOUS
 62
     6
 10
214.090513
 20
252.902035
 30
0.0
  0
VERTEX
  8
CSLAYER1
  6
CONTINUOUS
 62
     6
 10
214.086789
 20
252.753971
 30
0.0
  0
VERTEX
  8
CSLAYER1
  6
CONTINUOUS
 62
     6
 10
214.104367
 20
252.606274
 30
0.0
  0
VERTEX
  8
CSLAYER1
  6
CONTINUOUS
 62
     6
 10
214.143111
 20
252.460068
 30
0.0
  0
VERTEX
  8
CSLAYER1
  6
CONTINUOUS
 62
     6
 10
214.202729
 20
252.316465
 30
0.0
  0
VERTEX
  8
CSLAYER1
  6
CONTINUOUS
 62
     6
 10
214.282764
 20
252.176558
 30
0.0
  0
VERTEX
  8
CSLAYER1
  6
CONTINUOUS
 62
     6
 10
214.382610
 20
252.041412
 30
0.0
  0
VERTEX
  8
CSLAYER1
  6
CONTINUOUS
 62
     6
 10
214.501505
 20
251.912057
 30
0.0
  0
VERTEX
  8
CSLAYER1
  6
CONTINUOUS
 62
     6
 10
214.638545
 20
251.789475
 30
0.0
  0
VERTEX
  8
CSLAYER1
  6
CONTINUOUS
 62
     6
 10
214.792687
 20
251.674600
 30
0.0
  0
VERTEX
  8
CSLAYER1
  6
CONTINUOUS
 62
     6
 10
214.962758
 20
251.568307
 30
0.0
  0
VERTEX
  8
CSLAYER1
  6
CONTINUOUS
 62
     6
 10
215.147463
 20
251.471404
 30
0.0
  0
VERTEX
  8
CSLAYER1
  6
CONTINUOUS
 62
     6
 10
215.345397
 20
251.384629
 30
0.0
  0
VERTEX
  8
CSLAYER1
  6
CONTINUOUS
 62
     6
 10
215.555054
 20
251.308642
 30
0.0
  0
VERTEX
  8
CSLAYER1
  6
CONTINUOUS
 62
     6
 10
215.774837
 20
251.244022
 30
0.0
  0
VERTEX
  8
CSLAYER1
  6
CONTINUOUS
 62
     6
 10
216.003074
 20
251.191259
 30
0.0
  0
VERTEX
  8
CSLAYER1
  6
CONTINUOUS
 62
     6
 10
216.238028
 20
251.150757
 30
0.0
  0
VERTEX
  8
CSLAYER1
  6
CONTINUOUS
 62
     6
 10
216.477911
 20
251.122823
 30
0.0
  0
VERTEX
  8
CSLAYER1
  6
CONTINUOUS
 62
     6
 10
216.720897
 20
251.107670
 30
0.0
  0
VERTEX
  8
CSLAYER1
  6
CONTINUOUS
 62
     6
 10
216.965137
 20
251.105412
 30
0.0
  0
VERTEX
  8
CSLAYER1
  6
CONTINUOUS
 62
     6
 10
217.208773
 20
251.116068
 30
0.0
  0
VERTEX
  8
CSLAYER1
  6
CONTINUOUS
 62
     6
 10
217.449949
 20
251.139556
 30
0.0
  0
VERTEX
  8
CSLAYER1
  6
CONTINUOUS
 62
     6
 10
217.686830
 20
251.175697
 30
0.0
  0
VERTEX
  8
CSLAYER1
  6
CONTINUOUS
 62
     6
 10
217.917615
 20
251.224217
 30
0.0
  0
VERTEX
  8
CSLAYER1
  6
CONTINUOUS
 62
     6
 10
218.140545
 20
251.284745
 30
0.0
  0
VERTEX
  8
CSLAYER1
  6
CONTINUOUS
 62
     6
 10
218.353925
 20
251.356822
 30
0.0
  0
VERTEX
  8
CSLAYER1
  6
CONTINUOUS
 62
     6
 10
218.556131
 20
251.439899
 30
0.0
  0
VERTEX
  8
CSLAYER1
  6
CONTINUOUS
 62
     6
 10
218.745624
 20
251.533343
 30
0.0
  0
VERTEX
  8
CSLAYER1
  6
CONTINUOUS
 62
     6
 10
218.920960
 20
251.636444
 30
0.0
  0
VERTEX
  8
CSLAYER1
  6
CONTINUOUS
 62
     6
 10
219.080808
 20
251.748417
 30
0.0
  0
VERTEX
  8
CSLAYER1
  6
CONTINUOUS
 62
     6
 10
219.223948
 20
251.868409
 30
0.0
  0
VERTEX
  8
CSLAYER1
  6
CONTINUOUS
 62
     6
 10
219.349293
 20
251.995507
 30
0.0
  0
VERTEX
  8
CSLAYER1
  6
CONTINUOUS
 62
     6
 10
219.455889
 20
252.128744
 30
0.0
  0
VERTEX
  8
CSLAYER1
  6
CONTINUOUS
 62
     6
 10
219.542923
 20
252.267107
 30
0.0
  0
VERTEX
  8
CSLAYER1
  6
CONTINUOUS
 62
     6
 10
219.609734
 20
252.409541
 30
0.0
  0
VERTEX
  8
CSLAYER1
  6
CONTINUOUS
 62
     6
 10
219.655813
 20
252.554964
 30
0.0
  0
VERTEX
  8
CSLAYER1
  6
CONTINUOUS
 62
     6
 10
219.680809
 20
252.702268
 30
0.0
  0
VERTEX
  8
CSLAYER1
  6
CONTINUOUS
 62
     6
 10
219.684533
 20
252.850332
 30
0.0
  0
VERTEX
  8
CSLAYER1
  6
CONTINUOUS
 62
     6
 10
219.666956
 20
252.998029
 30
0.0
  0
VERTEX
  8
CSLAYER1
  6
CONTINUOUS
 62
     6
 10
219.628211
 20
253.144235
 30
0.0
  0
VERTEX
  8
CSLAYER1
  6
CONTINUOUS
 62
     6
 10
219.568594
 20
253.287838
 30
0.0
  0
VERTEX
  8
CSLAYER1
  6
CONTINUOUS
 62
     6
 10
219.488558
 20
253.427745
 30
0.0
  0
VERTEX
  8
CSLAYER1
  6
CONTINUOUS
 62
     6
 10
219.388713
 20
253.562890
 30
0.0
  0
VERTEX
  8
CSLAYER1
  6
CONTINUOUS
 62
     6
 10
219.269817
 20
253.692246
 30
0.0
  0
VERTEX
  8
CSLAYER1
  6
CONTINUOUS
 62
     6
 10
219.132777
 20
253.814828
 30
0.0
  0
VERTEX
  8
CSLAYER1
  6
CONTINUOUS
 62
     6
 10
218.978635
 20
253.929702
 30
0.0
  0
VERTEX
  8
CSLAYER1
  6
CONTINUOUS
 62
     6
 10
218.970244
 20
253.935401
 30
0.0
  0
SEQEND
  0
POLYLINE
  8
CSLAYER1
  6
CONTINUOUS
 62
     6
 66
     1
 10
0.0
 20
0.0
 30
0.0
  0
VERTEX
  8
CSLAYER1
  6
CONTINUOUS
 62
     6
 10
214.435993
 20
189.493042
 30
0.0
  0
VERTEX
  8
CSLAYER1
  6
CONTINUOUS
 62
     6
 10
214.441799
 20
189.309909
 30
0.0
  0
VERTEX
  8
CSLAYER1
  6
CONTINUOUS
 62
     6
 10
214.466204
 20
189.127905
 30
0.0
  0
VERTEX
  8
CSLAYER1
  6
CONTINUOUS
 62
     6
 10
214.509023
 20
188.948418
 30
0.0
  0
VERTEX
  8
CSLAYER1
  6
CONTINUOUS
 62
     6
 10
214.569929
 20
188.772812
 30
0.0
  0
VERTEX
  8
CSLAYER1
  6
CONTINUOUS
 62
     6
 10
214.648459
 20
188.602425
 30
0.0
  0
VERTEX
  8
CSLAYER1
  6
CONTINUOUS
 62
     6
 10
214.744016
 20
188.438552
 30
0.0
  0
VERTEX
  8
CSLAYER1
  6
CONTINUOUS
 62
     6
 10
214.855872
 20
188.282442
 30
0.0
  0
VERTEX
  8
CSLAYER1
  6
CONTINUOUS
 62
     6
 10
214.983176
 20
188.135282
 30
0.0
  0
VERTEX
  8
CSLAYER1
  6
CONTINUOUS
 62
     6
 10
215.124959
 20
187.998192
 30
0.0
  0
VERTEX
  8
CSLAYER1
  6
CONTINUOUS
 62
     6
 10
215.280142
 20
187.872215
 30
0.0
  0
VERTEX
  8
CSLAYER1
  6
CONTINUOUS
 62
     6
 10
215.447544
 20
187.758311
 30
0.0
  0
VERTEX
  8
CSLAYER1
  6
CONTINUOUS
 62
     6
 10
215.625891
 20
187.657346
 30
0.0
  0
VERTEX
  8
CSLAYER1
  6
CONTINUOUS
 62
     6
 10
215.813825
 20
187.570089
 30
0.0
  0
VERTEX
  8
CSLAYER1
  6
CONTINUOUS
 62
     6
 10
216.009917
 20
187.497204
 30
0.0
  0
VERTEX
  8
CSLAYER1
  6
CONTINUOUS
 62
     6
 10
216.212674
 20
187.439244
 30
0.0
  0
VERTEX
  8
CSLAYER1
  6
CONTINUOUS
 62
     6
 10
216.420552
 20
187.396653
 30
0.0
  0
VERTEX
  8
CSLAYER1
  6
CONTINUOUS
 62
     6
 10
216.631971
 20
187.369753
 30
0.0
  0
VERTEX
  8
CSLAYER1
  6
CONTINUOUS
 62
     6
 10
216.845320
 20
187.358749
 30
0.0
  0
VERTEX
  8
CSLAYER1
  6
CONTINUOUS
 62
     6
 10
217.058976
 20
187.363725
 30
0.0
  0
VERTEX
  8
CSLAYER1
  6
CONTINUOUS
 62
     6
 10
217.271313
 20
187.384644
 30
0.0
  0
VERTEX
  8
CSLAYER1
  6
CONTINUOUS
 62
     6
 10
217.480715
 20
187.421345
 30
0.0
  0
VERTEX
  8
CSLAYER1
  6
CONTINUOUS
 62
     6
 10
217.685589
 20
187.473551
 30
0.0
  0
VERTEX
  8
CSLAYER1
  6
CONTINUOUS
 62
     6
 10
217.884374
 20
187.540862
 30
0.0
  0
VERTEX
  8
CSLAYER1
  6
CONTINUOUS
 62
     6
 10
218.075559
 20
187.622768
 30
0.0
  0
VERTEX
  8
CSLAYER1
  6
CONTINUOUS
 62
     6
 10
218.257687
 20
187.718645
 30
0.0
  0
VERTEX
  8
CSLAYER1
  6
CONTINUOUS
 62
     6
 10
218.429374
 20
187.827762
 30
0.0
  0
VERTEX
  8
CSLAYER1
  6
CONTINUOUS
 62
     6
 10
218.589312
 20
187.949291
 30
0.0
  0
VERTEX
  8
CSLAYER1
  6
CONTINUOUS
 62
     6
 10
218.736285
 20
188.082305
 30
0.0
  0
VERTEX
  8
CSLAYER1
  6
CONTINUOUS
 62
     6
 10
218.869173
 20
188.225792
 30
0.0
  0
VERTEX
  8
CSLAYER1
  6
CONTINUOUS
 62
     6
 10
218.986965
 20
188.378661
 30
0.0
  0
VERTEX
  8
CSLAYER1
  6
CONTINUOUS
 62
     6
 10
219.088765
 20
188.539748
 30
0.0
  0
VERTEX
  8
CSLAYER1
  6
CONTINUOUS
 62
     6
 10
219.173798
 20
188.707826
 30
0.0
  0
VERTEX
  8
CSLAYER1
  6
CONTINUOUS
 62
     6
 10
219.241418
 20
188.881618
 30
0.0
  0
VERTEX
  8
CSLAYER1
  6
CONTINUOUS
 62
     6
 10
219.291108
 20
189.059800
 30
0.0
  0
VERTEX
  8
CSLAYER1
  6
CONTINUOUS
 62
     6
 10
219.322491
 20
189.241015
 30
0.0
  0
VERTEX
  8
CSLAYER1
  6
CONTINUOUS
 62
     6
 10
219.335329
 20
189.423886
 30
0.0
  0
VERTEX
  8
CSLAYER1
  6
CONTINUOUS
 62
     6
 10
219.335329
 20
189.493042
 30
0.0
  0
SEQEND
  0
POLYLINE
  8
CSLAYER1
  6
CONTINUOUS
 62
     6
 66
     1
 10
0.0
 20
0.0
 30
0.0
  0
VERTEX
  8
CSLAYER1
  6
CONTINUOUS
 62
     6
 10
219.335661
 20
189.516094
 30
0.0
  0
VERTEX
  8
CSLAYER1
  6
CONTINUOUS
 62
     6
 10
219.326338
 20
189.615780
 30
0.0
  0
VERTEX
  8
CSLAYER1
  6
CONTINUOUS
 62
     6
 10
219.298440
 20
189.714706
 30
0.0
  0
VERTEX
  8
CSLAYER1
  6
CONTINUOUS
 62
     6
 10
219.252179
 20
189.812121
 30
0.0
  0
VERTEX
  8
CSLAYER1
  6
CONTINUOUS
 62
     6
 10
219.187908
 20
189.907283
 30
0.0
  0
VERTEX
  8
CSLAYER1
  6
CONTINUOUS
 62
     6
 10
219.106115
 20
189.999467
 30
0.0
  0
VERTEX
  8
CSLAYER1
  6
CONTINUOUS
 62
     6
 10
219.007423
 20
190.087973
 30
0.0
  0
VERTEX
  8
CSLAYER1
  6
CONTINUOUS
 62
     6
 10
218.892584
 20
190.172127
 30
0.0
  0
VERTEX
  8
CSLAYER1
  6
CONTINUOUS
 62
     6
 10
218.762470
 20
190.251288
 30
0.0
  0
VERTEX
  8
CSLAYER1
  6
CONTINUOUS
 62
     6
 10
218.618073
 20
190.324853
 30
0.0
  0
VERTEX
  8
CSLAYER1
  6
CONTINUOUS
 62
     6
 10
218.460491
 20
190.392264
 30
0.0
  0
VERTEX
  8
CSLAYER1
  6
CONTINUOUS
 62
     6
 10
218.290923
 20
190.453006
 30
0.0
  0
VERTEX
  8
CSLAYER1
  6
CONTINUOUS
 62
     6
 10
218.110661
 20
190.506618
 30
0.0
  0
VERTEX
  8
CSLAYER1
  6
CONTINUOUS
 62
     6
 10
217.921076
 20
190.552691
 30
0.0
  0
VERTEX
  8
CSLAYER1
  6
CONTINUOUS
 62
     6
 10
217.723611
 20
190.590875
 30
0.0
  0
VERTEX
  8
CSLAYER1
  6
CONTINUOUS
 62
     6
 10
217.519768
 20
190.620879
 30
0.0
  0
VERTEX
  8
CSLAYER1
  6
CONTINUOUS
 62
     6
 10
217.311099
 20
190.642476
 30
0.0
  0
VERTEX
  8
CSLAYER1
  6
CONTINUOUS
 62
     6
 10
217.099193
 20
190.655500
 30
0.0
  0
VERTEX
  8
CSLAYER1
  6
CONTINUOUS
 62
     6
 10
216.885661
 20
190.659852
 30
0.0
  0
VERTEX
  8
CSLAYER1
  6
CONTINUOUS
 62
     6
 10
216.672130
 20
190.655500
 30
0.0
  0
VERTEX
  8
CSLAYER1
  6
CONTINUOUS
 62
     6
 10
216.460223
 20
190.642476
 30
0.0
  0
VERTEX
  8
CSLAYER1
  6
CONTINUOUS
 62
     6
 10
216.251555
 20
190.620879
 30
0.0
  0
VERTEX
  8
CSLAYER1
  6
CONTINUOUS
 62
     6
 10
216.047712
 20
190.590875
 30
0.0
  0
VERTEX
  8
CSLAYER1
  6
CONTINUOUS
 62
     6
 10
215.850246
 20
190.552691
 30
0.0
  0
VERTEX
  8
CSLAYER1
  6
CONTINUOUS
 62
     6
 10
215.660661
 20
190.506618
 30
0.0
  0
VERTEX
  8
CSLAYER1
  6
CONTINUOUS
 62
     6
 10
215.480399
 20
190.453006
 30
0.0
  0
VERTEX
  8
CSLAYER1
  6
CONTINUOUS
 62
     6
 10
215.310832
 20
190.392264
 30
0.0
  0
VERTEX
  8
CSLAYER1
  6
CONTINUOUS
 62
     6
 10
215.153250
 20
190.324853
 30
0.0
  0
VERTEX
  8
CSLAYER1
  6
CONTINUOUS
 62
     6
 10
215.008852
 20
190.251288
 30
0.0
  0
VERTEX
  8
CSLAYER1
  6
CONTINUOUS
 62
     6
 10
214.878739
 20
190.172127
 30
0.0
  0
VERTEX
  8
CSLAYER1
  6
CONTINUOUS
 62
     6
 10
214.763899
 20
190.087973
 30
0.0
  0
VERTEX
  8
CSLAYER1
  6
CONTINUOUS
 62
     6
 10
214.665207
 20
189.999467
 30
0.0
  0
VERTEX
  8
CSLAYER1
  6
CONTINUOUS
 62
     6
 10
214.583414
 20
189.907283
 30
0.0
  0
VERTEX
  8
CSLAYER1
  6
CONTINUOUS
 62
     6
 10
214.519143
 20
189.812121
 30
0.0
  0
VERTEX
  8
CSLAYER1
  6
CONTINUOUS
 62
     6
 10
214.472882
 20
189.714706
 30
0.0
  0
VERTEX
  8
CSLAYER1
  6
CONTINUOUS
 62
     6
 10
214.444984
 20
189.615780
 30
0.0
  0
VERTEX
  8
CSLAYER1
  6
CONTINUOUS
 62
     6
 10
214.435661
 20
189.516094
 30
0.0
  0
SEQEND
  0
POLYLINE
  8
CSLAYER1
  6
CONTINUOUS
 62
     6
 66
     1
 10
0.0
 20
0.0
 30
0.0
  0
VERTEX
  8
CSLAYER1
  6
CONTINUOUS
 62
     6
 10
218.970244
 20
188.382845
 30
0.0
  0
VERTEX
  8
CSLAYER1
  6
CONTINUOUS
 62
     6
 10
219.125237
 20
188.497298
 30
0.0
  0
VERTEX
  8
CSLAYER1
  6
CONTINUOUS
 62
     6
 10
219.263186
 20
188.619504
 30
0.0
  0
VERTEX
  8
CSLAYER1
  6
CONTINUOUS
 62
     6
 10
219.383040
 20
188.748535
 30
0.0
  0
VERTEX
  8
CSLAYER1
  6
CONTINUOUS
 62
     6
 10
219.483888
 20
188.883406
 30
0.0
  0
VERTEX
  8
CSLAYER1
  6
CONTINUOUS
 62
     6
 10
219.564961
 20
189.023093
 30
0.0
  0
VERTEX
  8
CSLAYER1
  6
CONTINUOUS
 62
     6
 10
219.625644
 20
189.166532
 30
0.0
  0
VERTEX
  8
CSLAYER1
  6
CONTINUOUS
 62
     6
 10
219.665473
 20
189.312631
 30
0.0
  0
VERTEX
  8
CSLAYER1
  6
CONTINUOUS
 62
     6
 10
219.684147
 20
189.460279
 30
0.0
  0
VERTEX
  8
CSLAYER1
  6
CONTINUOUS
 62
     6
 10
219.681522
 20
189.608352
 30
0.0
  0
VERTEX
  8
CSLAYER1
  6
CONTINUOUS
 62
     6
 10
219.657620
 20
189.755722
 30
0.0
  0
VERTEX
  8
CSLAYER1
  6
CONTINUOUS
 62
     6
 10
219.612621
 20
189.901269
 30
0.0
  0
VERTEX
  8
CSLAYER1
  6
CONTINUOUS
 62
     6
 10
219.546868
 20
190.043884
 30
0.0
  0
VERTEX
  8
CSLAYER1
  6
CONTINUOUS
 62
     6
 10
219.460861
 20
190.182483
 30
0.0
  0
VERTEX
  8
CSLAYER1
  6
CONTINUOUS
 62
     6
 10
219.355256
 20
190.316010
 30
0.0
  0
VERTEX
  8
CSLAYER1
  6
CONTINUOUS
 62
     6
 10
219.230856
 20
190.443449
 30
0.0
  0
VERTEX
  8
CSLAYER1
  6
CONTINUOUS
 62
     6
 10
219.088608
 20
190.563830
 30
0.0
  0
VERTEX
  8
CSLAYER1
  6
CONTINUOUS
 62
     6
 10
218.929593
 20
190.676238
 30
0.0
  0
VERTEX
  8
CSLAYER1
  6
CONTINUOUS
 62
     6
 10
218.755023
 20
190.779816
 30
0.0
  0
VERTEX
  8
CSLAYER1
  6
CONTINUOUS
 62
     6
 10
218.566227
 20
190.873776
 30
0.0
  0
VERTEX
  8
CSLAYER1
  6
CONTINUOUS
 62
     6
 10
218.364640
 20
190.957403
 30
0.0
  0
VERTEX
  8
CSLAYER1
  6
CONTINUOUS
 62
     6
 10
218.151797
 20
191.030062
 30
0.0
  0
VERTEX
  8
CSLAYER1
  6
CONTINUOUS
 62
     6
 10
217.929318
 20
191.091198
 30
0.0
  0
VERTEX
  8
CSLAYER1
  6
CONTINUOUS
 62
     6
 10
217.698896
 20
191.140347
 30
0.0
  0
VERTEX
  8
CSLAYER1
  6
CONTINUOUS
 62
     6
 10
217.462285
 20
191.177134
 30
0.0
  0
VERTEX
  8
CSLAYER1
  6
CONTINUOUS
 62
     6
 10
217.221285
 20
191.201279
 30
0.0
  0
VERTEX
  8
CSLAYER1
  6
CONTINUOUS
 62
     6
 10
216.977732
 20
191.212600
 30
0.0
  0
VERTEX
  8
CSLAYER1
  6
CONTINUOUS
 62
     6
 10
216.733477
 20
191.211009
 30
0.0
  0
VERTEX
  8
CSLAYER1
  6
CONTINUOUS
 62
     6
 10
216.490381
 20
191.196518
 30
0.0
  0
VERTEX
  8
CSLAYER1
  6
CONTINUOUS
 62
     6
 10
216.250293
 20
191.169239
 30
0.0
  0
VERTEX
  8
CSLAYER1
  6
CONTINUOUS
 62
     6
 10
216.015041
 20
191.129378
 30
0.0
  0
VERTEX
  8
CSLAYER1
  6
CONTINUOUS
 62
     6
 10
215.786414
 20
191.077239
 30
0.0
  0
VERTEX
  8
CSLAYER1
  6
CONTINUOUS
 62
     6
 10
215.566154
 20
191.013219
 30
0.0
  0
VERTEX
  8
CSLAYER1
  6
CONTINUOUS
 62
     6
 10
215.355935
 20
190.937805
 30
0.0
  0
VERTEX
  8
CSLAYER1
  6
CONTINUOUS
 62
     6
 10
215.157359
 20
190.851570
 30
0.0
  0
VERTEX
  8
CSLAYER1
  6
CONTINUOUS
 62
     6
 10
214.971937
 20
190.755172
 30
0.0
  0
VERTEX
  8
CSLAYER1
  6
CONTINUOUS
 62
     6
 10
214.801078
 20
190.649344
 30
0.0
  0
VERTEX
  8
CSLAYER1
  6
CONTINUOUS
 62
     6
 10
214.646085
 20
190.534891
 30
0.0
  0
VERTEX
  8
CSLAYER1
  6
CONTINUOUS
 62
     6
 10
214.508137
 20
190.412685
 30
0.0
  0
VERTEX
  8
CSLAYER1
  6
CONTINUOUS
 62
     6
 10
214.388282
 20
190.283654
 30
0.0
  0
VERTEX
  8
CSLAYER1
  6
CONTINUOUS
 62
     6
 10
214.287435
 20
190.148783
 30
0.0
  0
VERTEX
  8
CSLAYER1
  6
CONTINUOUS
 62
     6
 10
214.206361
 20
190.009096
 30
0.0
  0
VERTEX
  8
CSLAYER1
  6
CONTINUOUS
 62
     6
 10
214.145679
 20
189.865657
 30
0.0
  0
VERTEX
  8
CSLAYER1
  6
CONTINUOUS
 62
     6
 10
214.105849
 20
189.719558
 30
0.0
  0
VERTEX
  8
CSLAYER1
  6
CONTINUOUS
 62
     6
 10
214.087175
 20
189.571910
 30
0.0
  0
VERTEX
  8
CSLAYER1
  6
CONTINUOUS
 62
     6
 10
214.089800
 20
189.423837
 30
0.0
  0
VERTEX
  8
CSLAYER1
  6
CONTINUOUS
 62
     6
 10
214.113703
 20
189.276467
 30
0.0
  0
VERTEX
  8
CSLAYER1
  6
CONTINUOUS
 62
     6
 10
214.158702
 20
189.130920
 30
0.0
  0
VERTEX
  8
CSLAYER1
  6
CONTINUOUS
 62
     6
 10
214.224455
 20
188.988305
 30
0.0
  0
VERTEX
  8
CSLAYER1
  6
CONTINUOUS
 62
     6
 10
214.310461
 20
188.849706
 30
0.0
  0
VERTEX
  8
CSLAYER1
  6
CONTINUOUS
 62
     6
 10
214.416066
 20
188.716179
 30
0.0
  0
VERTEX
  8
CSLAYER1
  6
CONTINUOUS
 62
     6
 10
214.540466
 20
188.588740
 30
0.0
  0
VERTEX
  8
CSLAYER1
  6
CONTINUOUS
 62
     6
 10
214.682715
 20
188.468359
 30
0.0
  0
VERTEX
  8
CSLAYER1
  6
CONTINUOUS
 62
     6
 10
214.841729
 20
188.355951
 30
0.0
  0
VERTEX
  8
CSLAYER1
  6
CONTINUOUS
 62
     6
 10
214.850362
 20
188.350387
 30
0.0
  0
SEQEND
  0
ENDSEC
  0
EOF
