  0
SECTION
  2
HEADER
  9
$ACADVER
  1
AC1006
  9
$INSBASE
 10
0.000000
 20
0.000000
 30
0.0
  9
$EXTMIN
 10
0.000000
 20
0.000000
  9
$EXTMAX
 10
841.000000
 20
594.000000
  9
$LIMMIN
 10
0.000000
 20
0.000000
  9
$LIMMAX
 10
841.000000
 20
594.000000
  9
$VIEWCTR
 10
420.500000
 20
297.000000
  9
$VIEWSIZE
 40
594.000000
  9
$SNAPMODE
 70
     0
  9
$SNAPUNIT
 10
1.0
 20
1.0
  9
$SNAPBASE
 10
0.0
 20
0.0
  9
$SNAPANG
 50
0.0
  9
$SNAPSTYLE
 70
     0
  9
$SNAPISOPAIR
 70
     0
  9
$GRIDMODE
 70
     0
  9
$GRIDUNIT
 10
0.0
 20
0.0
  9
$ORTHOMODE
 70
     0
  9
$REGENMODE
 70
     1
  9
$FILLMODE
 70
     1
  9
$QTEXTMODE
 70
     0
  9
$DRAGMODE
 70
     2
  9
$LTSCALE
 40
15.000000
  9
$OSMODE
 70
     0
  9
$ATTMODE
 70
     1
  9
$TEXTSIZE
 40
0.2
  9
$TRACEWID
 40
0.05
  9
$TEXTSTYLE
  7
STANDARD
  9
$CLAYER
  8
CSLAYER1
  9
$CELTYPE
  6
BYLAYER
  9
$CECOLOR
 62
   256
  9
$DIMSCALE
 40
1.0
  9
$DIMASZ
 40
0.18
  9
$DIMEXO
 40
0.0625
  9
$DIMDLI
 40
0.38
  9
$DIMRND
 40
0.0
  9
$DIMDLE
 40
0.0
  9
$DIMEXE
 40
0.18
  9
$DIMTP
 40
0.0
  9
$DIMTM
 40
0.0
  9
$DIMTXT
 40
0.18
  9
$DIMCEN
 40
0.09
  9
$DIMTSZ
 40
0.0
  9
$DIMTOL
 70
     0
  9
$DIMLIM
 70
     0
  9
$DIMTIH
 70
     1
  9
$DIMTOH
 70
     1
  9
$DIMSE1
 70
     0
  9
$DIMSE2
 70
     0
  9
$DIMTAD
 70
     0
  9
$DIMZIN
 70
     0
  9
$DIMBLK
  1

  9
$LUNITS
 70
     2
  9
$LUPREC
 70
     4
  9
$AXISMODE
 70
     0
  9
$AXISUNIT
 10
0.0
 20
0.0
  9
$SKETCHINC
 40
0.1
  9
$FILLETRAD
 40
0.0
  9
$AUNITS
 70
     0
  9
$AUPREC
 70
     0
  9
$MENU
  1
ACAD
  9
$ELEVATION
 40
0.0
  9
$THICKNESS
 40
0.0
  9
$VIEWDIR
 10
0.0
 20
0.0
 30
1.0
  9
$LIMCHECK
 70
     0
  9
$BLIPMODE
 70
     1
  9
$CHAMFERA
 40
0.0
  9
$CHAMFERB
 40
0.0
  9
$FASTZOOM
 70
     1
  9
$SKPOLY
 70
     0
  9
$TDCREATE
 40
0.000000
  9
$TDUPDATE
 40
0.000000
  9
$TDINDWG
 40
0.0
  9
$TDUSRTIMER
 40
0.0
  9
$USRTIMER
 70
     1
  9
$ANGBASE
 50
0.0
  9
$ANGDIR
 70
     0
  9
$PDMODE
 70
     0
  9
$PDSIZE
 40
0.0
  9
$PLINEWID
 40
0.0
  9
$COORDS
 70
     0
  9
$USERI1
 70
     0
  9
$USERI2
 70
     0
  9
$USERI3
 70
     0
  9
$USERI4
 70
     0
  9
$USERI5
 70
     0
  9
$USERR1
 40
0.0
  9
$USERR2
 40
0.0
  9
$USERR3
 40
0.0
  9
$USERR4
 40
0.0
  9
$USERR5
 40
0.0
  0
ENDSEC
  0
SECTION
  2
TABLES
  0
TABLE
  2
LTYPE
 70
     9
  0
LTYPE
  2
CONTINUOUS
 70
    64
  3
Solid line
 72
    65
 73
     0
 40
0.0
  0
LTYPE
  2
DASHED
 70
    64
  3
__ __ __ __ __ __ __ __ __ __ __ __ __ __ __
 72
    65
 73
     2
 40
0.75
 49
0.5
 49
-0.25
  0
LTYPE
  2
HIDDEN
 70
    64
  3
_ _ _ _ _ _ _ _ _ _ _ _ _ _ _ _ _ _ _ _ _ _ _
 72
    65
 73
     2
 40
0.375
 49
0.25
 49
-0.125
  0
LTYPE
  2
DOT
 70
    64
  3
...............................................
 72
    65
 73
     2
 40
0.25
 49
0.0
 49
-0.25
  0
LTYPE
  2
DASHDOT
 70
    64
  3
__ . __ . __ . __ . __ . __ . __ . __ . __ . __
 72
    65
 73
     4
 40
1.0
 49
0.5
 49
-0.25
 49
0.0
 49
-0.25
  0
LTYPE
  2
DIVIDE
 70
    64
  3
__ . . __ . . __ . . __ . . __ . . __ . . __
 72
    65
 73
     6
 40
1.25
 49
0.5
 49
-0.25
 49
0.0
 49
-0.25
 49
0.0
 49
-0.25
  0
LTYPE
  2
CENTER
 70
    64
  3
____ _ ____ _ ____ _ ____ _ ____ _ ____ _ ____ 
 72
    65
 73
     4
 40
2.0
 49
1.25
 49
-0.25
 49
0.25
 49
-0.25
  0
LTYPE
  2
PHANTOM
 70
    64
  3
______  __  __  ______  __  __  ______  __  __ 
 72
    65
 73
     6
 40
2.5
 49
1.25
 49
-0.25
 49
0.25
 49
-0.25
 49
0.25
 49
-0.25
  0
LTYPE
  2
BORDER
 70
    64
  3
__ __ . __ __ . __ __ . __ __ . __ __ . __ __ .
 72
    65
 73
     6
 40
1.75
 49
0.5
 49
-0.25
 49
0.5
 49
-0.25
 49
0.0
 49
-0.25
  0
ENDTAB
  0
TABLE
  2
LAYER
 70
    16
  0
LAYER
  2
CSLAYER1
 70
    64
 62
     7
  6
CONTINUOUS
  0
LAYER
  2
CSLAYER2
 70
    64
 62
     7
  6
CONTINUOUS
  0
LAYER
  2
CSLAYER3
 70
    64
 62
     7
  6
CONTINUOUS
  0
LAYER
  2
CSLAYER4
 70
    64
 62
     7
  6
CONTINUOUS
  0
LAYER
  2
CSLAYER5
 70
    64
 62
     7
  6
CONTINUOUS
  0
LAYER
  2
CSLAYER6
 70
    64
 62
     7
  6
CONTINUOUS
  0
LAYER
  2
CSLAYER7
 70
    64
 62
     7
  6
CONTINUOUS
  0
LAYER
  2
CSLAYER8
 70
    64
 62
     7
  6
CONTINUOUS
  0
LAYER
  2
CSLAYER9
 70
    64
 62
     7
  6
CONTINUOUS
  0
LAYER
  2
CSLAYER10
 70
    64
 62
     7
  6
CONTINUOUS
  0
LAYER
  2
CSLAYER11
 70
    64
 62
     7
  6
CONTINUOUS
  0
LAYER
  2
CSLAYER12
 70
    64
 62
     7
  6
CONTINUOUS
  0
LAYER
  2
CSLAYER13
 70
    64
 62
     7
  6
CONTINUOUS
  0
LAYER
  2
CSLAYER14
 70
    64
 62
     7
  6
CONTINUOUS
  0
LAYER
  2
CSLAYER15
 70
    64
 62
     7
  6
CONTINUOUS
  0
LAYER
  2
CSLAYER16
 70
    64
 62
     7
  6
CONTINUOUS
  0
ENDTAB
  0
TABLE
  2
STYLE
 70
     1
  0
STYLE
  2
JX_FONT
 70
     0
 40
1.0
 41
1.0
 50
0.0
 71
     0
 42
1.0
  3
monotxt
  4
bigfont
  0
ENDTAB
  0
TABLE
  2
VIEW
 70
     0
  0
ENDTAB
  0
ENDSEC
  0
SECTION
  2
BLOCKS
  0
ENDSEC
  0
SECTION
  2
ENTITIES
  0
LINE
  8
CSLAYER1
  6
CENTER
 62
     3
 10
77.159822
 20
211.502757
 11
77.159822
 21
240.145614
  0
LINE
  8
CSLAYER1
  6
CENTER
 62
     3
 10
85.591280
 20
248.934215
 11
105.743823
 21
269.086758
  0
CIRCLE
  8
CSLAYER1
  6
CONTINUOUS
 62
     3
 10
95.490775
 20
258.833710
 40
4.000000
  0
ARC
  8
CSLAYER1
  6
CENTER
 62
     3
 10
142.159822
 20
305.502757
 40
66.000000
 50
213.709850
 51
236.290208
  0
LINE
  8
CSLAYER1
  6
CENTER
 62
     3
 10
142.159822
 20
225.502757
 11
142.159822
 21
384.502757
  0
ARC
  8
CSLAYER1
  6
CENTER
 62
     3
 10
142.159822
 20
305.502757
 40
66.000000
 50
123.709792
 51
146.290150
  0
CIRCLE
  8
CSLAYER1
  6
CONTINUOUS
 62
     3
 10
95.490775
 20
352.171805
 40
4.000000
  0
LINE
  8
CSLAYER1
  6
CENTER
 62
     3
 10
103.622503
 20
344.040077
 11
85.591280
 21
362.071300
  0
LINE
  8
CSLAYER1
  6
CENTER
 62
     3
 10
63.159822
 20
305.502757
 11
221.159822
 21
305.502757
  0
LINE
  8
CSLAYER1
  6
CENTER
 62
     3
 10
261.489862
 20
305.502757
 11
579.489923
 21
305.502757
  0
LINE
  8
CSLAYER1
  6
CENTER
 62
     3
 10
625.104499
 20
305.502757
 11
785.104499
 21
305.502757
  0
ARC
  8
CSLAYER1
  6
CENTER
 62
     3
 10
705.104499
 20
305.502757
 40
66.000000
 50
33.709850
 51
56.290208
  0
LINE
  8
CSLAYER1
  6
CENTER
 62
     3
 10
741.520498
 20
341.918757
 11
761.673041
 21
362.071300
  0
LINE
  8
CSLAYER1
  6
CENTER
 62
     3
 10
705.104499
 20
385.502757
 11
705.104499
 21
225.502757
  0
ARC
  8
CSLAYER1
  6
CENTER
 62
     3
 10
705.104499
 20
305.502757
 40
66.000000
 50
213.709850
 51
236.290208
  0
LINE
  8
CSLAYER1
  6
CENTER
 62
     3
 10
668.688499
 20
269.086758
 11
648.535956
 21
248.934215
  0
LINE
  8
CSLAYER1
  6
CENTER
 62
     3
 10
640.104499
 20
240.145614
 11
640.104499
 21
211.502757
  0
ARC
  8
CSLAYER1
  6
CENTER
 62
     3
 10
705.104499
 20
305.502757
 40
66.000000
 50
303.709792
 51
326.290150
  0
LINE
  8
CSLAYER1
  6
CENTER
 62
     3
 10
741.520498
 20
269.086758
 11
761.673041
 21
248.934215
  0
LINE
  8
CSLAYER1
  6
CENTER
 62
     3
 10
770.104499
 20
240.145614
 11
770.104499
 21
211.502757
  0
LINE
  8
CSLAYER1
  6
CENTER
 62
     3
 10
666.567179
 20
344.040077
 11
648.535956
 21
362.071300
  0
ARC
  8
CSLAYER1
  6
CENTER
 62
     3
 10
705.104499
 20
305.502757
 40
66.000000
 50
123.709792
 51
146.290150
  0
LINE
  8
CSLAYER1
  6
CENTER
 62
     3
 10
579.489862
 20
485.502757
 11
261.489862
 21
485.502757
  0
LINE
  8
CSLAYER1
  6
CENTER
 62
     3
 10
298.489831
 20
518.840190
 11
298.489831
 21
537.447002
  0
LINE
  8
CSLAYER1
  6
CENTER
 62
     3
 10
354.989862
 20
550.502757
 11
387.989862
 21
550.502757
  0
LINE
  8
CSLAYER1
  6
CENTER
 62
     3
 10
371.489862
 20
534.002757
 11
371.489862
 21
567.002757
  0
ARC
  8
CSLAYER1
  6
CONTINUOUS
 62
     3
 10
381.489862
 20
509.002757
 40
2.000000
 50
0.000000
 51
90.000000
  0
LINE
  8
CSLAYER1
  6
CONTINUOUS
 62
     3
 10
383.489862
 20
509.002757
 11
383.489862
 21
462.002757
  0
ARC
  8
CSLAYER1
  6
CONTINUOUS
 62
     3
 10
381.489862
 20
462.002757
 40
2.000000
 50
270.000000
 51
360.000000
  0
LINE
  8
CSLAYER1
  6
CONTINUOUS
 62
     3
 10
381.489862
 20
460.002757
 11
353.489862
 21
460.002757
  0
ARC
  8
CSLAYER1
  6
CONTINUOUS
 62
     3
 10
353.489862
 20
462.002757
 40
2.000000
 50
180.000000
 51
270.000000
  0
LINE
  8
CSLAYER1
  6
CONTINUOUS
 62
     3
 10
351.489862
 20
462.002757
 11
351.489862
 21
509.002757
  0
ARC
  8
CSLAYER1
  6
CONTINUOUS
 62
     3
 10
353.489862
 20
509.002757
 40
2.000000
 50
90.000000
 51
180.000000
  0
LINE
  8
CSLAYER1
  6
CONTINUOUS
 62
     3
 10
353.489862
 20
511.002757
 11
381.489862
 21
511.002757
  0
LINE
  8
CSLAYER1
  6
CENTER
 62
     3
 10
419.317344
 20
532.171805
 11
465.438535
 21
532.171805
  0
LINE
  8
CSLAYER1
  6
CENTER
 62
     3
 10
474.989862
 20
550.502757
 11
507.989862
 21
550.502757
  0
LINE
  8
CSLAYER1
  6
CENTER
 62
     3
 10
491.489862
 20
534.002757
 11
491.489862
 21
567.002757
  0
LINE
  8
CSLAYER1
  6
CENTER
 62
     3
 10
491.489862
 20
437.002757
 11
491.489862
 21
404.002757
  0
LINE
  8
CSLAYER1
  6
CENTER
 62
     3
 10
507.989862
 20
420.502757
 11
474.989862
 21
420.502757
  0
LINE
  8
CSLAYER1
  6
CENTER
 62
     3
 10
465.438535
 20
438.833710
 11
419.317344
 21
438.833710
  0
LINE
  8
CSLAYER1
  6
CENTER
 62
     3
 10
387.989862
 20
420.502757
 11
354.989862
 21
420.502757
  0
LINE
  8
CSLAYER1
  6
CENTER
 62
     3
 10
371.489862
 20
437.002757
 11
371.489862
 21
404.002757
  0
LINE
  8
CSLAYER1
  6
CONTINUOUS
 62
     3
 10
383.489770
 20
350.502757
 11
383.489770
 21
343.908492
  0
ARC
  8
CSLAYER1
  6
CONTINUOUS
 62
     3
 10
381.489770
 20
343.908492
 40
2.000000
 50
270.000001
 51
359.942691
  0
LINE
  8
CSLAYER1
  6
CONTINUOUS
 62
     3
 10
381.489770
 20
341.908492
 11
353.489770
 21
341.908522
  0
ARC
  8
CSLAYER1
  6
CONTINUOUS
 62
     3
 10
353.489770
 20
343.908522
 40
2.000000
 50
180.000005
 51
270.000001
  0
LINE
  8
CSLAYER1
  6
CONTINUOUS
 62
     3
 10
351.489770
 20
343.908522
 11
351.489770
 21
350.502757
  0
LINE
  8
CSLAYER1
  6
CENTER
 62
     3
 10
298.489801
 20
337.502757
 11
298.489801
 21
273.502757
  0
LINE
  8
CSLAYER1
  6
CENTER
 62
     3
 10
293.489801
 20
268.502757
 11
293.489801
 21
257.802745
  0
LINE
  8
CSLAYER1
  6
CENTER
 62
     3
 10
371.489862
 20
240.145614
 11
371.489862
 21
211.502757
  0
LINE
  8
CSLAYER1
  6
CENTER
 62
     3
 10
371.489862
 20
187.002757
 11
371.489862
 21
154.002757
  0
LINE
  8
CSLAYER1
  6
CENTER
 62
     3
 10
354.989862
 20
170.502757
 11
387.989862
 21
170.502757
  0
LINE
  8
CSLAYER1
  6
CONTINUOUS
 62
     3
 10
393.989862
 20
235.502757
 11
467.989862
 21
235.502757
  0
LINE
  8
CSLAYER1
  6
CENTER
 62
     3
 10
465.438535
 20
258.833710
 11
419.317344
 21
258.833710
  0
LINE
  8
CSLAYER1
  6
CENTER
 62
     3
 10
298.489862
 20
159.502742
 11
298.489862
 21
136.895931
  0
LINE
  8
CSLAYER1
  6
CENTER
 62
     3
 10
293.489862
 20
126.502757
 11
293.489862
 21
84.502757
  0
LINE
  8
CSLAYER1
  6
CENTER
 62
     3
 10
287.739868
 20
90.502757
 11
299.239868
 21
90.502757
  0
LINE
  8
CSLAYER1
  6
CENTER
 62
     3
 10
287.489862
 20
95.752720
 11
287.489862
 21
115.252720
  0
LINE
  8
CSLAYER1
  6
CENTER
 62
     3
 10
287.739868
 20
120.502757
 11
299.239868
 21
120.502757
  0
LINE
  8
CSLAYER1
  6
CENTER
 62
     3
 10
261.489862
 20
105.502757
 11
579.489862
 21
105.502757
  0
LINE
  8
CSLAYER1
  6
CENTER
 62
     3
 10
507.989862
 20
40.502757
 11
474.989862
 21
40.502757
  0
LINE
  8
CSLAYER1
  6
CENTER
 62
     3
 10
491.489862
 20
57.002757
 11
491.489862
 21
24.002757
  0
LINE
  8
CSLAYER1
  6
CENTER
 62
     3
 10
387.989862
 20
40.502757
 11
354.989862
 21
40.502757
  0
LINE
  8
CSLAYER1
  6
CENTER
 62
     3
 10
371.489862
 20
57.002757
 11
371.489862
 21
24.002757
  0
LINE
  8
CSLAYER1
  6
CENTER
 62
     3
 10
298.489862
 20
51.502742
 11
298.489862
 21
74.109554
  0
LINE
  8
CSLAYER1
  6
CENTER
 62
     3
 10
474.989862
 20
170.502757
 11
507.989862
 21
170.502757
  0
LINE
  8
CSLAYER1
  6
CENTER
 62
     3
 10
491.489862
 20
154.002757
 11
491.489862
 21
187.002757
  0
LINE
  8
CSLAYER1
  6
CENTER
 62
     3
 10
491.489862
 20
211.502757
 11
491.489862
 21
240.145614
  0
LINE
  8
CSLAYER1
  6
CENTER
 62
     3
 10
465.438535
 20
352.171805
 11
419.317344
 21
352.171805
  0
LINE
  8
CSLAYER1
  6
CENTER
 62
     3
 10
298.489831
 20
433.447002
 11
298.489831
 21
452.053813
  0
LINE
  8
CSLAYER1
  6
CENTER
 62
     3
 10
198.728365
 20
362.071300
 11
178.575822
 21
341.918757
  0
CIRCLE
  8
CSLAYER1
  6
CONTINUOUS
 62
     3
 10
188.828870
 20
352.171805
 40
4.000000
  0
ARC
  8
CSLAYER1
  6
CENTER
 62
     3
 10
142.159822
 20
305.502757
 40
66.000000
 50
33.709850
 51
56.290208
  0
LINE
  8
CSLAYER1
  6
CENTER
 62
     3
 10
178.575822
 20
269.086758
 11
198.728365
 21
248.934215
  0
CIRCLE
  8
CSLAYER1
  6
CONTINUOUS
 62
     3
 10
188.828870
 20
258.833710
 40
4.000000
  0
ARC
  8
CSLAYER1
  6
CENTER
 62
     3
 10
142.159822
 20
305.502757
 40
66.000000
 50
303.709792
 51
326.290150
  0
TEXT
  8
CSLAYER1
 62
     3
 10
365.546600
 20
490.752777
 40
3.500000
 41
1.125000
  1
N P
 50
-90.000000
 51
10.000000
  7
JX_FONT
 72
     5
 11
365.546600
 21
480.252777
  0
LINE
  8
CSLAYER1
  6
CONTINUOUS
 62
     6
 10
62.159822
 20
215.502757
 11
112.159822
 21
215.502757
  0
LINE
  8
CSLAYER1
  6
CONTINUOUS
 62
     6
 10
112.159822
 20
215.502757
 11
112.159822
 21
233.584802
  0
ARC
  8
CSLAYER1
  6
CONTINUOUS
 62
     6
 10
110.159822
 20
233.584802
 40
2.000000
 50
0.000000
 51
90.000000
  0
LINE
  8
CSLAYER1
  6
CONTINUOUS
 62
     6
 10
110.159822
 20
235.584802
 11
64.159822
 21
235.584802
  0
ARC
  8
CSLAYER1
  6
CONTINUOUS
 62
     6
 10
64.159822
 20
233.584802
 40
2.000000
 50
90.000000
 51
180.000000
  0
LINE
  8
CSLAYER1
  6
CONTINUOUS
 62
     6
 10
62.159822
 20
235.584802
 11
62.159822
 21
215.502757
  0
LINE
  8
CSLAYER1
  6
DASHED
 62
     6
 10
71.159822
 20
215.502757
 11
71.159822
 21
235.584802
  0
ARC
  8
CSLAYER1
  6
CONTINUOUS
 62
     6
 10
76.554537
 20
239.584802
 40
4.000000
 50
175.095187
 51
270.000000
  0
LINE
  8
CSLAYER1
  6
CONTINUOUS
 62
     6
 10
72.569184
 20
239.926804
 11
78.368205
 21
307.502757
  0
LINE
  8
CSLAYER1
  6
CONTINUOUS
 62
     6
 10
82.838663
 20
310.502757
 11
93.159822
 21
310.502757
  0
LINE
  8
CSLAYER1
  6
CONTINUOUS
 62
     6
 10
93.159822
 20
300.502757
 11
81.438943
 21
300.502757
  0
ARC
  8
CSLAYER1
  6
CONTINUOUS
 62
     6
 10
81.438943
 20
296.502757
 40
4.000000
 50
90.000000
 51
175.095187
  0
LINE
  8
CSLAYER1
  6
CONTINUOUS
 62
     6
 10
93.159822
 20
287.482554
 11
93.159822
 21
323.522960
  0
ARC
  8
CSLAYER1
  6
CONTINUOUS
 62
     6
 10
94.159822
 20
323.522960
 40
1.000000
 50
91.169216
 51
180.000020
  0
LINE
  8
CSLAYER1
  6
CONTINUOUS
 62
     6
 10
94.139406
 20
324.522716
 11
101.719071
 21
324.919909
  0
ARC
  8
CSLAYER1
  6
CONTINUOUS
 62
     6
 10
101.630105
 20
326.617654
 40
1.700075
 50
-87.000310
 51
86.999412
  0
LINE
  8
CSLAYER1
  6
CONTINUOUS
 62
     6
 10
101.719097
 20
328.315398
 11
98.144777
 21
328.502757
  0
ARC
  8
CSLAYER1
  6
CONTINUOUS
 62
     6
 10
98.144777
 20
329.502757
 40
1.000000
 50
180.000020
 51
270.000001
  0
LINE
  8
CSLAYER1
  6
CONTINUOUS
 62
     6
 10
97.159822
 20
329.502757
 11
97.159822
 21
330.502757
  0
ARC
  8
CSLAYER1
  6
CONTINUOUS
 62
     6
 10
98.159822
 20
330.502757
 40
1.000000
 50
90.000039
 51
180.000020
  0
LINE
  8
CSLAYER1
  6
CONTINUOUS
 62
     6
 10
98.159822
 20
331.502757
 11
107.007671
 21
331.966435
  0
ARC
  8
CSLAYER1
  6
CONTINUOUS
 62
     6
 10
142.159822
 20
305.502757
 40
45.000000
 50
35.914392
 51
144.085607
  0
ARC
  8
CSLAYER1
  6
CONTINUOUS
 62
     6
 10
182.582556
 20
333.197569
 40
4.000000
 50
135.000000
 51
199.106002
  0
LINE
  8
CSLAYER1
  6
CONTINUOUS
 62
     6
 10
179.754129
 20
336.025996
 11
185.731154
 21
342.003021
  0
ARC
  8
CSLAYER1
  6
CONTINUOUS
 62
     6
 10
188.559581
 20
339.174594
 40
4.000000
 50
88.813061
 51
135.000000
  0
ARC
  8
CSLAYER1
  6
CONTINUOUS
 62
     6
 10
188.828870
 20
352.171805
 40
9.000000
 50
268.813061
 51
282.381397
  0
ARC
  8
CSLAYER1
  6
CONTINUOUS
 62
     6
 10
191.616307
 20
339.474160
 40
4.000000
 50
34.484970
 51
102.381397
  0
ARC
  8
CSLAYER1
  6
CONTINUOUS
 62
     6
 10
142.159822
 20
305.502757
 40
64.000000
 50
8.626927
 51
34.484970
  0
ARC
  8
CSLAYER1
  6
CONTINUOUS
 62
     6
 10
201.480982
 20
314.502757
 40
4.000000
 50
-90.000000
 51
8.626927
  0
LINE
  8
CSLAYER1
  6
CONTINUOUS
 62
     6
 10
201.480982
 20
310.502757
 11
191.159822
 21
310.502757
  0
LINE
  8
CSLAYER1
  6
CONTINUOUS
 62
     6
 10
191.159822
 20
300.502757
 11
202.880701
 21
300.502757
  0
ARC
  8
CSLAYER1
  6
CONTINUOUS
 62
     6
 10
202.880701
 20
296.502757
 40
4.000000
 50
4.904813
 51
90.000000
  0
LINE
  8
CSLAYER1
  6
CONTINUOUS
 62
     6
 10
191.159822
 20
287.482554
 11
191.159822
 21
323.522960
  0
ARC
  8
CSLAYER1
  6
CONTINUOUS
 62
     6
 10
190.159822
 20
323.522960
 40
1.000000
 50
0.000000
 51
88.830746
  0
LINE
  8
CSLAYER1
  6
CONTINUOUS
 62
     6
 10
190.180238
 20
324.522716
 11
182.600574
 21
324.919909
  0
ARC
  8
CSLAYER1
  6
CONTINUOUS
 62
     6
 10
182.689540
 20
326.617654
 40
1.700075
 50
93.000588
 51
267.000310
  0
LINE
  8
CSLAYER1
  6
CONTINUOUS
 62
     6
 10
182.600547
 20
328.315398
 11
186.174867
 21
328.502757
  0
ARC
  8
CSLAYER1
  6
CONTINUOUS
 62
     6
 10
186.174867
 20
329.502757
 40
1.000000
 50
270.000001
 51
359.999982
  0
LINE
  8
CSLAYER1
  6
CONTINUOUS
 62
     6
 10
187.159822
 20
329.502757
 11
187.159822
 21
330.502757
  0
ARC
  8
CSLAYER1
  6
CONTINUOUS
 62
     6
 10
186.159822
 20
330.502757
 40
1.000000
 50
0.000000
 51
89.999981
  0
LINE
  8
CSLAYER1
  6
CONTINUOUS
 62
     6
 10
186.159822
 20
331.502757
 11
177.311975
 21
331.966434
  0
ARC
  8
CSLAYER1
  6
CONTINUOUS
 62
     6
 10
142.159822
 20
305.502757
 40
45.000000
 50
25.550580
 51
29.475790
  0
LINE
  8
CSLAYER1
  6
CONTINUOUS
 62
     6
 10
174.159822
 20
324.076933
 11
174.159822
 21
317.502757
  0
ARC
  8
CSLAYER1
  6
CONTINUOUS
 62
     6
 10
172.159822
 20
317.502757
 40
2.000000
 50
270.000000
 51
360.000000
  0
LINE
  8
CSLAYER1
  6
CONTINUOUS
 62
     6
 10
172.159822
 20
315.502757
 11
166.159822
 21
315.502757
  0
ARC
  8
CSLAYER1
  6
CONTINUOUS
 62
     6
 10
166.159822
 20
318.502757
 40
3.000000
 50
180.000000
 51
270.000000
  0
LINE
  8
CSLAYER1
  6
CONTINUOUS
 62
     6
 10
163.159822
 20
318.502757
 11
163.159822
 21
331.884569
  0
ARC
  8
CSLAYER1
  6
CONTINUOUS
 62
     6
 10
165.159822
 20
331.884569
 40
2.000000
 50
48.917667
 51
180.000000
  0
ARC
  8
CSLAYER1
  6
CONTINUOUS
 62
     6
 10
142.159822
 20
305.502757
 40
37.000000
 50
30.132722
 51
48.917667
  0
LINE
  8
CSLAYER1
  6
CONTINUOUS
 62
     6
 10
156.159822
 20
325.124174
 11
156.159822
 21
335.502757
  0
ARC
  8
CSLAYER1
  6
CONTINUOUS
 62
     6
 10
154.159822
 20
335.502757
 40
2.000000
 50
0.000000
 51
90.000000
  0
LINE
  8
CSLAYER1
  6
CONTINUOUS
 62
     6
 10
154.159822
 20
337.502757
 11
149.159822
 21
337.502757
  0
ARC
  8
CSLAYER1
  6
CONTINUOUS
 62
     6
 10
149.159822
 20
335.502757
 40
2.000000
 50
90.000000
 51
180.000000
  0
LINE
  8
CSLAYER1
  6
CONTINUOUS
 62
     6
 10
147.159822
 20
335.502757
 11
147.159822
 21
327.411660
  0
ARC
  8
CSLAYER1
  6
CONTINUOUS
 62
     6
 10
149.159822
 20
327.411660
 40
2.000000
 50
180.000000
 51
252.281068
  0
ARC
  8
CSLAYER1
  6
CONTINUOUS
 62
     6
 10
142.159822
 20
305.502757
 40
21.000000
 50
58.551019
 51
72.281068
  0
ARC
  8
CSLAYER1
  6
CONTINUOUS
 62
     6
 10
154.159822
 20
325.124174
 40
2.000000
 50
238.551019
 51
360.000000
  0
LINE
  8
CSLAYER1
  6
CONTINUOUS
 62
     6
 10
137.159822
 20
327.411660
 11
137.159822
 21
335.502757
  0
ARC
  8
CSLAYER1
  6
CONTINUOUS
 62
     6
 10
135.159822
 20
335.502757
 40
2.000000
 50
0.000000
 51
90.000000
  0
LINE
  8
CSLAYER1
  6
CONTINUOUS
 62
     6
 10
135.159822
 20
337.502757
 11
130.159822
 21
337.502757
  0
ARC
  8
CSLAYER1
  6
CONTINUOUS
 62
     6
 10
130.159822
 20
335.502757
 40
2.000000
 50
90.000000
 51
180.000000
  0
LINE
  8
CSLAYER1
  6
CONTINUOUS
 62
     6
 10
128.159822
 20
335.502757
 11
128.159822
 21
325.124174
  0
ARC
  8
CSLAYER1
  6
CONTINUOUS
 62
     6
 10
130.159822
 20
325.124174
 40
2.000000
 50
180.000000
 51
301.448981
  0
ARC
  8
CSLAYER1
  6
CONTINUOUS
 62
     6
 10
142.159822
 20
305.502757
 40
21.000000
 50
107.718932
 51
121.448981
  0
ARC
  8
CSLAYER1
  6
CONTINUOUS
 62
     6
 10
135.159822
 20
327.411660
 40
2.000000
 50
287.718932
 51
360.000000
  0
ARC
  8
CSLAYER1
  6
CONTINUOUS
 62
     6
 10
119.159822
 20
331.884569
 40
2.000000
 50
0.000000
 51
131.082333
  0
ARC
  8
CSLAYER1
  6
CONTINUOUS
 62
     6
 10
142.159822
 20
305.502757
 40
37.000000
 50
131.082333
 51
149.867278
  0
LINE
  8
CSLAYER1
  6
CONTINUOUS
 62
     6
 10
110.159822
 20
324.076933
 11
110.159822
 21
317.502757
  0
ARC
  8
CSLAYER1
  6
CONTINUOUS
 62
     6
 10
112.159822
 20
317.502757
 40
2.000000
 50
180.000000
 51
270.000000
  0
LINE
  8
CSLAYER1
  6
CONTINUOUS
 62
     6
 10
112.159822
 20
315.502757
 11
118.159822
 21
315.502757
  0
ARC
  8
CSLAYER1
  6
CONTINUOUS
 62
     6
 10
118.159822
 20
318.502757
 40
3.000000
 50
270.000000
 51
360.000000
  0
LINE
  8
CSLAYER1
  6
CONTINUOUS
 62
     6
 10
121.159822
 20
318.502757
 11
121.159822
 21
331.884569
  0
ARC
  8
CSLAYER1
  6
CONTINUOUS
 62
     6
 10
114.465011
 20
345.925491
 40
4.000000
 50
225.000000
 51
304.416197
  0
LINE
  8
CSLAYER1
  6
CONTINUOUS
 62
     6
 10
111.636584
 20
343.097064
 11
105.659558
 21
349.074089
  0
ARC
  8
CSLAYER1
  6
CONTINUOUS
 62
     6
 10
108.487985
 20
351.902516
 40
4.000000
 50
178.813061
 51
225.000000
  0
ARC
  8
CSLAYER1
  6
CONTINUOUS
 62
     6
 10
95.490775
 20
352.171805
 40
9.000000
 50
-1.186939
 51
12.381397
  0
ARC
  8
CSLAYER1
  6
CONTINUOUS
 62
     6
 10
108.188420
 20
354.959242
 40
4.000000
 50
124.484970
 51
192.381397
  0
ARC
  8
CSLAYER1
  6
CONTINUOUS
 62
     6
 10
142.159822
 20
305.502757
 40
64.000000
 50
98.626927
 51
124.484970
  0
ARC
  8
CSLAYER1
  6
CONTINUOUS
 62
     6
 10
133.159822
 20
364.823917
 40
4.000000
 50
0.000000
 51
98.626927
  0
LINE
  8
CSLAYER1
  6
CONTINUOUS
 62
     6
 10
137.159822
 20
364.823917
 11
137.159822
 21
353.669136
  0
ARC
  8
CSLAYER1
  6
CONTINUOUS
 62
     6
 10
133.159822
 20
353.669136
 40
4.000000
 50
280.583803
 51
360.000000
  0
LINE
  8
CSLAYER1
  6
CONTINUOUS
 62
     6
 10
147.159822
 20
353.669136
 11
147.159822
 21
364.823917
  0
ARC
  8
CSLAYER1
  6
CONTINUOUS
 62
     6
 10
151.159822
 20
364.823917
 40
4.000000
 50
81.373073
 51
180.000000
  0
ARC
  8
CSLAYER1
  6
CONTINUOUS
 62
     6
 10
142.159822
 20
305.502757
 40
64.000000
 50
55.515030
 51
81.373073
  0
ARC
  8
CSLAYER1
  6
CONTINUOUS
 62
     6
 10
176.131225
 20
354.959242
 40
4.000000
 50
-12.381397
 51
55.515030
  0
ARC
  8
CSLAYER1
  6
CONTINUOUS
 62
     6
 10
188.828870
 20
352.171805
 40
9.000000
 50
167.618603
 51
181.186939
  0
ARC
  8
CSLAYER1
  6
CONTINUOUS
 62
     6
 10
175.831659
 20
351.902516
 40
4.000000
 50
-45.000000
 51
1.186939
  0
LINE
  8
CSLAYER1
  6
CONTINUOUS
 62
     6
 10
178.660086
 20
349.074089
 11
172.683061
 21
343.097064
  0
ARC
  8
CSLAYER1
  6
CONTINUOUS
 62
     6
 10
169.854634
 20
345.925491
 40
4.000000
 50
235.583803
 51
315.000000
  0
ARC
  8
CSLAYER1
  6
CONTINUOUS
 62
     6
 10
151.159822
 20
353.669136
 40
4.000000
 50
180.000000
 51
259.416197
  0
LINE
  8
CSLAYER1
  6
CONTINUOUS
 62
     6
 10
143.409822
 20
373.252757
 11
143.409822
 21
374.502757
  0
LINE
  8
CSLAYER1
  6
CONTINUOUS
 62
     6
 10
143.409822
 20
374.502757
 11
144.659822
 21
374.502757
  0
LINE
  8
CSLAYER1
  6
CONTINUOUS
 62
     6
 10
144.659822
 20
374.502757
 11
140.909822
 21
375.752757
  0
LINE
  8
CSLAYER1
  6
CONTINUOUS
 62
     6
 10
140.909822
 20
375.752757
 11
140.909822
 21
374.502757
  0
LINE
  8
CSLAYER1
  6
CONTINUOUS
 62
     6
 10
140.909822
 20
374.502757
 11
139.659822
 21
374.502757
  0
LINE
  8
CSLAYER1
  6
CONTINUOUS
 62
     6
 10
139.659822
 20
374.502757
 11
143.409822
 21
373.252757
  0
LINE
  8
CSLAYER1
  6
CONTINUOUS
 62
     6
 10
143.409822
 20
373.352923
 11
143.109327
 21
373.352923
  0
LINE
  8
CSLAYER1
  6
CONTINUOUS
 62
     6
 10
143.409822
 20
373.552923
 11
142.509327
 21
373.552923
  0
LINE
  8
CSLAYER1
  6
CONTINUOUS
 62
     6
 10
141.909327
 20
373.752923
 11
143.409822
 21
373.752923
  0
LINE
  8
CSLAYER1
  6
CONTINUOUS
 62
     6
 10
143.409822
 20
373.952923
 11
141.309327
 21
373.952923
  0
LINE
  8
CSLAYER1
  6
CONTINUOUS
 62
     6
 10
140.709327
 20
374.152923
 11
143.409822
 21
374.152923
  0
LINE
  8
CSLAYER1
  6
CONTINUOUS
 62
     6
 10
143.409822
 20
374.352923
 11
140.109327
 21
374.352923
  0
LINE
  8
CSLAYER1
  6
CONTINUOUS
 62
     6
 10
140.909822
 20
374.552923
 11
144.509327
 21
374.552923
  0
LINE
  8
CSLAYER1
  6
CONTINUOUS
 62
     6
 10
143.909327
 20
374.752923
 11
140.909822
 21
374.752923
  0
LINE
  8
CSLAYER1
  6
CONTINUOUS
 62
     6
 10
140.909822
 20
374.952923
 11
143.309327
 21
374.952923
  0
LINE
  8
CSLAYER1
  6
CONTINUOUS
 62
     6
 10
142.709327
 20
375.152923
 11
140.909822
 21
375.152923
  0
LINE
  8
CSLAYER1
  6
CONTINUOUS
 62
     6
 10
140.909822
 20
375.352923
 11
142.109327
 21
375.352923
  0
LINE
  8
CSLAYER1
  6
CONTINUOUS
 62
     6
 10
141.509327
 20
375.552923
 11
140.909822
 21
375.552923
  0
CIRCLE
  8
CSLAYER1
  6
CONTINUOUS
 62
     6
 10
142.159822
 20
374.502757
 40
2.633333
  0
CIRCLE
  8
CSLAYER1
  6
CONTINUOUS
 62
     6
 10
142.159822
 20
374.502757
 40
2.766667
  0
CIRCLE
  8
CSLAYER1
  6
CONTINUOUS
 62
     6
 10
142.159822
 20
374.502757
 40
2.500000
  0
CIRCLE
  8
CSLAYER1
  6
CONTINUOUS
 62
     6
 10
142.159822
 20
374.502757
 40
2.900000
  0
CIRCLE
  8
CSLAYER1
  6
CONTINUOUS
 62
     6
 10
95.490775
 20
352.171805
 40
3.200000
  0
ARC
  8
CSLAYER1
  6
CONTINUOUS
 62
     6
 10
95.760063
 20
339.174594
 40
4.000000
 50
45.000000
 51
91.186939
  0
LINE
  8
CSLAYER1
  6
CONTINUOUS
 62
     6
 10
98.588490
 20
342.003021
 11
104.565516
 21
336.025996
  0
ARC
  8
CSLAYER1
  6
CONTINUOUS
 62
     6
 10
101.737089
 20
333.197569
 40
4.000000
 50
-19.106002
 51
45.000000
  0
ARC
  8
CSLAYER1
  6
CONTINUOUS
 62
     6
 10
142.159822
 20
305.502757
 40
45.000000
 50
150.524210
 51
154.449420
  0
ARC
  8
CSLAYER1
  6
CONTINUOUS
 62
     6
 10
95.490775
 20
352.171805
 40
9.000000
 50
257.618603
 51
271.186939
  0
ARC
  8
CSLAYER1
  6
CONTINUOUS
 62
     6
 10
92.703338
 20
339.474160
 40
4.000000
 50
77.618603
 51
145.515030
  0
ARC
  8
CSLAYER1
  6
CONTINUOUS
 62
     6
 10
142.159822
 20
305.502757
 40
64.000000
 50
145.515030
 51
171.373073
  0
ARC
  8
CSLAYER1
  6
CONTINUOUS
 62
     6
 10
82.838663
 20
314.502757
 40
4.000000
 50
171.373073
 51
270.000000
  0
LINE
  8
CSLAYER1
  6
CONTINUOUS
 62
     6
 10
68.159822
 20
305.502757
 11
62.159822
 21
235.584802
  0
ARC
  8
CSLAYER1
  6
CONTINUOUS
 62
     6
 10
77.434045
 20
249.833710
 40
4.000000
 50
90.000000
 51
175.095187
  0
LINE
  8
CSLAYER1
  6
CONTINUOUS
 62
     6
 10
77.434045
 20
253.833710
 11
86.109943
 21
253.833710
  0
ARC
  8
CSLAYER1
  6
CONTINUOUS
 62
     6
 10
86.109943
 20
249.833710
 40
4.000000
 50
43.813061
 51
90.000000
  0
ARC
  8
CSLAYER1
  6
CONTINUOUS
 62
     6
 10
95.490775
 20
258.833710
 40
9.000000
 50
223.813061
 51
281.847726
  0
ARC
  8
CSLAYER1
  6
CONTINUOUS
 62
     6
 10
98.159822
 20
246.110653
 40
4.000000
 50
0.000000
 51
101.847726
  0
LINE
  8
CSLAYER1
  6
CONTINUOUS
 62
     6
 10
102.159822
 20
239.584802
 11
102.159822
 21
279.293135
  0
ARC
  8
CSLAYER1
  6
CONTINUOUS
 62
     6
 10
101.630105
 20
284.387861
 40
1.700075
 50
-86.999412
 51
87.000310
  0
LINE
  8
CSLAYER1
  6
CONTINUOUS
 62
     6
 10
101.719071
 20
286.085606
 11
94.139406
 21
286.482798
  0
ARC
  8
CSLAYER1
  6
CONTINUOUS
 62
     6
 10
94.159822
 20
287.482554
 40
1.000000
 50
180.000020
 51
268.830766
  0
ARC
  8
CSLAYER1
  6
CONTINUOUS
 62
     6
 10
98.144777
 20
281.502757
 40
1.000000
 50
90.000039
 51
180.000020
  0
LINE
  8
CSLAYER1
  6
CONTINUOUS
 62
     6
 10
97.159822
 20
281.502757
 11
97.159822
 21
280.502757
  0
ARC
  8
CSLAYER1
  6
CONTINUOUS
 62
     6
 10
98.159822
 20
280.502757
 40
1.000000
 50
180.000020
 51
270.000001
  0
LINE
  8
CSLAYER1
  6
CONTINUOUS
 62
     6
 10
98.159822
 20
279.502757
 11
107.007671
 21
279.039080
  0
ARC
  8
CSLAYER1
  6
CONTINUOUS
 62
     6
 10
142.159822
 20
305.502757
 40
45.000000
 50
215.914393
 51
324.085608
  0
LINE
  8
CSLAYER1
  6
CONTINUOUS
 62
     6
 10
177.311975
 20
279.039080
 11
186.159822
 21
279.502757
  0
ARC
  8
CSLAYER1
  6
CONTINUOUS
 62
     6
 10
186.159822
 20
280.502757
 40
1.000000
 50
270.000019
 51
360.000000
  0
LINE
  8
CSLAYER1
  6
CONTINUOUS
 62
     6
 10
187.159822
 20
280.502757
 11
187.159822
 21
281.502757
  0
ARC
  8
CSLAYER1
  6
CONTINUOUS
 62
     6
 10
186.174867
 20
281.502757
 40
1.000000
 50
0.000018
 51
89.999999
  0
LINE
  8
CSLAYER1
  6
CONTINUOUS
 62
     6
 10
186.174867
 20
282.502757
 11
182.600547
 21
282.690116
  0
ARC
  8
CSLAYER1
  6
CONTINUOUS
 62
     6
 10
182.689540
 20
284.387861
 40
1.700075
 50
92.999690
 51
266.999412
  0
LINE
  8
CSLAYER1
  6
CONTINUOUS
 62
     6
 10
182.600574
 20
286.085606
 11
190.180238
 21
286.482798
  0
ARC
  8
CSLAYER1
  6
CONTINUOUS
 62
     6
 10
190.159822
 20
287.482554
 40
1.000000
 50
271.169236
 51
359.999982
  0
ARC
  8
CSLAYER1
  6
CONTINUOUS
 62
     6
 10
142.159822
 20
305.502757
 40
45.000000
 50
330.524210
 51
334.456908
  0
LINE
  8
CSLAYER1
  6
CONTINUOUS
 62
     6
 10
182.159822
 20
282.772418
 11
182.159822
 21
284.887229
  0
LINE
  8
CSLAYER1
  6
CONTINUOUS
 62
     6
 10
182.159822
 20
279.293135
 11
182.159822
 21
239.584802
  0
ARC
  8
CSLAYER1
  6
CONTINUOUS
 62
     6
 10
186.159822
 20
239.584802
 40
4.000000
 50
180.000000
 51
270.000000
  0
ARC
  8
CSLAYER1
  6
CONTINUOUS
 62
     6
 10
178.777343
 20
236.502757
 40
4.000000
 50
22.659604
 51
90.000000
  0
LINE
  8
CSLAYER1
  6
CONTINUOUS
 62
     6
 10
178.777343
 20
240.502757
 11
105.542302
 21
240.502757
  0
ARC
  8
CSLAYER1
  6
CONTINUOUS
 62
     6
 10
105.542302
 20
236.502757
 40
4.000000
 50
90.000000
 51
157.340396
  0
ARC
  8
CSLAYER1
  6
CONTINUOUS
 62
     6
 10
98.159822
 20
239.584802
 40
4.000000
 50
270.000000
 51
360.000000
  0
LINE
  8
CSLAYER1
  6
DASHED
 62
     6
 10
83.159822
 20
235.584802
 11
83.159822
 21
215.502757
  0
ARC
  8
CSLAYER1
  6
CONTINUOUS
 62
     6
 10
122.159822
 20
220.502757
 40
10.000000
 50
90.000000
 51
180.000000
  0
LINE
  8
CSLAYER1
  6
CONTINUOUS
 62
     6
 10
122.159822
 20
230.502757
 11
162.159822
 21
230.502757
  0
ARC
  8
CSLAYER1
  6
CONTINUOUS
 62
     6
 10
162.159822
 20
220.502757
 40
10.000000
 50
0.000000
 51
90.000000
  0
LINE
  8
CSLAYER1
  6
CONTINUOUS
 62
     6
 10
172.159822
 20
215.502757
 11
222.159822
 21
215.502757
  0
LINE
  8
CSLAYER1
  6
CONTINUOUS
 62
     6
 10
222.159822
 20
215.502757
 11
222.159822
 21
235.584802
  0
LINE
  8
CSLAYER1
  6
CONTINUOUS
 62
     6
 10
222.159822
 20
235.584802
 11
216.159822
 21
305.502757
  0
ARC
  8
CSLAYER1
  6
CONTINUOUS
 62
     6
 10
142.159822
 20
305.502757
 40
74.000000
 50
-0.000000
 51
180.000000
  0
CIRCLE
  8
CSLAYER1
  6
CONTINUOUS
 62
     6
 10
142.159822
 20
305.502757
 40
44.000000
  0
CIRCLE
  8
CSLAYER1
  6
CONTINUOUS
 62
     6
 10
142.159822
 20
305.502757
 40
15.000000
  0
LINE
  8
CSLAYER1
  6
CONTINUOUS
 62
     6
 10
205.951439
 20
307.502757
 11
211.750461
 21
239.926804
  0
ARC
  8
CSLAYER1
  6
CONTINUOUS
 62
     6
 10
207.765108
 20
239.584802
 40
4.000000
 50
-90.000000
 51
4.904813
  0
LINE
  8
CSLAYER1
  6
DASHED
 62
     6
 10
201.159822
 20
235.584802
 11
201.159822
 21
215.502757
  0
LINE
  8
CSLAYER1
  6
CONTINUOUS
 62
     6
 10
172.159822
 20
215.502757
 11
172.159822
 21
233.584802
  0
ARC
  8
CSLAYER1
  6
CONTINUOUS
 62
     6
 10
174.159822
 20
233.584802
 40
2.000000
 50
90.000000
 51
180.000000
  0
LINE
  8
CSLAYER1
  6
CONTINUOUS
 62
     6
 10
174.159822
 20
235.584802
 11
220.159822
 21
235.584802
  0
ARC
  8
CSLAYER1
  6
CONTINUOUS
 62
     6
 10
220.159822
 20
233.584802
 40
2.000000
 50
0.000000
 51
90.000000
  0
LINE
  8
CSLAYER1
  6
DASHED
 62
     6
 10
213.159822
 20
235.584802
 11
213.159822
 21
215.502757
  0
ARC
  8
CSLAYER1
  6
CONTINUOUS
 62
     6
 10
206.885599
 20
249.833710
 40
4.000000
 50
4.904813
 51
90.000000
  0
LINE
  8
CSLAYER1
  6
CONTINUOUS
 62
     6
 10
206.885599
 20
253.833710
 11
198.209701
 21
253.833710
  0
ARC
  8
CSLAYER1
  6
CONTINUOUS
 62
     6
 10
198.209701
 20
249.833710
 40
4.000000
 50
90.000000
 51
136.186939
  0
ARC
  8
CSLAYER1
  6
CONTINUOUS
 62
     6
 10
188.828870
 20
258.833710
 40
9.000000
 50
258.152274
 51
316.186939
  0
ARC
  8
CSLAYER1
  6
CONTINUOUS
 62
     6
 10
186.159822
 20
246.110653
 40
4.000000
 50
78.152274
 51
180.000000
  0
LINE
  8
CSLAYER1
  6
CONTINUOUS
 62
     6
 10
172.159822
 20
244.502757
 11
172.159822
 21
263.969638
  0
ARC
  8
CSLAYER1
  6
CONTINUOUS
 62
     6
 10
168.159822
 20
263.969638
 40
4.000000
 50
0.000000
 51
122.046831
  0
ARC
  8
CSLAYER1
  6
CONTINUOUS
 62
     6
 10
142.159822
 20
305.502757
 40
37.000000
 50
311.082333
 51
329.867278
  0
LINE
  8
CSLAYER1
  6
CONTINUOUS
 62
     6
 10
174.159822
 20
286.928582
 11
174.159822
 21
293.502757
  0
ARC
  8
CSLAYER1
  6
CONTINUOUS
 62
     6
 10
172.159822
 20
293.502757
 40
2.000000
 50
0.000000
 51
90.000000
  0
LINE
  8
CSLAYER1
  6
CONTINUOUS
 62
     6
 10
172.159822
 20
295.502757
 11
166.159822
 21
295.502757
  0
ARC
  8
CSLAYER1
  6
CONTINUOUS
 62
     6
 10
166.159822
 20
292.502757
 40
3.000000
 50
90.000000
 51
180.000000
  0
LINE
  8
CSLAYER1
  6
CONTINUOUS
 62
     6
 10
163.159822
 20
292.502757
 11
163.159822
 21
279.120945
  0
ARC
  8
CSLAYER1
  6
CONTINUOUS
 62
     6
 10
165.159822
 20
279.120945
 40
2.000000
 50
180.000000
 51
311.082333
  0
LINE
  8
CSLAYER1
  6
CONTINUOUS
 62
     6
 10
156.159822
 20
275.502757
 11
156.159822
 21
285.881340
  0
ARC
  8
CSLAYER1
  6
CONTINUOUS
 62
     6
 10
154.159822
 20
285.881340
 40
2.000000
 50
0.000000
 51
121.448981
  0
ARC
  8
CSLAYER1
  6
CONTINUOUS
 62
     6
 10
142.159822
 20
305.502757
 40
21.000000
 50
287.718932
 51
301.448981
  0
ARC
  8
CSLAYER1
  6
CONTINUOUS
 62
     6
 10
149.159822
 20
283.593855
 40
2.000000
 50
107.718932
 51
180.000000
  0
LINE
  8
CSLAYER1
  6
CONTINUOUS
 62
     6
 10
147.159822
 20
283.593855
 11
147.159822
 21
275.502757
  0
ARC
  8
CSLAYER1
  6
CONTINUOUS
 62
     6
 10
149.159822
 20
275.502757
 40
2.000000
 50
180.000000
 51
270.000000
  0
LINE
  8
CSLAYER1
  6
CONTINUOUS
 62
     6
 10
149.159822
 20
273.502757
 11
154.159822
 21
273.502757
  0
ARC
  8
CSLAYER1
  6
CONTINUOUS
 62
     6
 10
154.159822
 20
275.502757
 40
2.000000
 50
270.000000
 51
360.000000
  0
ARC
  8
CSLAYER1
  6
CONTINUOUS
 62
     6
 10
151.159822
 20
257.336379
 40
4.000000
 50
100.583803
 51
180.000000
  0
LINE
  8
CSLAYER1
  6
CONTINUOUS
 62
     6
 10
147.159822
 20
257.336379
 11
147.159822
 21
244.502757
  0
ARC
  8
CSLAYER1
  6
CONTINUOUS
 62
     6
 10
151.159822
 20
244.502757
 40
4.000000
 50
180.000000
 51
270.000000
  0
LINE
  8
CSLAYER1
  6
CONTINUOUS
 62
     6
 10
147.673731
 20
242.722811
 11
145.859535
 21
245.715019
  0
ARC
  8
CSLAYER1
  6
CONTINUOUS
 62
     6
 10
160.067708
 20
253.099930
 40
15.407880
 50
179.999963
 51
207.463892
  0
LINE
  8
CSLAYER1
  6
CONTINUOUS
 62
     6
 10
144.659836
 20
253.099988
 11
144.659836
 21
254.546802
  0
ARC
  8
CSLAYER1
  6
CONTINUOUS
 62
     6
 10
144.034829
 20
253.464267
 40
1.250008
 50
60.000345
 51
120.000345
  0
ARC
  8
CSLAYER1
  6
CONTINUOUS
 62
     6
 10
142.784820
 20
253.464259
 40
1.250008
 50
60.000345
 51
120.000345
  0
LINE
  8
CSLAYER1
  6
CONTINUOUS
 62
     6
 10
142.159810
 20
254.546794
 11
142.159780
 21
253.082017
  0
ARC
  8
CSLAYER1
  6
CONTINUOUS
 62
     6
 10
124.251910
 20
253.099930
 40
17.907879
 50
332.536225
 51
359.942687
  0
LINE
  8
CSLAYER1
  6
CONTINUOUS
 62
     6
 10
140.141615
 20
244.841049
 11
137.923338
 21
245.994042
  0
ARC
  8
CSLAYER1
  6
CONTINUOUS
 62
     6
 10
124.251910
 20
253.099930
 40
15.407880
 50
332.536225
 51
359.942687
  0
LINE
  8
CSLAYER1
  6
CONTINUOUS
 62
     6
 10
139.659782
 20
253.099988
 11
139.659782
 21
254.546802
  0
ARC
  8
CSLAYER1
  6
CONTINUOUS
 62
     6
 10
140.284784
 20
253.464259
 40
1.250008
 50
60.000345
 51
120.000345
  0
ARC
  8
CSLAYER1
  6
CONTINUOUS
 62
     6
 10
140.284771
 20
255.629337
 40
1.250008
 50
240.000345
 51
300.000345
  0
ARC
  8
CSLAYER1
  6
CONTINUOUS
 62
     6
 10
141.534792
 20
253.464267
 40
1.250008
 50
60.000345
 51
120.000345
  0
ARC
  8
CSLAYER1
  6
CONTINUOUS
 62
     6
 10
142.784807
 20
255.629337
 40
1.250008
 50
240.000345
 51
300.000345
  0
ARC
  8
CSLAYER1
  6
CONTINUOUS
 62
     6
 10
142.784847
 20
257.491837
 40
1.250017
 50
239.999981
 51
299.999981
  0
LINE
  8
CSLAYER1
  6
CONTINUOUS
 62
     6
 10
142.159836
 20
256.409290
 11
142.159822
 21
260.502757
  0
LINE
  8
CSLAYER1
  6
CONTINUOUS
 62
     6
 10
139.659805
 20
260.558396
 11
139.659801
 21
256.409291
  0
ARC
  8
CSLAYER1
  6
CONTINUOUS
 62
     6
 10
140.284811
 20
257.491837
 40
1.250017
 50
239.999981
 51
299.999981
  0
ARC
  8
CSLAYER1
  6
CONTINUOUS
 62
     6
 10
141.534828
 20
257.491837
 40
1.250017
 50
239.999981
 51
299.999981
  0
ARC
  8
CSLAYER1
  6
CONTINUOUS
 62
     6
 10
141.534827
 20
255.326744
 40
1.250017
 50
59.999981
 51
119.999981
  0
ARC
  8
CSLAYER1
  6
CONTINUOUS
 62
     6
 10
144.034864
 20
257.491837
 40
1.250017
 50
239.999981
 51
299.999981
  0
ARC
  8
CSLAYER1
  6
CONTINUOUS
 62
     6
 10
144.034863
 20
255.326744
 40
1.250017
 50
59.999981
 51
119.999981
  0
LINE
  8
CSLAYER1
  6
CONTINUOUS
 62
     6
 10
144.659836
 20
256.409291
 11
144.659840
 21
260.558396
  0
ARC
  8
CSLAYER1
  6
CONTINUOUS
 62
     6
 10
160.067708
 20
253.099988
 40
17.907879
 50
180.000020
 51
207.463892
  0
LINE
  8
CSLAYER1
  6
CONTINUOUS
 62
     6
 10
144.178022
 20
244.841049
 11
146.396299
 21
245.994003
  0
LINE
  8
CSLAYER1
  6
CONTINUOUS
 62
     6
 10
145.287160
 20
245.417526
 11
146.936962
 21
242.210819
  0
LINE
  8
CSLAYER1
  6
CONTINUOUS
 62
     6
 10
146.092036
 20
241.909053
 11
144.712333
 21
245.124801
  0
LINE
  8
CSLAYER1
  6
CONTINUOUS
 62
     6
 10
139.625063
 20
245.109537
 11
138.058274
 21
241.698827
  0
LINE
  8
CSLAYER1
  6
CONTINUOUS
 62
     6
 10
137.271555
 20
241.986042
 11
139.032477
 21
245.417545
  0
LINE
  8
CSLAYER1
  6
CONTINUOUS
 62
     6
 10
138.436711
 20
245.719356
 11
136.579480
 21
242.457690
  0
LINE
  8
CSLAYER1
  6
CONTINUOUS
 62
     6
 10
137.159822
 20
244.502757
 11
137.159822
 21
257.336379
  0
ARC
  8
CSLAYER1
  6
CONTINUOUS
 62
     6
 10
133.159822
 20
257.336379
 40
4.000000
 50
0.000000
 51
79.416197
  0
ARC
  8
CSLAYER1
  6
CONTINUOUS
 62
     6
 10
135.159822
 20
275.502757
 40
2.000000
 50
270.000000
 51
360.000000
  0
LINE
  8
CSLAYER1
  6
CONTINUOUS
 62
     6
 10
137.159822
 20
275.502757
 11
137.159822
 21
283.593855
  0
ARC
  8
CSLAYER1
  6
CONTINUOUS
 62
     6
 10
135.159822
 20
283.593855
 40
2.000000
 50
0.000000
 51
72.281068
  0
ARC
  8
CSLAYER1
  6
CONTINUOUS
 62
     6
 10
142.159822
 20
305.502757
 40
21.000000
 50
238.551019
 51
252.281068
  0
ARC
  8
CSLAYER1
  6
CONTINUOUS
 62
     6
 10
130.159822
 20
285.881340
 40
2.000000
 50
58.551019
 51
180.000000
  0
LINE
  8
CSLAYER1
  6
CONTINUOUS
 62
     6
 10
128.159822
 20
285.881340
 11
128.159822
 21
275.502757
  0
ARC
  8
CSLAYER1
  6
CONTINUOUS
 62
     6
 10
130.159822
 20
275.502757
 40
2.000000
 50
180.000000
 51
270.000000
  0
LINE
  8
CSLAYER1
  6
CONTINUOUS
 62
     6
 10
130.159822
 20
273.502757
 11
135.159822
 21
273.502757
  0
LINE
  8
CSLAYER1
  6
CONTINUOUS
 62
     6
 10
121.159822
 20
279.120945
 11
121.159822
 21
292.502757
  0
ARC
  8
CSLAYER1
  6
CONTINUOUS
 62
     6
 10
118.159822
 20
292.502757
 40
3.000000
 50
0.000000
 51
90.000000
  0
LINE
  8
CSLAYER1
  6
CONTINUOUS
 62
     6
 10
118.159822
 20
295.502757
 11
112.159822
 21
295.502757
  0
ARC
  8
CSLAYER1
  6
CONTINUOUS
 62
     6
 10
112.159822
 20
293.502757
 40
2.000000
 50
90.000000
 51
180.000000
  0
LINE
  8
CSLAYER1
  6
CONTINUOUS
 62
     6
 10
110.159822
 20
293.502757
 11
110.159822
 21
286.928582
  0
ARC
  8
CSLAYER1
  6
CONTINUOUS
 62
     6
 10
142.159822
 20
305.502757
 40
37.000000
 50
210.132722
 51
228.917667
  0
ARC
  8
CSLAYER1
  6
CONTINUOUS
 62
     6
 10
119.159822
 20
279.120945
 40
2.000000
 50
228.917667
 51
360.000000
  0
ARC
  8
CSLAYER1
  6
CONTINUOUS
 62
     6
 10
116.159822
 20
263.969638
 40
4.000000
 50
57.953169
 51
180.000000
  0
LINE
  8
CSLAYER1
  6
CONTINUOUS
 62
     6
 10
112.159822
 20
263.969638
 11
112.159822
 21
244.502757
  0
ARC
  8
CSLAYER1
  6
CONTINUOUS
 62
     6
 10
116.159822
 20
244.502757
 40
4.000000
 50
180.000000
 51
270.000000
  0
ARC
  8
CSLAYER1
  6
CONTINUOUS
 62
     6
 10
133.159822
 20
244.502757
 40
4.000000
 50
270.000000
 51
360.000000
  0
ARC
  8
CSLAYER1
  6
CONTINUOUS
 62
     6
 10
168.159822
 20
244.502757
 40
4.000000
 50
270.000000
 51
360.000000
  0
CIRCLE
  8
CSLAYER1
  6
CONTINUOUS
 62
     6
 10
188.828870
 20
258.833710
 40
3.200000
  0
ARC
  8
CSLAYER1
  6
CONTINUOUS
 62
     6
 10
198.209701
 20
267.833710
 40
4.000000
 50
223.813061
 51
270.000000
  0
LINE
  8
CSLAYER1
  6
CONTINUOUS
 62
     6
 10
198.209701
 20
263.833710
 11
205.340932
 21
263.833710
  0
ARC
  8
CSLAYER1
  6
CONTINUOUS
 62
     6
 10
205.340932
 20
267.833710
 40
4.000000
 50
-90.000000
 51
4.904813
  0
ARC
  8
CSLAYER1
  6
CONTINUOUS
 62
     6
 10
188.828870
 20
258.833710
 40
9.000000
 50
43.813061
 51
101.420744
  0
ARC
  8
CSLAYER1
  6
CONTINUOUS
 62
     6
 10
186.159822
 20
271.556767
 40
4.000000
 50
180.000000
 51
281.847726
  0
ARC
  8
CSLAYER1
  6
CONTINUOUS
 62
     6
 10
142.159822
 20
304.709635
 40
13.065822
 50
-37.903067
 51
217.903051
  0
ARC
  8
CSLAYER1
  6
CONTINUOUS
 62
     6
 10
132.926191
 20
297.520684
 40
1.363635
 50
217.903413
 51
309.763730
  0
ARC
  8
CSLAYER1
  6
CONTINUOUS
 62
     6
 10
135.667693
 20
294.226021
 40
2.922462
 50
-23.481547
 51
129.764151
  0
LINE
  8
CSLAYER1
  6
CONTINUOUS
 62
     6
 10
138.348139
 20
293.061562
 11
137.765794
 21
291.160792
  0
CIRCLE
  8
CSLAYER1
  6
CONTINUOUS
 62
     6
 10
135.667693
 20
294.226021
 40
1.363635
  0
LINE
  8
CSLAYER1
  6
CONTINUOUS
 62
     6
 10
145.971493
 20
293.061562
 11
146.553838
 21
291.160792
  0
ARC
  8
CSLAYER1
  6
CONTINUOUS
 62
     6
 10
148.651942
 20
294.226021
 40
2.922462
 50
50.235851
 51
203.481549
  0
ARC
  8
CSLAYER1
  6
CONTINUOUS
 62
     6
 10
151.393441
 20
297.520684
 40
1.363635
 50
230.236329
 51
322.096590
  0
CIRCLE
  8
CSLAYER1
  6
CONTINUOUS
 62
     6
 10
148.651942
 20
294.226021
 40
1.363635
  0
ARC
  8
CSLAYER1
  6
CONTINUOUS
 62
     6
 10
142.159822
 20
305.502757
 40
45.000000
 50
205.543092
 51
209.475790
  0
LINE
  8
CSLAYER1
  6
CONTINUOUS
 62
     6
 10
102.159822
 20
284.887229
 11
102.159822
 21
282.772418
  0
LINE
  8
CSLAYER1
  6
CONTINUOUS
 62
     6
 10
101.719097
 20
282.690116
 11
98.144777
 21
282.502757
  0
ARC
  8
CSLAYER1
  6
CONTINUOUS
 62
     6
 10
98.159822
 20
271.556767
 40
4.000000
 50
258.152274
 51
360.000000
  0
ARC
  8
CSLAYER1
  6
CONTINUOUS
 62
     6
 10
95.490775
 20
258.833710
 40
9.000000
 50
78.579256
 51
136.186939
  0
ARC
  8
CSLAYER1
  6
CONTINUOUS
 62
     6
 10
86.109943
 20
267.833710
 40
4.000000
 50
270.000000
 51
316.186939
  0
LINE
  8
CSLAYER1
  6
CONTINUOUS
 62
     6
 10
86.109943
 20
263.833710
 11
78.978713
 21
263.833710
  0
ARC
  8
CSLAYER1
  6
CONTINUOUS
 62
     6
 10
78.978713
 20
267.833710
 40
4.000000
 50
175.095187
 51
270.000000
  0
CIRCLE
  8
CSLAYER1
  6
CONTINUOUS
 62
     6
 10
95.490775
 20
258.833710
 40
3.200000
  0
CIRCLE
  8
CSLAYER1
  6
CONTINUOUS
 62
     6
 10
188.828870
 20
352.171805
 40
3.200000
  0
LINE
  8
CSLAYER1
  6
CONTINUOUS
 62
     6
 10
266.489801
 20
348.391216
 11
266.489801
 21
262.502757
  0
LINE
  8
CSLAYER1
  6
CONTINUOUS
 62
     6
 10
266.489801
 20
262.502757
 11
267.489801
 21
261.502757
  0
LINE
  8
CSLAYER1
  6
CONTINUOUS
 62
     6
 10
267.489801
 20
261.502757
 11
267.489801
 21
349.391216
  0
LINE
  8
CSLAYER1
  6
CONTINUOUS
 62
     6
 10
267.489801
 20
349.391216
 11
266.489801
 21
348.391216
  0
LINE
  8
CSLAYER1
  6
CONTINUOUS
 62
     6
 10
267.489801
 20
349.391216
 11
319.489801
 21
349.391216
  0
LINE
  8
CSLAYER1
  6
CONTINUOUS
 62
     6
 10
319.489801
 20
350.502757
 11
319.489801
 21
260.502757
  0
LINE
  8
CSLAYER1
  6
CONTINUOUS
 62
     6
 10
319.489801
 20
260.502757
 11
401.281772
 21
260.502757
  0
LINE
  8
CSLAYER1
  6
CONTINUOUS
 62
     6
 10
404.489801
 20
267.827757
 11
404.489801
 21
350.502757
  0
LINE
  8
CSLAYER1
  6
CONTINUOUS
 62
     6
 10
410.989801
 20
350.502757
 11
319.489801
 21
350.502757
  0
LINE
  8
CSLAYER1
  6
CONTINUOUS
 62
     6
 10
316.489801
 20
331.502757
 11
280.489801
 21
331.502757
  0
ARC
  8
CSLAYER1
  6
CONTINUOUS
 62
     6
 10
280.489801
 20
330.502757
 40
1.000000
 50
90.000016
 51
180.000005
  0
LINE
  8
CSLAYER1
  6
CONTINUOUS
 62
     6
 10
279.489801
 20
330.502757
 11
279.489801
 21
329.502757
  0
ARC
  8
CSLAYER1
  6
CONTINUOUS
 62
     6
 10
280.489801
 20
329.502757
 40
1.000000
 50
180.000019
 51
270.000001
  0
LINE
  8
CSLAYER1
  6
CONTINUOUS
 62
     6
 10
280.489801
 20
328.502757
 11
316.489801
 21
328.502757
  0
ARC
  8
CSLAYER1
  6
CONTINUOUS
 62
     6
 10
316.489801
 20
329.502757
 40
1.000000
 50
270.000001
 51
359.942691
  0
LINE
  8
CSLAYER1
  6
CONTINUOUS
 62
     6
 10
317.489801
 20
329.502757
 11
317.489801
 21
330.502757
  0
ARC
  8
CSLAYER1
  6
CONTINUOUS
 62
     6
 10
316.489801
 20
330.502757
 40
1.000000
 50
0.000000
 51
90.000003
  0
ARC
  8
CSLAYER1
  6
CONTINUOUS
 62
     6
 10
316.489801
 20
323.502757
 40
1.000000
 50
0.000000
 51
90.000003
  0
LINE
  8
CSLAYER1
  6
CONTINUOUS
 62
     6
 10
317.489801
 20
323.502757
 11
317.489801
 21
322.502757
  0
ARC
  8
CSLAYER1
  6
CONTINUOUS
 62
     6
 10
316.489801
 20
322.502757
 40
1.000000
 50
270.000001
 51
359.942691
  0
LINE
  8
CSLAYER1
  6
CONTINUOUS
 62
     6
 10
316.489801
 20
321.502757
 11
311.718561
 21
321.502757
  0
ARC
  8
CSLAYER1
  6
CONTINUOUS
 62
     6
 10
311.718561
 20
320.502757
 40
1.000000
 50
90.000003
 51
228.590367
  0
ARC
  8
CSLAYER1
  6
CONTINUOUS
 62
     6
 10
298.489801
 20
305.502757
 40
19.000000
 50
-48.590366
 51
48.590386
  0
ARC
  8
CSLAYER1
  6
CONTINUOUS
 62
     6
 10
311.718561
 20
290.502757
 40
1.000000
 50
131.409643
 51
270.000001
  0
LINE
  8
CSLAYER1
  6
CONTINUOUS
 62
     6
 10
311.718561
 20
289.502757
 11
316.489801
 21
289.502757
  0
ARC
  8
CSLAYER1
  6
CONTINUOUS
 62
     6
 10
316.489801
 20
288.502757
 40
1.000000
 50
0.057309
 51
89.999999
  0
LINE
  8
CSLAYER1
  6
CONTINUOUS
 62
     6
 10
317.489801
 20
288.502757
 11
317.489801
 21
287.502757
  0
ARC
  8
CSLAYER1
  6
CONTINUOUS
 62
     6
 10
316.489801
 20
287.502757
 40
1.000000
 50
269.999997
 51
360.000000
  0
LINE
  8
CSLAYER1
  6
CONTINUOUS
 62
     6
 10
316.489801
 20
286.502757
 11
280.489801
 21
286.502757
  0
ARC
  8
CSLAYER1
  6
CONTINUOUS
 62
     6
 10
280.489801
 20
287.502757
 40
1.000000
 50
179.999995
 51
269.999984
  0
LINE
  8
CSLAYER1
  6
CONTINUOUS
 62
     6
 10
279.489801
 20
287.502757
 11
279.489801
 21
288.502757
  0
ARC
  8
CSLAYER1
  6
CONTINUOUS
 62
     6
 10
280.489801
 20
288.502757
 40
1.000000
 50
89.999999
 51
179.999981
  0
LINE
  8
CSLAYER1
  6
CONTINUOUS
 62
     6
 10
280.489801
 20
289.502757
 11
285.261041
 21
289.502757
  0
ARC
  8
CSLAYER1
  6
CONTINUOUS
 62
     6
 10
285.261041
 20
290.502757
 40
1.000000
 50
-89.999999
 51
48.590386
  0
ARC
  8
CSLAYER1
  6
CONTINUOUS
 62
     6
 10
298.489801
 20
305.502757
 40
19.000000
 50
131.409657
 51
228.590367
  0
ARC
  8
CSLAYER1
  6
CONTINUOUS
 62
     6
 10
285.261041
 20
320.502757
 40
1.000000
 50
-48.590366
 51
90.000019
  0
LINE
  8
CSLAYER1
  6
CONTINUOUS
 62
     6
 10
285.261041
 20
321.502757
 11
280.489801
 21
321.502757
  0
ARC
  8
CSLAYER1
  6
CONTINUOUS
 62
     6
 10
280.489801
 20
322.502757
 40
1.000000
 50
180.000019
 51
270.000001
  0
LINE
  8
CSLAYER1
  6
CONTINUOUS
 62
     6
 10
279.489801
 20
322.502757
 11
279.489801
 21
323.502757
  0
ARC
  8
CSLAYER1
  6
CONTINUOUS
 62
     6
 10
280.489801
 20
323.502757
 40
1.000000
 50
90.000016
 51
180.000005
  0
LINE
  8
CSLAYER1
  6
CONTINUOUS
 62
     6
 10
280.489801
 20
324.502757
 11
316.489801
 21
324.502757
  0
LINE
  8
CSLAYER1
  6
CONTINUOUS
 62
     6
 10
304.489801
 20
306.402751
 11
292.489801
 21
306.402751
  0
LINE
  8
CSLAYER1
  6
CONTINUOUS
 62
     6
 10
292.489801
 20
306.402751
 11
292.489801
 21
304.602763
  0
LINE
  8
CSLAYER1
  6
CONTINUOUS
 62
     6
 10
292.489801
 20
304.602763
 11
304.489801
 21
304.602763
  0
LINE
  8
CSLAYER1
  6
CONTINUOUS
 62
     6
 10
304.489801
 20
304.602763
 11
304.489801
 21
306.402751
  0
CIRCLE
  8
CSLAYER1
  6
CONTINUOUS
 62
     6
 10
298.489801
 20
305.502757
 40
12.000000
  0
CIRCLE
  8
CSLAYER1
  6
CONTINUOUS
 62
     6
 10
298.489801
 20
305.502757
 40
15.000000
  0
CIRCLE
  8
CSLAYER1
  6
CONTINUOUS
 62
     6
 10
298.489801
 20
305.502757
 40
16.000000
  0
ARC
  8
CSLAYER1
  6
CONTINUOUS
 62
     6
 10
414.989801
 20
314.502757
 40
4.000000
 50
180.000000
 51
270.000000
  0
LINE
  8
CSLAYER1
  6
CONTINUOUS
 62
     6
 10
414.989801
 20
310.502757
 11
420.989801
 21
310.502757
  0
LINE
  8
CSLAYER1
  6
CONTINUOUS
 62
     6
 10
420.989801
 20
309.690183
 11
420.989801
 21
377.502757
  0
ARC
  8
CSLAYER1
  6
CONTINUOUS
 62
     6
 10
422.989801
 20
377.502757
 40
2.000000
 50
90.000000
 51
180.000000
  0
LINE
  8
CSLAYER1
  6
CONTINUOUS
 62
     6
 10
422.989801
 20
379.502757
 11
449.489801
 21
379.502757
  0
LINE
  8
CSLAYER1
  6
CONTINUOUS
 62
     6
 10
449.489801
 20
379.502757
 11
450.489801
 21
378.502757
  0
LINE
  8
CSLAYER1
  6
CONTINUOUS
 62
     6
 10
450.489801
 20
378.502757
 11
450.489801
 21
255.518905
  0
LINE
  8
CSLAYER1
  6
CONTINUOUS
 62
     6
 10
452.179401
 20
253.992818
 11
452.179401
 21
265.592278
  0
ARC
  8
CSLAYER1
  6
CONTINUOUS
 62
     6
 10
451.938080
 20
265.592278
 40
0.241380
 50
0.000005
 51
90.000001
  0
LINE
  8
CSLAYER1
  6
CONTINUOUS
 62
     6
 10
451.938080
 20
265.833673
 11
450.731181
 21
265.833673
  0
ARC
  8
CSLAYER1
  6
CONTINUOUS
 62
     6
 10
450.731181
 20
265.592278
 40
0.241380
 50
90.000001
 51
179.942691
  0
ARC
  8
CSLAYER1
  6
CONTINUOUS
 62
     6
 10
452.662190
 20
264.944778
 40
0.482760
 50
84.999865
 51
179.942691
  0
LINE
  8
CSLAYER1
  6
CONTINUOUS
 62
     6
 10
452.704325
 20
265.425689
 11
454.224588
 21
265.292690
  0
ARC
  8
CSLAYER1
  6
CONTINUOUS
 62
     6
 10
454.014205
 20
262.888063
 40
2.413798
 50
16.257399
 51
84.999892
  0
ARC
  8
CSLAYER1
  6
CONTINUOUS
 62
     6
 10
440.110410
 20
258.833673
 40
16.896587
 50
-16.257006
 51
16.257016
  0
ARC
  8
CSLAYER1
  6
CONTINUOUS
 62
     6
 10
454.014205
 20
254.779283
 40
2.413798
 50
275.000111
 51
343.742611
  0
LINE
  8
CSLAYER1
  6
CONTINUOUS
 62
     6
 10
454.224588
 20
252.374656
 11
453.993339
 21
252.354425
  0
LINE
  8
CSLAYER1
  6
CONTINUOUS
 62
     6
 10
458.481065
 20
248.002757
 11
493.489862
 21
248.002757
  0
ARC
  8
CSLAYER1
  6
CONTINUOUS
 62
     6
 10
493.489862
 20
252.002757
 40
4.000000
 50
270.000000
 51
360.000000
  0
LINE
  8
CSLAYER1
  6
CONTINUOUS
 62
     6
 10
497.489862
 20
252.002757
 11
497.489862
 21
359.002757
  0
ARC
  8
CSLAYER1
  6
CONTINUOUS
 62
     6
 10
493.489862
 20
359.002757
 40
4.000000
 50
0.000000
 51
90.000000
  0
LINE
  8
CSLAYER1
  6
CONTINUOUS
 62
     6
 10
493.489862
 20
363.002757
 11
450.489801
 21
363.002757
  0
LINE
  8
CSLAYER1
  6
CONTINUOUS
 62
     6
 10
450.731181
 20
359.171768
 11
451.938080
 21
359.171768
  0
ARC
  8
CSLAYER1
  6
CONTINUOUS
 62
     6
 10
451.938080
 20
358.930374
 40
0.241380
 50
0.000005
 51
90.000001
  0
LINE
  8
CSLAYER1
  6
CONTINUOUS
 62
     6
 10
452.179401
 20
358.930374
 11
452.179401
 21
345.413163
  0
ARC
  8
CSLAYER1
  6
CONTINUOUS
 62
     6
 10
451.938080
 20
345.413163
 40
0.241380
 50
-89.999997
 51
0.000005
  0
LINE
  8
CSLAYER1
  6
CONTINUOUS
 62
     6
 10
451.938080
 20
345.171768
 11
450.731181
 21
345.171768
  0
ARC
  8
CSLAYER1
  6
CONTINUOUS
 62
     6
 10
450.731181
 20
345.413163
 40
0.241380
 50
180.000000
 51
270.000003
  0
ARC
  8
CSLAYER1
  6
CONTINUOUS
 62
     6
 10
452.662190
 20
346.060663
 40
0.482760
 50
180.000000
 51
275.000152
  0
LINE
  8
CSLAYER1
  6
CONTINUOUS
 62
     6
 10
452.704325
 20
345.579752
 11
454.224588
 21
345.712751
  0
ARC
  8
CSLAYER1
  6
CONTINUOUS
 62
     6
 10
454.014205
 20
348.117378
 40
2.413798
 50
275.000111
 51
343.742611
  0
ARC
  8
CSLAYER1
  6
CONTINUOUS
 62
     6
 10
440.110410
 20
352.171768
 40
16.896587
 50
-16.257006
 51
16.257016
  0
ARC
  8
CSLAYER1
  6
CONTINUOUS
 62
     6
 10
454.014205
 20
356.226158
 40
2.413798
 50
16.257399
 51
84.999892
  0
LINE
  8
CSLAYER1
  6
CONTINUOUS
 62
     6
 10
454.224588
 20
358.630785
 11
452.704325
 21
358.763784
  0
ARC
  8
CSLAYER1
  6
CONTINUOUS
 62
     6
 10
452.662190
 20
358.282873
 40
0.482760
 50
84.999865
 51
179.942691
  0
ARC
  8
CSLAYER1
  6
CONTINUOUS
 62
     6
 10
450.731181
 20
358.930374
 40
0.241380
 50
90.000001
 51
179.942691
  0
LINE
  8
CSLAYER1
  6
CONTINUOUS
 62
     6
 10
452.179401
 20
353.610228
 11
450.489786
 21
352.538832
  0
LINE
  8
CSLAYER1
  6
CONTINUOUS
 62
     6
 10
450.489786
 20
351.331933
 11
452.179401
 21
352.403329
  0
LINE
  8
CSLAYER1
  6
CONTINUOUS
 62
     6
 10
441.489801
 20
379.502757
 11
441.489801
 21
264.177903
  0
ARC
  8
CSLAYER1
  6
CONTINUOUS
 62
     6
 10
449.989801
 20
269.445730
 40
10.000000
 50
180.000000
 51
227.910894
  0
LINE
  8
CSLAYER1
  6
CONTINUOUS
 62
     6
 10
439.989801
 20
269.445730
 11
439.989801
 21
305.502757
  0
ARC
  8
CSLAYER1
  6
CONTINUOUS
 62
     6
 10
400.989801
 20
309.690183
 40
20.000000
 50
336.348687
 51
360.000000
  0
LINE
  8
CSLAYER1
  6
CONTINUOUS
 62
     6
 10
419.309877
 20
301.666792
 11
391.990526
 21
239.287607
  0
ARC
  8
CSLAYER1
  6
CONTINUOUS
 62
     6
 10
388.326511
 20
240.892286
 40
4.000000
 50
272.454032
 51
336.348687
  0
LINE
  8
CSLAYER1
  6
CONTINUOUS
 62
     6
 10
388.497782
 20
236.895954
 11
358.404226
 21
235.584802
  0
ARC
  8
CSLAYER1
  6
CONTINUOUS
 62
     6
 10
358.489862
 20
233.586636
 40
2.000000
 50
92.454032
 51
180.000000
  0
LINE
  8
CSLAYER1
  6
CONTINUOUS
 62
     6
 10
356.489862
 20
233.586636
 11
356.489862
 21
215.502757
  0
LINE
  8
CSLAYER1
  6
CONTINUOUS
 62
     6
 10
356.489862
 20
215.502757
 11
506.489862
 21
215.502757
  0
LINE
  8
CSLAYER1
  6
CONTINUOUS
 62
     6
 10
506.489862
 20
215.502757
 11
506.489862
 21
233.586636
  0
ARC
  8
CSLAYER1
  6
CONTINUOUS
 62
     6
 10
504.489862
 20
233.586636
 40
2.000000
 50
0.000000
 51
87.545968
  0
LINE
  8
CSLAYER1
  6
CONTINUOUS
 62
     6
 10
504.575498
 20
235.584802
 11
471.489862
 21
237.002757
  0
LINE
  8
CSLAYER1
  6
CONTINUOUS
 62
     6
 10
470.989862
 20
237.002757
 11
443.286946
 21
262.024697
  0
LINE
  8
CSLAYER1
  6
CONTINUOUS
 62
     6
 10
450.489786
 20
259.200737
 11
452.179401
 21
260.272133
  0
LINE
  8
CSLAYER1
  6
CONTINUOUS
 62
     6
 10
452.179401
 20
259.065233
 11
450.489786
 21
257.993838
  0
LINE
  8
CSLAYER1
  6
DASHED
 62
     6
 10
479.989862
 20
236.638472
 11
479.989862
 21
235.584802
  0
LINE
  8
CSLAYER1
  6
DASHED
 62
     6
 10
479.989862
 20
235.584802
 11
502.989862
 21
235.584802
  0
LINE
  8
CSLAYER1
  6
DASHED
 62
     6
 10
502.989862
 20
235.584802
 11
502.989862
 21
235.652757
  0
LINE
  8
CSLAYER1
  6
DASHED
 62
     6
 10
497.489862
 20
235.888472
 11
497.489862
 21
215.502757
  0
LINE
  8
CSLAYER1
  6
DASHED
 62
     6
 10
485.489862
 20
215.502757
 11
485.489862
 21
236.402757
  0
ARC
  8
CSLAYER1
  6
CONTINUOUS
 62
     6
 10
501.489862
 20
266.502757
 40
4.000000
 50
90.000000
 51
180.000000
  0
LINE
  8
CSLAYER1
  6
CONTINUOUS
 62
     6
 10
501.489862
 20
270.502757
 11
534.489862
 21
270.502757
  0
ARC
  8
CSLAYER1
  6
CONTINUOUS
 62
     6
 10
534.489862
 20
272.502757
 40
2.000000
 50
270.000000
 51
360.000000
  0
LINE
  8
CSLAYER1
  6
CONTINUOUS
 62
     6
 10
536.489862
 20
272.502757
 11
536.489862
 21
338.502757
  0
ARC
  8
CSLAYER1
  6
CONTINUOUS
 62
     6
 10
534.489862
 20
338.502757
 40
2.000000
 50
0.000000
 51
90.000000
  0
LINE
  8
CSLAYER1
  6
CONTINUOUS
 62
     6
 10
534.489862
 20
340.502757
 11
501.489862
 21
340.502757
  0
ARC
  8
CSLAYER1
  6
CONTINUOUS
 62
     6
 10
501.489862
 20
344.502757
 40
4.000000
 50
180.000000
 51
270.000000
  0
LINE
  8
CSLAYER1
  6
CONTINUOUS
 62
     6
 10
525.489862
 20
340.502757
 11
525.489862
 21
270.502757
  0
ARC
  8
CSLAYER1
  6
CONTINUOUS
 62
     6
 10
536.489862
 20
286.502757
 40
1.000000
 50
270.000000
 51
360.000000
  0
LINE
  8
CSLAYER1
  6
CONTINUOUS
 62
     6
 10
537.489862
 20
286.502757
 11
537.489862
 21
324.502757
  0
ARC
  8
CSLAYER1
  6
CONTINUOUS
 62
     6
 10
536.489862
 20
324.502757
 40
1.000000
 50
0.000000
 51
90.000000
  0
ARC
  8
CSLAYER1
  6
CONTINUOUS
 62
     6
 10
537.489862
 20
316.502757
 40
1.000000
 50
0.000000
 51
90.000000
  0
LINE
  8
CSLAYER1
  6
CONTINUOUS
 62
     6
 10
538.489862
 20
316.502757
 11
538.489862
 21
294.502757
  0
ARC
  8
CSLAYER1
  6
CONTINUOUS
 62
     6
 10
537.489862
 20
294.502757
 40
1.000000
 50
270.000000
 51
360.000000
  0
LINE
  8
CSLAYER1
  6
CONTINUOUS
 62
     6
 10
538.489862
 20
295.502757
 11
574.489862
 21
295.502757
  0
LINE
  8
CSLAYER1
  6
CONTINUOUS
 62
     6
 10
574.489862
 20
295.502757
 11
574.489862
 21
315.502757
  0
LINE
  8
CSLAYER1
  6
CONTINUOUS
 62
     6
 10
574.489862
 20
315.502757
 11
538.489862
 21
315.502757
  0
LINE
  8
CSLAYER1
  6
CONTINUOUS
 62
     6
 10
544.989862
 20
308.002757
 11
574.489862
 21
308.002757
  0
LINE
  8
CSLAYER1
  6
CONTINUOUS
 62
     6
 10
574.489862
 20
303.002757
 11
544.989862
 21
303.002757
  0
ARC
  8
CSLAYER1
  6
CONTINUOUS
 62
     6
 10
544.989862
 20
305.502757
 40
2.500000
 50
90.000000
 51
270.000000
  0
LINE
  8
CSLAYER1
  6
CONTINUOUS
 62
     6
 10
491.489862
 20
405.502757
 11
371.489862
 21
405.502757
  0
ARC
  8
CSLAYER1
  6
CONTINUOUS
 62
     6
 10
371.489862
 20
420.502757
 40
15.000000
 50
180.000000
 51
270.000000
  0
LINE
  8
CSLAYER1
  6
CONTINUOUS
 62
     6
 10
356.489862
 20
420.502757
 11
356.489862
 21
440.502757
  0
CIRCLE
  8
CSLAYER1
  6
CONTINUOUS
 62
     6
 10
371.489862
 20
420.502757
 40
6.000000
  0
CIRCLE
  8
CSLAYER1
  6
CONTINUOUS
 62
     6
 10
371.489862
 20
420.502757
 40
11.500000
  0
ARC
  8
CSLAYER1
  6
CONTINUOUS
 62
     6
 10
393.989862
 20
417.970952
 40
2.000000
 50
180.000000
 51
283.055331
  0
LINE
  8
CSLAYER1
  6
CONTINUOUS
 62
     6
 10
394.441646
 20
416.022647
 11
420.989862
 21
422.178796
  0
ARC
  8
CSLAYER1
  6
CONTINUOUS
 62
     6
 10
410.989862
 20
430.502757
 40
10.000000
 50
0.000000
 51
90.000000
  0
LINE
  8
CSLAYER1
  6
CONTINUOUS
 62
     6
 10
410.989862
 20
440.502757
 11
319.489862
 21
440.502757
  0
LINE
  8
CSLAYER1
  6
CONTINUOUS
 62
     6
 10
319.489862
 20
440.502757
 11
319.489862
 21
530.502757
  0
LINE
  8
CSLAYER1
  6
CONTINUOUS
 62
     6
 10
319.489862
 20
530.502757
 11
410.989862
 21
530.502757
  0
ARC
  8
CSLAYER1
  6
CONTINUOUS
 62
     6
 10
410.989862
 20
540.502757
 40
10.000000
 50
270.000000
 51
360.000000
  0
LINE
  8
CSLAYER1
  6
CONTINUOUS
 62
     6
 10
420.989862
 20
548.826718
 11
394.441646
 21
554.982868
  0
ARC
  8
CSLAYER1
  6
CONTINUOUS
 62
     6
 10
393.989862
 20
553.034563
 40
2.000000
 50
76.944669
 51
180.000000
  0
LINE
  8
CSLAYER1
  6
CONTINUOUS
 62
     6
 10
393.343884
 20
565.502757
 11
419.441646
 21
559.451062
  0
ARC
  8
CSLAYER1
  6
CONTINUOUS
 62
     6
 10
418.989862
 20
557.502757
 40
2.000000
 50
0.000000
 51
76.944669
  0
LINE
  8
CSLAYER1
  6
CONTINUOUS
 62
     6
 10
420.989862
 20
557.502757
 11
420.989862
 21
413.502757
  0
ARC
  8
CSLAYER1
  6
CONTINUOUS
 62
     6
 10
422.989862
 20
413.502757
 40
2.000000
 50
180.000000
 51
270.000000
  0
LINE
  8
CSLAYER1
  6
CONTINUOUS
 62
     6
 10
422.989862
 20
411.502757
 11
449.489862
 21
411.502757
  0
LINE
  8
CSLAYER1
  6
CONTINUOUS
 62
     6
 10
449.489862
 20
411.502757
 11
450.489862
 21
412.502757
  0
LINE
  8
CSLAYER1
  6
CONTINUOUS
 62
     6
 10
450.489862
 20
412.502757
 11
450.489862
 21
558.502757
  0
LINE
  8
CSLAYER1
  6
CONTINUOUS
 62
     6
 10
450.489862
 20
558.502757
 11
449.489862
 21
559.502757
  0
LINE
  8
CSLAYER1
  6
CONTINUOUS
 62
     6
 10
449.489862
 20
559.502757
 11
422.989862
 21
559.502757
  0
ARC
  8
CSLAYER1
  6
CONTINUOUS
 62
     6
 10
422.989862
 20
557.502757
 40
2.000000
 50
90.000000
 51
180.000000
  0
LINE
  8
CSLAYER1
  6
CONTINUOUS
 62
     6
 10
441.489862
 20
559.502757
 11
441.489862
 21
411.502757
  0
LINE
  8
CSLAYER1
  6
CONTINUOUS
 62
     6
 10
443.279526
 20
411.502757
 11
471.489862
 21
405.502757
  0
ARC
  8
CSLAYER1
  6
CONTINUOUS
 62
     6
 10
469.489862
 20
418.196549
 40
2.000000
 50
257.992795
 51
360.000000
  0
LINE
  8
CSLAYER1
  6
CONTINUOUS
 62
     6
 10
469.073792
 20
416.240306
 11
450.489862
 21
420.192885
  0
LINE
  8
CSLAYER1
  6
CONTINUOUS
 62
     6
 10
450.489862
 20
428.002757
 11
493.489862
 21
428.002757
  0
ARC
  8
CSLAYER1
  6
CONTINUOUS
 62
     6
 10
493.489862
 20
432.002757
 40
4.000000
 50
270.000000
 51
360.000000
  0
LINE
  8
CSLAYER1
  6
CONTINUOUS
 62
     6
 10
497.489862
 20
432.002757
 11
497.489862
 21
539.002757
  0
ARC
  8
CSLAYER1
  6
CONTINUOUS
 62
     6
 10
493.489862
 20
539.002757
 40
4.000000
 50
0.000000
 51
90.000000
  0
LINE
  8
CSLAYER1
  6
CONTINUOUS
 62
     6
 10
493.489862
 20
543.002757
 11
450.489862
 21
543.002757
  0
LINE
  8
CSLAYER1
  6
CONTINUOUS
 62
     6
 10
450.731181
 20
539.171768
 11
451.938080
 21
539.171768
  0
ARC
  8
CSLAYER1
  6
CONTINUOUS
 62
     6
 10
451.938080
 20
538.930374
 40
0.241380
 50
0.000005
 51
90.000001
  0
LINE
  8
CSLAYER1
  6
CONTINUOUS
 62
     6
 10
452.179401
 20
538.930374
 11
452.179401
 21
525.413163
  0
ARC
  8
CSLAYER1
  6
CONTINUOUS
 62
     6
 10
451.938080
 20
525.413163
 40
0.241380
 50
-89.999997
 51
0.000005
  0
LINE
  8
CSLAYER1
  6
CONTINUOUS
 62
     6
 10
451.938080
 20
525.171768
 11
450.731181
 21
525.171768
  0
ARC
  8
CSLAYER1
  6
CONTINUOUS
 62
     6
 10
450.731181
 20
525.413163
 40
0.241380
 50
180.000000
 51
270.000003
  0
ARC
  8
CSLAYER1
  6
CONTINUOUS
 62
     6
 10
452.662190
 20
526.060663
 40
0.482760
 50
180.000000
 51
275.000152
  0
LINE
  8
CSLAYER1
  6
CONTINUOUS
 62
     6
 10
452.704325
 20
525.579752
 11
454.224588
 21
525.712751
  0
ARC
  8
CSLAYER1
  6
CONTINUOUS
 62
     6
 10
454.014205
 20
528.117378
 40
2.413798
 50
275.000111
 51
343.742611
  0
ARC
  8
CSLAYER1
  6
CONTINUOUS
 62
     6
 10
440.110410
 20
532.171768
 40
16.896587
 50
-16.257006
 51
16.257016
  0
ARC
  8
CSLAYER1
  6
CONTINUOUS
 62
     6
 10
454.014205
 20
536.226158
 40
2.413798
 50
16.257399
 51
84.999892
  0
LINE
  8
CSLAYER1
  6
CONTINUOUS
 62
     6
 10
454.224588
 20
538.630785
 11
452.704325
 21
538.763784
  0
ARC
  8
CSLAYER1
  6
CONTINUOUS
 62
     6
 10
452.662190
 20
538.282873
 40
0.482760
 50
84.999865
 51
179.942691
  0
ARC
  8
CSLAYER1
  6
CONTINUOUS
 62
     6
 10
450.731181
 20
538.930374
 40
0.241380
 50
90.000001
 51
179.942691
  0
LINE
  8
CSLAYER1
  6
CONTINUOUS
 62
     6
 10
452.179401
 20
533.610228
 11
450.489786
 21
532.538832
  0
LINE
  8
CSLAYER1
  6
CONTINUOUS
 62
     6
 10
450.489786
 20
531.331933
 11
452.179401
 21
532.403329
  0
LINE
  8
CSLAYER1
  6
CONTINUOUS
 62
     6
 10
450.489862
 20
550.812630
 11
469.073792
 21
554.765209
  0
ARC
  8
CSLAYER1
  6
CONTINUOUS
 62
     6
 10
469.489862
 20
552.808966
 40
2.000000
 50
0.000000
 51
102.007205
  0
LINE
  8
CSLAYER1
  6
CONTINUOUS
 62
     6
 10
471.489862
 20
565.502757
 11
443.279526
 21
559.502757
  0
ARC
  8
CSLAYER1
  6
CONTINUOUS
 62
     6
 10
410.989862
 20
532.002757
 40
10.000000
 50
270.000000
 51
360.000000
  0
ARC
  8
CSLAYER1
  6
CONTINUOUS
 62
     6
 10
410.989862
 20
523.502757
 40
10.000000
 50
270.000000
 51
360.000000
  0
LINE
  8
CSLAYER1
  6
CONTINUOUS
 62
     6
 10
420.989862
 20
490.502757
 11
414.989862
 21
490.502757
  0
ARC
  8
CSLAYER1
  6
CONTINUOUS
 62
     6
 10
414.989862
 20
494.502757
 40
4.000000
 50
180.000000
 51
270.000000
  0
ARC
  8
CSLAYER1
  6
CONTINUOUS
 62
     6
 10
414.989862
 20
476.502757
 40
4.000000
 50
90.000000
 51
180.000000
  0
LINE
  8
CSLAYER1
  6
CONTINUOUS
 62
     6
 10
414.989862
 20
480.502757
 11
420.989862
 21
480.502757
  0
ARC
  8
CSLAYER1
  6
CONTINUOUS
 62
     6
 10
410.989862
 20
447.502757
 40
10.000000
 50
0.000000
 51
90.000000
  0
ARC
  8
CSLAYER1
  6
CONTINUOUS
 62
     6
 10
410.989862
 20
439.002757
 40
10.000000
 50
0.000000
 51
90.000000
  0
ARC
  8
CSLAYER1
  6
CONTINUOUS
 62
     6
 10
418.989862
 20
413.502757
 40
2.000000
 50
283.055331
 51
360.000000
  0
LINE
  8
CSLAYER1
  6
CONTINUOUS
 62
     6
 10
419.441646
 20
411.554453
 11
393.343884
 21
405.502757
  0
LINE
  8
CSLAYER1
  6
CONTINUOUS
 62
     6
 10
404.489862
 20
440.502757
 11
404.489862
 21
530.502757
  0
CIRCLE
  8
CSLAYER1
  6
CONTINUOUS
 62
     6
 10
371.489862
 20
550.502757
 40
6.000000
  0
CIRCLE
  8
CSLAYER1
  6
CONTINUOUS
 62
     6
 10
371.489862
 20
550.502757
 40
11.500000
  0
LINE
  8
CSLAYER1
  6
CONTINUOUS
 62
     6
 10
371.489862
 20
565.502757
 11
491.489862
 21
565.502757
  0
ARC
  8
CSLAYER1
  6
CONTINUOUS
 62
     6
 10
491.489862
 20
550.502757
 40
15.000000
 50
0.000000
 51
90.000000
  0
LINE
  8
CSLAYER1
  6
CONTINUOUS
 62
     6
 10
506.489862
 20
550.502757
 11
506.489862
 21
530.502757
  0
ARC
  8
CSLAYER1
  6
CONTINUOUS
 62
     6
 10
491.489862
 20
530.502757
 40
15.000000
 50
318.189685
 51
360.000000
  0
ARC
  8
CSLAYER1
  6
CONTINUOUS
 62
     6
 10
501.489862
 20
524.502757
 40
4.000000
 50
180.000000
 51
270.000000
  0
LINE
  8
CSLAYER1
  6
CONTINUOUS
 62
     6
 10
501.489862
 20
520.502757
 11
534.489862
 21
520.502757
  0
ARC
  8
CSLAYER1
  6
CONTINUOUS
 62
     6
 10
534.489862
 20
518.502757
 40
2.000000
 50
0.000000
 51
90.000000
  0
LINE
  8
CSLAYER1
  6
CONTINUOUS
 62
     6
 10
536.489862
 20
518.502757
 11
536.489862
 21
452.502757
  0
ARC
  8
CSLAYER1
  6
CONTINUOUS
 62
     6
 10
534.489862
 20
452.502757
 40
2.000000
 50
270.000000
 51
360.000000
  0
LINE
  8
CSLAYER1
  6
CONTINUOUS
 62
     6
 10
534.489862
 20
450.502757
 11
501.489862
 21
450.502757
  0
ARC
  8
CSLAYER1
  6
CONTINUOUS
 62
     6
 10
501.489862
 20
446.502757
 40
4.000000
 50
90.000000
 51
180.000000
  0
ARC
  8
CSLAYER1
  6
CONTINUOUS
 62
     6
 10
491.489862
 20
440.502757
 40
15.000000
 50
0.000000
 51
41.810315
  0
LINE
  8
CSLAYER1
  6
CONTINUOUS
 62
     6
 10
506.489862
 20
440.502757
 11
506.489862
 21
420.502757
  0
ARC
  8
CSLAYER1
  6
CONTINUOUS
 62
     6
 10
491.489862
 20
420.502757
 40
15.000000
 50
270.000000
 51
360.000000
  0
CIRCLE
  8
CSLAYER1
  6
CONTINUOUS
 62
     6
 10
491.489862
 20
420.502757
 40
6.000000
  0
ARC
  8
CSLAYER1
  6
CONTINUOUS
 62
     6
 10
491.489862
 20
420.502757
 40
11.500000
 50
-220.705707
 51
60.272259
  0
ARC
  8
CSLAYER1
  6
CONTINUOUS
 62
     6
 10
454.014205
 20
434.779283
 40
2.413798
 50
275.000111
 51
343.742611
  0
LINE
  8
CSLAYER1
  6
CONTINUOUS
 62
     6
 10
454.224588
 20
432.374656
 11
453.993339
 21
432.354425
  0
LINE
  8
CSLAYER1
  6
CONTINUOUS
 62
     6
 10
454.224588
 20
432.374730
 11
452.704325
 21
432.241731
  0
ARC
  8
CSLAYER1
  6
CONTINUOUS
 62
     6
 10
452.662190
 20
432.722641
 40
0.482760
 50
180.057309
 51
275.000135
  0
ARC
  8
CSLAYER1
  6
CONTINUOUS
 62
     6
 10
451.938080
 20
432.075141
 40
0.241380
 50
269.999999
 51
359.999995
  0
LINE
  8
CSLAYER1
  6
CONTINUOUS
 62
     6
 10
451.938080
 20
431.833747
 11
450.731181
 21
431.833747
  0
ARC
  8
CSLAYER1
  6
CONTINUOUS
 62
     6
 10
450.731181
 20
432.075141
 40
0.241380
 50
180.057309
 51
269.999999
  0
LINE
  8
CSLAYER1
  6
CONTINUOUS
 62
     6
 10
452.179401
 20
432.069808
 11
452.179401
 21
445.592278
  0
ARC
  8
CSLAYER1
  6
CONTINUOUS
 62
     6
 10
451.938080
 20
445.592278
 40
0.241380
 50
0.000005
 51
90.000001
  0
LINE
  8
CSLAYER1
  6
CONTINUOUS
 62
     6
 10
451.938080
 20
445.833673
 11
450.731181
 21
445.833673
  0
ARC
  8
CSLAYER1
  6
CONTINUOUS
 62
     6
 10
450.731181
 20
445.592278
 40
0.241380
 50
90.000001
 51
179.942691
  0
LINE
  8
CSLAYER1
  6
CONTINUOUS
 62
     6
 10
525.489862
 20
450.502757
 11
525.489862
 21
520.502757
  0
ARC
  8
CSLAYER1
  6
CONTINUOUS
 62
     6
 10
536.489862
 20
504.502757
 40
1.000000
 50
0.000000
 51
90.000000
  0
LINE
  8
CSLAYER1
  6
CONTINUOUS
 62
     6
 10
537.489862
 20
504.502757
 11
537.489862
 21
466.502757
  0
ARC
  8
CSLAYER1
  6
CONTINUOUS
 62
     6
 10
536.489862
 20
466.502757
 40
1.000000
 50
270.000000
 51
360.000000
  0
ARC
  8
CSLAYER1
  6
CONTINUOUS
 62
     6
 10
537.489862
 20
474.502757
 40
1.000000
 50
270.000000
 51
360.000000
  0
LINE
  8
CSLAYER1
  6
CONTINUOUS
 62
     6
 10
538.489862
 20
474.502757
 11
538.489862
 21
496.502757
  0
ARC
  8
CSLAYER1
  6
CONTINUOUS
 62
     6
 10
537.489862
 20
496.502757
 40
1.000000
 50
0.000000
 51
90.000000
  0
LINE
  8
CSLAYER1
  6
CONTINUOUS
 62
     6
 10
538.489862
 20
495.502757
 11
574.489862
 21
495.502757
  0
LINE
  8
CSLAYER1
  6
CONTINUOUS
 62
     6
 10
574.489862
 20
495.502757
 11
574.489862
 21
475.502757
  0
LINE
  8
CSLAYER1
  6
CONTINUOUS
 62
     6
 10
574.489862
 20
475.502757
 11
538.489862
 21
475.502757
  0
LINE
  8
CSLAYER1
  6
DASHED
 62
     6
 10
542.489862
 20
475.502757
 11
542.489862
 21
478.502757
  0
LINE
  8
CSLAYER1
  6
DASHED
 62
     6
 10
542.489862
 20
478.502757
 11
574.489862
 21
478.502757
  0
ARC
  8
CSLAYER1
  6
CONTINUOUS
 62
     6
 10
491.489862
 20
550.502757
 40
11.500000
 50
-60.272259
 51
220.705707
  0
CIRCLE
  8
CSLAYER1
  6
CONTINUOUS
 62
     6
 10
491.489862
 20
550.502757
 40
6.000000
  0
LINE
  8
CSLAYER1
  6
CONTINUOUS
 62
     6
 10
454.224588
 20
445.292690
 11
452.704325
 21
445.425689
  0
ARC
  8
CSLAYER1
  6
CONTINUOUS
 62
     6
 10
452.662190
 20
444.944778
 40
0.482760
 50
84.999865
 51
179.942691
  0
ARC
  8
CSLAYER1
  6
CONTINUOUS
 62
     6
 10
454.014205
 20
442.888063
 40
2.413798
 50
16.257399
 51
84.999892
  0
ARC
  8
CSLAYER1
  6
CONTINUOUS
 62
     6
 10
440.110410
 20
438.833673
 40
16.896587
 50
-16.257006
 51
16.257016
  0
LINE
  8
CSLAYER1
  6
CONTINUOUS
 62
     6
 10
452.179401
 20
439.065233
 11
450.489786
 21
437.993838
  0
LINE
  8
CSLAYER1
  6
CONTINUOUS
 62
     6
 10
450.489786
 20
439.200737
 11
452.179401
 21
440.272133
  0
ARC
  8
CSLAYER1
  6
CONTINUOUS
 62
     6
 10
410.989801
 20
360.502757
 40
10.000000
 50
270.000000
 51
360.000000
  0
ARC
  8
CSLAYER1
  6
CONTINUOUS
 62
     6
 10
410.989801
 20
352.002757
 40
10.000000
 50
270.000000
 51
360.000000
  0
ARC
  8
CSLAYER1
  6
CONTINUOUS
 62
     6
 10
410.989801
 20
343.502757
 40
10.000000
 50
270.000000
 51
360.000000
  0
LINE
  8
CSLAYER1
  6
CONTINUOUS
 62
     6
 10
414.989801
 20
300.502757
 11
418.800020
 21
300.502757
  0
ARC
  8
CSLAYER1
  6
CONTINUOUS
 62
     6
 10
414.989801
 20
296.502757
 40
4.000000
 50
90.000000
 51
180.000000
  0
LINE
  8
CSLAYER1
  6
DASHED
 62
     6
 10
382.989862
 20
236.655978
 11
382.989862
 21
235.584802
  0
LINE
  8
CSLAYER1
  6
DASHED
 62
     6
 10
382.989862
 20
235.584802
 11
359.989862
 21
235.584802
  0
LINE
  8
CSLAYER1
  6
DASHED
 62
     6
 10
359.989862
 20
235.584802
 11
359.989862
 21
235.653886
  0
LINE
  8
CSLAYER1
  6
DASHED
 62
     6
 10
365.489862
 20
235.888472
 11
365.489862
 21
215.502757
  0
LINE
  8
CSLAYER1
  6
DASHED
 62
     6
 10
377.489862
 20
215.502757
 11
377.489862
 21
236.402757
  0
LINE
  8
CSLAYER1
  6
CONTINUOUS
 62
     6
 10
371.489862
 20
185.502757
 11
491.489862
 21
185.502757
  0
ARC
  8
CSLAYER1
  6
CONTINUOUS
 62
     6
 10
491.489862
 20
170.502757
 40
15.000000
 50
0.000000
 51
90.000000
  0
LINE
  8
CSLAYER1
  6
CONTINUOUS
 62
     6
 10
506.489862
 20
170.502757
 11
506.489862
 21
150.502757
  0
ARC
  8
CSLAYER1
  6
CONTINUOUS
 62
     6
 10
491.489862
 20
150.502757
 40
15.000000
 50
270.000000
 51
360.000000
  0
LINE
  8
CSLAYER1
  6
CONTINUOUS
 62
     6
 10
491.489862
 20
135.502757
 11
371.489862
 21
135.502757
  0
ARC
  8
CSLAYER1
  6
CONTINUOUS
 62
     6
 10
371.489862
 20
150.502757
 40
15.000000
 50
180.000000
 51
270.000000
  0
LINE
  8
CSLAYER1
  6
CONTINUOUS
 62
     6
 10
356.489862
 20
150.502757
 11
356.489862
 21
170.502757
  0
ARC
  8
CSLAYER1
  6
CONTINUOUS
 62
     6
 10
371.489862
 20
170.502757
 40
15.000000
 50
90.000000
 51
180.000000
  0
CIRCLE
  8
CSLAYER1
  6
CONTINUOUS
 62
     6
 10
371.489862
 20
170.502757
 40
6.000000
  0
CIRCLE
  8
CSLAYER1
  6
DASHED
 62
     6
 10
371.489862
 20
170.502757
 40
11.500000
  0
LINE
  8
CSLAYER1
  6
CONTINUOUS
 62
     6
 10
356.489862
 20
150.502757
 11
319.489862
 21
150.502757
  0
LINE
  8
CSLAYER1
  6
CONTINUOUS
 62
     6
 10
319.489862
 20
150.502757
 11
319.489862
 21
60.502757
  0
LINE
  8
CSLAYER1
  6
CONTINUOUS
 62
     6
 10
319.489862
 20
60.502757
 11
356.489862
 21
60.502757
  0
ARC
  8
CSLAYER1
  6
CONTINUOUS
 62
     6
 10
371.489862
 20
60.502757
 40
15.000000
 50
90.000000
 51
180.000000
  0
LINE
  8
CSLAYER1
  6
CONTINUOUS
 62
     6
 10
371.489862
 20
75.502757
 11
491.489862
 21
75.502757
  0
ARC
  8
CSLAYER1
  6
CONTINUOUS
 62
     6
 10
491.489862
 20
60.502757
 40
15.000000
 50
0.000000
 51
90.000000
  0
LINE
  8
CSLAYER1
  6
CONTINUOUS
 62
     6
 10
506.489862
 20
60.502757
 11
506.489862
 21
40.502757
  0
ARC
  8
CSLAYER1
  6
CONTINUOUS
 62
     6
 10
491.489862
 20
40.502757
 40
15.000000
 50
270.000000
 51
360.000000
  0
LINE
  8
CSLAYER1
  6
CONTINUOUS
 62
     6
 10
491.489862
 20
25.502757
 11
371.489862
 21
25.502757
  0
ARC
  8
CSLAYER1
  6
CONTINUOUS
 62
     6
 10
371.489862
 20
40.502757
 40
15.000000
 50
180.000000
 51
270.000000
  0
LINE
  8
CSLAYER1
  6
CONTINUOUS
 62
     6
 10
356.489862
 20
40.502757
 11
356.489862
 21
60.502757
  0
CIRCLE
  8
CSLAYER1
  6
CONTINUOUS
 62
     6
 10
371.489862
 20
40.502757
 40
6.000000
  0
CIRCLE
  8
CSLAYER1
  6
DASHED
 62
     6
 10
371.489862
 20
40.502757
 40
11.500000
  0
ARC
  8
CSLAYER1
  6
CONTINUOUS
 62
     6
 10
379.489862
 20
95.502757
 40
20.000000
 50
270.000000
 51
360.000000
  0
LINE
  8
CSLAYER1
  6
CONTINUOUS
 62
     6
 10
399.489862
 20
95.502757
 11
399.489862
 21
115.502757
  0
ARC
  8
CSLAYER1
  6
CONTINUOUS
 62
     6
 10
379.489862
 20
115.502757
 40
20.000000
 50
0.000000
 51
90.000000
  0
ARC
  8
CSLAYER1
  6
CONTINUOUS
 62
     6
 10
319.276117
 20
143.074275
 40
1.000000
 50
186.000026
 51
270.000001
  0
LINE
  8
CSLAYER1
  6
CONTINUOUS
 62
     6
 10
318.281610
 20
142.969783
 11
317.583978
 21
149.607234
  0
ARC
  8
CSLAYER1
  6
CONTINUOUS
 62
     6
 10
316.589410
 20
149.502742
 40
1.000000
 50
6.000003
 51
90.000016
  0
LINE
  8
CSLAYER1
  6
CONTINUOUS
 62
     6
 10
316.589410
 20
150.502742
 11
280.390252
 21
150.502742
  0
ARC
  8
CSLAYER1
  6
CONTINUOUS
 62
     6
 10
280.390252
 20
149.502742
 40
1.000000
 50
90.000003
 51
173.999998
  0
LINE
  8
CSLAYER1
  6
CONTINUOUS
 62
     6
 10
279.395746
 20
149.607234
 11
278.698114
 21
142.969783
  0
ARC
  8
CSLAYER1
  6
CONTINUOUS
 62
     6
 10
277.703546
 20
143.074275
 40
1.000000
 50
270.000001
 51
353.999989
  0
ARC
  8
CSLAYER1
  6
CONTINUOUS
 62
     6
 10
277.753229
 20
147.546565
 40
1.000000
 50
270.000001
 51
353.999989
  0
LINE
  8
CSLAYER1
  6
CONTINUOUS
 62
     6
 10
278.747735
 20
147.442012
 11
279.395746
 21
153.607234
  0
ARC
  8
CSLAYER1
  6
CONTINUOUS
 62
     6
 10
280.390252
 20
153.502742
 40
1.000000
 50
90.000003
 51
173.999998
  0
LINE
  8
CSLAYER1
  6
CONTINUOUS
 62
     6
 10
280.390252
 20
154.502742
 11
316.589410
 21
154.502742
  0
ARC
  8
CSLAYER1
  6
CONTINUOUS
 62
     6
 10
316.589410
 20
153.502742
 40
1.000000
 50
6.000003
 51
90.000016
  0
LINE
  8
CSLAYER1
  6
CONTINUOUS
 62
     6
 10
317.583978
 20
153.607234
 11
318.231927
 21
147.442012
  0
ARC
  8
CSLAYER1
  6
CONTINUOUS
 62
     6
 10
319.226495
 20
147.546565
 40
1.000000
 50
186.000026
 51
270.000001
  0
LINE
  8
CSLAYER1
  6
CONTINUOUS
 62
     6
 10
314.132928
 20
141.895931
 11
282.175836
 21
141.895931
  0
LINE
  8
CSLAYER1
  6
CONTINUOUS
 62
     6
 10
282.489862
 20
123.502757
 11
304.489862
 21
123.502757
  0
ARC
  8
CSLAYER1
  6
CONTINUOUS
 62
     6
 10
304.489862
 20
121.502757
 40
2.000000
 50
0.000000
 51
90.000000
  0
LINE
  8
CSLAYER1
  6
CONTINUOUS
 62
     6
 10
306.489862
 20
121.502757
 11
306.489862
 21
89.502757
  0
ARC
  8
CSLAYER1
  6
CONTINUOUS
 62
     6
 10
304.489862
 20
89.502757
 40
2.000000
 50
270.000000
 51
360.000000
  0
LINE
  8
CSLAYER1
  6
CONTINUOUS
 62
     6
 10
304.489862
 20
87.502757
 11
282.489862
 21
87.502757
  0
ARC
  8
CSLAYER1
  6
CONTINUOUS
 62
     6
 10
282.489862
 20
89.502757
 40
2.000000
 50
180.000000
 51
270.000000
  0
LINE
  8
CSLAYER1
  6
CONTINUOUS
 62
     6
 10
280.489862
 20
89.502757
 11
280.489862
 21
102.379785
  0
LINE
  8
CSLAYER1
  6
CONTINUOUS
 62
     6
 10
280.490010
 20
102.379785
 11
280.654229
 21
102.420103
  0
LINE
  8
CSLAYER1
  6
CONTINUOUS
 62
     6
 10
280.654229
 20
102.420103
 11
280.815760
 21
102.453478
  0
LINE
  8
CSLAYER1
  6
CONTINUOUS
 62
     6
 10
280.815760
 20
102.453478
 11
281.002015
 21
102.486824
  0
LINE
  8
CSLAYER1
  6
CONTINUOUS
 62
     6
 10
281.002015
 20
102.486824
 11
281.195126
 21
102.518591
  0
LINE
  8
CSLAYER1
  6
CONTINUOUS
 62
     6
 10
281.195126
 20
102.518591
 11
281.393671
 21
102.548140
  0
LINE
  8
CSLAYER1
  6
CONTINUOUS
 62
     6
 10
281.393671
 20
102.548140
 11
281.596227
 21
102.574829
  0
LINE
  8
CSLAYER1
  6
CONTINUOUS
 62
     6
 10
281.596227
 20
102.574829
 11
281.801371
 21
102.598018
  0
LINE
  8
CSLAYER1
  6
CONTINUOUS
 62
     6
 10
281.801371
 20
102.598018
 11
282.007680
 21
102.617065
  0
LINE
  8
CSLAYER1
  6
CONTINUOUS
 62
     6
 10
282.007680
 20
102.617065
 11
282.213731
 21
102.631331
  0
LINE
  8
CSLAYER1
  6
CONTINUOUS
 62
     6
 10
282.213731
 20
102.631331
 11
282.418101
 21
102.640173
  0
LINE
  8
CSLAYER1
  6
CONTINUOUS
 62
     6
 10
282.418101
 20
102.640173
 11
282.619368
 21
102.642953
  0
LINE
  8
CSLAYER1
  6
CONTINUOUS
 62
     6
 10
282.619368
 20
102.642953
 11
282.816108
 21
102.639028
  0
LINE
  8
CSLAYER1
  6
CONTINUOUS
 62
     6
 10
282.816108
 20
102.639028
 11
283.006899
 21
102.627758
  0
LINE
  8
CSLAYER1
  6
CONTINUOUS
 62
     6
 10
283.006899
 20
102.627758
 11
283.174496
 21
102.614266
  0
LINE
  8
CSLAYER1
  6
CONTINUOUS
 62
     6
 10
283.174496
 20
102.614266
 11
283.346838
 21
102.600382
  0
LINE
  8
CSLAYER1
  6
CONTINUOUS
 62
     6
 10
283.346838
 20
102.600382
 11
283.522835
 21
102.585988
  0
LINE
  8
CSLAYER1
  6
CONTINUOUS
 62
     6
 10
283.522835
 20
102.585988
 11
283.701400
 21
102.570962
  0
LINE
  8
CSLAYER1
  6
CONTINUOUS
 62
     6
 10
283.701400
 20
102.570962
 11
283.881445
 21
102.555185
  0
LINE
  8
CSLAYER1
  6
CONTINUOUS
 62
     6
 10
283.881445
 20
102.555185
 11
284.061883
 21
102.538537
  0
LINE
  8
CSLAYER1
  6
CONTINUOUS
 62
     6
 10
284.061883
 20
102.538537
 11
284.241626
 21
102.520897
  0
LINE
  8
CSLAYER1
  6
CONTINUOUS
 62
     6
 10
284.241626
 20
102.520897
 11
284.419586
 21
102.502146
  0
LINE
  8
CSLAYER1
  6
CONTINUOUS
 62
     6
 10
284.419586
 20
102.502146
 11
284.594675
 21
102.482163
  0
LINE
  8
CSLAYER1
  6
CONTINUOUS
 62
     6
 10
284.594675
 20
102.482163
 11
284.765805
 21
102.460828
  0
LINE
  8
CSLAYER1
  6
CONTINUOUS
 62
     6
 10
284.765805
 20
102.460828
 11
284.931888
 21
102.438021
  0
LINE
  8
CSLAYER1
  6
CONTINUOUS
 62
     6
 10
284.931888
 20
102.438021
 11
285.097828
 21
102.415159
  0
LINE
  8
CSLAYER1
  6
CONTINUOUS
 62
     6
 10
285.097828
 20
102.415159
 11
285.269268
 21
102.393703
  0
LINE
  8
CSLAYER1
  6
CONTINUOUS
 62
     6
 10
285.269268
 20
102.393703
 11
285.444968
 21
102.373783
  0
LINE
  8
CSLAYER1
  6
CONTINUOUS
 62
     6
 10
285.444968
 20
102.373783
 11
285.623689
 21
102.355531
  0
LINE
  8
CSLAYER1
  6
CONTINUOUS
 62
     6
 10
285.623689
 20
102.355531
 11
285.804191
 21
102.339075
  0
LINE
  8
CSLAYER1
  6
CONTINUOUS
 62
     6
 10
285.804191
 20
102.339075
 11
285.985233
 21
102.324547
  0
LINE
  8
CSLAYER1
  6
CONTINUOUS
 62
     6
 10
285.985233
 20
102.324547
 11
286.165576
 21
102.312077
  0
LINE
  8
CSLAYER1
  6
CONTINUOUS
 62
     6
 10
286.165576
 20
102.312077
 11
286.343980
 21
102.301795
  0
LINE
  8
CSLAYER1
  6
CONTINUOUS
 62
     6
 10
286.343980
 20
102.301795
 11
286.519205
 21
102.293832
  0
LINE
  8
CSLAYER1
  6
CONTINUOUS
 62
     6
 10
286.519205
 20
102.293832
 11
286.690010
 21
102.288317
  0
LINE
  8
CSLAYER1
  6
CONTINUOUS
 62
     6
 10
286.690010
 20
102.288317
 11
286.855157
 21
102.285382
  0
LINE
  8
CSLAYER1
  6
CONTINUOUS
 62
     6
 10
286.855157
 20
102.285382
 11
287.014544
 21
102.284849
  0
LINE
  8
CSLAYER1
  6
CONTINUOUS
 62
     6
 10
287.014544
 20
102.284849
 11
287.181030
 21
102.286266
  0
LINE
  8
CSLAYER1
  6
CONTINUOUS
 62
     6
 10
287.181030
 20
102.286266
 11
287.352823
 21
102.289552
  0
LINE
  8
CSLAYER1
  6
CONTINUOUS
 62
     6
 10
287.352823
 20
102.289552
 11
287.528128
 21
102.294622
  0
LINE
  8
CSLAYER1
  6
CONTINUOUS
 62
     6
 10
287.528128
 20
102.294622
 11
287.705153
 21
102.301393
  0
LINE
  8
CSLAYER1
  6
CONTINUOUS
 62
     6
 10
287.705153
 20
102.301393
 11
287.882103
 21
102.309784
  0
LINE
  8
CSLAYER1
  6
CONTINUOUS
 62
     6
 10
287.882103
 20
102.309784
 11
288.057187
 21
102.319709
  0
LINE
  8
CSLAYER1
  6
CONTINUOUS
 62
     6
 10
288.057187
 20
102.319709
 11
288.228609
 21
102.331088
  0
LINE
  8
CSLAYER1
  6
CONTINUOUS
 62
     6
 10
288.228609
 20
102.331088
 11
288.394578
 21
102.343835
  0
LINE
  8
CSLAYER1
  6
CONTINUOUS
 62
     6
 10
288.394578
 20
102.343835
 11
288.553299
 21
102.357870
  0
LINE
  8
CSLAYER1
  6
CONTINUOUS
 62
     6
 10
288.553299
 20
102.357870
 11
288.702979
 21
102.373107
  0
ARC
  8
CSLAYER1
  6
CONTINUOUS
 62
     6
 10
288.667357
 20
103.872300
 40
1.500000
 50
-88.640300
 51
91.359720
  0
ARC
  8
CSLAYER1
  6
CONTINUOUS
 62
     6
 10
288.721609
 20
106.868777
 40
1.500000
 50
-93.433378
 51
86.566642
  0
LINE
  8
CSLAYER1
  6
CONTINUOUS
 62
     6
 10
288.811481
 20
108.366062
 11
288.581267
 21
108.374088
  0
LINE
  8
CSLAYER1
  6
CONTINUOUS
 62
     6
 10
288.581267
 20
108.374088
 11
288.337828
 21
108.383330
  0
LINE
  8
CSLAYER1
  6
CONTINUOUS
 62
     6
 10
288.337828
 20
108.383330
 11
288.083721
 21
108.393878
  0
LINE
  8
CSLAYER1
  6
CONTINUOUS
 62
     6
 10
288.083721
 20
108.393878
 11
287.821500
 21
108.405825
  0
LINE
  8
CSLAYER1
  6
CONTINUOUS
 62
     6
 10
287.821500
 20
108.405825
 11
287.553719
 21
108.419262
  0
LINE
  8
CSLAYER1
  6
CONTINUOUS
 62
     6
 10
287.553719
 20
108.419262
 11
287.282933
 21
108.434282
  0
LINE
  8
CSLAYER1
  6
CONTINUOUS
 62
     6
 10
287.282933
 20
108.434282
 11
287.011697
 21
108.450976
  0
LINE
  8
CSLAYER1
  6
CONTINUOUS
 62
     6
 10
287.011697
 20
108.450976
 11
286.742566
 21
108.469437
  0
LINE
  8
CSLAYER1
  6
CONTINUOUS
 62
     6
 10
286.742566
 20
108.469437
 11
286.478094
 21
108.489756
  0
LINE
  8
CSLAYER1
  6
CONTINUOUS
 62
     6
 10
286.478094
 20
108.489756
 11
286.220836
 21
108.512026
  0
LINE
  8
CSLAYER1
  6
CONTINUOUS
 62
     6
 10
286.220836
 20
108.512026
 11
285.973347
 21
108.536337
  0
LINE
  8
CSLAYER1
  6
CONTINUOUS
 62
     6
 10
285.973347
 20
108.536337
 11
285.710455
 21
108.563439
  0
LINE
  8
CSLAYER1
  6
CONTINUOUS
 62
     6
 10
285.710455
 20
108.563439
 11
285.440458
 21
108.590623
  0
LINE
  8
CSLAYER1
  6
CONTINUOUS
 62
     6
 10
285.440458
 20
108.590623
 11
285.164923
 21
108.618170
  0
LINE
  8
CSLAYER1
  6
CONTINUOUS
 62
     6
 10
285.164923
 20
108.618170
 11
284.885418
 21
108.646359
  0
LINE
  8
CSLAYER1
  6
CONTINUOUS
 62
     6
 10
284.885418
 20
108.646359
 11
284.603513
 21
108.675470
  0
LINE
  8
CSLAYER1
  6
CONTINUOUS
 62
     6
 10
284.603513
 20
108.675470
 11
284.320775
 21
108.705784
  0
LINE
  8
CSLAYER1
  6
CONTINUOUS
 62
     6
 10
284.320775
 20
108.705784
 11
284.038772
 21
108.737580
  0
LINE
  8
CSLAYER1
  6
CONTINUOUS
 62
     6
 10
284.038772
 20
108.737580
 11
283.759074
 21
108.771138
  0
LINE
  8
CSLAYER1
  6
CONTINUOUS
 62
     6
 10
283.759074
 20
108.771138
 11
283.483247
 21
108.806739
  0
LINE
  8
CSLAYER1
  6
CONTINUOUS
 62
     6
 10
283.483247
 20
108.806739
 11
283.212861
 21
108.844661
  0
LINE
  8
CSLAYER1
  6
CONTINUOUS
 62
     6
 10
283.212861
 20
108.844661
 11
282.949484
 21
108.885185
  0
LINE
  8
CSLAYER1
  6
CONTINUOUS
 62
     6
 10
282.949484
 20
108.885185
 11
282.545542
 21
108.947011
  0
LINE
  8
CSLAYER1
  6
CONTINUOUS
 62
     6
 10
282.545542
 20
108.947011
 11
282.131715
 21
109.002705
  0
LINE
  8
CSLAYER1
  6
CONTINUOUS
 62
     6
 10
282.131715
 20
109.002705
 11
281.709895
 21
109.050751
  0
LINE
  8
CSLAYER1
  6
CONTINUOUS
 62
     6
 10
281.709895
 20
109.050751
 11
281.281978
 21
109.089636
  0
LINE
  8
CSLAYER1
  6
CONTINUOUS
 62
     6
 10
281.281978
 20
109.089636
 11
280.849856
 21
109.117844
  0
LINE
  8
CSLAYER1
  6
CONTINUOUS
 62
     6
 10
280.849856
 20
109.117844
 11
280.415423
 21
109.133861
  0
LINE
  8
CSLAYER1
  6
CONTINUOUS
 62
     6
 10
280.415423
 20
109.133861
 11
279.980573
 21
109.136173
  0
LINE
  8
CSLAYER1
  6
CONTINUOUS
 62
     6
 10
279.980573
 20
109.136173
 11
279.547200
 21
109.123264
  0
LINE
  8
CSLAYER1
  6
CONTINUOUS
 62
     6
 10
279.547200
 20
109.123264
 11
279.117198
 21
109.093620
  0
LINE
  8
CSLAYER1
  6
CONTINUOUS
 62
     6
 10
279.117198
 20
109.093620
 11
278.692460
 21
109.045727
  0
LINE
  8
CSLAYER1
  6
CONTINUOUS
 62
     6
 10
278.692460
 20
109.045727
 11
278.274880
 21
108.978069
  0
LINE
  8
CSLAYER1
  6
CONTINUOUS
 62
     6
 10
278.274880
 20
108.978069
 11
278.009156
 21
108.923052
  0
LINE
  8
CSLAYER1
  6
CONTINUOUS
 62
     6
 10
278.009156
 20
108.923052
 11
277.744981
 21
108.859237
  0
LINE
  8
CSLAYER1
  6
CONTINUOUS
 62
     6
 10
277.744981
 20
108.859237
 11
277.482201
 21
108.787506
  0
LINE
  8
CSLAYER1
  6
CONTINUOUS
 62
     6
 10
277.482201
 20
108.787506
 11
277.220660
 21
108.708736
  0
LINE
  8
CSLAYER1
  6
CONTINUOUS
 62
     6
 10
277.220660
 20
108.708736
 11
276.960203
 21
108.623808
  0
LINE
  8
CSLAYER1
  6
CONTINUOUS
 62
     6
 10
276.960203
 20
108.623808
 11
276.700675
 21
108.533602
  0
LINE
  8
CSLAYER1
  6
CONTINUOUS
 62
     6
 10
276.700675
 20
108.533602
 11
276.441923
 21
108.438997
  0
LINE
  8
CSLAYER1
  6
CONTINUOUS
 62
     6
 10
276.441923
 20
108.438997
 11
276.183789
 21
108.340874
  0
LINE
  8
CSLAYER1
  6
CONTINUOUS
 62
     6
 10
276.183789
 20
108.340874
 11
275.926121
 21
108.240111
  0
LINE
  8
CSLAYER1
  6
CONTINUOUS
 62
     6
 10
275.926121
 20
108.240111
 11
275.668762
 21
108.137588
  0
LINE
  8
CSLAYER1
  6
CONTINUOUS
 62
     6
 10
275.668762
 20
108.137588
 11
275.411558
 21
108.034186
  0
ARC
  8
CSLAYER1
  6
CONTINUOUS
 62
     6
 10
276.880151
 20
107.728584
 40
1.499994
 50
168.245911
 51
228.245911
  0
ARC
  8
CSLAYER1
  6
CONTINUOUS
 62
     6
 10
274.882354
 20
105.490563
 40
1.499994
 50
-11.754089
 51
48.245911
  0
ARC
  8
CSLAYER1
  6
CONTINUOUS
 62
     6
 10
277.349794
 20
106.304007
 40
1.499994
 50
168.245911
 51
228.245911
  0
LINE
  8
CSLAYER1
  6
CONTINUOUS
 62
     6
 10
276.350847
 20
105.185018
 11
276.564399
 21
105.270567
  0
LINE
  8
CSLAYER1
  6
CONTINUOUS
 62
     6
 10
276.564399
 20
105.270567
 11
276.778076
 21
105.355400
  0
LINE
  8
CSLAYER1
  6
CONTINUOUS
 62
     6
 10
276.778076
 20
105.355400
 11
276.992003
 21
105.438800
  0
LINE
  8
CSLAYER1
  6
CONTINUOUS
 62
     6
 10
276.992003
 20
105.438800
 11
277.206305
 21
105.520052
  0
LINE
  8
CSLAYER1
  6
CONTINUOUS
 62
     6
 10
277.206305
 20
105.520052
 11
277.421107
 21
105.598440
  0
LINE
  8
CSLAYER1
  6
CONTINUOUS
 62
     6
 10
277.421107
 20
105.598440
 11
277.636534
 21
105.673247
  0
LINE
  8
CSLAYER1
  6
CONTINUOUS
 62
     6
 10
277.636534
 20
105.673247
 11
277.852712
 21
105.743757
  0
LINE
  8
CSLAYER1
  6
CONTINUOUS
 62
     6
 10
277.852712
 20
105.743757
 11
278.069765
 21
105.809254
  0
LINE
  8
CSLAYER1
  6
CONTINUOUS
 62
     6
 10
278.069765
 20
105.809254
 11
278.287818
 21
105.869023
  0
LINE
  8
CSLAYER1
  6
CONTINUOUS
 62
     6
 10
278.287818
 20
105.869023
 11
278.506997
 21
105.922346
  0
LINE
  8
CSLAYER1
  6
CONTINUOUS
 62
     6
 10
278.506997
 20
105.922346
 11
278.727426
 21
105.968508
  0
LINE
  8
CSLAYER1
  6
CONTINUOUS
 62
     6
 10
278.727426
 20
105.968508
 11
279.086493
 21
106.027527
  0
LINE
  8
CSLAYER1
  6
CONTINUOUS
 62
     6
 10
279.086493
 20
106.027527
 11
279.452041
 21
106.069383
  0
LINE
  8
CSLAYER1
  6
CONTINUOUS
 62
     6
 10
279.452041
 20
106.069383
 11
279.822335
 21
106.095379
  0
LINE
  8
CSLAYER1
  6
CONTINUOUS
 62
     6
 10
279.822335
 20
106.095379
 11
280.195641
 21
106.106816
  0
LINE
  8
CSLAYER1
  6
CONTINUOUS
 62
     6
 10
280.195641
 20
106.106816
 11
280.570224
 21
106.104996
  0
LINE
  8
CSLAYER1
  6
CONTINUOUS
 62
     6
 10
280.570224
 20
106.104996
 11
280.944348
 21
106.091223
  0
LINE
  8
CSLAYER1
  6
CONTINUOUS
 62
     6
 10
280.944348
 20
106.091223
 11
281.316280
 21
106.066799
  0
LINE
  8
CSLAYER1
  6
CONTINUOUS
 62
     6
 10
281.316280
 20
106.066799
 11
281.684284
 21
106.033025
  0
LINE
  8
CSLAYER1
  6
CONTINUOUS
 62
     6
 10
281.684284
 20
106.033025
 11
282.046627
 21
105.991204
  0
LINE
  8
CSLAYER1
  6
CONTINUOUS
 62
     6
 10
282.046627
 20
105.991204
 11
282.401572
 21
105.942638
  0
LINE
  8
CSLAYER1
  6
CONTINUOUS
 62
     6
 10
282.401572
 20
105.942638
 11
282.747386
 21
105.888630
  0
LINE
  8
CSLAYER1
  6
CONTINUOUS
 62
     6
 10
282.747386
 20
105.888630
 11
283.004547
 21
105.848376
  0
LINE
  8
CSLAYER1
  6
CONTINUOUS
 62
     6
 10
283.004547
 20
105.848376
 11
283.269245
 21
105.810952
  0
LINE
  8
CSLAYER1
  6
CONTINUOUS
 62
     6
 10
283.269245
 20
105.810952
 11
283.539788
 21
105.776024
  0
LINE
  8
CSLAYER1
  6
CONTINUOUS
 62
     6
 10
283.539788
 20
105.776024
 11
283.814487
 21
105.743262
  0
LINE
  8
CSLAYER1
  6
CONTINUOUS
 62
     6
 10
283.814487
 20
105.743262
 11
284.091650
 21
105.712331
  0
LINE
  8
CSLAYER1
  6
CONTINUOUS
 62
     6
 10
284.091650
 20
105.712331
 11
284.369589
 21
105.682900
  0
LINE
  8
CSLAYER1
  6
CONTINUOUS
 62
     6
 10
284.369589
 20
105.682900
 11
284.646613
 21
105.654637
  0
LINE
  8
CSLAYER1
  6
CONTINUOUS
 62
     6
 10
284.646613
 20
105.654637
 11
284.921032
 21
105.627208
  0
LINE
  8
CSLAYER1
  6
CONTINUOUS
 62
     6
 10
284.921032
 20
105.627208
 11
285.191155
 21
105.600281
  0
LINE
  8
CSLAYER1
  6
CONTINUOUS
 62
     6
 10
285.191155
 20
105.600281
 11
285.455293
 21
105.573524
  0
LINE
  8
CSLAYER1
  6
CONTINUOUS
 62
     6
 10
285.455293
 20
105.573524
 11
285.711755
 21
105.546604
  0
LINE
  8
CSLAYER1
  6
CONTINUOUS
 62
     6
 10
285.711755
 20
105.546604
 11
285.965104
 21
105.521177
  0
LINE
  8
CSLAYER1
  6
CONTINUOUS
 62
     6
 10
285.965104
 20
105.521177
 11
286.229119
 21
105.497977
  0
LINE
  8
CSLAYER1
  6
CONTINUOUS
 62
     6
 10
286.229119
 20
105.497977
 11
286.501051
 21
105.476897
  0
LINE
  8
CSLAYER1
  6
CONTINUOUS
 62
     6
 10
286.501051
 20
105.476897
 11
286.778154
 21
105.457826
  0
LINE
  8
CSLAYER1
  6
CONTINUOUS
 62
     6
 10
286.778154
 20
105.457826
 11
287.057679
 21
105.440655
  0
LINE
  8
CSLAYER1
  6
CONTINUOUS
 62
     6
 10
287.057679
 20
105.440655
 11
287.336879
 21
105.425273
  0
LINE
  8
CSLAYER1
  6
CONTINUOUS
 62
     6
 10
287.336879
 20
105.425273
 11
287.613004
 21
105.411573
  0
LINE
  8
CSLAYER1
  6
CONTINUOUS
 62
     6
 10
287.613004
 20
105.411573
 11
287.883308
 21
105.399443
  0
LINE
  8
CSLAYER1
  6
CONTINUOUS
 62
     6
 10
287.883308
 20
105.399443
 11
288.145042
 21
105.388775
  0
LINE
  8
CSLAYER1
  6
CONTINUOUS
 62
     6
 10
288.145042
 20
105.388775
 11
288.395458
 21
105.379459
  0
LINE
  8
CSLAYER1
  6
CONTINUOUS
 62
     6
 10
288.395458
 20
105.379459
 11
288.631809
 21
105.371385
  0
LINE
  8
CSLAYER1
  6
CONTINUOUS
 62
     6
 10
288.560639
 20
105.369723
 11
288.426551
 21
105.356004
  0
LINE
  8
CSLAYER1
  6
CONTINUOUS
 62
     6
 10
288.426551
 20
105.356004
 11
288.284474
 21
105.343358
  0
LINE
  8
CSLAYER1
  6
CONTINUOUS
 62
     6
 10
288.284474
 20
105.343358
 11
288.135964
 21
105.331865
  0
LINE
  8
CSLAYER1
  6
CONTINUOUS
 62
     6
 10
288.135964
 20
105.331865
 11
287.982577
 21
105.321604
  0
LINE
  8
CSLAYER1
  6
CONTINUOUS
 62
     6
 10
287.982577
 20
105.321604
 11
287.825868
 21
105.312655
  0
LINE
  8
CSLAYER1
  6
CONTINUOUS
 62
     6
 10
287.825868
 20
105.312655
 11
287.667393
 21
105.305097
  0
LINE
  8
CSLAYER1
  6
CONTINUOUS
 62
     6
 10
287.667393
 20
105.305097
 11
287.508707
 21
105.299011
  0
LINE
  8
CSLAYER1
  6
CONTINUOUS
 62
     6
 10
287.508707
 20
105.299011
 11
287.351365
 21
105.294475
  0
LINE
  8
CSLAYER1
  6
CONTINUOUS
 62
     6
 10
287.351365
 20
105.294475
 11
287.196924
 21
105.291569
  0
LINE
  8
CSLAYER1
  6
CONTINUOUS
 62
     6
 10
287.196924
 20
105.291569
 11
287.046939
 21
105.290372
  0
LINE
  8
CSLAYER1
  6
CONTINUOUS
 62
     6
 10
287.046939
 20
105.290372
 11
286.902965
 21
105.290965
  0
LINE
  8
CSLAYER1
  6
CONTINUOUS
 62
     6
 10
286.902965
 20
105.290965
 11
286.755724
 21
105.293744
  0
LINE
  8
CSLAYER1
  6
CONTINUOUS
 62
     6
 10
286.755724
 20
105.293744
 11
286.604110
 21
105.298862
  0
LINE
  8
CSLAYER1
  6
CONTINUOUS
 62
     6
 10
286.604110
 20
105.298862
 11
286.449065
 21
105.306175
  0
LINE
  8
CSLAYER1
  6
CONTINUOUS
 62
     6
 10
286.449065
 20
105.306175
 11
286.291528
 21
105.315538
  0
LINE
  8
CSLAYER1
  6
CONTINUOUS
 62
     6
 10
286.291528
 20
105.315538
 11
286.132442
 21
105.326806
  0
LINE
  8
CSLAYER1
  6
CONTINUOUS
 62
     6
 10
286.132442
 20
105.326806
 11
285.972748
 21
105.339833
  0
LINE
  8
CSLAYER1
  6
CONTINUOUS
 62
     6
 10
285.972748
 20
105.339833
 11
285.813386
 21
105.354475
  0
LINE
  8
CSLAYER1
  6
CONTINUOUS
 62
     6
 10
285.813386
 20
105.354475
 11
285.655297
 21
105.370587
  0
LINE
  8
CSLAYER1
  6
CONTINUOUS
 62
     6
 10
285.655297
 20
105.370587
 11
285.499424
 21
105.388024
  0
LINE
  8
CSLAYER1
  6
CONTINUOUS
 62
     6
 10
285.499424
 20
105.388024
 11
285.346706
 21
105.406640
  0
LINE
  8
CSLAYER1
  6
CONTINUOUS
 62
     6
 10
285.346706
 20
105.406640
 11
285.198085
 21
105.426292
  0
LINE
  8
CSLAYER1
  6
CONTINUOUS
 62
     6
 10
285.198085
 20
105.426292
 11
285.009537
 21
105.451146
  0
LINE
  8
CSLAYER1
  6
CONTINUOUS
 62
     6
 10
285.009537
 20
105.451146
 11
284.816273
 21
105.474636
  0
LINE
  8
CSLAYER1
  6
CONTINUOUS
 62
     6
 10
284.816273
 20
105.474636
 11
284.619329
 21
105.496853
  0
LINE
  8
CSLAYER1
  6
CONTINUOUS
 62
     6
 10
284.619329
 20
105.496853
 11
284.419738
 21
105.517887
  0
LINE
  8
CSLAYER1
  6
CONTINUOUS
 62
     6
 10
284.419738
 20
105.517887
 11
284.218537
 21
105.537827
  0
LINE
  8
CSLAYER1
  6
CONTINUOUS
 62
     6
 10
284.218537
 20
105.537827
 11
284.016758
 21
105.556763
  0
LINE
  8
CSLAYER1
  6
CONTINUOUS
 62
     6
 10
284.016758
 20
105.556763
 11
283.815437
 21
105.574787
  0
LINE
  8
CSLAYER1
  6
CONTINUOUS
 62
     6
 10
283.815437
 20
105.574787
 11
283.615609
 21
105.591988
  0
LINE
  8
CSLAYER1
  6
CONTINUOUS
 62
     6
 10
283.615609
 20
105.591988
 11
283.418307
 21
105.608456
  0
LINE
  8
CSLAYER1
  6
CONTINUOUS
 62
     6
 10
283.418307
 20
105.608456
 11
283.224566
 21
105.624281
  0
LINE
  8
CSLAYER1
  6
CONTINUOUS
 62
     6
 10
283.224566
 20
105.624281
 11
283.035422
 21
105.639554
  0
LINE
  8
CSLAYER1
  6
CONTINUOUS
 62
     6
 10
283.035422
 20
105.639554
 11
282.783594
 21
105.654314
  0
LINE
  8
CSLAYER1
  6
CONTINUOUS
 62
     6
 10
282.783594
 20
105.654314
 11
282.524480
 21
105.659290
  0
LINE
  8
CSLAYER1
  6
CONTINUOUS
 62
     6
 10
282.524480
 20
105.659290
 11
282.259869
 21
105.655373
  0
LINE
  8
CSLAYER1
  6
CONTINUOUS
 62
     6
 10
282.259869
 20
105.655373
 11
281.991546
 21
105.643454
  0
LINE
  8
CSLAYER1
  6
CONTINUOUS
 62
     6
 10
281.991546
 20
105.643454
 11
281.721301
 21
105.624423
  0
LINE
  8
CSLAYER1
  6
CONTINUOUS
 62
     6
 10
281.721301
 20
105.624423
 11
281.450921
 21
105.599170
  0
LINE
  8
CSLAYER1
  6
CONTINUOUS
 62
     6
 10
281.450921
 20
105.599170
 11
281.182193
 21
105.568586
  0
LINE
  8
CSLAYER1
  6
CONTINUOUS
 62
     6
 10
281.182193
 20
105.568586
 11
280.916905
 21
105.533561
  0
LINE
  8
CSLAYER1
  6
CONTINUOUS
 62
     6
 10
280.916905
 20
105.533561
 11
280.656845
 21
105.494986
  0
LINE
  8
CSLAYER1
  6
CONTINUOUS
 62
     6
 10
280.656845
 20
105.494986
 11
280.403799
 21
105.453750
  0
LINE
  8
CSLAYER1
  6
CONTINUOUS
 62
     6
 10
280.403799
 20
105.453750
 11
280.159556
 21
105.410745
  0
LINE
  8
CSLAYER1
  6
CONTINUOUS
 62
     6
 10
280.159556
 20
105.410745
 11
279.934886
 21
105.365143
  0
LINE
  8
CSLAYER1
  6
CONTINUOUS
 62
     6
 10
279.934886
 20
105.365143
 11
279.706346
 21
105.309787
  0
LINE
  8
CSLAYER1
  6
CONTINUOUS
 62
     6
 10
279.706346
 20
105.309787
 11
279.474980
 21
105.245282
  0
LINE
  8
CSLAYER1
  6
CONTINUOUS
 62
     6
 10
279.474980
 20
105.245282
 11
279.241828
 21
105.172237
  0
LINE
  8
CSLAYER1
  6
CONTINUOUS
 62
     6
 10
279.241828
 20
105.172237
 11
279.007932
 21
105.091258
  0
LINE
  8
CSLAYER1
  6
CONTINUOUS
 62
     6
 10
279.007932
 20
105.091258
 11
278.774333
 21
105.002953
  0
LINE
  8
CSLAYER1
  6
CONTINUOUS
 62
     6
 10
278.774333
 20
105.002953
 11
278.542073
 21
104.907928
  0
LINE
  8
CSLAYER1
  6
CONTINUOUS
 62
     6
 10
278.542073
 20
104.907928
 11
278.312193
 21
104.806791
  0
LINE
  8
CSLAYER1
  6
CONTINUOUS
 62
     6
 10
278.312193
 20
104.806791
 11
278.085734
 21
104.700149
  0
LINE
  8
CSLAYER1
  6
CONTINUOUS
 62
     6
 10
278.085734
 20
104.700149
 11
277.863738
 21
104.588609
  0
LINE
  8
CSLAYER1
  6
CONTINUOUS
 62
     6
 10
277.863738
 20
104.588609
 11
277.647247
 21
104.472777
  0
LINE
  8
CSLAYER1
  6
CONTINUOUS
 62
     6
 10
277.647247
 20
104.472777
 11
277.492532
 21
104.385383
  0
LINE
  8
CSLAYER1
  6
CONTINUOUS
 62
     6
 10
277.492532
 20
104.385383
 11
277.339505
 21
104.295162
  0
LINE
  8
CSLAYER1
  6
CONTINUOUS
 62
     6
 10
277.339505
 20
104.295162
 11
277.187998
 21
104.202397
  0
LINE
  8
CSLAYER1
  6
CONTINUOUS
 62
     6
 10
277.187998
 20
104.202397
 11
277.037843
 21
104.107372
  0
LINE
  8
CSLAYER1
  6
CONTINUOUS
 62
     6
 10
277.037843
 20
104.107372
 11
276.888870
 21
104.010368
  0
LINE
  8
CSLAYER1
  6
CONTINUOUS
 62
     6
 10
276.888870
 20
104.010368
 11
276.740910
 21
103.911668
  0
LINE
  8
CSLAYER1
  6
CONTINUOUS
 62
     6
 10
276.740910
 20
103.911668
 11
276.593795
 21
103.811556
  0
LINE
  8
CSLAYER1
  6
CONTINUOUS
 62
     6
 10
276.593795
 20
103.811556
 11
276.447355
 21
103.710312
  0
LINE
  8
CSLAYER1
  6
CONTINUOUS
 62
     6
 10
276.447355
 20
103.710312
 11
276.301422
 21
103.608221
  0
LINE
  8
CSLAYER1
  6
CONTINUOUS
 62
     6
 10
276.301422
 20
103.608221
 11
276.155827
 21
103.505565
  0
LINE
  8
CSLAYER1
  6
CONTINUOUS
 62
     6
 10
276.155827
 20
103.505565
 11
276.010400
 21
103.402626
  0
ARC
  8
CSLAYER1
  6
CONTINUOUS
 62
     6
 10
277.508133
 20
103.485736
 40
1.500006
 50
183.178280
 51
243.178280
  0
ARC
  8
CSLAYER1
  6
CONTINUOUS
 62
     6
 10
278.329005
 20
102.230273
 40
1.500006
 50
183.178280
 51
243.178280
  0
ARC
  8
CSLAYER1
  6
CONTINUOUS
 62
     6
 10
276.154481
 20
100.808481
 40
1.500006
 50
3.178280
 51
63.178280
  0
LINE
  8
CSLAYER1
  6
CONTINUOUS
 62
     6
 10
277.652143
 20
100.891697
 11
277.772512
 21
100.977446
  0
LINE
  8
CSLAYER1
  6
CONTINUOUS
 62
     6
 10
277.772512
 20
100.977446
 11
277.893034
 21
101.062941
  0
LINE
  8
CSLAYER1
  6
CONTINUOUS
 62
     6
 10
277.893034
 20
101.062941
 11
278.013859
 21
101.147928
  0
LINE
  8
CSLAYER1
  6
CONTINUOUS
 62
     6
 10
278.013859
 20
101.147928
 11
278.135138
 21
101.232155
  0
LINE
  8
CSLAYER1
  6
CONTINUOUS
 62
     6
 10
278.135138
 20
101.232155
 11
278.257023
 21
101.315366
  0
LINE
  8
CSLAYER1
  6
CONTINUOUS
 62
     6
 10
278.257023
 20
101.315366
 11
278.379666
 21
101.397308
  0
LINE
  8
CSLAYER1
  6
CONTINUOUS
 62
     6
 10
278.379666
 20
101.397308
 11
278.503219
 21
101.477728
  0
LINE
  8
CSLAYER1
  6
CONTINUOUS
 62
     6
 10
278.503219
 20
101.477728
 11
278.627832
 21
101.556372
  0
LINE
  8
CSLAYER1
  6
CONTINUOUS
 62
     6
 10
278.627832
 20
101.556372
 11
278.753657
 21
101.632985
  0
LINE
  8
CSLAYER1
  6
CONTINUOUS
 62
     6
 10
278.753657
 20
101.632985
 11
278.880847
 21
101.707315
  0
LINE
  8
CSLAYER1
  6
CONTINUOUS
 62
     6
 10
278.880847
 20
101.707315
 11
279.009551
 21
101.779108
  0
LINE
  8
CSLAYER1
  6
CONTINUOUS
 62
     6
 10
279.009551
 20
101.779108
 11
279.165649
 21
101.861563
  0
LINE
  8
CSLAYER1
  6
CONTINUOUS
 62
     6
 10
279.165649
 20
101.861563
 11
279.325521
 21
101.941145
  0
LINE
  8
CSLAYER1
  6
CONTINUOUS
 62
     6
 10
279.325521
 20
101.941145
 11
279.488451
 21
102.017401
  0
LINE
  8
CSLAYER1
  6
CONTINUOUS
 62
     6
 10
279.488451
 20
102.017401
 11
279.653720
 21
102.089880
  0
LINE
  8
CSLAYER1
  6
CONTINUOUS
 62
     6
 10
279.653720
 20
102.089880
 11
279.820609
 21
102.158129
  0
LINE
  8
CSLAYER1
  6
CONTINUOUS
 62
     6
 10
279.820609
 20
102.158129
 11
279.988401
 21
102.221696
  0
LINE
  8
CSLAYER1
  6
CONTINUOUS
 62
     6
 10
279.988401
 20
102.221696
 11
280.156377
 21
102.280129
  0
LINE
  8
CSLAYER1
  6
CONTINUOUS
 62
     6
 10
280.156377
 20
102.280129
 11
280.323820
 21
102.332976
  0
LINE
  8
CSLAYER1
  6
CONTINUOUS
 62
     6
 10
280.323820
 20
102.332976
 11
280.490010
 21
102.379785
  0
ARC
  8
CSLAYER1
  6
CONTINUOUS
 62
     6
 10
287.489840
 20
105.502720
 40
6.750000
 50
-154.073524
 51
148.329015
  0
LINE
  8
CSLAYER1
  6
CONTINUOUS
 62
     6
 10
280.489862
 20
109.131117
 11
280.489862
 21
121.502757
  0
ARC
  8
CSLAYER1
  6
CONTINUOUS
 62
     6
 10
282.489862
 20
121.502757
 40
2.000000
 50
90.000000
 51
180.000000
  0
ARC
  8
CSLAYER1
  6
CONTINUOUS
 62
     6
 10
293.489858
 20
120.502770
 40
1.527778
 50
163.398416
 51
196.601577
  0
LINE
  8
CSLAYER1
  6
CONTINUOUS
 62
     6
 10
292.025773
 20
120.066256
 11
292.616832
 21
120.066256
  0
ARC
  8
CSLAYER1
  6
CONTINUOUS
 62
     6
 10
292.616832
 20
119.629766
 40
0.436508
 50
0.000005
 51
89.942654
  0
LINE
  8
CSLAYER1
  6
CONTINUOUS
 62
     6
 10
293.053345
 20
119.629766
 11
293.053345
 21
119.038662
  0
ARC
  8
CSLAYER1
  6
CONTINUOUS
 62
     6
 10
293.489858
 20
120.502770
 40
1.527778
 50
253.398422
 51
286.601583
  0
LINE
  8
CSLAYER1
  6
CONTINUOUS
 62
     6
 10
293.926372
 20
119.038662
 11
293.926372
 21
119.629766
  0
ARC
  8
CSLAYER1
  6
CONTINUOUS
 62
     6
 10
294.362885
 20
119.629766
 40
0.436508
 50
90.000001
 51
179.942691
  0
LINE
  8
CSLAYER1
  6
CONTINUOUS
 62
     6
 10
294.362885
 20
120.066256
 11
294.953944
 21
120.066256
  0
ARC
  8
CSLAYER1
  6
CONTINUOUS
 62
     6
 10
293.489858
 20
120.502770
 40
1.527778
 50
-16.601562
 51
16.601572
  0
LINE
  8
CSLAYER1
  6
CONTINUOUS
 62
     6
 10
294.953944
 20
120.939283
 11
294.362885
 21
120.939283
  0
ARC
  8
CSLAYER1
  6
CONTINUOUS
 62
     6
 10
294.362885
 20
121.375774
 40
0.436508
 50
180.000010
 51
270.000016
  0
LINE
  8
CSLAYER1
  6
CONTINUOUS
 62
     6
 10
293.926372
 20
121.375774
 11
293.926372
 21
121.966878
  0
ARC
  8
CSLAYER1
  6
CONTINUOUS
 62
     6
 10
293.489858
 20
120.502770
 40
1.527778
 50
73.398406
 51
106.601595
  0
LINE
  8
CSLAYER1
  6
CONTINUOUS
 62
     6
 10
293.053345
 20
121.966878
 11
293.053345
 21
121.375774
  0
ARC
  8
CSLAYER1
  6
CONTINUOUS
 62
     6
 10
292.616832
 20
121.375774
 40
0.436508
 50
-89.999984
 51
0.000005
  0
LINE
  8
CSLAYER1
  6
CONTINUOUS
 62
     6
 10
292.616832
 20
120.939283
 11
292.025773
 21
120.939283
  0
CIRCLE
  8
CSLAYER1
  6
CONTINUOUS
 62
     6
 10
293.489868
 20
120.502769
 40
2.750000
  0
ARC
  8
CSLAYER1
  6
CONTINUOUS
 62
     6
 10
287.489840
 20
105.502720
 40
4.000000
 50
-129.735526
 51
128.465835
  0
ARC
  8
CSLAYER1
  6
CONTINUOUS
 62
     6
 10
287.489840
 20
105.502720
 40
4.000000
 50
176.007555
 51
178.572301
  0
ARC
  8
CSLAYER1
  6
CONTINUOUS
 62
     6
 10
287.489840
 20
105.502720
 40
6.750000
 50
174.942367
 51
179.961149
  0
LINE
  8
CSLAYER1
  6
CONTINUOUS
 62
     6
 10
280.489833
 20
105.502700
 11
280.489891
 21
106.104052
  0
LINE
  8
CSLAYER1
  6
CONTINUOUS
 62
     6
 10
280.489862
 20
106.105387
 11
280.489862
 21
105.467775
  0
ARC
  8
CSLAYER1
  6
CONTINUOUS
 62
     6
 10
272.804536
 20
104.067062
 40
1.499998
 50
2.735346
 51
62.735346
  0
ARC
  8
CSLAYER1
  6
CONTINUOUS
 62
     6
 10
274.178838
 20
106.733759
 40
1.499998
 50
182.735346
 51
242.735346
  0
ARC
  8
CSLAYER1
  6
CONTINUOUS
 62
     6
 10
271.993398
 20
105.328827
 40
1.499998
 50
2.735346
 51
62.735346
  0
LINE
  8
CSLAYER1
  6
CONTINUOUS
 62
     6
 10
274.176640
 20
104.077329
 11
274.302774
 21
104.138595
  0
LINE
  8
CSLAYER1
  6
CONTINUOUS
 62
     6
 10
274.176640
 20
104.077329
 11
274.045683
 21
104.008049
  0
LINE
  8
CSLAYER1
  6
CONTINUOUS
 62
     6
 10
274.045683
 20
104.008049
 11
273.911152
 21
103.931874
  0
LINE
  8
CSLAYER1
  6
CONTINUOUS
 62
     6
 10
273.911152
 20
103.931874
 11
273.774293
 21
103.849922
  0
LINE
  8
CSLAYER1
  6
CONTINUOUS
 62
     6
 10
273.774293
 20
103.849922
 11
273.636352
 21
103.763312
  0
LINE
  8
CSLAYER1
  6
CONTINUOUS
 62
     6
 10
273.636352
 20
103.763312
 11
273.498577
 21
103.673162
  0
LINE
  8
CSLAYER1
  6
CONTINUOUS
 62
     6
 10
273.498577
 20
103.673162
 11
273.362213
 21
103.580591
  0
LINE
  8
CSLAYER1
  6
CONTINUOUS
 62
     6
 10
273.362213
 20
103.580591
 11
273.228508
 21
103.486719
  0
LINE
  8
CSLAYER1
  6
CONTINUOUS
 62
     6
 10
273.228508
 20
103.486719
 11
273.098709
 21
103.392662
  0
LINE
  8
CSLAYER1
  6
CONTINUOUS
 62
     6
 10
273.098709
 20
103.392662
 11
272.974061
 21
103.299541
  0
LINE
  8
CSLAYER1
  6
CONTINUOUS
 62
     6
 10
272.974061
 20
103.299541
 11
272.855813
 21
103.208474
  0
LINE
  8
CSLAYER1
  6
CONTINUOUS
 62
     6
 10
272.855813
 20
103.208474
 11
272.763631
 21
103.133322
  0
LINE
  8
CSLAYER1
  6
CONTINUOUS
 62
     6
 10
272.763631
 20
103.133322
 11
272.672221
 21
103.052924
  0
LINE
  8
CSLAYER1
  6
CONTINUOUS
 62
     6
 10
272.672221
 20
103.052924
 11
272.581806
 21
102.967820
  0
LINE
  8
CSLAYER1
  6
CONTINUOUS
 62
     6
 10
272.581806
 20
102.967820
 11
272.492608
 21
102.878552
  0
LINE
  8
CSLAYER1
  6
CONTINUOUS
 62
     6
 10
272.492608
 20
102.878552
 11
272.404852
 21
102.785662
  0
LINE
  8
CSLAYER1
  6
CONTINUOUS
 62
     6
 10
272.404852
 20
102.785662
 11
272.318760
 21
102.689690
  0
LINE
  8
CSLAYER1
  6
CONTINUOUS
 62
     6
 10
272.318760
 20
102.689690
 11
272.234556
 21
102.591177
  0
LINE
  8
CSLAYER1
  6
CONTINUOUS
 62
     6
 10
272.234556
 20
102.591177
 11
272.152463
 21
102.490666
  0
LINE
  8
CSLAYER1
  6
CONTINUOUS
 62
     6
 10
272.152463
 20
102.490666
 11
272.072704
 21
102.388696
  0
LINE
  8
CSLAYER1
  6
CONTINUOUS
 62
     6
 10
272.072704
 20
102.388696
 11
271.995503
 21
102.285810
  0
LINE
  8
CSLAYER1
  6
CONTINUOUS
 62
     6
 10
271.995503
 20
102.285810
 11
271.921082
 21
102.182548
  0
LINE
  8
CSLAYER1
  6
CONTINUOUS
 62
     6
 10
271.921082
 20
102.182548
 11
271.827415
 21
102.046203
  0
LINE
  8
CSLAYER1
  6
CONTINUOUS
 62
     6
 10
271.827415
 20
102.046203
 11
271.737238
 21
101.907746
  0
LINE
  8
CSLAYER1
  6
CONTINUOUS
 62
     6
 10
271.737238
 20
101.907746
 11
271.650203
 21
101.767389
  0
LINE
  8
CSLAYER1
  6
CONTINUOUS
 62
     6
 10
271.650203
 20
101.767389
 11
271.565961
 21
101.625343
  0
LINE
  8
CSLAYER1
  6
CONTINUOUS
 62
     6
 10
271.565961
 20
101.625343
 11
271.484161
 21
101.481819
  0
LINE
  8
CSLAYER1
  6
CONTINUOUS
 62
     6
 10
271.484161
 20
101.481819
 11
271.404456
 21
101.337028
  0
LINE
  8
CSLAYER1
  6
CONTINUOUS
 62
     6
 10
271.404456
 20
101.337028
 11
271.326496
 21
101.191182
  0
LINE
  8
CSLAYER1
  6
CONTINUOUS
 62
     6
 10
271.326496
 20
101.191182
 11
271.249933
 21
101.044491
  0
LINE
  8
CSLAYER1
  6
CONTINUOUS
 62
     6
 10
271.249933
 20
101.044491
 11
271.174416
 21
100.897167
  0
LINE
  8
CSLAYER1
  6
CONTINUOUS
 62
     6
 10
271.174416
 20
100.897167
 11
271.099598
 21
100.749421
  0
LINE
  8
CSLAYER1
  6
CONTINUOUS
 62
     6
 10
271.099598
 20
100.749421
 11
271.025129
 21
100.601464
  0
ARC
  8
CSLAYER1
  6
CONTINUOUS
 62
     6
 10
271.013058
 20
102.101459
 40
1.499998
 50
210.461270
 51
270.461270
  0
ARC
  8
CSLAYER1
  6
CONTINUOUS
 62
     6
 10
269.732177
 20
99.841076
 40
1.499998
 50
30.461270
 51
90.461270
  0
LINE
  8
CSLAYER1
  6
CONTINUOUS
 62
     6
 10
270.151922
 20
100.937928
 11
269.259458
 21
97.655859
  0
LINE
  8
CSLAYER1
  6
CONTINUOUS
 62
     6
 10
268.395770
 20
97.943744
 11
269.489788
 21
101.139496
  0
ARC
  8
CSLAYER1
  6
CONTINUOUS
 62
     6
 10
269.708026
 20
102.840975
 40
1.499998
 50
210.461270
 51
270.461270
  0
LINE
  8
CSLAYER1
  6
CONTINUOUS
 62
     6
 10
268.415045
 20
102.080538
 11
268.504349
 21
102.255111
  0
LINE
  8
CSLAYER1
  6
CONTINUOUS
 62
     6
 10
268.504349
 20
102.255111
 11
268.594015
 21
102.429474
  0
LINE
  8
CSLAYER1
  6
CONTINUOUS
 62
     6
 10
268.594015
 20
102.429474
 11
268.684404
 21
102.603412
  0
LINE
  8
CSLAYER1
  6
CONTINUOUS
 62
     6
 10
268.684404
 20
102.603412
 11
268.775877
 21
102.776716
  0
LINE
  8
CSLAYER1
  6
CONTINUOUS
 62
     6
 10
268.775877
 20
102.776716
 11
268.868795
 21
102.949172
  0
LINE
  8
CSLAYER1
  6
CONTINUOUS
 62
     6
 10
268.868795
 20
102.949172
 11
268.963520
 21
103.120570
  0
LINE
  8
CSLAYER1
  6
CONTINUOUS
 62
     6
 10
268.963520
 20
103.120570
 11
269.060413
 21
103.290697
  0
LINE
  8
CSLAYER1
  6
CONTINUOUS
 62
     6
 10
269.060413
 20
103.290697
 11
269.159836
 21
103.459341
  0
LINE
  8
CSLAYER1
  6
CONTINUOUS
 62
     6
 10
269.159836
 20
103.459341
 11
269.262150
 21
103.626292
  0
LINE
  8
CSLAYER1
  6
CONTINUOUS
 62
     6
 10
269.262150
 20
103.626292
 11
269.367716
 21
103.791337
  0
LINE
  8
CSLAYER1
  6
CONTINUOUS
 62
     6
 10
269.367716
 20
103.791337
 11
269.476896
 21
103.954265
  0
LINE
  8
CSLAYER1
  6
CONTINUOUS
 62
     6
 10
269.476896
 20
103.954265
 11
269.588596
 21
104.113252
  0
LINE
  8
CSLAYER1
  6
CONTINUOUS
 62
     6
 10
269.588596
 20
104.113252
 11
269.704987
 21
104.271500
  0
LINE
  8
CSLAYER1
  6
CONTINUOUS
 62
     6
 10
269.704987
 20
104.271500
 11
269.825700
 21
104.428143
  0
LINE
  8
CSLAYER1
  6
CONTINUOUS
 62
     6
 10
269.825700
 20
104.428143
 11
269.950368
 21
104.582314
  0
LINE
  8
CSLAYER1
  6
CONTINUOUS
 62
     6
 10
269.950368
 20
104.582314
 11
270.078622
 21
104.733144
  0
LINE
  8
CSLAYER1
  6
CONTINUOUS
 62
     6
 10
270.078622
 20
104.733144
 11
270.210096
 21
104.879767
  0
LINE
  8
CSLAYER1
  6
CONTINUOUS
 62
     6
 10
270.210096
 20
104.879767
 11
270.344421
 21
105.021316
  0
LINE
  8
CSLAYER1
  6
CONTINUOUS
 62
     6
 10
270.344421
 20
105.021316
 11
270.481229
 21
105.156923
  0
LINE
  8
CSLAYER1
  6
CONTINUOUS
 62
     6
 10
270.481229
 20
105.156923
 11
270.620152
 21
105.285722
  0
LINE
  8
CSLAYER1
  6
CONTINUOUS
 62
     6
 10
270.620152
 20
105.285722
 11
270.760823
 21
105.406846
  0
LINE
  8
CSLAYER1
  6
CONTINUOUS
 62
     6
 10
270.760823
 20
105.406846
 11
270.902873
 21
105.519427
  0
LINE
  8
CSLAYER1
  6
CONTINUOUS
 62
     6
 10
270.902873
 20
105.519427
 11
271.049323
 21
105.629133
  0
LINE
  8
CSLAYER1
  6
CONTINUOUS
 62
     6
 10
271.049323
 20
105.629133
 11
271.203048
 21
105.741728
  0
LINE
  8
CSLAYER1
  6
CONTINUOUS
 62
     6
 10
271.203048
 20
105.741728
 11
271.362631
 21
105.855860
  0
LINE
  8
CSLAYER1
  6
CONTINUOUS
 62
     6
 10
271.362631
 20
105.855860
 11
271.526660
 21
105.970180
  0
LINE
  8
CSLAYER1
  6
CONTINUOUS
 62
     6
 10
271.526660
 20
105.970180
 11
271.693718
 21
106.083337
  0
LINE
  8
CSLAYER1
  6
CONTINUOUS
 62
     6
 10
271.693718
 20
106.083337
 11
271.862391
 21
106.193981
  0
LINE
  8
CSLAYER1
  6
CONTINUOUS
 62
     6
 10
271.862391
 20
106.193981
 11
272.031264
 21
106.300761
  0
LINE
  8
CSLAYER1
  6
CONTINUOUS
 62
     6
 10
272.031264
 20
106.300761
 11
272.198924
 21
106.402326
  0
LINE
  8
CSLAYER1
  6
CONTINUOUS
 62
     6
 10
272.198924
 20
106.402326
 11
272.363955
 21
106.497328
  0
LINE
  8
CSLAYER1
  6
CONTINUOUS
 62
     6
 10
272.363955
 20
106.497328
 11
272.524942
 21
106.584414
  0
LINE
  8
CSLAYER1
  6
CONTINUOUS
 62
     6
 10
272.524942
 20
106.584414
 11
272.680471
 21
106.662235
  0
LINE
  8
CSLAYER1
  6
CONTINUOUS
 62
     6
 10
273.925177
 20
101.704192
 11
273.822976
 21
101.614953
  0
LINE
  8
CSLAYER1
  6
CONTINUOUS
 62
     6
 10
273.822976
 20
101.614953
 11
273.718801
 21
101.517860
  0
LINE
  8
CSLAYER1
  6
CONTINUOUS
 62
     6
 10
273.718801
 20
101.517860
 11
273.613576
 21
101.414115
  0
LINE
  8
CSLAYER1
  6
CONTINUOUS
 62
     6
 10
273.613576
 20
101.414115
 11
273.508226
 21
101.304918
  0
LINE
  8
CSLAYER1
  6
CONTINUOUS
 62
     6
 10
273.508226
 20
101.304918
 11
273.403675
 21
101.191470
  0
LINE
  8
CSLAYER1
  6
CONTINUOUS
 62
     6
 10
273.403675
 20
101.191470
 11
273.300846
 21
101.074973
  0
LINE
  8
CSLAYER1
  6
CONTINUOUS
 62
     6
 10
273.300846
 20
101.074973
 11
273.200663
 21
100.956627
  0
LINE
  8
CSLAYER1
  6
CONTINUOUS
 62
     6
 10
273.200663
 20
100.956627
 11
273.104050
 21
100.837634
  0
LINE
  8
CSLAYER1
  6
CONTINUOUS
 62
     6
 10
273.104050
 20
100.837634
 11
273.011932
 21
100.719194
  0
LINE
  8
CSLAYER1
  6
CONTINUOUS
 62
     6
 10
273.011932
 20
100.719194
 11
272.925233
 21
100.602510
  0
LINE
  8
CSLAYER1
  6
CONTINUOUS
 62
     6
 10
272.925233
 20
100.602510
 11
272.844876
 21
100.488780
  0
LINE
  8
CSLAYER1
  6
CONTINUOUS
 62
     6
 10
272.844876
 20
100.488780
 11
272.763559
 21
100.363294
  0
LINE
  8
CSLAYER1
  6
CONTINUOUS
 62
     6
 10
272.763559
 20
100.363294
 11
272.686529
 21
100.230595
  0
LINE
  8
CSLAYER1
  6
CONTINUOUS
 62
     6
 10
272.686529
 20
100.230595
 11
272.613509
 21
100.091630
  0
LINE
  8
CSLAYER1
  6
CONTINUOUS
 62
     6
 10
272.613509
 20
100.091630
 11
272.544218
 21
99.947347
  0
LINE
  8
CSLAYER1
  6
CONTINUOUS
 62
     6
 10
272.544218
 20
99.947347
 11
272.478377
 21
99.798693
  0
LINE
  8
CSLAYER1
  6
CONTINUOUS
 62
     6
 10
272.478377
 20
99.798693
 11
272.415709
 21
99.646615
  0
LINE
  8
CSLAYER1
  6
CONTINUOUS
 62
     6
 10
272.415709
 20
99.646615
 11
272.355933
 21
99.492060
  0
LINE
  8
CSLAYER1
  6
CONTINUOUS
 62
     6
 10
272.355933
 20
99.492060
 11
272.298770
 21
99.335976
  0
LINE
  8
CSLAYER1
  6
CONTINUOUS
 62
     6
 10
272.298770
 20
99.335976
 11
272.243942
 21
99.179310
  0
LINE
  8
CSLAYER1
  6
CONTINUOUS
 62
     6
 10
272.243942
 20
99.179310
 11
272.191170
 21
99.023009
  0
LINE
  8
CSLAYER1
  6
CONTINUOUS
 62
     6
 10
272.191170
 20
99.023009
 11
272.140174
 21
98.868021
  0
LINE
  8
CSLAYER1
  6
CONTINUOUS
 62
     6
 10
272.140174
 20
98.868021
 11
272.093667
 21
98.724273
  0
LINE
  8
CSLAYER1
  6
CONTINUOUS
 62
     6
 10
272.093667
 20
98.724273
 11
272.047844
 21
98.580630
  0
LINE
  8
CSLAYER1
  6
CONTINUOUS
 62
     6
 10
272.047844
 20
98.580630
 11
272.002635
 21
98.437082
  0
LINE
  8
CSLAYER1
  6
CONTINUOUS
 62
     6
 10
272.002635
 20
98.437082
 11
271.957974
 21
98.293618
  0
LINE
  8
CSLAYER1
  6
CONTINUOUS
 62
     6
 10
271.957974
 20
98.293618
 11
271.913791
 21
98.150228
  0
LINE
  8
CSLAYER1
  6
CONTINUOUS
 62
     6
 10
271.913791
 20
98.150228
 11
271.870018
 21
98.006901
  0
LINE
  8
CSLAYER1
  6
CONTINUOUS
 62
     6
 10
271.870018
 20
98.006901
 11
271.826587
 21
97.863626
  0
LINE
  8
CSLAYER1
  6
CONTINUOUS
 62
     6
 10
271.826587
 20
97.863626
 11
271.783429
 21
97.720393
  0
LINE
  8
CSLAYER1
  6
CONTINUOUS
 62
     6
 10
271.783429
 20
97.720393
 11
271.740477
 21
97.577192
  0
LINE
  8
CSLAYER1
  6
CONTINUOUS
 62
     6
 10
271.740477
 20
97.577192
 11
271.697661
 21
97.434011
  0
LINE
  8
CSLAYER1
  6
CONTINUOUS
 62
     6
 10
271.697661
 20
97.434011
 11
271.654914
 21
97.290841
  0
ARC
  8
CSLAYER1
  6
CONTINUOUS
 62
     6
 10
272.753775
 20
98.311902
 40
1.500000
 50
222.897147
 51
282.897147
  0
ARC
  8
CSLAYER1
  6
CONTINUOUS
 62
     6
 10
274.187442
 20
97.870771
 40
1.500000
 50
222.897147
 51
282.897147
  0
ARC
  8
CSLAYER1
  6
CONTINUOUS
 62
     6
 10
273.423380
 20
95.387586
 40
1.500000
 50
42.897147
 51
102.897147
  0
LINE
  8
CSLAYER1
  6
CONTINUOUS
 62
     6
 10
273.002208
 20
96.878533
 11
272.196082
 21
93.797943
  0
LINE
  8
CSLAYER1
  6
CONTINUOUS
 62
     6
 10
271.476316
 20
94.316222
 11
272.282421
 21
96.734604
  0
LINE
  8
CSLAYER1
  6
CONTINUOUS
 62
     6
 10
273.721952
 20
96.360329
 11
273.059774
 21
93.423689
  0
LINE
  8
CSLAYER1
  6
CONTINUOUS
 62
     6
 10
274.522211
 20
96.408596
 11
274.560279
 21
96.537285
  0
LINE
  8
CSLAYER1
  6
CONTINUOUS
 62
     6
 10
274.560279
 20
96.537285
 11
274.598425
 21
96.665980
  0
LINE
  8
CSLAYER1
  6
CONTINUOUS
 62
     6
 10
274.598425
 20
96.665980
 11
274.636728
 21
96.794688
  0
LINE
  8
CSLAYER1
  6
CONTINUOUS
 62
     6
 10
274.636728
 20
96.794688
 11
274.675266
 21
96.923415
  0
LINE
  8
CSLAYER1
  6
CONTINUOUS
 62
     6
 10
274.675266
 20
96.923415
 11
274.714118
 21
97.052168
  0
LINE
  8
CSLAYER1
  6
CONTINUOUS
 62
     6
 10
274.714118
 20
97.052168
 11
274.753362
 21
97.180954
  0
LINE
  8
CSLAYER1
  6
CONTINUOUS
 62
     6
 10
274.753362
 20
97.180954
 11
274.793076
 21
97.309778
  0
LINE
  8
CSLAYER1
  6
CONTINUOUS
 62
     6
 10
274.793076
 20
97.309778
 11
274.833339
 21
97.438647
  0
LINE
  8
CSLAYER1
  6
CONTINUOUS
 62
     6
 10
274.833339
 20
97.438647
 11
274.874230
 21
97.567568
  0
LINE
  8
CSLAYER1
  6
CONTINUOUS
 62
     6
 10
274.874230
 20
97.567568
 11
274.915826
 21
97.696547
  0
LINE
  8
CSLAYER1
  6
CONTINUOUS
 62
     6
 10
274.915826
 20
97.696547
 11
274.958206
 21
97.825591
  0
LINE
  8
CSLAYER1
  6
CONTINUOUS
 62
     6
 10
274.958206
 20
97.825591
 11
274.991018
 21
97.923712
  0
LINE
  8
CSLAYER1
  6
CONTINUOUS
 62
     6
 10
274.991018
 20
97.923712
 11
275.024857
 21
98.022529
  0
LINE
  8
CSLAYER1
  6
CONTINUOUS
 62
     6
 10
275.024857
 20
98.022529
 11
275.059902
 21
98.121497
  0
LINE
  8
CSLAYER1
  6
CONTINUOUS
 62
     6
 10
275.059902
 20
98.121497
 11
275.096331
 21
98.220074
  0
LINE
  8
CSLAYER1
  6
CONTINUOUS
 62
     6
 10
275.096331
 20
98.220074
 11
275.134324
 21
98.317717
  0
LINE
  8
CSLAYER1
  6
CONTINUOUS
 62
     6
 10
275.134324
 20
98.317717
 11
275.174060
 21
98.413883
  0
LINE
  8
CSLAYER1
  6
CONTINUOUS
 62
     6
 10
275.174060
 20
98.413883
 11
275.215719
 21
98.508029
  0
LINE
  8
CSLAYER1
  6
CONTINUOUS
 62
     6
 10
275.215719
 20
98.508029
 11
275.259479
 21
98.599612
  0
LINE
  8
CSLAYER1
  6
CONTINUOUS
 62
     6
 10
275.259479
 20
98.599612
 11
275.305520
 21
98.688089
  0
LINE
  8
CSLAYER1
  6
CONTINUOUS
 62
     6
 10
275.305520
 20
98.688089
 11
275.354021
 21
98.772917
  0
LINE
  8
CSLAYER1
  6
CONTINUOUS
 62
     6
 10
275.354021
 20
98.772917
 11
275.405162
 21
98.853553
  0
LINE
  8
CSLAYER1
  6
CONTINUOUS
 62
     6
 10
275.405162
 20
98.853553
 11
275.461454
 21
98.934932
  0
LINE
  8
CSLAYER1
  6
CONTINUOUS
 62
     6
 10
275.461454
 20
98.934932
 11
275.522362
 21
99.018106
  0
LINE
  8
CSLAYER1
  6
CONTINUOUS
 62
     6
 10
275.522362
 20
99.018106
 11
275.587216
 21
99.102247
  0
LINE
  8
CSLAYER1
  6
CONTINUOUS
 62
     6
 10
275.587216
 20
99.102247
 11
275.655344
 21
99.186529
  0
LINE
  8
CSLAYER1
  6
CONTINUOUS
 62
     6
 10
275.655344
 20
99.186529
 11
275.726073
 21
99.270127
  0
LINE
  8
CSLAYER1
  6
CONTINUOUS
 62
     6
 10
275.726073
 20
99.270127
 11
275.798733
 21
99.352214
  0
LINE
  8
CSLAYER1
  6
CONTINUOUS
 62
     6
 10
275.798733
 20
99.352214
 11
275.872650
 21
99.431965
  0
LINE
  8
CSLAYER1
  6
CONTINUOUS
 62
     6
 10
275.872650
 20
99.431965
 11
275.947155
 21
99.508553
  0
LINE
  8
CSLAYER1
  6
CONTINUOUS
 62
     6
 10
275.947155
 20
99.508553
 11
276.021574
 21
99.581152
  0
LINE
  8
CSLAYER1
  6
CONTINUOUS
 62
     6
 10
276.021574
 20
99.581152
 11
276.095237
 21
99.648937
  0
LINE
  8
CSLAYER1
  6
CONTINUOUS
 62
     6
 10
276.095237
 20
99.648937
 11
276.167471
 21
99.711081
  0
ARC
  8
CSLAYER1
  6
CONTINUOUS
 62
     6
 10
274.743811
 20
99.238403
 40
1.500000
 50
18.366208
 51
78.366208
  0
ARC
  8
CSLAYER1
  6
CONTINUOUS
 62
     6
 10
275.348778
 20
102.176772
 40
1.500000
 50
198.366208
 51
258.366208
  0
ARC
  8
CSLAYER1
  6
CONTINUOUS
 62
     6
 10
273.622702
 20
100.234953
 40
1.500000
 50
18.366208
 51
78.366208
  0
LINE
  8
CSLAYER1
  6
CONTINUOUS
 62
     6
 10
268.942731
 20
101.600150
 11
267.503237
 21
98.490764
  0
ARC
  8
CSLAYER1
  6
CONTINUOUS
 62
     6
 10
293.489858
 20
90.502745
 40
1.527778
 50
163.398423
 51
196.601584
  0
LINE
  8
CSLAYER1
  6
CONTINUOUS
 62
     6
 10
292.025773
 20
90.066232
 11
292.616832
 21
90.066232
  0
ARC
  8
CSLAYER1
  6
CONTINUOUS
 62
     6
 10
292.616832
 20
89.629741
 40
0.436508
 50
-0.000005
 51
89.999984
  0
LINE
  8
CSLAYER1
  6
CONTINUOUS
 62
     6
 10
293.053345
 20
89.629741
 11
293.053345
 21
89.038637
  0
ARC
  8
CSLAYER1
  6
CONTINUOUS
 62
     6
 10
293.489858
 20
90.502745
 40
1.527778
 50
253.398405
 51
286.601594
  0
LINE
  8
CSLAYER1
  6
CONTINUOUS
 62
     6
 10
293.926372
 20
89.038637
 11
293.926372
 21
89.629741
  0
ARC
  8
CSLAYER1
  6
CONTINUOUS
 62
     6
 10
294.362885
 20
89.629741
 40
0.436508
 50
89.999984
 51
179.999990
  0
LINE
  8
CSLAYER1
  6
CONTINUOUS
 62
     6
 10
294.362885
 20
90.066232
 11
294.953944
 21
90.066232
  0
ARC
  8
CSLAYER1
  6
CONTINUOUS
 62
     6
 10
293.489858
 20
90.502745
 40
1.527778
 50
-16.601572
 51
16.601562
  0
LINE
  8
CSLAYER1
  6
CONTINUOUS
 62
     6
 10
294.953944
 20
90.939258
 11
294.362885
 21
90.939258
  0
ARC
  8
CSLAYER1
  6
CONTINUOUS
 62
     6
 10
294.362885
 20
91.375749
 40
0.436508
 50
180.057309
 51
269.999999
  0
LINE
  8
CSLAYER1
  6
CONTINUOUS
 62
     6
 10
293.926372
 20
91.375749
 11
293.926372
 21
91.966853
  0
ARC
  8
CSLAYER1
  6
CONTINUOUS
 62
     6
 10
293.489858
 20
90.502745
 40
1.527778
 50
73.398417
 51
106.601578
  0
LINE
  8
CSLAYER1
  6
CONTINUOUS
 62
     6
 10
293.053345
 20
91.966853
 11
293.053345
 21
91.375749
  0
ARC
  8
CSLAYER1
  6
CONTINUOUS
 62
     6
 10
292.616832
 20
91.375749
 40
0.436508
 50
270.057346
 51
359.999995
  0
LINE
  8
CSLAYER1
  6
CONTINUOUS
 62
     6
 10
292.616832
 20
90.939258
 11
292.025773
 21
90.939258
  0
CIRCLE
  8
CSLAYER1
  6
CONTINUOUS
 62
     6
 10
293.489868
 20
90.502746
 40
2.750000
  0
LINE
  8
CSLAYER1
  6
CONTINUOUS
 62
     6
 10
282.175836
 20
69.109554
 11
314.132928
 21
69.109554
  0
ARC
  8
CSLAYER1
  6
CONTINUOUS
 62
     6
 10
319.276117
 20
67.931148
 40
1.000000
 50
90.000009
 51
173.999984
  0
LINE
  8
CSLAYER1
  6
CONTINUOUS
 62
     6
 10
318.281610
 20
68.035701
 11
317.583978
 21
61.398189
  0
ARC
  8
CSLAYER1
  6
CONTINUOUS
 62
     6
 10
316.589410
 20
61.502742
 40
1.000000
 50
270.000001
 51
354.000017
  0
LINE
  8
CSLAYER1
  6
CONTINUOUS
 62
     6
 10
316.589410
 20
60.502742
 11
280.390252
 21
60.502742
  0
ARC
  8
CSLAYER1
  6
CONTINUOUS
 62
     6
 10
280.390252
 20
61.502742
 40
1.000000
 50
186.000012
 51
270.000001
  0
LINE
  8
CSLAYER1
  6
CONTINUOUS
 62
     6
 10
279.395746
 20
61.398189
 11
278.698114
 21
68.035701
  0
ARC
  8
CSLAYER1
  6
CONTINUOUS
 62
     6
 10
277.703546
 20
67.931148
 40
1.000000
 50
6.000021
 51
90.000009
  0
ARC
  8
CSLAYER1
  6
CONTINUOUS
 62
     6
 10
277.753229
 20
63.458919
 40
1.000000
 50
6.000021
 51
90.000009
  0
LINE
  8
CSLAYER1
  6
CONTINUOUS
 62
     6
 10
278.747735
 20
63.563472
 11
279.395746
 21
57.398189
  0
ARC
  8
CSLAYER1
  6
CONTINUOUS
 62
     6
 10
280.390252
 20
57.502742
 40
1.000000
 50
186.000012
 51
270.000001
  0
LINE
  8
CSLAYER1
  6
CONTINUOUS
 62
     6
 10
280.390252
 20
56.502742
 11
316.589410
 21
56.502742
  0
ARC
  8
CSLAYER1
  6
CONTINUOUS
 62
     6
 10
316.589410
 20
57.502742
 40
1.000000
 50
270.000001
 51
354.000017
  0
LINE
  8
CSLAYER1
  6
CONTINUOUS
 62
     6
 10
317.583978
 20
57.398189
 11
318.231927
 21
63.563472
  0
ARC
  8
CSLAYER1
  6
CONTINUOUS
 62
     6
 10
319.226495
 20
63.458919
 40
1.000000
 50
90.000009
 51
173.999984
  0
LINE
  8
CSLAYER1
  6
CONTINUOUS
 62
     6
 10
319.489862
 20
61.502742
 11
318.014825
 21
61.502742
  0
LINE
  8
CSLAYER1
  6
CONTINUOUS
 62
     6
 10
278.964288
 20
61.502742
 11
267.489831
 21
61.502742
  0
LINE
  8
CSLAYER1
  6
CONTINUOUS
 62
     6
 10
267.489831
 20
61.502742
 11
266.489831
 21
62.502742
  0
LINE
  8
CSLAYER1
  6
CONTINUOUS
 62
     6
 10
266.489862
 20
62.502757
 11
266.489862
 21
148.502757
  0
LINE
  8
CSLAYER1
  6
CONTINUOUS
 62
     6
 10
266.489862
 20
148.502757
 11
267.489862
 21
149.502757
  0
LINE
  8
CSLAYER1
  6
CONTINUOUS
 62
     6
 10
267.489862
 20
149.502757
 11
267.489862
 21
61.502757
  0
LINE
  8
CSLAYER1
  6
CONTINUOUS
 62
     6
 10
267.489862
 20
61.502757
 11
266.489862
 21
62.502757
  0
LINE
  8
CSLAYER1
  6
CONTINUOUS
 62
     6
 10
266.489831
 20
148.502742
 11
267.489831
 21
149.502742
  0
LINE
  8
CSLAYER1
  6
CONTINUOUS
 62
     6
 10
267.489831
 20
149.502742
 11
278.964288
 21
149.502742
  0
LINE
  8
CSLAYER1
  6
CONTINUOUS
 62
     6
 10
318.014825
 20
149.502742
 11
319.489862
 21
149.502742
  0
LINE
  8
CSLAYER1
  6
CONTINUOUS
 62
     6
 10
278.452950
 20
242.346508
 11
280.703881
 21
244.785013
  0
LINE
  8
CSLAYER1
  6
CONTINUOUS
 62
     6
 10
280.694210
 20
244.802092
 11
280.737545
 21
244.725560
  0
LINE
  8
CSLAYER1
  6
CONTINUOUS
 62
     6
 10
280.737545
 20
244.725560
 11
280.783144
 21
244.650472
  0
LINE
  8
CSLAYER1
  6
CONTINUOUS
 62
     6
 10
280.783144
 20
244.650472
 11
280.830754
 21
244.576667
  0
LINE
  8
CSLAYER1
  6
CONTINUOUS
 62
     6
 10
280.830754
 20
244.576667
 11
280.880124
 21
244.503986
  0
LINE
  8
CSLAYER1
  6
CONTINUOUS
 62
     6
 10
280.880124
 20
244.503986
 11
280.931003
 21
244.432267
  0
LINE
  8
CSLAYER1
  6
CONTINUOUS
 62
     6
 10
280.931003
 20
244.432267
 11
280.983139
 21
244.361351
  0
LINE
  8
CSLAYER1
  6
CONTINUOUS
 62
     6
 10
280.983139
 20
244.361351
 11
281.036280
 21
244.291076
  0
LINE
  8
CSLAYER1
  6
CONTINUOUS
 62
     6
 10
281.036280
 20
244.291076
 11
281.090176
 21
244.221283
  0
LINE
  8
CSLAYER1
  6
CONTINUOUS
 62
     6
 10
281.090176
 20
244.221283
 11
281.144575
 21
244.151811
  0
LINE
  8
CSLAYER1
  6
CONTINUOUS
 62
     6
 10
281.144575
 20
244.151811
 11
281.196649
 21
244.085768
  0
LINE
  8
CSLAYER1
  6
CONTINUOUS
 62
     6
 10
281.196649
 20
244.085768
 11
281.323996
 21
244.195069
  0
LINE
  8
CSLAYER1
  6
CONTINUOUS
 62
     6
 10
281.323996
 20
244.195069
 11
281.460711
 21
244.313102
  0
LINE
  8
CSLAYER1
  6
CONTINUOUS
 62
     6
 10
281.460711
 20
244.313102
 11
281.596598
 21
244.431806
  0
LINE
  8
CSLAYER1
  6
CONTINUOUS
 62
     6
 10
281.596598
 20
244.431806
 11
281.731245
 21
244.551518
  0
LINE
  8
CSLAYER1
  6
CONTINUOUS
 62
     6
 10
281.731245
 20
244.551518
 11
281.864236
 21
244.672572
  0
LINE
  8
CSLAYER1
  6
CONTINUOUS
 62
     6
 10
281.864236
 20
244.672572
 11
281.995158
 21
244.795305
  0
LINE
  8
CSLAYER1
  6
CONTINUOUS
 62
     6
 10
281.995158
 20
244.795305
 11
282.123598
 21
244.920053
  0
LINE
  8
CSLAYER1
  6
CONTINUOUS
 62
     6
 10
282.123598
 20
244.920053
 11
282.249142
 21
245.047151
  0
LINE
  8
CSLAYER1
  6
CONTINUOUS
 62
     6
 10
282.249142
 20
245.047151
 11
282.371375
 21
245.176935
  0
LINE
  8
CSLAYER1
  6
CONTINUOUS
 62
     6
 10
282.371375
 20
245.176935
 11
282.489884
 21
245.309740
  0
LINE
  8
CSLAYER1
  6
CONTINUOUS
 62
     6
 10
282.489884
 20
245.309740
 11
282.604256
 21
245.445904
  0
LINE
  8
CSLAYER1
  6
CONTINUOUS
 62
     6
 10
282.604256
 20
245.445904
 11
282.740752
 21
245.620129
  0
LINE
  8
CSLAYER1
  6
CONTINUOUS
 62
     6
 10
282.740752
 20
245.620129
 11
282.873095
 21
245.800806
  0
LINE
  8
CSLAYER1
  6
CONTINUOUS
 62
     6
 10
282.873095
 20
245.800806
 11
283.001567
 21
245.986576
  0
LINE
  8
CSLAYER1
  6
CONTINUOUS
 62
     6
 10
283.001567
 20
245.986576
 11
283.126448
 21
246.176083
  0
LINE
  8
CSLAYER1
  6
CONTINUOUS
 62
     6
 10
283.126448
 20
246.176083
 11
283.248020
 21
246.367972
  0
LINE
  8
CSLAYER1
  6
CONTINUOUS
 62
     6
 10
283.248020
 20
246.367972
 11
283.366564
 21
246.560884
  0
LINE
  8
CSLAYER1
  6
CONTINUOUS
 62
     6
 10
283.366564
 20
246.560884
 11
283.482362
 21
246.753464
  0
LINE
  8
CSLAYER1
  6
CONTINUOUS
 62
     6
 10
283.482362
 20
246.753464
 11
283.595695
 21
246.944355
  0
LINE
  8
CSLAYER1
  6
CONTINUOUS
 62
     6
 10
283.595695
 20
246.944355
 11
283.706844
 21
247.132201
  0
LINE
  8
CSLAYER1
  6
CONTINUOUS
 62
     6
 10
283.706844
 20
247.132201
 11
283.816089
 21
247.315644
  0
LINE
  8
CSLAYER1
  6
CONTINUOUS
 62
     6
 10
283.816089
 20
247.315644
 11
283.923714
 21
247.493328
  0
LINE
  8
CSLAYER1
  6
CONTINUOUS
 62
     6
 10
283.923714
 20
247.493328
 11
284.029040
 21
247.659014
  0
LINE
  8
CSLAYER1
  6
CONTINUOUS
 62
     6
 10
284.029040
 20
247.659014
 11
284.143768
 21
247.828903
  0
LINE
  8
CSLAYER1
  6
CONTINUOUS
 62
     6
 10
284.143768
 20
247.828903
 11
284.266069
 21
248.001567
  0
LINE
  8
CSLAYER1
  6
CONTINUOUS
 62
     6
 10
284.266069
 20
248.001567
 11
284.394111
 21
248.175577
  0
LINE
  8
CSLAYER1
  6
CONTINUOUS
 62
     6
 10
284.394111
 20
248.175577
 11
284.526063
 21
248.349506
  0
LINE
  8
CSLAYER1
  6
CONTINUOUS
 62
     6
 10
284.526063
 20
248.349506
 11
284.660095
 21
248.521927
  0
LINE
  8
CSLAYER1
  6
CONTINUOUS
 62
     6
 10
284.660095
 20
248.521927
 11
284.794375
 21
248.691412
  0
LINE
  8
CSLAYER1
  6
CONTINUOUS
 62
     6
 10
284.794375
 20
248.691412
 11
284.927074
 21
248.856534
  0
LINE
  8
CSLAYER1
  6
CONTINUOUS
 62
     6
 10
284.927074
 20
248.856534
 11
285.056360
 21
249.015865
  0
LINE
  8
CSLAYER1
  6
CONTINUOUS
 62
     6
 10
285.056360
 20
249.015865
 11
285.180403
 21
249.167977
  0
LINE
  8
CSLAYER1
  6
CONTINUOUS
 62
     6
 10
285.180403
 20
249.167977
 11
285.349660
 21
249.375577
  0
ARC
  8
CSLAYER1
  6
CONTINUOUS
 62
     6
 10
284.267410
 20
248.945805
 40
1.164461
 50
21.658505
 51
86.024005
  0
ARC
  8
CSLAYER1
  6
CONTINUOUS
 62
     6
 10
283.301755
 20
249.596559
 40
1.164461
 50
26.024005
 51
86.024005
  0
ARC
  8
CSLAYER1
  6
CONTINUOUS
 62
     6
 10
284.428894
 20
251.269122
 40
1.164461
 50
206.024005
 51
266.024005
  0
LINE
  8
CSLAYER1
  6
CONTINUOUS
 62
     6
 10
283.382484
 20
250.758221
 11
283.261303
 21
250.610306
  0
LINE
  8
CSLAYER1
  6
CONTINUOUS
 62
     6
 10
283.261303
 20
250.610306
 11
283.132293
 21
250.452907
  0
LINE
  8
CSLAYER1
  6
CONTINUOUS
 62
     6
 10
283.132293
 20
250.452907
 11
282.997491
 21
250.287596
  0
LINE
  8
CSLAYER1
  6
CONTINUOUS
 62
     6
 10
282.997491
 20
250.287596
 11
282.858934
 21
250.115943
  0
LINE
  8
CSLAYER1
  6
CONTINUOUS
 62
     6
 10
282.858934
 20
250.115943
 11
282.718658
 21
249.939522
  0
LINE
  8
CSLAYER1
  6
CONTINUOUS
 62
     6
 10
282.718658
 20
249.939522
 11
282.578700
 21
249.759903
  0
LINE
  8
CSLAYER1
  6
CONTINUOUS
 62
     6
 10
282.578700
 20
249.759903
 11
282.441097
 21
249.578660
  0
LINE
  8
CSLAYER1
  6
CONTINUOUS
 62
     6
 10
282.441097
 20
249.578660
 11
282.307886
 21
249.397364
  0
LINE
  8
CSLAYER1
  6
CONTINUOUS
 62
     6
 10
282.307886
 20
249.397364
 11
282.181102
 21
249.217586
  0
LINE
  8
CSLAYER1
  6
CONTINUOUS
 62
     6
 10
282.181102
 20
249.217586
 11
282.062782
 21
249.040900
  0
LINE
  8
CSLAYER1
  6
CONTINUOUS
 62
     6
 10
282.062782
 20
249.040900
 11
281.954964
 21
248.868877
  0
LINE
  8
CSLAYER1
  6
CONTINUOUS
 62
     6
 10
281.954964
 20
248.868877
 11
281.857325
 21
248.705116
  0
LINE
  8
CSLAYER1
  6
CONTINUOUS
 62
     6
 10
281.857325
 20
248.705116
 11
281.757696
 21
248.535848
  0
LINE
  8
CSLAYER1
  6
CONTINUOUS
 62
     6
 10
281.757696
 20
248.535848
 11
281.655869
 21
248.362377
  0
LINE
  8
CSLAYER1
  6
CONTINUOUS
 62
     6
 10
281.655869
 20
248.362377
 11
281.551639
 21
248.186004
  0
LINE
  8
CSLAYER1
  6
CONTINUOUS
 62
     6
 10
281.551639
 20
248.186004
 11
281.444799
 21
248.008032
  0
LINE
  8
CSLAYER1
  6
CONTINUOUS
 62
     6
 10
281.444799
 20
248.008032
 11
281.335142
 21
247.829762
  0
LINE
  8
CSLAYER1
  6
CONTINUOUS
 62
     6
 10
281.335142
 20
247.829762
 11
281.222462
 21
247.652497
  0
LINE
  8
CSLAYER1
  6
CONTINUOUS
 62
     6
 10
281.222462
 20
247.652497
 11
281.106551
 21
247.477540
  0
LINE
  8
CSLAYER1
  6
CONTINUOUS
 62
     6
 10
281.106551
 20
247.477540
 11
280.987204
 21
247.306192
  0
LINE
  8
CSLAYER1
  6
CONTINUOUS
 62
     6
 10
280.987204
 20
247.306192
 11
280.864213
 21
247.139756
  0
LINE
  8
CSLAYER1
  6
CONTINUOUS
 62
     6
 10
280.864213
 20
247.139756
 11
280.737373
 21
246.979534
  0
LINE
  8
CSLAYER1
  6
CONTINUOUS
 62
     6
 10
280.737373
 20
246.979534
 11
280.638552
 21
246.863021
  0
LINE
  8
CSLAYER1
  6
CONTINUOUS
 62
     6
 10
280.638552
 20
246.863021
 11
280.536340
 21
246.749262
  0
LINE
  8
CSLAYER1
  6
CONTINUOUS
 62
     6
 10
280.536340
 20
246.749262
 11
280.431076
 21
246.637981
  0
LINE
  8
CSLAYER1
  6
CONTINUOUS
 62
     6
 10
280.431076
 20
246.637981
 11
280.323098
 21
246.528903
  0
LINE
  8
CSLAYER1
  6
CONTINUOUS
 62
     6
 10
280.323098
 20
246.528903
 11
280.212748
 21
246.421752
  0
LINE
  8
CSLAYER1
  6
CONTINUOUS
 62
     6
 10
280.212748
 20
246.421752
 11
280.100362
 21
246.316253
  0
LINE
  8
CSLAYER1
  6
CONTINUOUS
 62
     6
 10
280.100362
 20
246.316253
 11
279.986281
 21
246.212131
  0
LINE
  8
CSLAYER1
  6
CONTINUOUS
 62
     6
 10
279.986281
 20
246.212131
 11
279.870843
 21
246.109111
  0
LINE
  8
CSLAYER1
  6
CONTINUOUS
 62
     6
 10
279.870843
 20
246.109111
 11
279.754388
 21
246.006917
  0
LINE
  8
CSLAYER1
  6
CONTINUOUS
 62
     6
 10
279.754388
 20
246.006917
 11
279.658362
 21
245.923589
  0
LINE
  8
CSLAYER1
  6
CONTINUOUS
 62
     6
 10
279.658362
 20
245.923589
 11
279.727509
 21
245.889060
  0
LINE
  8
CSLAYER1
  6
CONTINUOUS
 62
     6
 10
279.727509
 20
245.889060
 11
279.811985
 21
245.841444
  0
LINE
  8
CSLAYER1
  6
CONTINUOUS
 62
     6
 10
279.811985
 20
245.841444
 11
279.897918
 21
245.787693
  0
LINE
  8
CSLAYER1
  6
CONTINUOUS
 62
     6
 10
279.897918
 20
245.787693
 11
279.984037
 21
245.728469
  0
LINE
  8
CSLAYER1
  6
CONTINUOUS
 62
     6
 10
279.984037
 20
245.728469
 11
280.069073
 21
245.664431
  0
LINE
  8
CSLAYER1
  6
CONTINUOUS
 62
     6
 10
280.069073
 20
245.664431
 11
280.151756
 21
245.596241
  0
LINE
  8
CSLAYER1
  6
CONTINUOUS
 62
     6
 10
280.151756
 20
245.596241
 11
280.230815
 21
245.524557
  0
LINE
  8
CSLAYER1
  6
CONTINUOUS
 62
     6
 10
280.230815
 20
245.524557
 11
280.304981
 21
245.450042
  0
LINE
  8
CSLAYER1
  6
CONTINUOUS
 62
     6
 10
280.304981
 20
245.450042
 11
280.372984
 21
245.373354
  0
LINE
  8
CSLAYER1
  6
CONTINUOUS
 62
     6
 10
280.372984
 20
245.373354
 11
280.433553
 21
245.295155
  0
LINE
  8
CSLAYER1
  6
CONTINUOUS
 62
     6
 10
280.433553
 20
245.295155
 11
280.485420
 21
245.216106
  0
LINE
  8
CSLAYER1
  6
CONTINUOUS
 62
     6
 10
280.485420
 20
245.216106
 11
280.501326
 21
245.188499
  0
LINE
  8
CSLAYER1
  6
CONTINUOUS
 62
     6
 10
280.501326
 20
245.188499
 11
280.516980
 21
245.159806
  0
LINE
  8
CSLAYER1
  6
CONTINUOUS
 62
     6
 10
280.516980
 20
245.159806
 11
280.532422
 21
245.130192
  0
LINE
  8
CSLAYER1
  6
CONTINUOUS
 62
     6
 10
280.532422
 20
245.130192
 11
280.547695
 21
245.099826
  0
LINE
  8
CSLAYER1
  6
CONTINUOUS
 62
     6
 10
280.547695
 20
245.099826
 11
280.562840
 21
245.068874
  0
LINE
  8
CSLAYER1
  6
CONTINUOUS
 62
     6
 10
280.562840
 20
245.068874
 11
280.577901
 21
245.037504
  0
LINE
  8
CSLAYER1
  6
CONTINUOUS
 62
     6
 10
280.577901
 20
245.037504
 11
280.592918
 21
245.005883
  0
LINE
  8
CSLAYER1
  6
CONTINUOUS
 62
     6
 10
280.592918
 20
245.005883
 11
280.607933
 21
244.974178
  0
LINE
  8
CSLAYER1
  6
CONTINUOUS
 62
     6
 10
280.607933
 20
244.974178
 11
280.622989
 21
244.942555
  0
LINE
  8
CSLAYER1
  6
CONTINUOUS
 62
     6
 10
280.622989
 20
244.942555
 11
280.638127
 21
244.911184
  0
LINE
  8
CSLAYER1
  6
CONTINUOUS
 62
     6
 10
280.638127
 20
244.911184
 11
280.653389
 21
244.880230
  0
LINE
  8
CSLAYER1
  6
CONTINUOUS
 62
     6
 10
280.653389
 20
244.880230
 11
280.694210
 21
244.802092
  0
LINE
  8
CSLAYER1
  6
CONTINUOUS
 62
     6
 10
280.423410
 20
245.308251
 11
277.980415
 21
242.913616
  0
LINE
  8
CSLAYER1
  6
CONTINUOUS
 62
     6
 10
277.366066
 20
243.126263
 11
280.111913
 21
245.629100
  0
LINE
  8
CSLAYER1
  6
CONTINUOUS
 62
     6
 10
277.296359
 20
250.102258
 11
277.454877
 21
250.209613
  0
LINE
  8
CSLAYER1
  6
CONTINUOUS
 62
     6
 10
277.454877
 20
250.209613
 11
277.606673
 21
250.319107
  0
LINE
  8
CSLAYER1
  6
CONTINUOUS
 62
     6
 10
277.606673
 20
250.319107
 11
277.749813
 21
250.431692
  0
LINE
  8
CSLAYER1
  6
CONTINUOUS
 62
     6
 10
277.749813
 20
250.431692
 11
277.882362
 21
250.548321
  0
LINE
  8
CSLAYER1
  6
CONTINUOUS
 62
     6
 10
277.882362
 20
250.548321
 11
277.985367
 21
250.651335
  0
LINE
  8
CSLAYER1
  6
CONTINUOUS
 62
     6
 10
277.985367
 20
250.651335
 11
278.087030
 21
250.764771
  0
LINE
  8
CSLAYER1
  6
CONTINUOUS
 62
     6
 10
278.087030
 20
250.764771
 11
278.186785
 21
250.886938
  0
LINE
  8
CSLAYER1
  6
CONTINUOUS
 62
     6
 10
278.186785
 20
250.886938
 11
278.284063
 21
251.016147
  0
LINE
  8
CSLAYER1
  6
CONTINUOUS
 62
     6
 10
278.284063
 20
251.016147
 11
278.378298
 21
251.150707
  0
LINE
  8
CSLAYER1
  6
CONTINUOUS
 62
     6
 10
278.378298
 20
251.150707
 11
278.468922
 21
251.288929
  0
LINE
  8
CSLAYER1
  6
CONTINUOUS
 62
     6
 10
278.468922
 20
251.288929
 11
278.555369
 21
251.429122
  0
LINE
  8
CSLAYER1
  6
CONTINUOUS
 62
     6
 10
278.555369
 20
251.429122
 11
278.637070
 21
251.569597
  0
LINE
  8
CSLAYER1
  6
CONTINUOUS
 62
     6
 10
278.637070
 20
251.569597
 11
278.713458
 21
251.708663
  0
LINE
  8
CSLAYER1
  6
CONTINUOUS
 62
     6
 10
278.713458
 20
251.708663
 11
278.783968
 21
251.844631
  0
LINE
  8
CSLAYER1
  6
CONTINUOUS
 62
     6
 10
278.783968
 20
251.844631
 11
278.889228
 21
252.060172
  0
ARC
  8
CSLAYER1
  6
CONTINUOUS
 62
     6
 10
277.963117
 20
251.504094
 40
1.080690
 50
30.945197
 51
90.945197
  0
ARC
  8
CSLAYER1
  6
CONTINUOUS
 62
     6
 10
277.018426
 20
252.028926
 40
1.080690
 50
30.945197
 51
90.945197
  0
ARC
  8
CSLAYER1
  6
CONTINUOUS
 62
     6
 10
277.927463
 20
253.665179
 40
1.080690
 50
210.945197
 51
270.945197
  0
LINE
  8
CSLAYER1
  6
CONTINUOUS
 62
     6
 10
277.000618
 20
253.109447
 11
276.855915
 21
252.970100
  0
LINE
  8
CSLAYER1
  6
CONTINUOUS
 62
     6
 10
276.855915
 20
252.970100
 11
276.702001
 21
252.820351
  0
LINE
  8
CSLAYER1
  6
CONTINUOUS
 62
     6
 10
276.702001
 20
252.820351
 11
276.540650
 21
252.662523
  0
LINE
  8
CSLAYER1
  6
CONTINUOUS
 62
     6
 10
276.540650
 20
252.662523
 11
276.373639
 21
252.498940
  0
LINE
  8
CSLAYER1
  6
CONTINUOUS
 62
     6
 10
276.373639
 20
252.498940
 11
276.202745
 21
252.331929
  0
LINE
  8
CSLAYER1
  6
CONTINUOUS
 62
     6
 10
276.202745
 20
252.331929
 11
276.029742
 21
252.163814
  0
LINE
  8
CSLAYER1
  6
CONTINUOUS
 62
     6
 10
276.029742
 20
252.163814
 11
275.856406
 21
251.996919
  0
LINE
  8
CSLAYER1
  6
CONTINUOUS
 62
     6
 10
275.856406
 20
251.996919
 11
275.684514
 21
251.833569
  0
LINE
  8
CSLAYER1
  6
CONTINUOUS
 62
     6
 10
275.684514
 20
251.833569
 11
275.515842
 21
251.676090
  0
LINE
  8
CSLAYER1
  6
CONTINUOUS
 62
     6
 10
275.515842
 20
251.676090
 11
275.352165
 21
251.526806
  0
LINE
  8
CSLAYER1
  6
CONTINUOUS
 62
     6
 10
275.352165
 20
251.526806
 11
275.195259
 21
251.388042
  0
LINE
  8
CSLAYER1
  6
CONTINUOUS
 62
     6
 10
275.195259
 20
251.388042
 11
275.054028
 21
251.265244
  0
LINE
  8
CSLAYER1
  6
CONTINUOUS
 62
     6
 10
275.054028
 20
251.265244
 11
274.907845
 21
251.137358
  0
LINE
  8
CSLAYER1
  6
CONTINUOUS
 62
     6
 10
274.907845
 20
251.137358
 11
274.757851
 21
251.004852
  0
LINE
  8
CSLAYER1
  6
CONTINUOUS
 62
     6
 10
274.757851
 20
251.004852
 11
274.605190
 21
250.868192
  0
LINE
  8
CSLAYER1
  6
CONTINUOUS
 62
     6
 10
274.605190
 20
250.868192
 11
274.451003
 21
250.727847
  0
LINE
  8
CSLAYER1
  6
CONTINUOUS
 62
     6
 10
274.451003
 20
250.727847
 11
274.296433
 21
250.584285
  0
LINE
  8
CSLAYER1
  6
CONTINUOUS
 62
     6
 10
274.296433
 20
250.584285
 11
274.142621
 21
250.437972
  0
LINE
  8
CSLAYER1
  6
CONTINUOUS
 62
     6
 10
274.142621
 20
250.437972
 11
273.990711
 21
250.289377
  0
LINE
  8
CSLAYER1
  6
CONTINUOUS
 62
     6
 10
273.990711
 20
250.289377
 11
273.841843
 21
250.138968
  0
LINE
  8
CSLAYER1
  6
CONTINUOUS
 62
     6
 10
273.841843
 20
250.138968
 11
273.697162
 21
249.987211
  0
LINE
  8
CSLAYER1
  6
CONTINUOUS
 62
     6
 10
273.697162
 20
249.987211
 11
273.557808
 21
249.834576
  0
LINE
  8
CSLAYER1
  6
CONTINUOUS
 62
     6
 10
273.557808
 20
249.834576
 11
273.502284
 21
249.771631
  0
LINE
  8
CSLAYER1
  6
CONTINUOUS
 62
     6
 10
273.502284
 20
249.771631
 11
273.447356
 21
249.708131
  0
LINE
  8
CSLAYER1
  6
CONTINUOUS
 62
     6
 10
273.447356
 20
249.708131
 11
273.392965
 21
249.644130
  0
LINE
  8
CSLAYER1
  6
CONTINUOUS
 62
     6
 10
273.392965
 20
249.644130
 11
273.339051
 21
249.579683
  0
LINE
  8
CSLAYER1
  6
CONTINUOUS
 62
     6
 10
273.339051
 20
249.579683
 11
273.285556
 21
249.514847
  0
LINE
  8
CSLAYER1
  6
CONTINUOUS
 62
     6
 10
273.285556
 20
249.514847
 11
273.232418
 21
249.449678
  0
LINE
  8
CSLAYER1
  6
CONTINUOUS
 62
     6
 10
273.232418
 20
249.449678
 11
273.179578
 21
249.384230
  0
LINE
  8
CSLAYER1
  6
CONTINUOUS
 62
     6
 10
273.179578
 20
249.384230
 11
273.126977
 21
249.318559
  0
LINE
  8
CSLAYER1
  6
CONTINUOUS
 62
     6
 10
273.126977
 20
249.318559
 11
273.074555
 21
249.252722
  0
LINE
  8
CSLAYER1
  6
CONTINUOUS
 62
     6
 10
273.074555
 20
249.252722
 11
273.022252
 21
249.186773
  0
LINE
  8
CSLAYER1
  6
CONTINUOUS
 62
     6
 10
273.022252
 20
249.186773
 11
272.893697
 21
249.024355
  0
LINE
  8
CSLAYER1
  6
CONTINUOUS
 62
     6
 10
272.893697
 20
249.024355
 11
272.922434
 21
248.977501
  0
LINE
  8
CSLAYER1
  6
CONTINUOUS
 62
     6
 10
272.922434
 20
248.977501
 11
272.963026
 21
248.917619
  0
LINE
  8
CSLAYER1
  6
CONTINUOUS
 62
     6
 10
272.963026
 20
248.917619
 11
273.007309
 21
248.857751
  0
LINE
  8
CSLAYER1
  6
CONTINUOUS
 62
     6
 10
273.007309
 20
248.857751
 11
273.054760
 21
248.798478
  0
LINE
  8
CSLAYER1
  6
CONTINUOUS
 62
     6
 10
273.054760
 20
248.798478
 11
273.104859
 21
248.740381
  0
LINE
  8
CSLAYER1
  6
CONTINUOUS
 62
     6
 10
273.104859
 20
248.740381
 11
273.157083
 21
248.684040
  0
LINE
  8
CSLAYER1
  6
CONTINUOUS
 62
     6
 10
273.157083
 20
248.684040
 11
273.210911
 21
248.630037
  0
LINE
  8
CSLAYER1
  6
CONTINUOUS
 62
     6
 10
273.210911
 20
248.630037
 11
273.265822
 21
248.578952
  0
LINE
  8
CSLAYER1
  6
CONTINUOUS
 62
     6
 10
273.265822
 20
248.578952
 11
273.321293
 21
248.531366
  0
LINE
  8
CSLAYER1
  6
CONTINUOUS
 62
     6
 10
273.321293
 20
248.531366
 11
273.376803
 21
248.487860
  0
LINE
  8
CSLAYER1
  6
CONTINUOUS
 62
     6
 10
273.376803
 20
248.487860
 11
273.431831
 21
248.449016
  0
LINE
  8
CSLAYER1
  6
CONTINUOUS
 62
     6
 10
273.431831
 20
248.449016
 11
273.488317
 21
248.414721
  0
LINE
  8
CSLAYER1
  6
CONTINUOUS
 62
     6
 10
273.488317
 20
248.414721
 11
273.548919
 21
248.383755
  0
LINE
  8
CSLAYER1
  6
CONTINUOUS
 62
     6
 10
273.548919
 20
248.383755
 11
273.613079
 21
248.355766
  0
LINE
  8
CSLAYER1
  6
CONTINUOUS
 62
     6
 10
273.613079
 20
248.355766
 11
273.680241
 21
248.330405
  0
LINE
  8
CSLAYER1
  6
CONTINUOUS
 62
     6
 10
273.680241
 20
248.330405
 11
273.749848
 21
248.307322
  0
LINE
  8
CSLAYER1
  6
CONTINUOUS
 62
     6
 10
273.749848
 20
248.307322
 11
273.821342
 21
248.286169
  0
LINE
  8
CSLAYER1
  6
CONTINUOUS
 62
     6
 10
273.821342
 20
248.286169
 11
273.894167
 21
248.266594
  0
LINE
  8
CSLAYER1
  6
CONTINUOUS
 62
     6
 10
273.894167
 20
248.266594
 11
273.967765
 21
248.248249
  0
LINE
  8
CSLAYER1
  6
CONTINUOUS
 62
     6
 10
273.967765
 20
248.248249
 11
274.041579
 21
248.230784
  0
LINE
  8
CSLAYER1
  6
CONTINUOUS
 62
     6
 10
274.041579
 20
248.230784
 11
274.115054
 21
248.213848
  0
LINE
  8
CSLAYER1
  6
CONTINUOUS
 62
     6
 10
274.115054
 20
248.213848
 11
274.187630
 21
248.197094
  0
LINE
  8
CSLAYER1
  6
CONTINUOUS
 62
     6
 10
274.187630
 20
248.197094
 11
274.261854
 21
248.179493
  0
LINE
  8
CSLAYER1
  6
CONTINUOUS
 62
     6
 10
274.261854
 20
248.179493
 11
274.335589
 21
248.161469
  0
LINE
  8
CSLAYER1
  6
CONTINUOUS
 62
     6
 10
274.335589
 20
248.161469
 11
274.408885
 21
248.143062
  0
LINE
  8
CSLAYER1
  6
CONTINUOUS
 62
     6
 10
274.408885
 20
248.143062
 11
274.481791
 21
248.124317
  0
LINE
  8
CSLAYER1
  6
CONTINUOUS
 62
     6
 10
274.481791
 20
248.124317
 11
274.554355
 21
248.105275
  0
LINE
  8
CSLAYER1
  6
CONTINUOUS
 62
     6
 10
274.554355
 20
248.105275
 11
274.626627
 21
248.085978
  0
LINE
  8
CSLAYER1
  6
CONTINUOUS
 62
     6
 10
274.626627
 20
248.085978
 11
274.698654
 21
248.066469
  0
LINE
  8
CSLAYER1
  6
CONTINUOUS
 62
     6
 10
274.698654
 20
248.066469
 11
274.770486
 21
248.046791
  0
LINE
  8
CSLAYER1
  6
CONTINUOUS
 62
     6
 10
274.770486
 20
248.046791
 11
274.842171
 21
248.026986
  0
LINE
  8
CSLAYER1
  6
CONTINUOUS
 62
     6
 10
274.842171
 20
248.026986
 11
274.913759
 21
248.007095
  0
LINE
  8
CSLAYER1
  6
CONTINUOUS
 62
     6
 10
274.913759
 20
248.007095
 11
274.994378
 21
247.984633
  0
LINE
  8
CSLAYER1
  6
CONTINUOUS
 62
     6
 10
274.994378
 20
247.984633
 11
275.121634
 21
248.156783
  0
LINE
  8
CSLAYER1
  6
CONTINUOUS
 62
     6
 10
275.121634
 20
248.156783
 11
275.216413
 21
248.283945
  0
LINE
  8
CSLAYER1
  6
CONTINUOUS
 62
     6
 10
275.216413
 20
248.283945
 11
275.312064
 21
248.410177
  0
LINE
  8
CSLAYER1
  6
CONTINUOUS
 62
     6
 10
275.312064
 20
248.410177
 11
275.409023
 21
248.535012
  0
LINE
  8
CSLAYER1
  6
CONTINUOUS
 62
     6
 10
275.409023
 20
248.535012
 11
275.507725
 21
248.657987
  0
LINE
  8
CSLAYER1
  6
CONTINUOUS
 62
     6
 10
275.507725
 20
248.657987
 11
275.608607
 21
248.778636
  0
LINE
  8
CSLAYER1
  6
CONTINUOUS
 62
     6
 10
275.608607
 20
248.778636
 11
275.712103
 21
248.896493
  0
LINE
  8
CSLAYER1
  6
CONTINUOUS
 62
     6
 10
275.712103
 20
248.896493
 11
275.818651
 21
249.011093
  0
LINE
  8
CSLAYER1
  6
CONTINUOUS
 62
     6
 10
275.818651
 20
249.011093
 11
275.928685
 21
249.121971
  0
LINE
  8
CSLAYER1
  6
CONTINUOUS
 62
     6
 10
275.928685
 20
249.121971
 11
276.042642
 21
249.228661
  0
LINE
  8
CSLAYER1
  6
CONTINUOUS
 62
     6
 10
276.042642
 20
249.228661
 11
276.160957
 21
249.330700
  0
LINE
  8
CSLAYER1
  6
CONTINUOUS
 62
     6
 10
276.160957
 20
249.330700
 11
276.312381
 21
249.449737
  0
LINE
  8
CSLAYER1
  6
CONTINUOUS
 62
     6
 10
276.312381
 20
249.449737
 11
276.470621
 21
249.564250
  0
LINE
  8
CSLAYER1
  6
CONTINUOUS
 62
     6
 10
276.470621
 20
249.564250
 11
276.633742
 21
249.675189
  0
LINE
  8
CSLAYER1
  6
CONTINUOUS
 62
     6
 10
276.633742
 20
249.675189
 11
276.799810
 21
249.783508
  0
LINE
  8
CSLAYER1
  6
CONTINUOUS
 62
     6
 10
276.799810
 20
249.783508
 11
276.966892
 21
249.890158
  0
LINE
  8
CSLAYER1
  6
CONTINUOUS
 62
     6
 10
276.966892
 20
249.890158
 11
277.133053
 21
249.996090
  0
LINE
  8
CSLAYER1
  6
CONTINUOUS
 62
     6
 10
277.133053
 20
249.996090
 11
277.296359
 21
250.102258
  0
LINE
  8
CSLAYER1
  6
CONTINUOUS
 62
     6
 10
274.252192
 20
248.181784
 11
272.026070
 21
245.205547
  0
LINE
  8
CSLAYER1
  6
CONTINUOUS
 62
     6
 10
271.340828
 20
245.654491
 11
273.686359
 21
248.328376
  0
LINE
  8
CSLAYER1
  6
CONTINUOUS
 62
     6
 10
273.269141
 20
248.576105
 11
270.797371
 21
246.174297
  0
ARC
  8
CSLAYER1
  6
CONTINUOUS
 62
     6
 10
279.474558
 20
254.513295
 40
1.095863
 50
203.568976
 51
263.568976
  0
ARC
  8
CSLAYER1
  6
CONTINUOUS
 62
     6
 10
280.356259
 20
253.862511
 40
1.095863
 50
203.568976
 51
263.568976
  0
ARC
  8
CSLAYER1
  6
CONTINUOUS
 62
     6
 10
279.229070
 20
252.335360
 40
1.095863
 50
23.568976
 51
83.568976
  0
LINE
  8
CSLAYER1
  6
CONTINUOUS
 62
     6
 10
278.723243
 20
254.255082
 11
278.470131
 21
254.075115
  0
LINE
  8
CSLAYER1
  6
CONTINUOUS
 62
     6
 10
278.723243
 20
254.255082
 11
278.976104
 21
254.435402
  0
LINE
  8
CSLAYER1
  6
CONTINUOUS
 62
     6
 10
278.976104
 20
254.435402
 11
279.228463
 21
254.616427
  0
LINE
  8
CSLAYER1
  6
CONTINUOUS
 62
     6
 10
279.228463
 20
254.616427
 11
279.480071
 21
254.798511
  0
LINE
  8
CSLAYER1
  6
CONTINUOUS
 62
     6
 10
279.480071
 20
254.798511
 11
279.730677
 21
254.982006
  0
LINE
  8
CSLAYER1
  6
CONTINUOUS
 62
     6
 10
279.730677
 20
254.982006
 11
279.980030
 21
255.167265
  0
LINE
  8
CSLAYER1
  6
CONTINUOUS
 62
     6
 10
279.980030
 20
255.167265
 11
280.227879
 21
255.354641
  0
LINE
  8
CSLAYER1
  6
CONTINUOUS
 62
     6
 10
280.227879
 20
255.354641
 11
280.473973
 21
255.544486
  0
LINE
  8
CSLAYER1
  6
CONTINUOUS
 62
     6
 10
280.473973
 20
255.544486
 11
280.718063
 21
255.737153
  0
LINE
  8
CSLAYER1
  6
CONTINUOUS
 62
     6
 10
280.718063
 20
255.737153
 11
280.959898
 21
255.932995
  0
LINE
  8
CSLAYER1
  6
CONTINUOUS
 62
     6
 10
280.959898
 20
255.932995
 11
281.199226
 21
256.132366
  0
LINE
  8
CSLAYER1
  6
CONTINUOUS
 62
     6
 10
281.199226
 20
256.132366
 11
281.356491
 21
256.266662
  0
LINE
  8
CSLAYER1
  6
CONTINUOUS
 62
     6
 10
281.356491
 20
256.266662
 11
281.513540
 21
256.403687
  0
LINE
  8
CSLAYER1
  6
CONTINUOUS
 62
     6
 10
281.513540
 20
256.403687
 11
281.669631
 21
256.543246
  0
LINE
  8
CSLAYER1
  6
CONTINUOUS
 62
     6
 10
281.669631
 20
256.543246
 11
281.824020
 21
256.685149
  0
LINE
  8
CSLAYER1
  6
CONTINUOUS
 62
     6
 10
281.824020
 20
256.685149
 11
281.975965
 21
256.829201
  0
LINE
  8
CSLAYER1
  6
CONTINUOUS
 62
     6
 10
281.975965
 20
256.829201
 11
282.124722
 21
256.975211
  0
LINE
  8
CSLAYER1
  6
CONTINUOUS
 62
     6
 10
282.124722
 20
256.975211
 11
282.269548
 21
257.122986
  0
LINE
  8
CSLAYER1
  6
CONTINUOUS
 62
     6
 10
282.269548
 20
257.122986
 11
282.409701
 21
257.272334
  0
LINE
  8
CSLAYER1
  6
CONTINUOUS
 62
     6
 10
282.409701
 20
257.272334
 11
282.544436
 21
257.423061
  0
LINE
  8
CSLAYER1
  6
CONTINUOUS
 62
     6
 10
282.544436
 20
257.423061
 11
282.673012
 21
257.574976
  0
LINE
  8
CSLAYER1
  6
CONTINUOUS
 62
     6
 10
282.673012
 20
257.574976
 11
282.794685
 21
257.727886
  0
LINE
  8
CSLAYER1
  6
CONTINUOUS
 62
     6
 10
282.794685
 20
257.727886
 11
282.909140
 21
257.879212
  0
LINE
  8
CSLAYER1
  6
CONTINUOUS
 62
     6
 10
282.909140
 20
257.879212
 11
283.024440
 21
258.036465
  0
LINE
  8
CSLAYER1
  6
CONTINUOUS
 62
     6
 10
283.024440
 20
258.036465
 11
283.140053
 21
258.198523
  0
LINE
  8
CSLAYER1
  6
CONTINUOUS
 62
     6
 10
283.140053
 20
258.198523
 11
283.255446
 21
258.364263
  0
LINE
  8
CSLAYER1
  6
CONTINUOUS
 62
     6
 10
283.255446
 20
258.364263
 11
283.370086
 21
258.532562
  0
LINE
  8
CSLAYER1
  6
CONTINUOUS
 62
     6
 10
283.370086
 20
258.532562
 11
283.483440
 21
258.702299
  0
LINE
  8
CSLAYER1
  6
CONTINUOUS
 62
     6
 10
283.483440
 20
258.702299
 11
283.594976
 21
258.872349
  0
LINE
  8
CSLAYER1
  6
CONTINUOUS
 62
     6
 10
283.594976
 20
258.872349
 11
283.704160
 21
259.041592
  0
LINE
  8
CSLAYER1
  6
CONTINUOUS
 62
     6
 10
283.704160
 20
259.041592
 11
283.810460
 21
259.208904
  0
LINE
  8
CSLAYER1
  6
CONTINUOUS
 62
     6
 10
283.810460
 20
259.208904
 11
283.913343
 21
259.373162
  0
LINE
  8
CSLAYER1
  6
CONTINUOUS
 62
     6
 10
283.913343
 20
259.373162
 11
284.012276
 21
259.533245
  0
LINE
  8
CSLAYER1
  6
CONTINUOUS
 62
     6
 10
284.012276
 20
259.533245
 11
284.098749
 21
259.671470
  0
LINE
  8
CSLAYER1
  6
CONTINUOUS
 62
     6
 10
284.098749
 20
259.671470
 11
284.190701
 21
259.813929
  0
LINE
  8
CSLAYER1
  6
CONTINUOUS
 62
     6
 10
284.190701
 20
259.813929
 11
284.286901
 21
259.959408
  0
LINE
  8
CSLAYER1
  6
CONTINUOUS
 62
     6
 10
284.286901
 20
259.959408
 11
284.386120
 21
260.106699
  0
LINE
  8
CSLAYER1
  6
CONTINUOUS
 62
     6
 10
284.386120
 20
260.106699
 11
284.487128
 21
260.254588
  0
LINE
  8
CSLAYER1
  6
CONTINUOUS
 62
     6
 10
284.487128
 20
260.254588
 11
284.588696
 21
260.401867
  0
LINE
  8
CSLAYER1
  6
CONTINUOUS
 62
     6
 10
284.588696
 20
260.401867
 11
284.689595
 21
260.547324
  0
LINE
  8
CSLAYER1
  6
CONTINUOUS
 62
     6
 10
284.689595
 20
260.547324
 11
284.788593
 21
260.689747
  0
LINE
  8
CSLAYER1
  6
CONTINUOUS
 62
     6
 10
284.788593
 20
260.689747
 11
284.884463
 21
260.827927
  0
LINE
  8
CSLAYER1
  6
CONTINUOUS
 62
     6
 10
284.884463
 20
260.827927
 11
285.005005
 21
261.002757
  0
ARC
  8
CSLAYER1
  6
CONTINUOUS
 62
     6
 10
282.739801
 20
263.002757
 40
2.000000
 50
180.000000
 51
270.000000
  0
LINE
  8
CSLAYER1
  6
CONTINUOUS
 62
     6
 10
280.739801
 20
263.002757
 11
280.739801
 21
263.502757
  0
LINE
  8
CSLAYER1
  6
CONTINUOUS
 62
     6
 10
280.489801
 20
263.502757
 11
306.489801
 21
263.502757
  0
LINE
  8
CSLAYER1
  6
CONTINUOUS
 62
     6
 10
306.489801
 20
265.502757
 11
280.489801
 21
265.502757
  0
LINE
  8
CSLAYER1
  6
CONTINUOUS
 62
     6
 10
280.489801
 20
265.502757
 11
280.489801
 21
261.502757
  0
LINE
  8
CSLAYER1
  6
CONTINUOUS
 62
     6
 10
280.489801
 20
261.502757
 11
267.489801
 21
261.502757
  0
LINE
  8
CSLAYER1
  6
CONTINUOUS
 62
     6
 10
282.739801
 20
261.002757
 11
291.828426
 21
261.002757
  0
ARC
  8
CSLAYER1
  6
CONTINUOUS
 62
     6
 10
293.489801
 20
267.802745
 40
7.000000
 50
253.743003
 51
286.257026
  0
ARC
  8
CSLAYER1
  6
CONTINUOUS
 62
     6
 10
295.169458
 20
262.042674
 40
1.000000
 50
286.257408
 51
354.999902
  0
LINE
  8
CSLAYER1
  6
CONTINUOUS
 62
     6
 10
296.165643
 20
261.955516
 11
296.220758
 21
262.585338
  0
ARC
  8
CSLAYER1
  6
CONTINUOUS
 62
     6
 10
296.021539
 20
262.602763
 40
0.200000
 50
-5.000126
 51
90.000019
  0
LINE
  8
CSLAYER1
  6
CONTINUOUS
 62
     6
 10
296.289789
 20
262.802776
 11
293.489801
 21
262.802745
  0
LINE
  8
CSLAYER1
  6
CONTINUOUS
 62
     6
 10
293.489801
 20
262.802745
 11
290.689813
 21
262.802745
  0
ARC
  8
CSLAYER1
  6
CONTINUOUS
 62
     6
 10
290.689813
 20
262.902751
 40
0.100000
 50
180.000005
 51
270.000001
  0
LINE
  8
CSLAYER1
  6
CONTINUOUS
 62
     6
 10
290.589776
 20
262.902751
 11
290.589776
 21
263.402751
  0
ARC
  8
CSLAYER1
  6
CONTINUOUS
 62
     6
 10
290.689813
 20
263.402751
 40
0.100000
 50
90.000003
 51
180.000005
  0
ARC
  8
CSLAYER1
  6
CONTINUOUS
 62
     6
 10
290.958063
 20
262.602763
 40
0.200000
 50
90.000003
 51
185.000154
  0
LINE
  8
CSLAYER1
  6
CONTINUOUS
 62
     6
 10
290.758813
 20
262.585338
 11
290.813898
 21
261.955516
  0
ARC
  8
CSLAYER1
  6
CONTINUOUS
 62
     6
 10
291.810113
 20
262.042674
 40
1.000000
 50
185.000113
 51
253.742620
  0
LINE
  8
CSLAYER1
  6
CONTINUOUS
 62
     6
 10
289.918423
 20
261.002757
 11
289.753306
 21
259.984713
  0
LINE
  8
CSLAYER1
  6
CONTINUOUS
 62
     6
 10
289.753306
 20
259.984713
 11
289.695171
 21
259.662286
  0
LINE
  8
CSLAYER1
  6
CONTINUOUS
 62
     6
 10
289.695171
 20
259.662286
 11
289.630318
 21
259.330477
  0
LINE
  8
CSLAYER1
  6
CONTINUOUS
 62
     6
 10
289.630318
 20
259.330477
 11
289.559942
 21
258.992681
  0
LINE
  8
CSLAYER1
  6
CONTINUOUS
 62
     6
 10
289.559942
 20
258.992681
 11
289.485239
 21
258.652293
  0
LINE
  8
CSLAYER1
  6
CONTINUOUS
 62
     6
 10
289.485239
 20
258.652293
 11
289.407403
 21
258.312709
  0
LINE
  8
CSLAYER1
  6
CONTINUOUS
 62
     6
 10
289.407403
 20
258.312709
 11
289.327629
 21
257.977324
  0
LINE
  8
CSLAYER1
  6
CONTINUOUS
 62
     6
 10
289.327629
 20
257.977324
 11
289.247112
 21
257.649533
  0
LINE
  8
CSLAYER1
  6
CONTINUOUS
 62
     6
 10
289.247112
 20
257.649533
 11
289.167048
 21
257.332731
  0
LINE
  8
CSLAYER1
  6
CONTINUOUS
 62
     6
 10
289.167048
 20
257.332731
 11
289.088631
 21
257.030315
  0
LINE
  8
CSLAYER1
  6
CONTINUOUS
 62
     6
 10
289.088631
 20
257.030315
 11
289.005259
 21
256.730565
  0
LINE
  8
CSLAYER1
  6
CONTINUOUS
 62
     6
 10
289.005259
 20
256.730565
 11
288.911345
 21
256.425040
  0
LINE
  8
CSLAYER1
  6
CONTINUOUS
 62
     6
 10
288.911345
 20
256.425040
 11
288.807760
 21
256.115001
  0
LINE
  8
CSLAYER1
  6
CONTINUOUS
 62
     6
 10
288.807760
 20
256.115001
 11
288.695372
 21
255.801706
  0
LINE
  8
CSLAYER1
  6
CONTINUOUS
 62
     6
 10
288.695372
 20
255.801706
 11
288.575050
 21
255.486414
  0
LINE
  8
CSLAYER1
  6
CONTINUOUS
 62
     6
 10
288.575050
 20
255.486414
 11
288.447663
 21
255.170386
  0
LINE
  8
CSLAYER1
  6
CONTINUOUS
 62
     6
 10
288.447663
 20
255.170386
 11
288.314080
 21
254.854880
  0
LINE
  8
CSLAYER1
  6
CONTINUOUS
 62
     6
 10
288.314080
 20
254.854880
 11
288.175171
 21
254.541156
  0
LINE
  8
CSLAYER1
  6
CONTINUOUS
 62
     6
 10
288.175171
 20
254.541156
 11
288.031805
 21
254.230474
  0
LINE
  8
CSLAYER1
  6
CONTINUOUS
 62
     6
 10
288.031805
 20
254.230474
 11
287.884850
 21
253.924093
  0
LINE
  8
CSLAYER1
  6
CONTINUOUS
 62
     6
 10
287.884850
 20
253.924093
 11
287.735176
 21
253.623272
  0
LINE
  8
CSLAYER1
  6
CONTINUOUS
 62
     6
 10
287.735176
 20
253.623272
 11
287.607831
 21
253.375651
  0
LINE
  8
CSLAYER1
  6
CONTINUOUS
 62
     6
 10
287.607831
 20
253.375651
 11
287.477679
 21
253.129618
  0
LINE
  8
CSLAYER1
  6
CONTINUOUS
 62
     6
 10
287.477679
 20
253.129618
 11
287.345000
 21
252.885012
  0
LINE
  8
CSLAYER1
  6
CONTINUOUS
 62
     6
 10
287.345000
 20
252.885012
 11
287.210075
 21
252.641674
  0
LINE
  8
CSLAYER1
  6
CONTINUOUS
 62
     6
 10
287.210075
 20
252.641674
 11
287.073185
 21
252.399448
  0
LINE
  8
CSLAYER1
  6
CONTINUOUS
 62
     6
 10
287.073185
 20
252.399448
 11
286.934611
 21
252.158172
  0
LINE
  8
CSLAYER1
  6
CONTINUOUS
 62
     6
 10
286.934611
 20
252.158172
 11
286.794632
 21
251.917691
  0
LINE
  8
CSLAYER1
  6
CONTINUOUS
 62
     6
 10
286.794632
 20
251.917691
 11
286.653531
 21
251.677843
  0
LINE
  8
CSLAYER1
  6
CONTINUOUS
 62
     6
 10
286.653531
 20
251.677843
 11
286.511587
 21
251.438472
  0
LINE
  8
CSLAYER1
  6
CONTINUOUS
 62
     6
 10
286.511587
 20
251.438472
 11
286.369082
 21
251.199417
  0
LINE
  8
CSLAYER1
  6
CONTINUOUS
 62
     6
 10
286.369082
 20
251.199417
 11
286.226296
 21
250.960522
  0
ARC
  8
CSLAYER1
  6
CONTINUOUS
 62
     6
 10
286.216630
 20
252.160489
 40
1.200008
 50
210.461486
 51
270.461486
  0
ARC
  8
CSLAYER1
  6
CONTINUOUS
 62
     6
 10
285.172594
 20
252.752104
 40
1.200008
 50
210.461486
 51
270.461486
  0
LINE
  8
CSLAYER1
  6
CONTINUOUS
 62
     6
 10
284.138191
 20
252.143749
 11
284.273473
 21
252.369670
  0
LINE
  8
CSLAYER1
  6
CONTINUOUS
 62
     6
 10
284.273473
 20
252.369670
 11
284.408479
 21
252.595747
  0
LINE
  8
CSLAYER1
  6
CONTINUOUS
 62
     6
 10
284.408479
 20
252.595747
 11
284.542935
 21
252.822133
  0
LINE
  8
CSLAYER1
  6
CONTINUOUS
 62
     6
 10
284.542935
 20
252.822133
 11
284.676566
 21
253.048982
  0
LINE
  8
CSLAYER1
  6
CONTINUOUS
 62
     6
 10
284.676566
 20
253.048982
 11
284.809095
 21
253.276451
  0
LINE
  8
CSLAYER1
  6
CONTINUOUS
 62
     6
 10
284.809095
 20
253.276451
 11
284.940249
 21
253.504693
  0
LINE
  8
CSLAYER1
  6
CONTINUOUS
 62
     6
 10
284.940249
 20
253.504693
 11
285.069751
 21
253.733862
  0
LINE
  8
CSLAYER1
  6
CONTINUOUS
 62
     6
 10
285.069751
 20
253.733862
 11
285.197327
 21
253.964114
  0
LINE
  8
CSLAYER1
  6
CONTINUOUS
 62
     6
 10
285.197327
 20
253.964114
 11
285.322701
 21
254.195604
  0
LINE
  8
CSLAYER1
  6
CONTINUOUS
 62
     6
 10
285.322701
 20
254.195604
 11
285.445598
 21
254.428485
  0
LINE
  8
CSLAYER1
  6
CONTINUOUS
 62
     6
 10
285.445598
 20
254.428485
 11
285.565743
 21
254.662914
  0
LINE
  8
CSLAYER1
  6
CONTINUOUS
 62
     6
 10
285.565743
 20
254.662914
 11
285.699984
 21
254.933719
  0
LINE
  8
CSLAYER1
  6
CONTINUOUS
 62
     6
 10
285.699984
 20
254.933719
 11
285.831847
 21
255.209484
  0
LINE
  8
CSLAYER1
  6
CONTINUOUS
 62
     6
 10
285.831847
 20
255.209484
 11
285.960554
 21
255.489077
  0
LINE
  8
CSLAYER1
  6
CONTINUOUS
 62
     6
 10
285.960554
 20
255.489077
 11
286.085328
 21
255.771367
  0
LINE
  8
CSLAYER1
  6
CONTINUOUS
 62
     6
 10
286.085328
 20
255.771367
 11
286.205392
 21
256.055223
  0
LINE
  8
CSLAYER1
  6
CONTINUOUS
 62
     6
 10
286.205392
 20
256.055223
 11
286.319966
 21
256.339513
  0
LINE
  8
CSLAYER1
  6
CONTINUOUS
 62
     6
 10
286.319966
 20
256.339513
 11
286.428276
 21
256.623107
  0
LINE
  8
CSLAYER1
  6
CONTINUOUS
 62
     6
 10
286.428276
 20
256.623107
 11
286.529541
 21
256.904872
  0
LINE
  8
CSLAYER1
  6
CONTINUOUS
 62
     6
 10
286.529541
 20
256.904872
 11
286.622986
 21
257.183678
  0
LINE
  8
CSLAYER1
  6
CONTINUOUS
 62
     6
 10
286.622986
 20
257.183678
 11
286.707832
 21
257.458393
  0
LINE
  8
CSLAYER1
  6
CONTINUOUS
 62
     6
 10
286.707832
 20
257.458393
 11
286.783302
 21
257.727886
  0
LINE
  8
CSLAYER1
  6
CONTINUOUS
 62
     6
 10
286.783302
 20
257.727886
 11
286.857842
 21
258.013324
  0
LINE
  8
CSLAYER1
  6
CONTINUOUS
 62
     6
 10
286.857842
 20
258.013324
 11
286.933850
 21
258.312503
  0
LINE
  8
CSLAYER1
  6
CONTINUOUS
 62
     6
 10
286.933850
 20
258.312503
 11
287.010194
 21
258.622169
  0
LINE
  8
CSLAYER1
  6
CONTINUOUS
 62
     6
 10
287.010194
 20
258.622169
 11
287.085740
 21
258.939069
  0
LINE
  8
CSLAYER1
  6
CONTINUOUS
 62
     6
 10
287.085740
 20
258.939069
 11
287.159355
 21
259.259951
  0
LINE
  8
CSLAYER1
  6
CONTINUOUS
 62
     6
 10
287.159355
 20
259.259951
 11
287.229908
 21
259.581562
  0
LINE
  8
CSLAYER1
  6
CONTINUOUS
 62
     6
 10
287.229908
 20
259.581562
 11
287.296265
 21
259.900649
  0
LINE
  8
CSLAYER1
  6
CONTINUOUS
 62
     6
 10
287.296265
 20
259.900649
 11
287.357293
 21
260.213961
  0
LINE
  8
CSLAYER1
  6
CONTINUOUS
 62
     6
 10
287.357293
 20
260.213961
 11
287.411860
 21
260.518243
  0
LINE
  8
CSLAYER1
  6
CONTINUOUS
 62
     6
 10
287.411860
 20
260.518243
 11
287.489801
 21
261.002757
  0
LINE
  8
CSLAYER1
  6
CONTINUOUS
 62
     6
 10
287.361400
 20
260.236863
 11
287.313154
 21
260.149029
  0
LINE
  8
CSLAYER1
  6
CONTINUOUS
 62
     6
 10
287.313154
 20
260.149029
 11
287.203267
 21
259.957220
  0
LINE
  8
CSLAYER1
  6
CONTINUOUS
 62
     6
 10
287.203267
 20
259.957220
 11
287.085013
 21
259.757733
  0
LINE
  8
CSLAYER1
  6
CONTINUOUS
 62
     6
 10
287.085013
 20
259.757733
 11
286.959974
 21
259.552754
  0
LINE
  8
CSLAYER1
  6
CONTINUOUS
 62
     6
 10
286.959974
 20
259.552754
 11
286.829733
 21
259.344468
  0
LINE
  8
CSLAYER1
  6
CONTINUOUS
 62
     6
 10
286.829733
 20
259.344468
 11
286.695870
 21
259.135062
  0
LINE
  8
CSLAYER1
  6
CONTINUOUS
 62
     6
 10
286.695870
 20
259.135062
 11
286.559968
 21
258.926723
  0
LINE
  8
CSLAYER1
  6
CONTINUOUS
 62
     6
 10
286.559968
 20
258.926723
 11
286.423608
 21
258.721635
  0
LINE
  8
CSLAYER1
  6
CONTINUOUS
 62
     6
 10
286.423608
 20
258.721635
 11
286.288371
 21
258.521986
  0
LINE
  8
CSLAYER1
  6
CONTINUOUS
 62
     6
 10
286.288371
 20
258.521986
 11
286.155840
 21
258.329961
  0
LINE
  8
CSLAYER1
  6
CONTINUOUS
 62
     6
 10
286.155840
 20
258.329961
 11
286.027596
 21
258.147747
  0
LINE
  8
CSLAYER1
  6
CONTINUOUS
 62
     6
 10
286.027596
 20
258.147747
 11
285.922515
 21
258.003567
  0
LINE
  8
CSLAYER1
  6
CONTINUOUS
 62
     6
 10
285.922515
 20
258.003567
 11
285.810625
 21
257.856517
  0
LINE
  8
CSLAYER1
  6
CONTINUOUS
 62
     6
 10
285.810625
 20
257.856517
 11
285.693056
 21
257.707496
  0
LINE
  8
CSLAYER1
  6
CONTINUOUS
 62
     6
 10
285.693056
 20
257.707496
 11
285.570943
 21
257.557401
  0
LINE
  8
CSLAYER1
  6
CONTINUOUS
 62
     6
 10
285.570943
 20
257.557401
 11
285.445417
 21
257.407133
  0
LINE
  8
CSLAYER1
  6
CONTINUOUS
 62
     6
 10
285.445417
 20
257.407133
 11
285.317611
 21
257.257590
  0
LINE
  8
CSLAYER1
  6
CONTINUOUS
 62
     6
 10
285.317611
 20
257.257590
 11
285.188659
 21
257.109672
  0
LINE
  8
CSLAYER1
  6
CONTINUOUS
 62
     6
 10
285.188659
 20
257.109672
 11
285.059691
 21
256.964278
  0
LINE
  8
CSLAYER1
  6
CONTINUOUS
 62
     6
 10
285.059691
 20
256.964278
 11
284.931842
 21
256.822306
  0
LINE
  8
CSLAYER1
  6
CONTINUOUS
 62
     6
 10
284.931842
 20
256.822306
 11
284.806244
 21
256.684656
  0
LINE
  8
CSLAYER1
  6
CONTINUOUS
 62
     6
 10
284.806244
 20
256.684656
 11
284.684029
 21
256.552227
  0
LINE
  8
CSLAYER1
  6
CONTINUOUS
 62
     6
 10
284.684029
 20
256.552227
 11
284.539053
 21
256.400067
  0
LINE
  8
CSLAYER1
  6
CONTINUOUS
 62
     6
 10
284.539053
 20
256.400067
 11
284.385877
 21
256.246116
  0
LINE
  8
CSLAYER1
  6
CONTINUOUS
 62
     6
 10
284.385877
 20
256.246116
 11
284.226469
 21
256.090682
  0
LINE
  8
CSLAYER1
  6
CONTINUOUS
 62
     6
 10
284.226469
 20
256.090682
 11
284.062792
 21
255.934074
  0
LINE
  8
CSLAYER1
  6
CONTINUOUS
 62
     6
 10
284.062792
 20
255.934074
 11
283.896812
 21
255.776600
  0
LINE
  8
CSLAYER1
  6
CONTINUOUS
 62
     6
 10
283.896812
 20
255.776600
 11
283.730494
 21
255.618569
  0
LINE
  8
CSLAYER1
  6
CONTINUOUS
 62
     6
 10
283.730494
 20
255.618569
 11
283.565804
 21
255.460289
  0
LINE
  8
CSLAYER1
  6
CONTINUOUS
 62
     6
 10
283.565804
 20
255.460289
 11
283.404707
 21
255.302069
  0
LINE
  8
CSLAYER1
  6
CONTINUOUS
 62
     6
 10
283.404707
 20
255.302069
 11
283.249167
 21
255.144217
  0
LINE
  8
CSLAYER1
  6
CONTINUOUS
 62
     6
 10
283.249167
 20
255.144217
 11
283.101151
 21
254.987042
  0
LINE
  8
CSLAYER1
  6
CONTINUOUS
 62
     6
 10
283.101151
 20
254.987042
 11
282.962624
 21
254.830852
  0
LINE
  8
CSLAYER1
  6
CONTINUOUS
 62
     6
 10
282.962624
 20
254.830852
 11
282.836709
 21
254.684270
  0
LINE
  8
CSLAYER1
  6
CONTINUOUS
 62
     6
 10
282.836709
 20
254.684270
 11
282.705899
 21
254.534091
  0
LINE
  8
CSLAYER1
  6
CONTINUOUS
 62
     6
 10
282.705899
 20
254.534091
 11
282.570297
 21
254.381871
  0
LINE
  8
CSLAYER1
  6
CONTINUOUS
 62
     6
 10
282.570297
 20
254.381871
 11
282.430003
 21
254.229167
  0
LINE
  8
CSLAYER1
  6
CONTINUOUS
 62
     6
 10
282.430003
 20
254.229167
 11
282.285120
 21
254.077533
  0
LINE
  8
CSLAYER1
  6
CONTINUOUS
 62
     6
 10
282.285120
 20
254.077533
 11
282.135750
 21
253.928527
  0
LINE
  8
CSLAYER1
  6
CONTINUOUS
 62
     6
 10
282.135750
 20
253.928527
 11
281.981993
 21
253.783703
  0
LINE
  8
CSLAYER1
  6
CONTINUOUS
 62
     6
 10
281.981993
 20
253.783703
 11
281.823952
 21
253.644618
  0
LINE
  8
CSLAYER1
  6
CONTINUOUS
 62
     6
 10
281.823952
 20
253.644618
 11
281.661729
 21
253.512827
  0
LINE
  8
CSLAYER1
  6
CONTINUOUS
 62
     6
 10
281.661729
 20
253.512827
 11
281.495425
 21
253.389888
  0
LINE
  8
CSLAYER1
  6
CONTINUOUS
 62
     6
 10
281.495425
 20
253.389888
 11
281.325142
 21
253.277355
  0
LINE
  8
CSLAYER1
  6
CONTINUOUS
 62
     6
 10
281.325142
 20
253.277355
 11
281.232408
 21
253.221928
  0
LINE
  8
CSLAYER1
  6
CONTINUOUS
 62
     6
 10
281.232408
 20
253.221928
 11
281.137816
 21
253.169252
  0
LINE
  8
CSLAYER1
  6
CONTINUOUS
 62
     6
 10
281.137816
 20
253.169252
 11
281.041551
 21
253.119050
  0
LINE
  8
CSLAYER1
  6
CONTINUOUS
 62
     6
 10
281.041551
 20
253.119050
 11
280.943800
 21
253.071049
  0
LINE
  8
CSLAYER1
  6
CONTINUOUS
 62
     6
 10
280.943800
 20
253.071049
 11
280.844748
 21
253.024973
  0
LINE
  8
CSLAYER1
  6
CONTINUOUS
 62
     6
 10
280.844748
 20
253.024973
 11
280.744581
 21
252.980546
  0
LINE
  8
CSLAYER1
  6
CONTINUOUS
 62
     6
 10
280.744581
 20
252.980546
 11
280.643486
 21
252.937495
  0
LINE
  8
CSLAYER1
  6
CONTINUOUS
 62
     6
 10
280.643486
 20
252.937495
 11
280.541646
 21
252.895544
  0
LINE
  8
CSLAYER1
  6
CONTINUOUS
 62
     6
 10
280.541646
 20
252.895544
 11
280.439250
 21
252.854417
  0
LINE
  8
CSLAYER1
  6
CONTINUOUS
 62
     6
 10
280.439250
 20
252.854417
 11
280.336482
 21
252.813841
  0
LINE
  8
CSLAYER1
  6
CONTINUOUS
 62
     6
 10
280.336482
 20
252.813841
 11
280.233528
 21
252.773540
  0
ARC
  8
CSLAYER1
  6
CONTINUOUS
 62
     6
 10
285.191924
 20
250.352165
 40
1.200008
 50
30.461486
 51
90.461486
  0
LINE
  8
CSLAYER1
  6
CONTINUOUS
 62
     6
 10
293.585718
 20
262.802776
 11
293.141839
 21
263.502757
  0
LINE
  8
CSLAYER1
  6
CONTINUOUS
 62
     6
 10
293.641839
 20
263.502757
 11
294.085718
 21
262.802776
  0
ARC
  8
CSLAYER1
  6
CONTINUOUS
 62
     6
 10
296.289789
 20
262.902751
 40
0.100000
 50
270.000001
 51
359.942691
  0
LINE
  8
CSLAYER1
  6
CONTINUOUS
 62
     6
 10
296.389764
 20
262.902751
 11
296.389764
 21
263.402751
  0
ARC
  8
CSLAYER1
  6
CONTINUOUS
 62
     6
 10
296.289789
 20
263.402751
 40
0.100000
 50
0.000010
 51
90.000016
  0
LINE
  8
CSLAYER1
  6
CONTINUOUS
 62
     6
 10
306.489801
 20
261.502757
 11
306.489801
 21
265.502757
  0
LINE
  8
CSLAYER1
  6
CONTINUOUS
 62
     6
 10
306.489801
 20
261.502757
 11
319.489801
 21
261.502757
  0
LINE
  8
CSLAYER1
  6
CONTINUOUS
 62
     6
 10
316.489801
 20
279.502757
 11
280.489801
 21
279.502757
  0
ARC
  8
CSLAYER1
  6
CONTINUOUS
 62
     6
 10
280.489801
 20
280.502757
 40
1.000000
 50
179.999995
 51
269.999984
  0
LINE
  8
CSLAYER1
  6
CONTINUOUS
 62
     6
 10
279.489801
 20
280.502757
 11
279.489801
 21
281.502757
  0
ARC
  8
CSLAYER1
  6
CONTINUOUS
 62
     6
 10
280.489801
 20
281.502757
 40
1.000000
 50
89.999999
 51
179.999981
  0
LINE
  8
CSLAYER1
  6
CONTINUOUS
 62
     6
 10
280.489801
 20
282.502757
 11
316.489801
 21
282.502757
  0
ARC
  8
CSLAYER1
  6
CONTINUOUS
 62
     6
 10
316.489801
 20
281.502757
 40
1.000000
 50
0.057309
 51
89.999999
  0
LINE
  8
CSLAYER1
  6
CONTINUOUS
 62
     6
 10
317.489801
 20
281.502757
 11
317.489801
 21
280.502757
  0
ARC
  8
CSLAYER1
  6
CONTINUOUS
 62
     6
 10
316.489801
 20
280.502757
 40
1.000000
 50
269.999997
 51
360.000000
  0
ARC
  8
CSLAYER1
  6
CONTINUOUS
 62
     6
 10
316.589380
 20
437.447002
 40
1.000000
 50
269.999984
 51
353.999997
  0
LINE
  8
CSLAYER1
  6
CONTINUOUS
 62
     6
 10
317.583948
 20
437.342510
 11
318.231897
 21
443.507732
  0
ARC
  8
CSLAYER1
  6
CONTINUOUS
 62
     6
 10
319.226465
 20
443.403178
 40
1.000000
 50
89.999999
 51
173.999974
  0
LINE
  8
CSLAYER1
  6
CONTINUOUS
 62
     6
 10
319.489862
 20
441.447002
 11
318.014795
 21
441.447002
  0
LINE
  8
CSLAYER1
  6
CONTINUOUS
 62
     6
 10
317.583948
 20
441.342510
 11
318.281579
 21
447.979961
  0
ARC
  8
CSLAYER1
  6
CONTINUOUS
 62
     6
 10
319.276086
 20
447.875469
 40
1.000000
 50
89.999999
 51
173.999974
  0
LINE
  8
CSLAYER1
  6
CONTINUOUS
 62
     6
 10
314.132898
 20
449.053813
 11
282.175805
 21
449.053813
  0
LINE
  8
CSLAYER1
  6
CONTINUOUS
 62
     6
 10
278.698083
 20
447.979961
 11
279.395715
 21
441.342510
  0
ARC
  8
CSLAYER1
  6
CONTINUOUS
 62
     6
 10
280.390222
 20
441.447002
 40
1.000000
 50
186.000002
 51
269.999997
  0
LINE
  8
CSLAYER1
  6
CONTINUOUS
 62
     6
 10
280.390222
 20
440.447002
 11
316.589380
 21
440.447002
  0
ARC
  8
CSLAYER1
  6
CONTINUOUS
 62
     6
 10
316.589380
 20
441.447002
 40
1.000000
 50
269.999984
 51
353.999997
  0
LINE
  8
CSLAYER1
  6
CONTINUOUS
 62
     6
 10
316.589380
 20
436.447002
 11
280.390222
 21
436.447002
  0
ARC
  8
CSLAYER1
  6
CONTINUOUS
 62
     6
 10
280.390222
 20
437.447002
 40
1.000000
 50
186.000002
 51
269.999997
  0
LINE
  8
CSLAYER1
  6
CONTINUOUS
 62
     6
 10
279.395715
 20
437.342510
 11
278.747705
 21
443.507732
  0
ARC
  8
CSLAYER1
  6
CONTINUOUS
 62
     6
 10
277.753198
 20
443.403178
 40
1.000000
 50
6.000011
 51
89.999999
  0
LINE
  8
CSLAYER1
  6
CONTINUOUS
 62
     6
 10
278.964258
 20
441.447002
 11
267.489831
 21
441.447002
  0
LINE
  8
CSLAYER1
  6
CONTINUOUS
 62
     6
 10
267.489831
 20
441.447002
 11
266.489831
 21
442.447002
  0
LINE
  8
CSLAYER1
  6
CONTINUOUS
 62
     6
 10
266.489862
 20
442.446986
 11
266.489862
 21
528.446986
  0
LINE
  8
CSLAYER1
  6
CONTINUOUS
 62
     6
 10
266.489862
 20
528.446986
 11
267.489862
 21
529.446986
  0
LINE
  8
CSLAYER1
  6
CONTINUOUS
 62
     6
 10
267.489862
 20
529.446986
 11
267.489862
 21
441.446986
  0
LINE
  8
CSLAYER1
  6
CONTINUOUS
 62
     6
 10
267.489862
 20
441.446986
 11
266.489862
 21
442.446986
  0
ARC
  8
CSLAYER1
  6
CONTINUOUS
 62
     6
 10
277.703515
 20
447.875469
 40
1.000000
 50
6.000011
 51
89.999999
  0
LINE
  8
CSLAYER1
  6
CONTINUOUS
 62
     6
 10
282.175805
 20
521.840190
 11
314.132898
 21
521.840190
  0
ARC
  8
CSLAYER1
  6
CONTINUOUS
 62
     6
 10
319.276086
 20
523.018596
 40
1.000000
 50
186.000016
 51
269.999991
  0
LINE
  8
CSLAYER1
  6
CONTINUOUS
 62
     6
 10
318.281579
 20
522.914043
 11
317.583948
 21
529.551555
  0
ARC
  8
CSLAYER1
  6
CONTINUOUS
 62
     6
 10
316.589380
 20
529.447002
 40
1.000000
 50
5.999983
 51
89.999999
  0
LINE
  8
CSLAYER1
  6
CONTINUOUS
 62
     6
 10
316.589380
 20
530.447002
 11
280.390222
 21
530.447002
  0
ARC
  8
CSLAYER1
  6
CONTINUOUS
 62
     6
 10
280.390222
 20
529.447002
 40
1.000000
 50
89.999999
 51
173.999988
  0
LINE
  8
CSLAYER1
  6
CONTINUOUS
 62
     6
 10
279.395715
 20
529.551555
 11
278.698083
 21
522.914043
  0
ARC
  8
CSLAYER1
  6
CONTINUOUS
 62
     6
 10
277.703515
 20
523.018596
 40
1.000000
 50
269.999991
 51
353.999979
  0
ARC
  8
CSLAYER1
  6
CONTINUOUS
 62
     6
 10
277.753198
 20
527.490825
 40
1.000000
 50
269.999991
 51
353.999979
  0
LINE
  8
CSLAYER1
  6
CONTINUOUS
 62
     6
 10
278.747705
 20
527.386272
 11
279.395715
 21
533.551555
  0
ARC
  8
CSLAYER1
  6
CONTINUOUS
 62
     6
 10
280.390222
 20
533.447002
 40
1.000000
 50
89.999999
 51
173.999988
  0
LINE
  8
CSLAYER1
  6
CONTINUOUS
 62
     6
 10
280.390222
 20
534.447002
 11
316.589380
 21
534.447002
  0
ARC
  8
CSLAYER1
  6
CONTINUOUS
 62
     6
 10
316.589380
 20
533.447002
 40
1.000000
 50
5.999983
 51
89.999999
  0
LINE
  8
CSLAYER1
  6
CONTINUOUS
 62
     6
 10
317.583948
 20
533.551555
 11
318.231897
 21
527.386272
  0
ARC
  8
CSLAYER1
  6
CONTINUOUS
 62
     6
 10
319.226465
 20
527.490825
 40
1.000000
 50
186.000016
 51
269.999991
  0
LINE
  8
CSLAYER1
  6
CONTINUOUS
 62
     6
 10
319.489862
 20
529.447002
 11
318.014795
 21
529.447002
  0
LINE
  8
CSLAYER1
  6
CONTINUOUS
 62
     6
 10
356.489862
 20
530.502757
 11
356.489862
 21
550.502757
  0
ARC
  8
CSLAYER1
  6
CONTINUOUS
 62
     6
 10
371.489862
 20
550.502757
 40
15.000000
 50
90.000000
 51
180.000000
  0
LINE
  8
CSLAYER1
  6
CONTINUOUS
 62
     6
 10
278.964258
 20
529.447002
 11
267.489831
 21
529.447002
  0
LINE
  8
CSLAYER1
  6
CONTINUOUS
 62
     6
 10
267.489831
 20
529.447002
 11
266.489831
 21
528.447002
  0
CIRCLE
  8
CSLAYER1
  6
CONTINUOUS
 62
     6
 10
491.489862
 20
170.502757
 40
6.000000
  0
CIRCLE
  8
CSLAYER1
  6
DASHED
 62
     6
 10
491.489862
 20
170.502757
 40
11.500000
  0
LINE
  8
CSLAYER1
  6
CONTINUOUS
 62
     6
 10
625.104499
 20
215.502757
 11
625.104499
 21
235.584802
  0
LINE
  8
CSLAYER1
  6
CONTINUOUS
 62
     6
 10
625.104499
 20
235.584802
 11
631.104499
 21
305.502757
  0
LINE
  8
CSLAYER1
  6
CONTINUOUS
 62
     6
 10
657.324317
 20
348.445016
 11
657.324317
 21
349.949645
  0
ARC
  8
CSLAYER1
  6
CONTINUOUS
 62
     6
 10
656.213192
 20
349.949645
 40
1.111111
 50
0.000005
 51
89.942654
  0
LINE
  8
CSLAYER1
  6
CONTINUOUS
 62
     6
 10
656.213192
 20
351.060711
 11
654.708679
 21
351.060711
  0
ARC
  8
CSLAYER1
  6
CONTINUOUS
 62
     6
 10
658.435442
 20
352.171836
 40
3.888889
 50
163.398416
 51
196.601577
  0
LINE
  8
CSLAYER1
  6
CONTINUOUS
 62
     6
 10
654.708679
 20
353.282961
 11
656.213192
 21
353.282961
  0
ARC
  8
CSLAYER1
  6
CONTINUOUS
 62
     6
 10
656.213192
 20
354.394028
 40
1.111111
 50
-89.999984
 51
0.000005
  0
LINE
  8
CSLAYER1
  6
CONTINUOUS
 62
     6
 10
657.324317
 20
354.394028
 11
657.324317
 21
355.898657
  0
ARC
  8
CSLAYER1
  6
CONTINUOUS
 62
     6
 10
658.435442
 20
352.171836
 40
3.888889
 50
73.398406
 51
106.601595
  0
LINE
  8
CSLAYER1
  6
CONTINUOUS
 62
     6
 10
659.546567
 20
355.898657
 11
659.546567
 21
354.394028
  0
ARC
  8
CSLAYER1
  6
CONTINUOUS
 62
     6
 10
660.657692
 20
354.394028
 40
1.111111
 50
180.000010
 51
270.000016
  0
LINE
  8
CSLAYER1
  6
CONTINUOUS
 62
     6
 10
660.657692
 20
353.282961
 11
662.162205
 21
353.282961
  0
ARC
  8
CSLAYER1
  6
CONTINUOUS
 62
     6
 10
658.435442
 20
352.171836
 40
3.888889
 50
-16.601562
 51
16.601572
  0
LINE
  8
CSLAYER1
  6
CONTINUOUS
 62
     6
 10
662.162205
 20
351.060711
 11
660.657692
 21
351.060711
  0
ARC
  8
CSLAYER1
  6
CONTINUOUS
 62
     6
 10
660.657692
 20
349.949645
 40
1.111111
 50
90.000001
 51
179.942691
  0
LINE
  8
CSLAYER1
  6
CONTINUOUS
 62
     6
 10
659.546567
 20
349.949645
 11
659.546567
 21
348.445016
  0
ARC
  8
CSLAYER1
  6
CONTINUOUS
 62
     6
 10
658.435442
 20
352.171836
 40
3.888889
 50
253.398422
 51
286.601583
  0
CIRCLE
  8
CSLAYER1
  6
CONTINUOUS
 62
     6
 10
658.435468
 20
352.171835
 40
7.000000
  0
LINE
  8
CSLAYER1
  6
CONTINUOUS
 62
     6
 10
695.422040
 20
308.002757
 11
698.104499
 21
308.002757
  0
LINE
  8
CSLAYER1
  6
CONTINUOUS
 62
     6
 10
698.104499
 20
308.002757
 11
698.104499
 21
303.002757
  0
LINE
  8
CSLAYER1
  6
CONTINUOUS
 62
     6
 10
698.104499
 20
303.002757
 11
695.422040
 21
303.002757
  0
CIRCLE
  8
CSLAYER1
  6
CONTINUOUS
 62
     6
 10
705.104499
 20
305.502757
 40
74.000000
  0
CIRCLE
  8
CSLAYER1
  6
CONTINUOUS
 62
     6
 10
705.104499
 20
305.502757
 40
57.500000
  0
CIRCLE
  8
CSLAYER1
  6
CONTINUOUS
 62
     6
 10
705.104499
 20
305.502757
 40
35.000000
  0
CIRCLE
  8
CSLAYER1
  6
CONTINUOUS
 62
     6
 10
705.104499
 20
305.502757
 40
20.000000
  0
CIRCLE
  8
CSLAYER1
  6
CONTINUOUS
 62
     6
 10
705.104499
 20
305.502757
 40
10.000000
  0
CIRCLE
  8
CSLAYER1
  6
CONTINUOUS
 62
     6
 10
705.104499
 20
305.502757
 40
12.000000
  0
LINE
  8
CSLAYER1
  6
CONTINUOUS
 62
     6
 10
750.662430
 20
348.445016
 11
750.662430
 21
349.949645
  0
ARC
  8
CSLAYER1
  6
CONTINUOUS
 62
     6
 10
749.551305
 20
349.949645
 40
1.111111
 50
0.057309
 51
89.999999
  0
LINE
  8
CSLAYER1
  6
CONTINUOUS
 62
     6
 10
749.551305
 20
351.060711
 11
748.046792
 21
351.060711
  0
ARC
  8
CSLAYER1
  6
CONTINUOUS
 62
     6
 10
751.773555
 20
352.171836
 40
3.888889
 50
163.398428
 51
196.601562
  0
LINE
  8
CSLAYER1
  6
CONTINUOUS
 62
     6
 10
748.046792
 20
353.282961
 11
749.551305
 21
353.282961
  0
ARC
  8
CSLAYER1
  6
CONTINUOUS
 62
     6
 10
749.551305
 20
354.394028
 40
1.111111
 50
269.999984
 51
359.999990
  0
LINE
  8
CSLAYER1
  6
CONTINUOUS
 62
     6
 10
750.662430
 20
354.394028
 11
750.662430
 21
355.898657
  0
ARC
  8
CSLAYER1
  6
CONTINUOUS
 62
     6
 10
751.773555
 20
352.171836
 40
3.888889
 50
73.398405
 51
106.601594
  0
LINE
  8
CSLAYER1
  6
CONTINUOUS
 62
     6
 10
752.884680
 20
355.898657
 11
752.884680
 21
354.394028
  0
ARC
  8
CSLAYER1
  6
CONTINUOUS
 62
     6
 10
753.995805
 20
354.394028
 40
1.111111
 50
179.999995
 51
269.999984
  0
LINE
  8
CSLAYER1
  6
CONTINUOUS
 62
     6
 10
753.995805
 20
353.282961
 11
755.500318
 21
353.282961
  0
ARC
  8
CSLAYER1
  6
CONTINUOUS
 62
     6
 10
751.773555
 20
352.171836
 40
3.888889
 50
-16.601577
 51
16.601584
  0
LINE
  8
CSLAYER1
  6
CONTINUOUS
 62
     6
 10
755.500318
 20
351.060711
 11
753.995805
 21
351.060711
  0
ARC
  8
CSLAYER1
  6
CONTINUOUS
 62
     6
 10
753.995805
 20
349.949645
 40
1.111111
 50
90.057346
 51
179.999995
  0
LINE
  8
CSLAYER1
  6
CONTINUOUS
 62
     6
 10
752.884680
 20
349.949645
 11
752.884680
 21
348.445016
  0
ARC
  8
CSLAYER1
  6
CONTINUOUS
 62
     6
 10
751.773555
 20
352.171836
 40
3.888889
 50
253.398417
 51
286.601578
  0
CIRCLE
  8
CSLAYER1
  6
CONTINUOUS
 62
     6
 10
751.773529
 20
352.171835
 40
7.000000
  0
LINE
  8
CSLAYER1
  6
CONTINUOUS
 62
     6
 10
779.104499
 20
305.502757
 11
785.104499
 21
235.584802
  0
LINE
  8
CSLAYER1
  6
CONTINUOUS
 62
     6
 10
785.104499
 20
235.584802
 11
785.104499
 21
215.502757
  0
LINE
  8
CSLAYER1
  6
CONTINUOUS
 62
     6
 10
785.104499
 20
215.502757
 11
735.104499
 21
215.502757
  0
LINE
  8
CSLAYER1
  6
CONTINUOUS
 62
     6
 10
735.104499
 20
215.502757
 11
735.104499
 21
227.836806
  0
ARC
  8
CSLAYER1
  6
CONTINUOUS
 62
     6
 10
737.104499
 20
227.836806
 40
2.000000
 50
112.392688
 51
180.000000
  0
ARC
  8
CSLAYER1
  6
CONTINUOUS
 62
     6
 10
705.104499
 20
305.502757
 40
82.000000
 50
292.392688
 51
301.111195
  0
ARC
  8
CSLAYER1
  6
CONTINUOUS
 62
     6
 10
748.507351
 20
233.584802
 40
2.000000
 50
90.000000
 51
121.111195
  0
LINE
  8
CSLAYER1
  6
CONTINUOUS
 62
     6
 10
748.507351
 20
235.584802
 11
783.104499
 21
235.584802
  0
ARC
  8
CSLAYER1
  6
CONTINUOUS
 62
     6
 10
783.104499
 20
233.584802
 40
2.000000
 50
0.000000
 51
90.000000
  0
LINE
  8
CSLAYER1
  6
DASHED
 62
     6
 10
776.104499
 20
235.584802
 11
776.104499
 21
215.502757
  0
LINE
  8
CSLAYER1
  6
DASHED
 62
     6
 10
764.104499
 20
215.502757
 11
764.104499
 21
235.584802
  0
ARC
  8
CSLAYER1
  6
CONTINUOUS
 62
     6
 10
770.709784
 20
239.584802
 40
4.000000
 50
-90.000000
 51
4.904813
  0
LINE
  8
CSLAYER1
  6
CONTINUOUS
 62
     6
 10
774.695137
 20
239.926804
 11
772.418491
 21
266.456537
  0
ARC
  8
CSLAYER1
  6
CONTINUOUS
 62
     6
 10
770.425815
 20
266.285535
 40
2.000000
 50
4.904813
 51
65.211253
  0
ARC
  8
CSLAYER1
  6
CONTINUOUS
 62
     6
 10
751.773555
 20
258.833678
 40
3.888889
 50
-16.601584
 51
16.601577
  0
LINE
  8
CSLAYER1
  6
CONTINUOUS
 62
     6
 10
755.500318
 20
257.722554
 11
753.995805
 21
257.722554
  0
ARC
  8
CSLAYER1
  6
CONTINUOUS
 62
     6
 10
753.995805
 20
256.611487
 40
1.111111
 50
90.000016
 51
180.000005
  0
LINE
  8
CSLAYER1
  6
CONTINUOUS
 62
     6
 10
752.884680
 20
256.611487
 11
752.884680
 21
255.106858
  0
ARC
  8
CSLAYER1
  6
CONTINUOUS
 62
     6
 10
751.773555
 20
258.833678
 40
3.888889
 50
253.398406
 51
286.601595
  0
LINE
  8
CSLAYER1
  6
CONTINUOUS
 62
     6
 10
750.662430
 20
255.106858
 11
750.662430
 21
256.611487
  0
ARC
  8
CSLAYER1
  6
CONTINUOUS
 62
     6
 10
749.551305
 20
256.611487
 40
1.111111
 50
0.000010
 51
90.000016
  0
LINE
  8
CSLAYER1
  6
CONTINUOUS
 62
     6
 10
749.551305
 20
257.722554
 11
748.046792
 21
257.722554
  0
ARC
  8
CSLAYER1
  6
CONTINUOUS
 62
     6
 10
751.773555
 20
258.833678
 40
3.888889
 50
163.398438
 51
196.601572
  0
LINE
  8
CSLAYER1
  6
CONTINUOUS
 62
     6
 10
748.046792
 20
259.944803
 11
749.551305
 21
259.944803
  0
ARC
  8
CSLAYER1
  6
CONTINUOUS
 62
     6
 10
749.551305
 20
261.055870
 40
1.111111
 50
270.000001
 51
359.942691
  0
LINE
  8
CSLAYER1
  6
CONTINUOUS
 62
     6
 10
750.662430
 20
261.055870
 11
750.662430
 21
262.560499
  0
ARC
  8
CSLAYER1
  6
CONTINUOUS
 62
     6
 10
751.773555
 20
258.833678
 40
3.888889
 50
73.398422
 51
106.601583
  0
LINE
  8
CSLAYER1
  6
CONTINUOUS
 62
     6
 10
752.884680
 20
262.560499
 11
752.884680
 21
261.055870
  0
ARC
  8
CSLAYER1
  6
CONTINUOUS
 62
     6
 10
753.995805
 20
261.055870
 40
1.111111
 50
180.000005
 51
269.942654
  0
LINE
  8
CSLAYER1
  6
CONTINUOUS
 62
     6
 10
753.995805
 20
259.944803
 11
755.500318
 21
259.944803
  0
CIRCLE
  8
CSLAYER1
  6
CONTINUOUS
 62
     6
 10
751.773529
 20
258.833680
 40
7.000000
  0
ARC
  8
CSLAYER1
  6
CONTINUOUS
 62
     6
 10
725.104499
 20
220.502757
 40
10.000000
 50
0.000000
 51
90.000000
  0
LINE
  8
CSLAYER1
  6
CONTINUOUS
 62
     6
 10
725.104499
 20
230.502757
 11
685.104499
 21
230.502757
  0
ARC
  8
CSLAYER1
  6
CONTINUOUS
 62
     6
 10
685.104499
 20
220.502757
 40
10.000000
 50
90.000000
 51
180.000000
  0
LINE
  8
CSLAYER1
  6
CONTINUOUS
 62
     6
 10
675.104499
 20
215.502757
 11
625.104499
 21
215.502757
  0
ARC
  8
CSLAYER1
  6
CONTINUOUS
 62
     6
 10
627.104499
 20
233.584802
 40
2.000000
 50
90.000000
 51
180.000000
  0
LINE
  8
CSLAYER1
  6
CONTINUOUS
 62
     6
 10
627.104499
 20
235.584802
 11
661.701646
 21
235.584802
  0
ARC
  8
CSLAYER1
  6
CONTINUOUS
 62
     6
 10
661.701646
 20
233.584802
 40
2.000000
 50
58.888805
 51
90.000000
  0
ARC
  8
CSLAYER1
  6
CONTINUOUS
 62
     6
 10
705.104499
 20
305.502757
 40
82.000000
 50
238.888805
 51
247.607312
  0
ARC
  8
CSLAYER1
  6
CONTINUOUS
 62
     6
 10
673.104499
 20
227.836806
 40
2.000000
 50
0.000000
 51
67.607312
  0
LINE
  8
CSLAYER1
  6
CONTINUOUS
 62
     6
 10
675.104499
 20
227.836806
 11
675.104499
 21
215.502757
  0
LINE
  8
CSLAYER1
  6
DASHED
 62
     6
 10
646.104499
 20
215.502757
 11
646.104499
 21
235.584802
  0
ARC
  8
CSLAYER1
  6
CONTINUOUS
 62
     6
 10
639.499213
 20
239.584802
 40
4.000000
 50
175.095187
 51
270.000000
  0
LINE
  8
CSLAYER1
  6
CONTINUOUS
 62
     6
 10
635.513860
 20
239.926804
 11
637.790506
 21
266.456537
  0
ARC
  8
CSLAYER1
  6
CONTINUOUS
 62
     6
 10
639.783182
 20
266.285535
 40
2.000000
 50
114.788747
 51
175.095187
  0
ARC
  8
CSLAYER1
  6
CONTINUOUS
 62
     6
 10
658.435442
 20
258.833678
 40
3.888889
 50
163.398423
 51
196.601584
  0
LINE
  8
CSLAYER1
  6
CONTINUOUS
 62
     6
 10
654.708679
 20
257.722554
 11
656.213192
 21
257.722554
  0
ARC
  8
CSLAYER1
  6
CONTINUOUS
 62
     6
 10
656.213192
 20
256.611487
 40
1.111111
 50
-0.000005
 51
89.999984
  0
LINE
  8
CSLAYER1
  6
CONTINUOUS
 62
     6
 10
657.324317
 20
256.611487
 11
657.324317
 21
255.106858
  0
ARC
  8
CSLAYER1
  6
CONTINUOUS
 62
     6
 10
658.435442
 20
258.833678
 40
3.888889
 50
253.398405
 51
286.601594
  0
LINE
  8
CSLAYER1
  6
CONTINUOUS
 62
     6
 10
659.546567
 20
255.106858
 11
659.546567
 21
256.611487
  0
ARC
  8
CSLAYER1
  6
CONTINUOUS
 62
     6
 10
660.657692
 20
256.611487
 40
1.111111
 50
89.999984
 51
179.999990
  0
LINE
  8
CSLAYER1
  6
CONTINUOUS
 62
     6
 10
660.657692
 20
257.722554
 11
662.162205
 21
257.722554
  0
ARC
  8
CSLAYER1
  6
CONTINUOUS
 62
     6
 10
658.435442
 20
258.833678
 40
3.888889
 50
-16.601572
 51
16.601562
  0
LINE
  8
CSLAYER1
  6
CONTINUOUS
 62
     6
 10
662.162205
 20
259.944803
 11
660.657692
 21
259.944803
  0
ARC
  8
CSLAYER1
  6
CONTINUOUS
 62
     6
 10
660.657692
 20
261.055870
 40
1.111111
 50
180.057309
 51
269.999999
  0
LINE
  8
CSLAYER1
  6
CONTINUOUS
 62
     6
 10
659.546567
 20
261.055870
 11
659.546567
 21
262.560499
  0
ARC
  8
CSLAYER1
  6
CONTINUOUS
 62
     6
 10
658.435442
 20
258.833678
 40
3.888889
 50
73.398417
 51
106.601578
  0
LINE
  8
CSLAYER1
  6
CONTINUOUS
 62
     6
 10
657.324317
 20
262.560499
 11
657.324317
 21
261.055870
  0
ARC
  8
CSLAYER1
  6
CONTINUOUS
 62
     6
 10
656.213192
 20
261.055870
 40
1.111111
 50
270.057346
 51
359.999995
  0
LINE
  8
CSLAYER1
  6
CONTINUOUS
 62
     6
 10
656.213192
 20
259.944803
 11
654.708679
 21
259.944803
  0
CIRCLE
  8
CSLAYER1
  6
CONTINUOUS
 62
     6
 10
658.435468
 20
258.833680
 40
7.000000
  0
LINE
  8
CSLAYER1
  6
DASHED
 62
     6
 10
634.104499
 20
235.584802
 11
634.104499
 21
215.502757
  0
LINE
  8
CSLAYER1
  6
CONTINUOUS
 62
     6
 10
574.489862
 20
115.502757
 11
538.489862
 21
115.502757
  0
LINE
  8
CSLAYER1
  6
CONTINUOUS
 62
     6
 10
538.489862
 20
116.502757
 11
538.489862
 21
94.502757
  0
ARC
  8
CSLAYER1
  6
CONTINUOUS
 62
     6
 10
537.489862
 20
94.502757
 40
1.000000
 50
270.000000
 51
360.000000
  0
LINE
  8
CSLAYER1
  6
CONTINUOUS
 62
     6
 10
538.489862
 20
95.502757
 11
574.489862
 21
95.502757
  0
LINE
  8
CSLAYER1
  6
CONTINUOUS
 62
     6
 10
574.489862
 20
95.502757
 11
574.489862
 21
115.502757
  0
ARC
  8
CSLAYER1
  6
CONTINUOUS
 62
     6
 10
537.489862
 20
116.502757
 40
1.000000
 50
0.000000
 51
90.000000
  0
ARC
  8
CSLAYER1
  6
CONTINUOUS
 62
     6
 10
536.489862
 20
124.502757
 40
1.000000
 50
0.000000
 51
90.000000
  0
LINE
  8
CSLAYER1
  6
CONTINUOUS
 62
     6
 10
537.489862
 20
124.502757
 11
537.489862
 21
86.502757
  0
ARC
  8
CSLAYER1
  6
CONTINUOUS
 62
     6
 10
536.489862
 20
86.502757
 40
1.000000
 50
270.000000
 51
360.000000
  0
LINE
  8
CSLAYER1
  6
CONTINUOUS
 62
     6
 10
536.489862
 20
72.502757
 11
536.489862
 21
138.502757
  0
ARC
  8
CSLAYER1
  6
CONTINUOUS
 62
     6
 10
534.489862
 20
138.502757
 40
2.000000
 50
0.000000
 51
90.000000
  0
LINE
  8
CSLAYER1
  6
CONTINUOUS
 62
     6
 10
534.489862
 20
140.502757
 11
502.670202
 21
140.502757
  0
LINE
  8
CSLAYER1
  6
CONTINUOUS
 62
     6
 10
497.489862
 20
136.755030
 11
497.489862
 21
74.250484
  0
LINE
  8
CSLAYER1
  6
CONTINUOUS
 62
     6
 10
502.670202
 20
70.502757
 11
534.489862
 21
70.502757
  0
ARC
  8
CSLAYER1
  6
CONTINUOUS
 62
     6
 10
534.489862
 20
72.502757
 40
2.000000
 50
270.000000
 51
360.000000
  0
LINE
  8
CSLAYER1
  6
CONTINUOUS
 62
     6
 10
525.489862
 20
70.502757
 11
525.489862
 21
140.502757
  0
LINE
  8
CSLAYER1
  6
CONTINUOUS
 62
     6
 10
450.489862
 20
135.502757
 11
450.489862
 21
75.502757
  0
LINE
  8
CSLAYER1
  6
CONTINUOUS
 62
     6
 10
443.489862
 20
75.502757
 11
443.489862
 21
135.502757
  0
LINE
  8
CSLAYER1
  6
CONTINUOUS
 62
     6
 10
440.489862
 20
135.502757
 11
440.489862
 21
75.502757
  0
LINE
  8
CSLAYER1
  6
CONTINUOUS
 62
     6
 10
438.989862
 20
75.502757
 11
438.989862
 21
135.502757
  0
CIRCLE
  8
CSLAYER1
  6
CONTINUOUS
 62
     6
 10
491.489862
 20
40.502757
 40
6.000000
  0
CIRCLE
  8
CSLAYER1
  6
DASHED
 62
     6
 10
491.489862
 20
40.502757
 40
11.500000
  0
LINE
  8
CSLAYER1
  6
CENTER
 62
     3
 10
207.159822
 20
211.502757
 11
207.159822
 21
240.145614
  0
ENDSEC
  0
EOF
