  0
SECTION
  2
HEADER
  9
$ACADVER
  1
AC1006
  9
$INSBASE
 10
0.000000
 20
0.000000
 30
0.0
  9
$EXTMIN
 10
0.000000
 20
0.000000
  9
$EXTMAX
 10
841.000000
 20
594.000000
  9
$LIMMIN
 10
0.000000
 20
0.000000
  9
$LIMMAX
 10
841.000000
 20
594.000000
  9
$VIEWCTR
 10
420.500000
 20
297.000000
  9
$VIEWSIZE
 40
594.000000
  9
$SNAPMODE
 70
     0
  9
$SNAPUNIT
 10
1.0
 20
1.0
  9
$SNAPBASE
 10
0.0
 20
0.0
  9
$SNAPANG
 50
0.0
  9
$SNAPSTYLE
 70
     0
  9
$SNAPISOPAIR
 70
     0
  9
$GRIDMODE
 70
     0
  9
$GRIDUNIT
 10
0.0
 20
0.0
  9
$ORTHOMODE
 70
     0
  9
$REGENMODE
 70
     1
  9
$FILLMODE
 70
     1
  9
$QTEXTMODE
 70
     0
  9
$DRAGMODE
 70
     2
  9
$LTSCALE
 40
15.000000
  9
$OSMODE
 70
     0
  9
$ATTMODE
 70
     1
  9
$TEXTSIZE
 40
0.2
  9
$TRACEWID
 40
0.05
  9
$TEXTSTYLE
  7
STANDARD
  9
$CLAYER
  8
CSLAYER1
  9
$CELTYPE
  6
BYLAYER
  9
$CECOLOR
 62
   256
  9
$DIMSCALE
 40
1.0
  9
$DIMASZ
 40
0.18
  9
$DIMEXO
 40
0.0625
  9
$DIMDLI
 40
0.38
  9
$DIMRND
 40
0.0
  9
$DIMDLE
 40
0.0
  9
$DIMEXE
 40
0.18
  9
$DIMTP
 40
0.0
  9
$DIMTM
 40
0.0
  9
$DIMTXT
 40
0.18
  9
$DIMCEN
 40
0.09
  9
$DIMTSZ
 40
0.0
  9
$DIMTOL
 70
     0
  9
$DIMLIM
 70
     0
  9
$DIMTIH
 70
     1
  9
$DIMTOH
 70
     1
  9
$DIMSE1
 70
     0
  9
$DIMSE2
 70
     0
  9
$DIMTAD
 70
     0
  9
$DIMZIN
 70
     0
  9
$DIMBLK
  1

  9
$LUNITS
 70
     2
  9
$LUPREC
 70
     4
  9
$AXISMODE
 70
     0
  9
$AXISUNIT
 10
0.0
 20
0.0
  9
$SKETCHINC
 40
0.1
  9
$FILLETRAD
 40
0.0
  9
$AUNITS
 70
     0
  9
$AUPREC
 70
     0
  9
$MENU
  1
ACAD
  9
$ELEVATION
 40
0.0
  9
$THICKNESS
 40
0.0
  9
$VIEWDIR
 10
0.0
 20
0.0
 30
1.0
  9
$LIMCHECK
 70
     0
  9
$BLIPMODE
 70
     1
  9
$CHAMFERA
 40
0.0
  9
$CHAMFERB
 40
0.0
  9
$FASTZOOM
 70
     1
  9
$SKPOLY
 70
     0
  9
$TDCREATE
 40
0.000000
  9
$TDUPDATE
 40
0.000000
  9
$TDINDWG
 40
0.0
  9
$TDUSRTIMER
 40
0.0
  9
$USRTIMER
 70
     1
  9
$ANGBASE
 50
0.0
  9
$ANGDIR
 70
     0
  9
$PDMODE
 70
     0
  9
$PDSIZE
 40
0.0
  9
$PLINEWID
 40
0.0
  9
$COORDS
 70
     0
  9
$USERI1
 70
     0
  9
$USERI2
 70
     0
  9
$USERI3
 70
     0
  9
$USERI4
 70
     0
  9
$USERI5
 70
     0
  9
$USERR1
 40
0.0
  9
$USERR2
 40
0.0
  9
$USERR3
 40
0.0
  9
$USERR4
 40
0.0
  9
$USERR5
 40
0.0
  0
ENDSEC
  0
SECTION
  2
TABLES
  0
TABLE
  2
LTYPE
 70
     9
  0
LTYPE
  2
CONTINUOUS
 70
    64
  3
Solid line
 72
    65
 73
     0
 40
0.0
  0
LTYPE
  2
DASHED
 70
    64
  3
__ __ __ __ __ __ __ __ __ __ __ __ __ __ __
 72
    65
 73
     2
 40
0.75
 49
0.5
 49
-0.25
  0
LTYPE
  2
HIDDEN
 70
    64
  3
_ _ _ _ _ _ _ _ _ _ _ _ _ _ _ _ _ _ _ _ _ _ _
 72
    65
 73
     2
 40
0.375
 49
0.25
 49
-0.125
  0
LTYPE
  2
DOT
 70
    64
  3
...............................................
 72
    65
 73
     2
 40
0.25
 49
0.0
 49
-0.25
  0
LTYPE
  2
DASHDOT
 70
    64
  3
__ . __ . __ . __ . __ . __ . __ . __ . __ . __
 72
    65
 73
     4
 40
1.0
 49
0.5
 49
-0.25
 49
0.0
 49
-0.25
  0
LTYPE
  2
DIVIDE
 70
    64
  3
__ . . __ . . __ . . __ . . __ . . __ . . __
 72
    65
 73
     6
 40
1.25
 49
0.5
 49
-0.25
 49
0.0
 49
-0.25
 49
0.0
 49
-0.25
  0
LTYPE
  2
CENTER
 70
    64
  3
____ _ ____ _ ____ _ ____ _ ____ _ ____ _ ____ 
 72
    65
 73
     4
 40
2.0
 49
1.25
 49
-0.25
 49
0.25
 49
-0.25
  0
LTYPE
  2
PHANTOM
 70
    64
  3
______  __  __  ______  __  __  ______  __  __ 
 72
    65
 73
     6
 40
2.5
 49
1.25
 49
-0.25
 49
0.25
 49
-0.25
 49
0.25
 49
-0.25
  0
LTYPE
  2
BORDER
 70
    64
  3
__ __ . __ __ . __ __ . __ __ . __ __ . __ __ .
 72
    65
 73
     6
 40
1.75
 49
0.5
 49
-0.25
 49
0.5
 49
-0.25
 49
0.0
 49
-0.25
  0
ENDTAB
  0
TABLE
  2
LAYER
 70
    16
  0
LAYER
  2
CSLAYER1
 70
    64
 62
     7
  6
CONTINUOUS
  0
LAYER
  2
CSLAYER2
 70
    64
 62
     7
  6
CONTINUOUS
  0
LAYER
  2
CSLAYER3
 70
    64
 62
     7
  6
CONTINUOUS
  0
LAYER
  2
CSLAYER4
 70
    64
 62
     7
  6
CONTINUOUS
  0
LAYER
  2
CSLAYER5
 70
    64
 62
     7
  6
CONTINUOUS
  0
LAYER
  2
CSLAYER6
 70
    64
 62
     7
  6
CONTINUOUS
  0
LAYER
  2
CSLAYER7
 70
    64
 62
     7
  6
CONTINUOUS
  0
LAYER
  2
CSLAYER8
 70
    64
 62
     7
  6
CONTINUOUS
  0
LAYER
  2
CSLAYER9
 70
    64
 62
     7
  6
CONTINUOUS
  0
LAYER
  2
CSLAYER10
 70
    64
 62
     7
  6
CONTINUOUS
  0
LAYER
  2
CSLAYER11
 70
    64
 62
     7
  6
CONTINUOUS
  0
LAYER
  2
CSLAYER12
 70
    64
 62
     7
  6
CONTINUOUS
  0
LAYER
  2
CSLAYER13
 70
    64
 62
     7
  6
CONTINUOUS
  0
LAYER
  2
CSLAYER14
 70
    64
 62
     7
  6
CONTINUOUS
  0
LAYER
  2
CSLAYER15
 70
    64
 62
     7
  6
CONTINUOUS
  0
LAYER
  2
CSLAYER16
 70
    64
 62
     7
  6
CONTINUOUS
  0
ENDTAB
  0
TABLE
  2
STYLE
 70
     1
  0
STYLE
  2
JX_FONT
 70
     0
 40
1.0
 41
1.0
 50
0.0
 71
     0
 42
1.0
  3
monotxt
  4
bigfont
  0
ENDTAB
  0
TABLE
  2
VIEW
 70
     0
  0
ENDTAB
  0
ENDSEC
  0
SECTION
  2
BLOCKS
  0
ENDSEC
  0
SECTION
  2
ENTITIES
  0
LINE
  8
CSLAYER1
  6
CENTER
 62
     3
 10
119.610908
 20
232.934898
 11
119.610908
 21
259.934898
  0
LINE
  8
CSLAYER1
  6
CENTER
 62
     3
 10
122.436669
 20
259.260659
 11
143.410918
 21
280.234908
  0
ARC
  8
CSLAYER1
  6
CENTER
 62
     3
 10
172.110908
 20
308.934898
 40
59.000000
 50
214.319218
 51
234.510651
  0
LINE
  8
CSLAYER1
  6
CENTER
 62
     3
 10
172.110908
 20
238.934898
 11
172.110908
 21
378.934898
  0
ARC
  8
CSLAYER1
  6
CENTER
 62
     3
 10
172.110908
 20
308.934898
 40
59.000000
 50
125.489327
 51
145.680787
  0
LINE
  8
CSLAYER1
  6
CENTER
 62
     3
 10
137.003424
 20
344.042381
 11
122.436669
 21
358.609136
  0
LINE
  8
CSLAYER1
  6
CENTER
 62
     3
 10
102.110908
 20
308.934898
 11
242.110908
 21
308.934898
  0
ARC
  8
CSLAYER1
  6
CENTER
 62
     3
 10
172.110908
 20
308.934898
 40
59.000000
 50
34.319213
 51
54.510673
  0
LINE
  8
CSLAYER1
  6
CENTER
 62
     3
 10
207.218391
 20
344.042381
 11
221.785146
 21
358.609136
  0
LINE
  8
CSLAYER1
  6
CENTER
 62
     3
 10
282.110908
 20
308.934898
 11
577.610877
 21
308.934898
  0
LINE
  8
CSLAYER1
  6
CENTER
 62
     3
 10
615.610877
 20
308.934898
 11
755.610877
 21
308.934898
  0
ARC
  8
CSLAYER1
  6
CENTER
 62
     3
 10
685.610877
 20
308.934898
 40
59.000000
 50
34.319213
 51
54.510673
  0
LINE
  8
CSLAYER1
  6
CENTER
 62
     3
 10
720.718360
 20
344.042381
 11
735.285115
 21
358.609136
  0
LINE
  8
CSLAYER1
  6
CENTER
 62
     3
 10
685.610877
 20
378.934898
 11
685.610877
 21
238.934898
  0
ARC
  8
CSLAYER1
  6
CENTER
 62
     3
 10
685.610877
 20
308.934898
 40
59.000000
 50
214.319218
 51
234.510651
  0
LINE
  8
CSLAYER1
  6
CENTER
 62
     3
 10
633.110877
 20
259.934898
 11
633.110877
 21
232.934898
  0
LINE
  8
CSLAYER1
  6
CENTER
 62
     3
 10
635.936638
 20
259.260659
 11
650.503393
 21
273.827414
  0
LINE
  8
CSLAYER1
  6
CENTER
 62
     3
 10
720.718360
 20
273.827414
 11
735.285115
 21
259.260659
  0
LINE
  8
CSLAYER1
  6
CENTER
 62
     3
 10
738.110877
 20
259.934898
 11
738.110877
 21
232.934898
  0
ARC
  8
CSLAYER1
  6
CENTER
 62
     3
 10
685.610877
 20
308.934898
 40
59.000000
 50
305.489349
 51
325.680782
  0
LINE
  8
CSLAYER1
  6
CENTER
 62
     3
 10
650.503393
 20
344.042381
 11
635.936638
 21
358.609136
  0
ARC
  8
CSLAYER1
  6
CENTER
 62
     3
 10
685.610877
 20
308.934898
 40
59.000000
 50
125.489327
 51
145.680787
  0
LINE
  8
CSLAYER1
  6
CENTER
 62
     3
 10
472.562300
 20
350.654198
 11
437.610877
 21
350.654198
  0
LINE
  8
CSLAYER1
  6
CONTINUOUS
 62
     3
 10
404.110847
 20
353.934898
 11
404.110847
 21
347.340633
  0
ARC
  8
CSLAYER1
  6
CONTINUOUS
 62
     3
 10
402.110847
 20
347.340633
 40
2.000000
 50
270.000001
 51
359.942691
  0
LINE
  8
CSLAYER1
  6
CONTINUOUS
 62
     3
 10
402.110847
 20
345.340633
 11
374.110847
 21
345.340663
  0
ARC
  8
CSLAYER1
  6
CONTINUOUS
 62
     3
 10
374.110847
 20
347.340663
 40
2.000000
 50
180.000005
 51
270.000001
  0
LINE
  8
CSLAYER1
  6
CONTINUOUS
 62
     3
 10
372.110847
 20
347.340663
 11
372.110847
 21
353.934898
  0
LINE
  8
CSLAYER1
  6
CENTER
 62
     3
 10
319.110877
 20
340.934898
 11
319.110877
 21
276.934898
  0
LINE
  8
CSLAYER1
  6
CENTER
 62
     3
 10
314.110877
 20
271.934898
 11
314.110877
 21
261.234886
  0
LINE
  8
CSLAYER1
  6
CENTER
 62
     3
 10
380.610877
 20
259.934898
 11
380.610877
 21
232.934898
  0
LINE
  8
CSLAYER1
  6
CENTER
 62
     3
 10
380.610877
 20
180.934898
 11
380.610877
 21
152.934898
  0
LINE
  8
CSLAYER1
  6
CENTER
 62
     3
 10
388.110877
 20
162.434898
 11
373.110877
 21
162.434898
  0
LINE
  8
CSLAYER1
  6
CENTER
 62
     3
 10
388.110877
 20
168.434898
 11
373.110877
 21
168.434898
  0
LINE
  8
CSLAYER1
  6
CENTER
 62
     3
 10
319.110877
 20
166.934883
 11
319.110877
 21
144.328072
  0
LINE
  8
CSLAYER1
  6
CENTER
 62
     3
 10
314.110877
 20
133.934898
 11
314.110877
 21
91.934898
  0
LINE
  8
CSLAYER1
  6
CENTER
 62
     3
 10
308.360884
 20
97.934898
 11
319.860884
 21
97.934898
  0
LINE
  8
CSLAYER1
  6
CENTER
 62
     3
 10
308.110877
 20
103.184861
 11
308.110877
 21
122.684861
  0
LINE
  8
CSLAYER1
  6
CENTER
 62
     3
 10
308.360884
 20
127.934898
 11
319.860884
 21
127.934898
  0
LINE
  8
CSLAYER1
  6
CENTER
 62
     3
 10
282.110908
 20
112.934898
 11
577.610877
 21
112.934898
  0
LINE
  8
CSLAYER1
  6
CENTER
 62
     3
 10
478.110877
 20
63.434898
 11
463.110877
 21
63.434898
  0
LINE
  8
CSLAYER1
  6
CENTER
 62
     3
 10
463.110877
 20
57.434898
 11
478.110877
 21
57.434898
  0
LINE
  8
CSLAYER1
  6
CENTER
 62
     3
 10
470.610877
 20
44.934898
 11
470.610877
 21
72.934898
  0
LINE
  8
CSLAYER1
  6
CENTER
 62
     3
 10
470.610877
 20
152.934898
 11
470.610877
 21
180.934898
  0
LINE
  8
CSLAYER1
  6
CENTER
 62
     3
 10
478.110877
 20
168.434898
 11
463.110877
 21
168.434898
  0
LINE
  8
CSLAYER1
  6
CENTER
 62
     3
 10
463.110877
 20
162.434898
 11
478.110877
 21
162.434898
  0
LINE
  8
CSLAYER1
  6
CENTER
 62
     3
 10
470.610877
 20
232.934898
 11
470.610877
 21
259.934898
  0
LINE
  8
CSLAYER1
  6
CENTER
 62
     3
 10
472.562300
 20
267.215598
 11
437.610877
 21
267.215598
  0
LINE
  8
CSLAYER1
  6
CENTER
 62
     3
 10
470.610877
 20
423.306113
 11
470.610877
 21
438.865089
  0
LINE
  8
CSLAYER1
  6
CENTER
 62
     3
 10
472.562300
 20
445.215598
 11
437.610877
 21
445.215598
  0
ARC
  8
CSLAYER1
  6
CONTINUOUS
 62
     3
 10
402.110877
 20
463.434898
 40
2.000000
 50
270.000000
 51
360.000000
  0
LINE
  8
CSLAYER1
  6
CONTINUOUS
 62
     3
 10
402.110877
 20
461.434898
 11
374.110877
 21
461.434898
  0
ARC
  8
CSLAYER1
  6
CONTINUOUS
 62
     3
 10
374.110877
 20
463.434898
 40
2.000000
 50
180.000000
 51
270.000000
  0
LINE
  8
CSLAYER1
  6
CONTINUOUS
 62
     3
 10
372.110877
 20
463.434898
 11
372.110877
 21
510.434898
  0
ARC
  8
CSLAYER1
  6
CONTINUOUS
 62
     3
 10
374.110877
 20
510.434898
 40
2.000000
 50
90.000000
 51
180.000000
  0
LINE
  8
CSLAYER1
  6
CONTINUOUS
 62
     3
 10
374.110877
 20
512.434898
 11
402.110877
 21
512.434898
  0
ARC
  8
CSLAYER1
  6
CONTINUOUS
 62
     3
 10
402.110877
 20
510.434898
 40
2.000000
 50
0.000000
 51
90.000000
  0
LINE
  8
CSLAYER1
  6
CONTINUOUS
 62
     3
 10
404.110877
 20
510.434898
 11
404.110877
 21
463.434898
  0
LINE
  8
CSLAYER1
  6
CENTER
 62
     3
 10
437.610877
 20
528.654198
 11
472.562300
 21
528.654198
  0
LINE
  8
CSLAYER1
  6
CENTER
 62
     3
 10
470.610877
 20
535.004706
 11
470.610877
 21
550.563682
  0
LINE
  8
CSLAYER1
  6
CENTER
 62
     3
 10
577.610877
 20
486.934898
 11
282.110847
 21
486.934898
  0
LINE
  8
CSLAYER1
  6
CENTER
 62
     3
 10
319.110847
 20
518.328072
 11
319.110847
 21
540.934883
  0
LINE
  8
CSLAYER1
  6
CENTER
 62
     3
 10
380.610877
 20
549.669488
 11
380.610877
 21
529.103025
  0
LINE
  8
CSLAYER1
  6
CENTER
 62
     3
 10
319.110847
 20
455.541695
 11
319.110847
 21
432.934883
  0
LINE
  8
CSLAYER1
  6
CENTER
 62
     3
 10
380.610877
 20
424.200307
 11
380.610877
 21
444.766770
  0
ARC
  8
CSLAYER1
  6
CENTER
 62
     3
 10
172.110908
 20
308.934898
 40
59.000000
 50
305.489349
 51
325.680782
  0
LINE
  8
CSLAYER1
  6
CENTER
 62
     3
 10
221.785147
 20
259.260659
 11
200.810899
 21
280.234908
  0
LINE
  8
CSLAYER1
  6
CENTER
 62
     3
 10
224.610908
 20
259.934898
 11
224.610908
 21
232.934898
  0
LINE
  8
CSLAYER1
  6
CENTER
 62
     3
 10
319.110877
 20
81.541695
 11
319.110877
 21
58.934883
  0
LINE
  8
CSLAYER1
  6
CENTER
 62
     3
 10
388.110877
 20
57.434898
 11
373.110877
 21
57.434898
  0
LINE
  8
CSLAYER1
  6
CENTER
 62
     3
 10
373.110877
 20
63.434898
 11
388.110877
 21
63.434898
  0
LINE
  8
CSLAYER1
  6
CENTER
 62
     3
 10
380.610877
 20
72.934898
 11
380.610877
 21
44.934898
  0
TEXT
  8
CSLAYER1
 62
     3
 10
386.167633
 20
492.184906
 40
3.500000
 41
1.125000
  1
N P
 50
-90.000000
 51
10.000000
  7
JX_FONT
 72
     5
 11
386.167633
 21
481.684906
  0
LINE
  8
CSLAYER1
  6
CONTINUOUS
 62
     6
 10
107.110908
 20
238.934898
 11
142.110908
 21
238.934898
  0
LINE
  8
CSLAYER1
  6
CONTINUOUS
 62
     6
 10
142.110908
 20
238.934898
 11
142.110908
 21
251.934898
  0
ARC
  8
CSLAYER1
  6
CONTINUOUS
 62
     6
 10
140.110908
 20
251.934898
 40
2.000000
 50
0.000000
 51
90.000000
  0
LINE
  8
CSLAYER1
  6
CONTINUOUS
 62
     6
 10
144.110908
 20
243.934898
 11
168.312432
 21
243.934898
  0
LINE
  8
CSLAYER1
  6
CONTINUOUS
 62
     6
 10
167.874438
 20
243.019887
 11
170.092715
 21
241.866894
  0
ARC
  8
CSLAYER1
  6
CONTINUOUS
 62
     6
 10
154.203010
 20
250.125776
 40
17.907879
 50
332.536225
 51
359.942687
  0
LINE
  8
CSLAYER1
  6
CONTINUOUS
 62
     6
 10
172.110879
 20
250.107863
 11
172.110910
 21
251.572640
  0
ARC
  8
CSLAYER1
  6
CONTINUOUS
 62
     6
 10
172.735907
 20
252.655183
 40
1.250008
 50
240.000345
 51
300.000345
  0
ARC
  8
CSLAYER1
  6
CONTINUOUS
 62
     6
 10
172.735920
 20
250.490105
 40
1.250008
 50
60.000345
 51
120.000345
  0
ARC
  8
CSLAYER1
  6
CONTINUOUS
 62
     6
 10
171.485892
 20
250.490113
 40
1.250008
 50
60.000345
 51
120.000345
  0
ARC
  8
CSLAYER1
  6
CONTINUOUS
 62
     6
 10
170.235884
 20
250.490105
 40
1.250008
 50
60.000345
 51
120.000345
  0
ARC
  8
CSLAYER1
  6
CONTINUOUS
 62
     6
 10
170.235871
 20
252.655183
 40
1.250008
 50
240.000345
 51
300.000345
  0
LINE
  8
CSLAYER1
  6
CONTINUOUS
 62
     6
 10
169.610882
 20
251.572648
 11
169.610882
 21
250.125834
  0
ARC
  8
CSLAYER1
  6
CONTINUOUS
 62
     6
 10
154.203010
 20
250.125776
 40
15.407880
 50
332.536225
 51
359.942687
  0
LINE
  8
CSLAYER1
  6
CONTINUOUS
 62
     6
 10
168.387810
 20
242.745201
 11
166.530580
 21
239.483536
  0
LINE
  8
CSLAYER1
  6
CONTINUOUS
 62
     6
 10
167.222655
 20
239.011888
 11
168.983577
 21
242.443391
  0
LINE
  8
CSLAYER1
  6
CONTINUOUS
 62
     6
 10
169.576163
 20
242.135383
 11
168.009374
 21
238.724673
  0
LINE
  8
CSLAYER1
  6
CONTINUOUS
 62
     6
 10
171.006734
 20
243.934898
 11
173.215104
 21
243.934898
  0
ARC
  8
CSLAYER1
  6
CONTINUOUS
 62
     6
 10
190.018807
 20
250.125834
 40
17.907879
 50
180.000020
 51
207.463892
  0
ARC
  8
CSLAYER1
  6
CONTINUOUS
 62
     6
 10
173.985928
 20
250.490113
 40
1.250008
 50
60.000345
 51
120.000345
  0
LINE
  8
CSLAYER1
  6
CONTINUOUS
 62
     6
 10
174.610936
 20
251.572648
 11
174.610936
 21
250.125834
  0
ARC
  8
CSLAYER1
  6
CONTINUOUS
 62
     6
 10
190.018807
 20
250.125776
 40
15.407880
 50
179.999963
 51
207.463892
  0
LINE
  8
CSLAYER1
  6
CONTINUOUS
 62
     6
 10
176.347399
 20
243.019849
 11
174.129122
 21
241.866894
  0
LINE
  8
CSLAYER1
  6
CONTINUOUS
 62
     6
 10
174.663433
 20
242.150646
 11
176.043136
 21
238.934898
  0
LINE
  8
CSLAYER1
  6
CONTINUOUS
 62
     6
 10
176.888062
 20
239.236665
 11
175.238260
 21
242.443372
  0
LINE
  8
CSLAYER1
  6
CONTINUOUS
 62
     6
 10
175.810635
 20
242.740865
 11
177.624831
 21
239.748657
  0
LINE
  8
CSLAYER1
  6
CONTINUOUS
 62
     6
 10
175.909385
 20
243.934898
 11
200.110908
 21
243.934898
  0
ARC
  8
CSLAYER1
  6
CONTINUOUS
 62
     6
 10
200.110908
 20
241.934898
 40
2.000000
 50
0.000000
 51
90.000000
  0
LINE
  8
CSLAYER1
  6
CONTINUOUS
 62
     6
 10
202.110908
 20
238.934898
 11
237.110908
 21
238.934898
  0
LINE
  8
CSLAYER1
  6
CONTINUOUS
 62
     6
 10
237.110908
 20
238.934898
 11
237.110908
 21
308.934898
  0
ARC
  8
CSLAYER1
  6
CONTINUOUS
 62
     6
 10
172.110908
 20
308.934898
 40
65.000000
 50
0.000000
 51
180.000000
  0
LINE
  8
CSLAYER1
  6
CONTINUOUS
 62
     6
 10
107.110908
 20
308.934898
 11
107.110908
 21
238.934898
  0
LINE
  8
CSLAYER1
  6
DASHED
 62
     6
 10
112.110908
 20
238.934898
 11
112.110908
 21
253.934898
  0
LINE
  8
CSLAYER1
  6
CONTINUOUS
 62
     6
 10
109.110908
 20
253.934898
 11
169.610900
 21
253.934898
  0
ARC
  8
CSLAYER1
  6
CONTINUOUS
 62
     6
 10
170.235911
 20
254.517683
 40
1.250017
 50
239.999981
 51
299.999981
  0
ARC
  8
CSLAYER1
  6
CONTINUOUS
 62
     6
 10
171.485928
 20
254.517683
 40
1.250017
 50
239.999981
 51
299.999981
  0
LINE
  8
CSLAYER1
  6
CONTINUOUS
 62
     6
 10
172.110936
 20
253.435136
 11
172.110908
 21
263.934898
  0
LINE
  8
CSLAYER1
  6
CONTINUOUS
 62
     6
 10
169.610891
 20
263.990537
 11
169.610901
 21
253.435137
  0
ARC
  8
CSLAYER1
  6
CONTINUOUS
 62
     6
 10
171.485927
 20
252.352590
 40
1.250017
 50
59.999981
 51
119.999981
  0
ARC
  8
CSLAYER1
  6
CONTINUOUS
 62
     6
 10
172.735947
 20
254.517683
 40
1.250017
 50
239.999981
 51
299.999981
  0
ARC
  8
CSLAYER1
  6
CONTINUOUS
 62
     6
 10
173.985964
 20
254.517683
 40
1.250017
 50
239.999981
 51
299.999981
  0
ARC
  8
CSLAYER1
  6
CONTINUOUS
 62
     6
 10
173.985963
 20
252.352590
 40
1.250017
 50
59.999981
 51
119.999981
  0
LINE
  8
CSLAYER1
  6
CONTINUOUS
 62
     6
 10
174.610936
 20
253.435137
 11
174.610926
 21
263.990537
  0
ARC
  8
CSLAYER1
  6
CONTINUOUS
 62
     6
 10
172.110908
 20
271.934898
 40
14.000000
 50
292.024382
 51
329.101852
  0
ARC
  8
CSLAYER1
  6
CONTINUOUS
 62
     6
 10
186.698294
 20
263.205169
 40
3.000000
 50
107.692230
 51
149.101852
  0
ARC
  8
CSLAYER1
  6
CONTINUOUS
 62
     6
 10
172.110908
 20
308.934898
 40
47.000000
 50
283.493124
 51
307.966539
  0
ARC
  8
CSLAYER1
  6
CONTINUOUS
 62
     6
 10
202.255765
 20
270.304760
 40
2.000000
 50
45.000000
 51
127.966539
  0
LINE
  8
CSLAYER1
  6
CONTINUOUS
 62
     6
 10
203.669979
 20
271.718974
 11
205.344927
 21
270.044026
  0
ARC
  8
CSLAYER1
  6
CONTINUOUS
 62
     6
 10
203.930713
 20
268.629812
 40
2.000000
 50
-8.130102
 51
45.000000
  0
ARC
  8
CSLAYER1
  6
CONTINUOUS
 62
     6
 10
213.830208
 20
267.215598
 40
8.000000
 50
-188.130102
 51
95.478804
  0
ARC
  8
CSLAYER1
  6
CONTINUOUS
 62
     6
 10
212.779956
 20
278.165346
 40
3.000000
 50
225.000000
 51
275.478804
  0
LINE
  8
CSLAYER1
  6
CONTINUOUS
 62
     6
 10
210.658636
 20
276.044026
 11
209.946478
 21
276.756183
  0
ARC
  8
CSLAYER1
  6
CONTINUOUS
 62
     6
 10
212.067798
 20
278.877504
 40
3.000000
 50
143.047846
 51
225.000000
  0
ARC
  8
CSLAYER1
  6
CONTINUOUS
 62
     6
 10
172.110908
 20
308.934898
 40
47.000000
 50
323.047846
 51
326.027725
  0
ARC
  8
CSLAYER1
  6
CONTINUOUS
 62
     6
 10
172.110908
 20
308.934898
 40
45.000000
 50
215.914393
 51
324.085608
  0
LINE
  8
CSLAYER1
  6
CONTINUOUS
 62
     6
 10
136.958757
 20
282.471221
 11
128.110908
 21
282.934898
  0
ARC
  8
CSLAYER1
  6
CONTINUOUS
 62
     6
 10
128.110908
 20
283.934898
 40
1.000000
 50
180.000020
 51
270.000001
  0
LINE
  8
CSLAYER1
  6
CONTINUOUS
 62
     6
 10
127.110908
 20
283.934898
 11
127.110908
 21
284.934898
  0
ARC
  8
CSLAYER1
  6
CONTINUOUS
 62
     6
 10
128.095863
 20
284.934898
 40
1.000000
 50
90.000039
 51
180.000020
  0
LINE
  8
CSLAYER1
  6
CONTINUOUS
 62
     6
 10
128.095863
 20
285.934898
 11
131.670184
 21
286.122257
  0
ARC
  8
CSLAYER1
  6
CONTINUOUS
 62
     6
 10
131.581191
 20
287.820002
 40
1.700075
 50
-86.999412
 51
87.000310
  0
LINE
  8
CSLAYER1
  6
CONTINUOUS
 62
     6
 10
131.670157
 20
289.517747
 11
124.090492
 21
289.914939
  0
ARC
  8
CSLAYER1
  6
CONTINUOUS
 62
     6
 10
124.110908
 20
290.914695
 40
1.000000
 50
180.000020
 51
268.830766
  0
LINE
  8
CSLAYER1
  6
CONTINUOUS
 62
     6
 10
123.110908
 20
290.914695
 11
123.110908
 21
326.955101
  0
ARC
  8
CSLAYER1
  6
CONTINUOUS
 62
     6
 10
124.110908
 20
326.955101
 40
1.000000
 50
91.169216
 51
180.000020
  0
LINE
  8
CSLAYER1
  6
CONTINUOUS
 62
     6
 10
124.090492
 20
327.954857
 11
131.670157
 21
328.352050
  0
ARC
  8
CSLAYER1
  6
CONTINUOUS
 62
     6
 10
131.581191
 20
330.049795
 40
1.700075
 50
-87.000310
 51
86.999412
  0
LINE
  8
CSLAYER1
  6
CONTINUOUS
 62
     6
 10
131.670184
 20
331.747539
 11
128.095863
 21
331.934898
  0
ARC
  8
CSLAYER1
  6
CONTINUOUS
 62
     6
 10
128.095863
 20
332.934898
 40
1.000000
 50
180.000020
 51
270.000001
  0
LINE
  8
CSLAYER1
  6
CONTINUOUS
 62
     6
 10
127.110908
 20
332.934898
 11
127.110908
 21
333.934898
  0
ARC
  8
CSLAYER1
  6
CONTINUOUS
 62
     6
 10
128.110908
 20
333.934898
 40
1.000000
 50
90.000039
 51
180.000020
  0
LINE
  8
CSLAYER1
  6
CONTINUOUS
 62
     6
 10
128.110908
 20
334.934898
 11
136.958757
 21
335.398576
  0
ARC
  8
CSLAYER1
  6
CONTINUOUS
 62
     6
 10
172.110908
 20
308.934898
 40
45.000000
 50
35.914392
 51
144.085607
  0
LINE
  8
CSLAYER1
  6
CONTINUOUS
 62
     6
 10
207.263061
 20
335.398575
 11
216.110908
 21
334.934898
  0
ARC
  8
CSLAYER1
  6
CONTINUOUS
 62
     6
 10
216.110908
 20
333.934898
 40
1.000000
 50
0.000000
 51
89.999981
  0
LINE
  8
CSLAYER1
  6
CONTINUOUS
 62
     6
 10
217.110908
 20
333.934898
 11
217.110908
 21
332.934898
  0
ARC
  8
CSLAYER1
  6
CONTINUOUS
 62
     6
 10
216.125953
 20
332.934898
 40
1.000000
 50
270.000001
 51
359.999982
  0
LINE
  8
CSLAYER1
  6
CONTINUOUS
 62
     6
 10
216.125953
 20
331.934898
 11
212.551633
 21
331.747539
  0
ARC
  8
CSLAYER1
  6
CONTINUOUS
 62
     6
 10
212.640626
 20
330.049795
 40
1.700075
 50
93.000588
 51
267.000310
  0
LINE
  8
CSLAYER1
  6
CONTINUOUS
 62
     6
 10
212.551660
 20
328.352050
 11
220.131324
 21
327.954857
  0
ARC
  8
CSLAYER1
  6
CONTINUOUS
 62
     6
 10
220.110908
 20
326.955101
 40
1.000000
 50
0.000000
 51
88.830746
  0
LINE
  8
CSLAYER1
  6
CONTINUOUS
 62
     6
 10
221.110908
 20
326.955101
 11
221.110908
 21
290.914695
  0
ARC
  8
CSLAYER1
  6
CONTINUOUS
 62
     6
 10
220.110908
 20
290.914695
 40
1.000000
 50
271.169236
 51
359.999982
  0
LINE
  8
CSLAYER1
  6
CONTINUOUS
 62
     6
 10
220.131324
 20
289.914939
 11
212.551660
 21
289.517747
  0
ARC
  8
CSLAYER1
  6
CONTINUOUS
 62
     6
 10
212.640626
 20
287.820002
 40
1.700075
 50
92.999690
 51
266.999412
  0
LINE
  8
CSLAYER1
  6
CONTINUOUS
 62
     6
 10
212.551633
 20
286.122257
 11
216.125953
 21
285.934898
  0
ARC
  8
CSLAYER1
  6
CONTINUOUS
 62
     6
 10
216.125953
 20
284.934898
 40
1.000000
 50
0.000018
 51
89.999999
  0
LINE
  8
CSLAYER1
  6
CONTINUOUS
 62
     6
 10
217.110908
 20
284.934898
 11
217.110908
 21
283.934898
  0
ARC
  8
CSLAYER1
  6
CONTINUOUS
 62
     6
 10
216.110908
 20
283.934898
 40
1.000000
 50
270.000019
 51
360.000000
  0
LINE
  8
CSLAYER1
  6
CONTINUOUS
 62
     6
 10
216.110908
 20
282.934898
 11
207.263061
 21
282.471221
  0
ARC
  8
CSLAYER1
  6
CONTINUOUS
 62
     6
 10
172.110908
 20
308.934898
 40
45.000000
 50
330.524210
 51
334.456908
  0
ARC
  8
CSLAYER1
  6
CONTINUOUS
 62
     6
 10
172.110908
 20
308.934898
 40
47.000000
 50
330.916643
 51
335.767845
  0
ARC
  8
CSLAYER1
  6
CONTINUOUS
 62
     6
 10
172.110908
 20
308.934898
 40
37.000000
 50
311.082333
 51
329.867278
  0
ARC
  8
CSLAYER1
  6
CONTINUOUS
 62
     6
 10
195.110908
 20
282.553086
 40
2.000000
 50
180.000000
 51
311.082333
  0
LINE
  8
CSLAYER1
  6
CONTINUOUS
 62
     6
 10
193.110908
 20
282.553086
 11
193.110908
 21
295.934898
  0
ARC
  8
CSLAYER1
  6
CONTINUOUS
 62
     6
 10
196.110908
 20
295.934898
 40
3.000000
 50
90.000000
 51
180.000000
  0
LINE
  8
CSLAYER1
  6
CONTINUOUS
 62
     6
 10
196.110908
 20
298.934898
 11
202.110908
 21
298.934898
  0
ARC
  8
CSLAYER1
  6
CONTINUOUS
 62
     6
 10
202.110908
 20
296.934898
 40
2.000000
 50
0.000000
 51
90.000000
  0
LINE
  8
CSLAYER1
  6
CONTINUOUS
 62
     6
 10
204.110908
 20
296.934898
 11
204.110908
 21
290.360723
  0
CIRCLE
  8
CSLAYER1
  6
CONTINUOUS
 62
     6
 10
213.830208
 20
267.215598
 40
2.500000
  0
CIRCLE
  8
CSLAYER1
  6
CONTINUOUS
 62
     6
 10
213.830209
 20
267.215598
 40
4.000000
  0
LINE
  8
CSLAYER1
  6
DASHED
 62
     6
 10
217.110908
 20
253.934898
 11
217.110908
 21
238.934898
  0
LINE
  8
CSLAYER1
  6
DASHED
 62
     6
 10
232.110908
 20
238.934898
 11
232.110908
 21
253.934898
  0
LINE
  8
CSLAYER1
  6
CONTINUOUS
 62
     6
 10
235.110908
 20
253.934898
 11
174.610935
 21
253.934898
  0
LINE
  8
CSLAYER1
  6
CONTINUOUS
 62
     6
 10
176.110927
 20
256.934891
 11
176.110926
 21
257.102503
  0
ARC
  8
CSLAYER1
  6
CONTINUOUS
 62
     6
 10
178.110926
 20
257.102509
 40
2.000000
 50
112.024382
 51
180.000150
  0
ARC
  8
CSLAYER1
  6
CONTINUOUS
 62
     6
 10
179.110927
 20
256.934898
 40
3.000000
 50
180.000150
 51
270.000000
  0
LINE
  8
CSLAYER1
  6
CONTINUOUS
 62
     6
 10
168.110908
 20
256.934898
 11
168.110908
 21
257.102501
  0
ARC
  8
CSLAYER1
  6
CONTINUOUS
 62
     6
 10
166.110908
 20
257.102501
 40
2.000000
 50
0.000000
 51
67.975687
  0
ARC
  8
CSLAYER1
  6
CONTINUOUS
 62
     6
 10
172.110908
 20
271.934898
 40
14.000000
 50
210.898148
 51
247.975687
  0
ARC
  8
CSLAYER1
  6
CONTINUOUS
 62
     6
 10
157.523523
 20
263.205169
 40
3.000000
 50
30.898148
 51
72.307770
  0
ARC
  8
CSLAYER1
  6
CONTINUOUS
 62
     6
 10
172.110908
 20
308.934898
 40
47.000000
 50
232.033461
 51
256.506876
  0
ARC
  8
CSLAYER1
  6
CONTINUOUS
 62
     6
 10
141.966051
 20
270.304760
 40
2.000000
 50
52.033461
 51
135.000000
  0
LINE
  8
CSLAYER1
  6
CONTINUOUS
 62
     6
 10
140.551838
 20
271.718974
 11
138.876890
 21
270.044026
  0
ARC
  8
CSLAYER1
  6
CONTINUOUS
 62
     6
 10
140.291103
 20
268.629812
 40
2.000000
 50
135.000000
 51
188.130102
  0
ARC
  8
CSLAYER1
  6
CONTINUOUS
 62
     6
 10
130.391608
 20
267.215598
 40
8.000000
 50
-275.478804
 51
8.130102
  0
ARC
  8
CSLAYER1
  6
CONTINUOUS
 62
     6
 10
131.441861
 20
278.165346
 40
3.000000
 50
264.521196
 51
315.000000
  0
LINE
  8
CSLAYER1
  6
CONTINUOUS
 62
     6
 10
133.563181
 20
276.044026
 11
134.275339
 21
276.756183
  0
ARC
  8
CSLAYER1
  6
CONTINUOUS
 62
     6
 10
132.154019
 20
278.877504
 40
3.000000
 50
-45.000000
 51
36.952154
  0
ARC
  8
CSLAYER1
  6
CONTINUOUS
 62
     6
 10
172.110908
 20
308.934898
 40
47.000000
 50
213.972275
 51
216.952154
  0
ARC
  8
CSLAYER1
  6
CONTINUOUS
 62
     6
 10
172.110908
 20
308.934898
 40
47.000000
 50
204.232155
 51
209.083357
  0
ARC
  8
CSLAYER1
  6
CONTINUOUS
 62
     6
 10
172.110908
 20
308.934898
 40
45.000000
 50
205.543092
 51
209.475790
  0
LINE
  8
CSLAYER1
  6
CONTINUOUS
 62
     6
 10
140.110908
 20
290.360723
 11
140.110908
 21
296.934898
  0
ARC
  8
CSLAYER1
  6
CONTINUOUS
 62
     6
 10
142.110908
 20
296.934898
 40
2.000000
 50
90.000000
 51
180.000000
  0
LINE
  8
CSLAYER1
  6
CONTINUOUS
 62
     6
 10
142.110908
 20
298.934898
 11
148.110908
 21
298.934898
  0
ARC
  8
CSLAYER1
  6
CONTINUOUS
 62
     6
 10
148.110908
 20
295.934898
 40
3.000000
 50
0.000000
 51
90.000000
  0
LINE
  8
CSLAYER1
  6
CONTINUOUS
 62
     6
 10
151.110908
 20
295.934898
 11
151.110908
 21
282.553086
  0
ARC
  8
CSLAYER1
  6
CONTINUOUS
 62
     6
 10
149.110908
 20
282.553086
 40
2.000000
 50
228.917667
 51
360.000000
  0
ARC
  8
CSLAYER1
  6
CONTINUOUS
 62
     6
 10
172.110908
 20
308.934898
 40
37.000000
 50
210.132722
 51
228.917667
  0
LINE
  8
CSLAYER1
  6
CONTINUOUS
 62
     6
 10
158.110908
 20
289.313482
 11
158.110908
 21
278.934898
  0
ARC
  8
CSLAYER1
  6
CONTINUOUS
 62
     6
 10
160.110908
 20
278.934898
 40
2.000000
 50
180.000000
 51
270.000000
  0
LINE
  8
CSLAYER1
  6
CONTINUOUS
 62
     6
 10
160.110908
 20
276.934898
 11
165.110908
 21
276.934898
  0
ARC
  8
CSLAYER1
  6
CONTINUOUS
 62
     6
 10
165.110908
 20
278.934898
 40
2.000000
 50
270.000000
 51
360.000000
  0
LINE
  8
CSLAYER1
  6
CONTINUOUS
 62
     6
 10
167.110908
 20
278.934898
 11
167.110908
 21
287.025996
  0
ARC
  8
CSLAYER1
  6
CONTINUOUS
 62
     6
 10
165.110908
 20
287.025996
 40
2.000000
 50
0.000000
 51
72.281068
  0
ARC
  8
CSLAYER1
  6
CONTINUOUS
 62
     6
 10
172.110908
 20
308.934898
 40
21.000000
 50
238.551019
 51
252.281068
  0
ARC
  8
CSLAYER1
  6
CONTINUOUS
 62
     6
 10
160.110908
 20
289.313482
 40
2.000000
 50
58.551019
 51
180.000000
  0
LINE
  8
CSLAYER1
  6
CONTINUOUS
 62
     6
 10
167.716880
 20
294.592933
 11
168.299225
 21
296.493703
  0
ARC
  8
CSLAYER1
  6
CONTINUOUS
 62
     6
 10
165.618779
 20
297.658162
 40
2.922462
 50
-23.481547
 51
129.764151
  0
ARC
  8
CSLAYER1
  6
CONTINUOUS
 62
     6
 10
162.877277
 20
300.952825
 40
1.363635
 50
217.903413
 51
309.763730
  0
ARC
  8
CSLAYER1
  6
CONTINUOUS
 62
     6
 10
172.110908
 20
308.141776
 40
13.065822
 50
-37.903067
 51
217.903051
  0
ARC
  8
CSLAYER1
  6
CONTINUOUS
 62
     6
 10
181.344527
 20
300.952825
 40
1.363635
 50
230.236329
 51
322.096590
  0
ARC
  8
CSLAYER1
  6
CONTINUOUS
 62
     6
 10
178.603028
 20
297.658162
 40
2.922462
 50
50.235851
 51
203.481549
  0
LINE
  8
CSLAYER1
  6
CONTINUOUS
 62
     6
 10
175.922579
 20
296.493703
 11
176.504924
 21
294.592933
  0
ARC
  8
CSLAYER1
  6
CONTINUOUS
 62
     6
 10
172.110908
 20
308.934898
 40
21.000000
 50
287.718932
 51
301.448981
  0
ARC
  8
CSLAYER1
  6
CONTINUOUS
 62
     6
 10
184.110908
 20
289.313482
 40
2.000000
 50
0.000000
 51
121.448981
  0
LINE
  8
CSLAYER1
  6
CONTINUOUS
 62
     6
 10
186.110908
 20
289.313482
 11
186.110908
 21
278.934898
  0
ARC
  8
CSLAYER1
  6
CONTINUOUS
 62
     6
 10
184.110908
 20
278.934898
 40
2.000000
 50
270.000000
 51
360.000000
  0
LINE
  8
CSLAYER1
  6
CONTINUOUS
 62
     6
 10
184.110908
 20
276.934898
 11
179.110908
 21
276.934898
  0
ARC
  8
CSLAYER1
  6
CONTINUOUS
 62
     6
 10
179.110908
 20
278.934898
 40
2.000000
 50
180.000000
 51
270.000000
  0
LINE
  8
CSLAYER1
  6
CONTINUOUS
 62
     6
 10
177.110908
 20
278.934898
 11
177.110908
 21
287.025996
  0
ARC
  8
CSLAYER1
  6
CONTINUOUS
 62
     6
 10
179.110908
 20
287.025996
 40
2.000000
 50
107.718932
 51
180.000000
  0
ARC
  8
CSLAYER1
  6
CONTINUOUS
 62
     6
 10
165.110908
 20
256.934898
 40
3.000000
 50
270.000000
 51
360.000000
  0
ARC
  8
CSLAYER1
  6
CONTINUOUS
 62
     6
 10
144.110908
 20
241.934898
 40
2.000000
 50
90.000000
 51
180.000000
  0
LINE
  8
CSLAYER1
  6
DASHED
 62
     6
 10
127.110908
 20
238.934898
 11
127.110908
 21
253.934898
  0
ARC
  8
CSLAYER1
  6
CONTINUOUS
 62
     6
 10
118.110908
 20
256.934898
 40
3.000000
 50
180.000000
 51
270.000000
  0
LINE
  8
CSLAYER1
  6
CONTINUOUS
 62
     6
 10
115.110908
 20
256.934898
 11
115.110908
 21
308.934898
  0
ARC
  8
CSLAYER1
  6
CONTINUOUS
 62
     6
 10
172.110908
 20
308.934898
 40
47.000000
 50
150.916643
 51
155.767845
  0
ARC
  8
CSLAYER1
  6
CONTINUOUS
 62
     6
 10
172.110908
 20
308.934898
 40
45.000000
 50
150.524210
 51
154.449420
  0
ARC
  8
CSLAYER1
  6
CONTINUOUS
 62
     6
 10
172.110908
 20
308.934898
 40
47.000000
 50
33.972275
 51
146.027725
  0
ARC
  8
CSLAYER1
  6
CONTINUOUS
 62
     6
 10
172.110908
 20
308.934898
 40
47.000000
 50
24.232155
 51
29.083357
  0
ARC
  8
CSLAYER1
  6
CONTINUOUS
 62
     6
 10
172.110908
 20
308.934898
 40
45.000000
 50
25.550580
 51
29.475790
  0
ARC
  8
CSLAYER1
  6
CONTINUOUS
 62
     6
 10
172.110908
 20
308.934898
 40
37.000000
 50
30.132722
 51
48.917667
  0
ARC
  8
CSLAYER1
  6
CONTINUOUS
 62
     6
 10
195.110908
 20
335.316710
 40
2.000000
 50
48.917667
 51
180.000000
  0
LINE
  8
CSLAYER1
  6
CONTINUOUS
 62
     6
 10
193.110908
 20
335.316710
 11
193.110908
 21
321.934898
  0
ARC
  8
CSLAYER1
  6
CONTINUOUS
 62
     6
 10
196.110908
 20
321.934898
 40
3.000000
 50
180.000000
 51
270.000000
  0
LINE
  8
CSLAYER1
  6
CONTINUOUS
 62
     6
 10
196.110908
 20
318.934898
 11
202.110908
 21
318.934898
  0
ARC
  8
CSLAYER1
  6
CONTINUOUS
 62
     6
 10
202.110908
 20
320.934898
 40
2.000000
 50
270.000000
 51
360.000000
  0
LINE
  8
CSLAYER1
  6
CONTINUOUS
 62
     6
 10
204.110908
 20
320.934898
 11
204.110908
 21
327.509074
  0
CIRCLE
  8
CSLAYER1
  6
CONTINUOUS
 62
     6
 10
213.830208
 20
350.654198
 40
2.500000
  0
LINE
  8
CSLAYER1
  6
CONTINUOUS
 62
     6
 10
229.110908
 20
308.934898
 11
229.110908
 21
256.934898
  0
ARC
  8
CSLAYER1
  6
CONTINUOUS
 62
     6
 10
226.110908
 20
256.934898
 40
3.000000
 50
270.000000
 51
360.000000
  0
ARC
  8
CSLAYER1
  6
CONTINUOUS
 62
     6
 10
235.110908
 20
251.934898
 40
2.000000
 50
0.000000
 51
90.000000
  0
ARC
  8
CSLAYER1
  6
CONTINUOUS
 62
     6
 10
204.110908
 20
251.934898
 40
2.000000
 50
90.000000
 51
180.000000
  0
LINE
  8
CSLAYER1
  6
CONTINUOUS
 62
     6
 10
202.110908
 20
251.934898
 11
202.110908
 21
238.934898
  0
LINE
  8
CSLAYER1
  6
CONTINUOUS
 62
     6
 10
287.110877
 20
265.934898
 11
287.110877
 21
351.823357
  0
LINE
  8
CSLAYER1
  6
CONTINUOUS
 62
     6
 10
287.110877
 20
351.823357
 11
288.110877
 21
352.823357
  0
LINE
  8
CSLAYER1
  6
CONTINUOUS
 62
     6
 10
288.110877
 20
352.823357
 11
288.110877
 21
264.934898
  0
LINE
  8
CSLAYER1
  6
CONTINUOUS
 62
     6
 10
288.110877
 20
264.934898
 11
287.110877
 21
265.934898
  0
LINE
  8
CSLAYER1
  6
CONTINUOUS
 62
     6
 10
288.110877
 20
264.934898
 11
301.110877
 21
264.934898
  0
LINE
  8
CSLAYER1
  6
CONTINUOUS
 62
     6
 10
301.110877
 20
264.934898
 11
301.110877
 21
268.934898
  0
LINE
  8
CSLAYER1
  6
CONTINUOUS
 62
     6
 10
301.110877
 20
268.934898
 11
327.110877
 21
268.934898
  0
LINE
  8
CSLAYER1
  6
CONTINUOUS
 62
     6
 10
327.110877
 20
268.934898
 11
327.110877
 21
264.934898
  0
LINE
  8
CSLAYER1
  6
CONTINUOUS
 62
     6
 10
327.110877
 20
264.934898
 11
340.110877
 21
264.934898
  0
LINE
  8
CSLAYER1
  6
CONTINUOUS
 62
     6
 10
340.110877
 20
263.934898
 11
340.110877
 21
353.934898
  0
LINE
  8
CSLAYER1
  6
CONTINUOUS
 62
     6
 10
340.110877
 20
353.934898
 11
434.610877
 21
353.934898
  0
ARC
  8
CSLAYER1
  6
CONTINUOUS
 62
     6
 10
434.610877
 20
354.934898
 40
1.000000
 50
270.000000
 51
360.000000
  0
ARC
  8
CSLAYER1
  6
CONTINUOUS
 62
     6
 10
436.610877
 20
354.934898
 40
1.000000
 50
90.000000
 51
180.000000
  0
LINE
  8
CSLAYER1
  6
CONTINUOUS
 62
     6
 10
436.610877
 20
355.934898
 11
440.610877
 21
355.934898
  0
ARC
  8
CSLAYER1
  6
CONTINUOUS
 62
     6
 10
440.610877
 20
358.934898
 40
3.000000
 50
270.000000
 51
360.000000
  0
LINE
  8
CSLAYER1
  6
CONTINUOUS
 62
     6
 10
435.610877
 20
354.934898
 11
435.610877
 21
299.369681
  0
LINE
  8
CSLAYER1
  6
CONTINUOUS
 62
     6
 10
443.610877
 20
308.934898
 11
443.610877
 21
371.934898
  0
ARC
  8
CSLAYER1
  6
CONTINUOUS
 62
     6
 10
445.610877
 20
371.934898
 40
2.000000
 50
90.000000
 51
180.000000
  0
LINE
  8
CSLAYER1
  6
CONTINUOUS
 62
     6
 10
445.610877
 20
373.934898
 11
461.110877
 21
373.934898
  0
LINE
  8
CSLAYER1
  6
CONTINUOUS
 62
     6
 10
461.110877
 20
373.934898
 11
461.610877
 21
373.434898
  0
LINE
  8
CSLAYER1
  6
CONTINUOUS
 62
     6
 10
461.610877
 20
373.434898
 11
461.610877
 21
253.934898
  0
LINE
  8
CSLAYER1
  6
CONTINUOUS
 62
     6
 10
459.610877
 20
253.934898
 11
451.610877
 21
261.934898
  0
LINE
  8
CSLAYER1
  6
CONTINUOUS
 62
     6
 10
453.610877
 20
259.934898
 11
453.610877
 21
373.934898
  0
LINE
  8
CSLAYER1
  6
CONTINUOUS
 62
     6
 10
461.610877
 20
361.434898
 11
511.110877
 21
361.434898
  0
ARC
  8
CSLAYER1
  6
CONTINUOUS
 62
     6
 10
511.110877
 20
356.934898
 40
4.500000
 50
0.000000
 51
90.000000
  0
LINE
  8
CSLAYER1
  6
CONTINUOUS
 62
     6
 10
515.610877
 20
356.934898
 11
515.610877
 21
260.934898
  0
ARC
  8
CSLAYER1
  6
CONTINUOUS
 62
     6
 10
511.110877
 20
260.934898
 40
4.500000
 50
270.000000
 51
360.000000
  0
LINE
  8
CSLAYER1
  6
CONTINUOUS
 62
     6
 10
511.110877
 20
256.434898
 11
461.610877
 21
256.434898
  0
LINE
  8
CSLAYER1
  6
DASHED
 62
     6
 10
466.110877
 20
253.934898
 11
466.110877
 21
238.934898
  0
LINE
  8
CSLAYER1
  6
DASHED
 62
     6
 10
458.610877
 20
238.934898
 11
458.610877
 21
243.934898
  0
LINE
  8
CSLAYER1
  6
DASHED
 62
     6
 10
458.610877
 20
243.934898
 11
392.610877
 21
243.934898
  0
LINE
  8
CSLAYER1
  6
DASHED
 62
     6
 10
392.610877
 20
243.934898
 11
392.610877
 21
238.934898
  0
LINE
  8
CSLAYER1
  6
DASHED
 62
     6
 10
385.110877
 20
238.934898
 11
385.110877
 21
253.934898
  0
LINE
  8
CSLAYER1
  6
DASHED
 62
     6
 10
376.110877
 20
253.934898
 11
376.110877
 21
238.934898
  0
LINE
  8
CSLAYER1
  6
CONTINUOUS
 62
     6
 10
360.610877
 20
238.934898
 11
490.610877
 21
238.934898
  0
LINE
  8
CSLAYER1
  6
CONTINUOUS
 62
     6
 10
490.610877
 20
238.934898
 11
490.610877
 21
251.934898
  0
ARC
  8
CSLAYER1
  6
CONTINUOUS
 62
     6
 10
488.610877
 20
251.934898
 40
2.000000
 50
0.000000
 51
90.000000
  0
LINE
  8
CSLAYER1
  6
CONTINUOUS
 62
     6
 10
488.610877
 20
253.934898
 11
362.610877
 21
253.934898
  0
ARC
  8
CSLAYER1
  6
CONTINUOUS
 62
     6
 10
362.610877
 20
251.934898
 40
2.000000
 50
90.000000
 51
180.000000
  0
LINE
  8
CSLAYER1
  6
CONTINUOUS
 62
     6
 10
360.610877
 20
251.934898
 11
360.610877
 21
238.934898
  0
LINE
  8
CSLAYER1
  6
CONTINUOUS
 62
     6
 10
340.110877
 20
263.934898
 11
405.974514
 21
263.934898
  0
LINE
  8
CSLAYER1
  6
CONTINUOUS
 62
     6
 10
425.110877
 20
286.815333
 11
425.110877
 21
353.934898
  0
ARC
  8
CSLAYER1
  6
CONTINUOUS
 62
     6
 10
461.791912
 20
355.723125
 40
0.181035
 50
90.000001
 51
179.942691
  0
LINE
  8
CSLAYER1
  6
CONTINUOUS
 62
     6
 10
461.791912
 20
355.904171
 11
462.697087
 21
355.904171
  0
ARC
  8
CSLAYER1
  6
CONTINUOUS
 62
     6
 10
462.697087
 20
355.723125
 40
0.181035
 50
0.000005
 51
90.000001
  0
LINE
  8
CSLAYER1
  6
CONTINUOUS
 62
     6
 10
462.878077
 20
355.723125
 11
462.878077
 21
345.585217
  0
ARC
  8
CSLAYER1
  6
CONTINUOUS
 62
     6
 10
462.697087
 20
345.585217
 40
0.181035
 50
-89.999997
 51
0.000005
  0
LINE
  8
CSLAYER1
  6
CONTINUOUS
 62
     6
 10
462.697087
 20
345.404171
 11
461.791912
 21
345.404171
  0
ARC
  8
CSLAYER1
  6
CONTINUOUS
 62
     6
 10
461.791912
 20
345.585217
 40
0.181035
 50
180.000000
 51
270.000003
  0
ARC
  8
CSLAYER1
  6
CONTINUOUS
 62
     6
 10
463.240169
 20
346.070842
 40
0.362070
 50
180.000000
 51
275.000152
  0
LINE
  8
CSLAYER1
  6
CONTINUOUS
 62
     6
 10
463.271771
 20
345.710159
 11
464.411968
 21
345.809908
  0
ARC
  8
CSLAYER1
  6
CONTINUOUS
 62
     6
 10
464.254181
 20
347.613378
 40
1.810349
 50
275.000111
 51
343.742611
  0
ARC
  8
CSLAYER1
  6
CONTINUOUS
 62
     6
 10
453.826334
 20
350.654171
 40
12.672440
 50
-16.257006
 51
16.257016
  0
ARC
  8
CSLAYER1
  6
CONTINUOUS
 62
     6
 10
464.254181
 20
353.694963
 40
1.810349
 50
16.257399
 51
84.999892
  0
LINE
  8
CSLAYER1
  6
CONTINUOUS
 62
     6
 10
464.411968
 20
355.498433
 11
463.271771
 21
355.598183
  0
ARC
  8
CSLAYER1
  6
CONTINUOUS
 62
     6
 10
463.240169
 20
355.237500
 40
0.362070
 50
84.999865
 51
179.942691
  0
LINE
  8
CSLAYER1
  6
CONTINUOUS
 62
     6
 10
462.878077
 20
351.733015
 11
461.610866
 21
350.929469
  0
LINE
  8
CSLAYER1
  6
CONTINUOUS
 62
     6
 10
461.610866
 20
350.024295
 11
462.878077
 21
350.827841
  0
ARC
  8
CSLAYER1
  6
CONTINUOUS
 62
     6
 10
519.610877
 20
341.934898
 40
4.000000
 50
180.000000
 51
270.000000
  0
LINE
  8
CSLAYER1
  6
CONTINUOUS
 62
     6
 10
519.610877
 20
337.934898
 11
538.610877
 21
337.934898
  0
ARC
  8
CSLAYER1
  6
CONTINUOUS
 62
     6
 10
538.610877
 20
333.934898
 40
4.000000
 50
0.000000
 51
90.000000
  0
LINE
  8
CSLAYER1
  6
CONTINUOUS
 62
     6
 10
542.610877
 20
333.934898
 11
542.610877
 21
283.934898
  0
ARC
  8
CSLAYER1
  6
CONTINUOUS
 62
     6
 10
538.610877
 20
283.934898
 40
4.000000
 50
270.000000
 51
360.000000
  0
LINE
  8
CSLAYER1
  6
CONTINUOUS
 62
     6
 10
538.610877
 20
279.934898
 11
519.610877
 21
279.934898
  0
ARC
  8
CSLAYER1
  6
CONTINUOUS
 62
     6
 10
519.610877
 20
275.934898
 40
4.000000
 50
90.000000
 51
180.000000
  0
ARC
  8
CSLAYER1
  6
CONTINUOUS
 62
     6
 10
464.254181
 20
270.256363
 40
1.810349
 50
16.257399
 51
84.999892
  0
LINE
  8
CSLAYER1
  6
CONTINUOUS
 62
     6
 10
464.411968
 20
272.059833
 11
463.271771
 21
272.159583
  0
ARC
  8
CSLAYER1
  6
CONTINUOUS
 62
     6
 10
463.240169
 20
271.798900
 40
0.362070
 50
84.999865
 51
179.942691
  0
LINE
  8
CSLAYER1
  6
CONTINUOUS
 62
     6
 10
462.878077
 20
272.284525
 11
462.878077
 21
262.146617
  0
ARC
  8
CSLAYER1
  6
CONTINUOUS
 62
     6
 10
462.697087
 20
262.146617
 40
0.181035
 50
-89.999997
 51
0.000005
  0
LINE
  8
CSLAYER1
  6
CONTINUOUS
 62
     6
 10
462.697087
 20
261.965571
 11
461.791912
 21
261.965571
  0
ARC
  8
CSLAYER1
  6
CONTINUOUS
 62
     6
 10
461.791912
 20
262.146617
 40
0.181035
 50
180.000000
 51
270.000003
  0
ARC
  8
CSLAYER1
  6
CONTINUOUS
 62
     6
 10
463.240169
 20
262.632242
 40
0.362070
 50
180.000000
 51
275.000152
  0
LINE
  8
CSLAYER1
  6
CONTINUOUS
 62
     6
 10
463.271771
 20
262.271559
 11
464.411968
 21
262.371308
  0
ARC
  8
CSLAYER1
  6
CONTINUOUS
 62
     6
 10
464.254181
 20
264.174778
 40
1.810349
 50
275.000111
 51
343.742611
  0
ARC
  8
CSLAYER1
  6
CONTINUOUS
 62
     6
 10
453.826334
 20
267.215571
 40
12.672440
 50
-16.257006
 51
16.257016
  0
ARC
  8
CSLAYER1
  6
CONTINUOUS
 62
     6
 10
462.697087
 20
272.284525
 40
0.181035
 50
0.000005
 51
90.000001
  0
LINE
  8
CSLAYER1
  6
CONTINUOUS
 62
     6
 10
462.697087
 20
272.465571
 11
461.791912
 21
272.465571
  0
ARC
  8
CSLAYER1
  6
CONTINUOUS
 62
     6
 10
461.791912
 20
272.284525
 40
0.181035
 50
90.000001
 51
179.942691
  0
LINE
  8
CSLAYER1
  6
CONTINUOUS
 62
     6
 10
462.878077
 20
268.294415
 11
461.610866
 21
267.490869
  0
LINE
  8
CSLAYER1
  6
CONTINUOUS
 62
     6
 10
461.610866
 20
266.585695
 11
462.878077
 21
267.389241
  0
LINE
  8
CSLAYER1
  6
CONTINUOUS
 62
     6
 10
451.610877
 20
258.934898
 11
451.610877
 21
301.518303
  0
LINE
  8
CSLAYER1
  6
CONTINUOUS
 62
     6
 10
443.610877
 20
308.934898
 11
397.610877
 21
253.934898
  0
LINE
  8
CSLAYER1
  6
CONTINUOUS
 62
     6
 10
338.110877
 20
283.934898
 11
338.110877
 21
284.934898
  0
ARC
  8
CSLAYER1
  6
CONTINUOUS
 62
     6
 10
337.110877
 20
284.934898
 40
1.000000
 50
0.057309
 51
89.999999
  0
LINE
  8
CSLAYER1
  6
CONTINUOUS
 62
     6
 10
337.110877
 20
285.934898
 11
301.110877
 21
285.934898
  0
ARC
  8
CSLAYER1
  6
CONTINUOUS
 62
     6
 10
301.110877
 20
284.934898
 40
1.000000
 50
89.999999
 51
179.999981
  0
LINE
  8
CSLAYER1
  6
CONTINUOUS
 62
     6
 10
300.110877
 20
284.934898
 11
300.110877
 21
283.934898
  0
ARC
  8
CSLAYER1
  6
CONTINUOUS
 62
     6
 10
301.110877
 20
283.934898
 40
1.000000
 50
179.999995
 51
269.999984
  0
LINE
  8
CSLAYER1
  6
CONTINUOUS
 62
     6
 10
301.110877
 20
282.934898
 11
337.110877
 21
282.934898
  0
ARC
  8
CSLAYER1
  6
CONTINUOUS
 62
     6
 10
337.110877
 20
283.934898
 40
1.000000
 50
269.999997
 51
360.000000
  0
LINE
  8
CSLAYER1
  6
CONTINUOUS
 62
     6
 10
337.110877
 20
289.934898
 11
301.110877
 21
289.934898
  0
ARC
  8
CSLAYER1
  6
CONTINUOUS
 62
     6
 10
301.110877
 20
290.934898
 40
1.000000
 50
179.999995
 51
269.999984
  0
LINE
  8
CSLAYER1
  6
CONTINUOUS
 62
     6
 10
300.110877
 20
290.934898
 11
300.110877
 21
291.934898
  0
ARC
  8
CSLAYER1
  6
CONTINUOUS
 62
     6
 10
301.110877
 20
291.934898
 40
1.000000
 50
89.999999
 51
179.999981
  0
LINE
  8
CSLAYER1
  6
CONTINUOUS
 62
     6
 10
301.110877
 20
292.934898
 11
305.882118
 21
292.934898
  0
ARC
  8
CSLAYER1
  6
CONTINUOUS
 62
     6
 10
305.882118
 20
293.934898
 40
1.000000
 50
-89.999999
 51
48.590386
  0
ARC
  8
CSLAYER1
  6
CONTINUOUS
 62
     6
 10
319.110877
 20
308.934898
 40
19.000000
 50
131.409657
 51
228.590367
  0
ARC
  8
CSLAYER1
  6
CONTINUOUS
 62
     6
 10
305.882118
 20
323.934898
 40
1.000000
 50
-48.590366
 51
90.000019
  0
LINE
  8
CSLAYER1
  6
CONTINUOUS
 62
     6
 10
305.882118
 20
324.934898
 11
301.110877
 21
324.934898
  0
ARC
  8
CSLAYER1
  6
CONTINUOUS
 62
     6
 10
301.110877
 20
325.934898
 40
1.000000
 50
180.000019
 51
270.000001
  0
LINE
  8
CSLAYER1
  6
CONTINUOUS
 62
     6
 10
300.110877
 20
325.934898
 11
300.110877
 21
326.934898
  0
ARC
  8
CSLAYER1
  6
CONTINUOUS
 62
     6
 10
301.110877
 20
326.934898
 40
1.000000
 50
90.000016
 51
180.000005
  0
LINE
  8
CSLAYER1
  6
CONTINUOUS
 62
     6
 10
301.110877
 20
327.934898
 11
337.110877
 21
327.934898
  0
ARC
  8
CSLAYER1
  6
CONTINUOUS
 62
     6
 10
337.110877
 20
326.934898
 40
1.000000
 50
0.000000
 51
90.000003
  0
LINE
  8
CSLAYER1
  6
CONTINUOUS
 62
     6
 10
338.110877
 20
326.934898
 11
338.110877
 21
325.934898
  0
ARC
  8
CSLAYER1
  6
CONTINUOUS
 62
     6
 10
337.110877
 20
325.934898
 40
1.000000
 50
270.000001
 51
359.942691
  0
LINE
  8
CSLAYER1
  6
CONTINUOUS
 62
     6
 10
337.110877
 20
324.934898
 11
332.339637
 21
324.934898
  0
ARC
  8
CSLAYER1
  6
CONTINUOUS
 62
     6
 10
332.339637
 20
323.934898
 40
1.000000
 50
90.000003
 51
228.590367
  0
ARC
  8
CSLAYER1
  6
CONTINUOUS
 62
     6
 10
319.110877
 20
308.934898
 40
19.000000
 50
-48.590366
 51
48.590386
  0
ARC
  8
CSLAYER1
  6
CONTINUOUS
 62
     6
 10
332.339637
 20
293.934898
 40
1.000000
 50
131.409643
 51
270.000001
  0
LINE
  8
CSLAYER1
  6
CONTINUOUS
 62
     6
 10
332.339637
 20
292.934898
 11
337.110877
 21
292.934898
  0
ARC
  8
CSLAYER1
  6
CONTINUOUS
 62
     6
 10
337.110877
 20
291.934898
 40
1.000000
 50
0.057309
 51
89.999999
  0
LINE
  8
CSLAYER1
  6
CONTINUOUS
 62
     6
 10
338.110877
 20
291.934898
 11
338.110877
 21
290.934898
  0
ARC
  8
CSLAYER1
  6
CONTINUOUS
 62
     6
 10
337.110877
 20
290.934898
 40
1.000000
 50
269.999997
 51
360.000000
  0
LINE
  8
CSLAYER1
  6
CONTINUOUS
 62
     6
 10
327.110877
 20
266.934898
 11
301.110877
 21
266.934898
  0
LINE
  8
CSLAYER1
  6
CONTINUOUS
 62
     6
 10
301.360877
 20
266.934898
 11
301.360877
 21
266.434898
  0
ARC
  8
CSLAYER1
  6
CONTINUOUS
 62
     6
 10
303.360877
 20
266.434898
 40
2.000000
 50
180.000000
 51
270.000000
  0
LINE
  8
CSLAYER1
  6
CONTINUOUS
 62
     6
 10
303.360877
 20
264.434898
 11
312.449503
 21
264.434898
  0
ARC
  8
CSLAYER1
  6
CONTINUOUS
 62
     6
 10
314.110877
 20
271.234886
 40
7.000000
 50
253.743003
 51
286.257026
  0
ARC
  8
CSLAYER1
  6
CONTINUOUS
 62
     6
 10
315.790534
 20
265.474815
 40
1.000000
 50
286.257408
 51
354.999902
  0
LINE
  8
CSLAYER1
  6
CONTINUOUS
 62
     6
 10
316.786720
 20
265.387657
 11
316.841834
 21
266.017479
  0
ARC
  8
CSLAYER1
  6
CONTINUOUS
 62
     6
 10
316.642616
 20
266.034905
 40
0.200000
 50
-5.000126
 51
90.000019
  0
LINE
  8
CSLAYER1
  6
CONTINUOUS
 62
     6
 10
316.910865
 20
266.234917
 11
314.110877
 21
266.234886
  0
LINE
  8
CSLAYER1
  6
CONTINUOUS
 62
     6
 10
314.110877
 20
266.234886
 11
311.310890
 21
266.234886
  0
ARC
  8
CSLAYER1
  6
CONTINUOUS
 62
     6
 10
311.310890
 20
266.334892
 40
0.100000
 50
180.000005
 51
270.000001
  0
LINE
  8
CSLAYER1
  6
CONTINUOUS
 62
     6
 10
311.210853
 20
266.334892
 11
311.210853
 21
266.834892
  0
ARC
  8
CSLAYER1
  6
CONTINUOUS
 62
     6
 10
311.310890
 20
266.834892
 40
0.100000
 50
90.000003
 51
180.000005
  0
ARC
  8
CSLAYER1
  6
CONTINUOUS
 62
     6
 10
311.579139
 20
266.034905
 40
0.200000
 50
90.000003
 51
185.000154
  0
LINE
  8
CSLAYER1
  6
CONTINUOUS
 62
     6
 10
311.379890
 20
266.017479
 11
311.434974
 21
265.387657
  0
ARC
  8
CSLAYER1
  6
CONTINUOUS
 62
     6
 10
312.431190
 20
265.474815
 40
1.000000
 50
185.000113
 51
253.742620
  0
LINE
  8
CSLAYER1
  6
CONTINUOUS
 62
     6
 10
310.539500
 20
264.434898
 11
310.374382
 21
263.416855
  0
LINE
  8
CSLAYER1
  6
CONTINUOUS
 62
     6
 10
310.374382
 20
263.416855
 11
310.316247
 21
263.094427
  0
LINE
  8
CSLAYER1
  6
CONTINUOUS
 62
     6
 10
310.316247
 20
263.094427
 11
310.251394
 21
262.762618
  0
LINE
  8
CSLAYER1
  6
CONTINUOUS
 62
     6
 10
310.251394
 20
262.762618
 11
310.181019
 21
262.424822
  0
LINE
  8
CSLAYER1
  6
CONTINUOUS
 62
     6
 10
310.181019
 20
262.424822
 11
310.106315
 21
262.084434
  0
LINE
  8
CSLAYER1
  6
CONTINUOUS
 62
     6
 10
310.106315
 20
262.084434
 11
310.028479
 21
261.744850
  0
LINE
  8
CSLAYER1
  6
CONTINUOUS
 62
     6
 10
310.028479
 20
261.744850
 11
309.948706
 21
261.409465
  0
LINE
  8
CSLAYER1
  6
CONTINUOUS
 62
     6
 10
309.948706
 20
261.409465
 11
309.868189
 21
261.081674
  0
LINE
  8
CSLAYER1
  6
CONTINUOUS
 62
     6
 10
309.868189
 20
261.081674
 11
309.788125
 21
260.764872
  0
LINE
  8
CSLAYER1
  6
CONTINUOUS
 62
     6
 10
309.788125
 20
260.764872
 11
309.709707
 21
260.462456
  0
LINE
  8
CSLAYER1
  6
CONTINUOUS
 62
     6
 10
309.709707
 20
260.462456
 11
309.626335
 21
260.162706
  0
LINE
  8
CSLAYER1
  6
CONTINUOUS
 62
     6
 10
309.626335
 20
260.162706
 11
309.532422
 21
259.857181
  0
LINE
  8
CSLAYER1
  6
CONTINUOUS
 62
     6
 10
309.532422
 20
259.857181
 11
309.428837
 21
259.547142
  0
LINE
  8
CSLAYER1
  6
CONTINUOUS
 62
     6
 10
309.428837
 20
259.547142
 11
309.316448
 21
259.233847
  0
LINE
  8
CSLAYER1
  6
CONTINUOUS
 62
     6
 10
309.316448
 20
259.233847
 11
309.196126
 21
258.918555
  0
LINE
  8
CSLAYER1
  6
CONTINUOUS
 62
     6
 10
309.196126
 20
258.918555
 11
309.068739
 21
258.602527
  0
LINE
  8
CSLAYER1
  6
CONTINUOUS
 62
     6
 10
309.068739
 20
258.602527
 11
308.935157
 21
258.287021
  0
LINE
  8
CSLAYER1
  6
CONTINUOUS
 62
     6
 10
308.935157
 20
258.287021
 11
308.796248
 21
257.973298
  0
LINE
  8
CSLAYER1
  6
CONTINUOUS
 62
     6
 10
308.796248
 20
257.973298
 11
308.652882
 21
257.662615
  0
LINE
  8
CSLAYER1
  6
CONTINUOUS
 62
     6
 10
308.652882
 20
257.662615
 11
308.505927
 21
257.356234
  0
LINE
  8
CSLAYER1
  6
CONTINUOUS
 62
     6
 10
308.505927
 20
257.356234
 11
308.356252
 21
257.055413
  0
LINE
  8
CSLAYER1
  6
CONTINUOUS
 62
     6
 10
308.356252
 20
257.055413
 11
308.228908
 21
256.807793
  0
LINE
  8
CSLAYER1
  6
CONTINUOUS
 62
     6
 10
308.228908
 20
256.807793
 11
308.098756
 21
256.561759
  0
LINE
  8
CSLAYER1
  6
CONTINUOUS
 62
     6
 10
308.098756
 20
256.561759
 11
307.966077
 21
256.317153
  0
LINE
  8
CSLAYER1
  6
CONTINUOUS
 62
     6
 10
307.966077
 20
256.317153
 11
307.831152
 21
256.073815
  0
LINE
  8
CSLAYER1
  6
CONTINUOUS
 62
     6
 10
307.831152
 20
256.073815
 11
307.694262
 21
255.831589
  0
LINE
  8
CSLAYER1
  6
CONTINUOUS
 62
     6
 10
307.694262
 20
255.831589
 11
307.555687
 21
255.590314
  0
LINE
  8
CSLAYER1
  6
CONTINUOUS
 62
     6
 10
307.555687
 20
255.590314
 11
307.415709
 21
255.349832
  0
LINE
  8
CSLAYER1
  6
CONTINUOUS
 62
     6
 10
307.415709
 20
255.349832
 11
307.274607
 21
255.109984
  0
LINE
  8
CSLAYER1
  6
CONTINUOUS
 62
     6
 10
307.274607
 20
255.109984
 11
307.132664
 21
254.870613
  0
LINE
  8
CSLAYER1
  6
CONTINUOUS
 62
     6
 10
307.132664
 20
254.870613
 11
306.990158
 21
254.631558
  0
LINE
  8
CSLAYER1
  6
CONTINUOUS
 62
     6
 10
306.990158
 20
254.631558
 11
306.847372
 21
254.392663
  0
ARC
  8
CSLAYER1
  6
CONTINUOUS
 62
     6
 10
306.837707
 20
255.592630
 40
1.200008
 50
210.461486
 51
270.461486
  0
ARC
  8
CSLAYER1
  6
CONTINUOUS
 62
     6
 10
305.793670
 20
256.184245
 40
1.200008
 50
210.461486
 51
270.461486
  0
LINE
  8
CSLAYER1
  6
CONTINUOUS
 62
     6
 10
304.759267
 20
255.575890
 11
304.894549
 21
255.801811
  0
LINE
  8
CSLAYER1
  6
CONTINUOUS
 62
     6
 10
304.894549
 20
255.801811
 11
305.029556
 21
256.027888
  0
LINE
  8
CSLAYER1
  6
CONTINUOUS
 62
     6
 10
305.029556
 20
256.027888
 11
305.164012
 21
256.254274
  0
LINE
  8
CSLAYER1
  6
CONTINUOUS
 62
     6
 10
305.164012
 20
256.254274
 11
305.297642
 21
256.481123
  0
LINE
  8
CSLAYER1
  6
CONTINUOUS
 62
     6
 10
305.297642
 20
256.481123
 11
305.430172
 21
256.708592
  0
LINE
  8
CSLAYER1
  6
CONTINUOUS
 62
     6
 10
305.430172
 20
256.708592
 11
305.561325
 21
256.936834
  0
LINE
  8
CSLAYER1
  6
CONTINUOUS
 62
     6
 10
305.561325
 20
256.936834
 11
305.690828
 21
257.166003
  0
LINE
  8
CSLAYER1
  6
CONTINUOUS
 62
     6
 10
305.690828
 20
257.166003
 11
305.818403
 21
257.396255
  0
LINE
  8
CSLAYER1
  6
CONTINUOUS
 62
     6
 10
305.818403
 20
257.396255
 11
305.943777
 21
257.627745
  0
LINE
  8
CSLAYER1
  6
CONTINUOUS
 62
     6
 10
305.943777
 20
257.627745
 11
306.066674
 21
257.860627
  0
LINE
  8
CSLAYER1
  6
CONTINUOUS
 62
     6
 10
306.066674
 20
257.860627
 11
306.186819
 21
258.095055
  0
LINE
  8
CSLAYER1
  6
CONTINUOUS
 62
     6
 10
306.186819
 20
258.095055
 11
306.321061
 21
258.365860
  0
LINE
  8
CSLAYER1
  6
CONTINUOUS
 62
     6
 10
306.321061
 20
258.365860
 11
306.452924
 21
258.641625
  0
LINE
  8
CSLAYER1
  6
CONTINUOUS
 62
     6
 10
306.452924
 20
258.641625
 11
306.581631
 21
258.921218
  0
LINE
  8
CSLAYER1
  6
CONTINUOUS
 62
     6
 10
306.581631
 20
258.921218
 11
306.706405
 21
259.203508
  0
LINE
  8
CSLAYER1
  6
CONTINUOUS
 62
     6
 10
306.706405
 20
259.203508
 11
306.826468
 21
259.487364
  0
LINE
  8
CSLAYER1
  6
CONTINUOUS
 62
     6
 10
306.826468
 20
259.487364
 11
306.941043
 21
259.771654
  0
LINE
  8
CSLAYER1
  6
CONTINUOUS
 62
     6
 10
306.941043
 20
259.771654
 11
307.049352
 21
260.055248
  0
LINE
  8
CSLAYER1
  6
CONTINUOUS
 62
     6
 10
307.049352
 20
260.055248
 11
307.150618
 21
260.337013
  0
LINE
  8
CSLAYER1
  6
CONTINUOUS
 62
     6
 10
307.150618
 20
260.337013
 11
307.244062
 21
260.615819
  0
LINE
  8
CSLAYER1
  6
CONTINUOUS
 62
     6
 10
307.244062
 20
260.615819
 11
307.328908
 21
260.890534
  0
LINE
  8
CSLAYER1
  6
CONTINUOUS
 62
     6
 10
307.328908
 20
260.890534
 11
307.404378
 21
261.160027
  0
LINE
  8
CSLAYER1
  6
CONTINUOUS
 62
     6
 10
307.404378
 20
261.160027
 11
307.478919
 21
261.445465
  0
LINE
  8
CSLAYER1
  6
CONTINUOUS
 62
     6
 10
307.478919
 20
261.445465
 11
307.554927
 21
261.744644
  0
LINE
  8
CSLAYER1
  6
CONTINUOUS
 62
     6
 10
307.554927
 20
261.744644
 11
307.631270
 21
262.054310
  0
LINE
  8
CSLAYER1
  6
CONTINUOUS
 62
     6
 10
307.631270
 20
262.054310
 11
307.706816
 21
262.371210
  0
LINE
  8
CSLAYER1
  6
CONTINUOUS
 62
     6
 10
307.706816
 20
262.371210
 11
307.780432
 21
262.692092
  0
LINE
  8
CSLAYER1
  6
CONTINUOUS
 62
     6
 10
307.780432
 20
262.692092
 11
307.850985
 21
263.013703
  0
LINE
  8
CSLAYER1
  6
CONTINUOUS
 62
     6
 10
307.850985
 20
263.013703
 11
307.917342
 21
263.332790
  0
LINE
  8
CSLAYER1
  6
CONTINUOUS
 62
     6
 10
307.917342
 20
263.332790
 11
307.978370
 21
263.646102
  0
LINE
  8
CSLAYER1
  6
CONTINUOUS
 62
     6
 10
307.978370
 20
263.646102
 11
308.032936
 21
263.950384
  0
LINE
  8
CSLAYER1
  6
CONTINUOUS
 62
     6
 10
308.032936
 20
263.950384
 11
308.110877
 21
264.434898
  0
LINE
  8
CSLAYER1
  6
CONTINUOUS
 62
     6
 10
307.982477
 20
263.669004
 11
307.934231
 21
263.581170
  0
LINE
  8
CSLAYER1
  6
CONTINUOUS
 62
     6
 10
307.934231
 20
263.581170
 11
307.824343
 21
263.389361
  0
LINE
  8
CSLAYER1
  6
CONTINUOUS
 62
     6
 10
307.824343
 20
263.389361
 11
307.706089
 21
263.189874
  0
LINE
  8
CSLAYER1
  6
CONTINUOUS
 62
     6
 10
307.706089
 20
263.189874
 11
307.581051
 21
262.984895
  0
LINE
  8
CSLAYER1
  6
CONTINUOUS
 62
     6
 10
307.581051
 20
262.984895
 11
307.450810
 21
262.776609
  0
LINE
  8
CSLAYER1
  6
CONTINUOUS
 62
     6
 10
307.450810
 20
262.776609
 11
307.316947
 21
262.567203
  0
LINE
  8
CSLAYER1
  6
CONTINUOUS
 62
     6
 10
307.316947
 20
262.567203
 11
307.181045
 21
262.358864
  0
LINE
  8
CSLAYER1
  6
CONTINUOUS
 62
     6
 10
307.181045
 20
262.358864
 11
307.044685
 21
262.153776
  0
LINE
  8
CSLAYER1
  6
CONTINUOUS
 62
     6
 10
307.044685
 20
262.153776
 11
306.909448
 21
261.954127
  0
LINE
  8
CSLAYER1
  6
CONTINUOUS
 62
     6
 10
306.909448
 20
261.954127
 11
306.776917
 21
261.762102
  0
LINE
  8
CSLAYER1
  6
CONTINUOUS
 62
     6
 10
306.776917
 20
261.762102
 11
306.648672
 21
261.579888
  0
LINE
  8
CSLAYER1
  6
CONTINUOUS
 62
     6
 10
306.648672
 20
261.579888
 11
306.543592
 21
261.435708
  0
LINE
  8
CSLAYER1
  6
CONTINUOUS
 62
     6
 10
306.543592
 20
261.435708
 11
306.431701
 21
261.288659
  0
LINE
  8
CSLAYER1
  6
CONTINUOUS
 62
     6
 10
306.431701
 20
261.288659
 11
306.314133
 21
261.139637
  0
LINE
  8
CSLAYER1
  6
CONTINUOUS
 62
     6
 10
306.314133
 20
261.139637
 11
306.192020
 21
260.989542
  0
LINE
  8
CSLAYER1
  6
CONTINUOUS
 62
     6
 10
306.192020
 20
260.989542
 11
306.066494
 21
260.839274
  0
LINE
  8
CSLAYER1
  6
CONTINUOUS
 62
     6
 10
306.066494
 20
260.839274
 11
305.938688
 21
260.689731
  0
LINE
  8
CSLAYER1
  6
CONTINUOUS
 62
     6
 10
305.938688
 20
260.689731
 11
305.809735
 21
260.541813
  0
LINE
  8
CSLAYER1
  6
CONTINUOUS
 62
     6
 10
305.809735
 20
260.541813
 11
305.680768
 21
260.396419
  0
LINE
  8
CSLAYER1
  6
CONTINUOUS
 62
     6
 10
305.680768
 20
260.396419
 11
305.552919
 21
260.254447
  0
LINE
  8
CSLAYER1
  6
CONTINUOUS
 62
     6
 10
305.552919
 20
260.254447
 11
305.427321
 21
260.116797
  0
LINE
  8
CSLAYER1
  6
CONTINUOUS
 62
     6
 10
305.427321
 20
260.116797
 11
305.305105
 21
259.984368
  0
LINE
  8
CSLAYER1
  6
CONTINUOUS
 62
     6
 10
305.305105
 20
259.984368
 11
305.160129
 21
259.832208
  0
LINE
  8
CSLAYER1
  6
CONTINUOUS
 62
     6
 10
305.160129
 20
259.832208
 11
305.006954
 21
259.678257
  0
LINE
  8
CSLAYER1
  6
CONTINUOUS
 62
     6
 10
305.006954
 20
259.678257
 11
304.847545
 21
259.522823
  0
LINE
  8
CSLAYER1
  6
CONTINUOUS
 62
     6
 10
304.847545
 20
259.522823
 11
304.683868
 21
259.366215
  0
LINE
  8
CSLAYER1
  6
CONTINUOUS
 62
     6
 10
304.683868
 20
259.366215
 11
304.517888
 21
259.208741
  0
LINE
  8
CSLAYER1
  6
CONTINUOUS
 62
     6
 10
304.517888
 20
259.208741
 11
304.351571
 21
259.050710
  0
LINE
  8
CSLAYER1
  6
CONTINUOUS
 62
     6
 10
304.351571
 20
259.050710
 11
304.186881
 21
258.892430
  0
LINE
  8
CSLAYER1
  6
CONTINUOUS
 62
     6
 10
304.186881
 20
258.892430
 11
304.025783
 21
258.734210
  0
LINE
  8
CSLAYER1
  6
CONTINUOUS
 62
     6
 10
304.025783
 20
258.734210
 11
303.870244
 21
258.576358
  0
LINE
  8
CSLAYER1
  6
CONTINUOUS
 62
     6
 10
303.870244
 20
258.576358
 11
303.722228
 21
258.419183
  0
LINE
  8
CSLAYER1
  6
CONTINUOUS
 62
     6
 10
303.722228
 20
258.419183
 11
303.583700
 21
258.262993
  0
LINE
  8
CSLAYER1
  6
CONTINUOUS
 62
     6
 10
303.583700
 20
258.262993
 11
303.457785
 21
258.116411
  0
LINE
  8
CSLAYER1
  6
CONTINUOUS
 62
     6
 10
303.457785
 20
258.116411
 11
303.326976
 21
257.966232
  0
LINE
  8
CSLAYER1
  6
CONTINUOUS
 62
     6
 10
303.326976
 20
257.966232
 11
303.191373
 21
257.814012
  0
LINE
  8
CSLAYER1
  6
CONTINUOUS
 62
     6
 10
303.191373
 20
257.814012
 11
303.051080
 21
257.661308
  0
LINE
  8
CSLAYER1
  6
CONTINUOUS
 62
     6
 10
303.051080
 20
257.661308
 11
302.906197
 21
257.509674
  0
LINE
  8
CSLAYER1
  6
CONTINUOUS
 62
     6
 10
302.906197
 20
257.509674
 11
302.756826
 21
257.360668
  0
LINE
  8
CSLAYER1
  6
CONTINUOUS
 62
     6
 10
302.756826
 20
257.360668
 11
302.603070
 21
257.215844
  0
LINE
  8
CSLAYER1
  6
CONTINUOUS
 62
     6
 10
302.603070
 20
257.215844
 11
302.445029
 21
257.076759
  0
LINE
  8
CSLAYER1
  6
CONTINUOUS
 62
     6
 10
302.445029
 20
257.076759
 11
302.282806
 21
256.944968
  0
LINE
  8
CSLAYER1
  6
CONTINUOUS
 62
     6
 10
302.282806
 20
256.944968
 11
302.116502
 21
256.822029
  0
LINE
  8
CSLAYER1
  6
CONTINUOUS
 62
     6
 10
302.116502
 20
256.822029
 11
301.946218
 21
256.709496
  0
LINE
  8
CSLAYER1
  6
CONTINUOUS
 62
     6
 10
301.946218
 20
256.709496
 11
301.853484
 21
256.654069
  0
LINE
  8
CSLAYER1
  6
CONTINUOUS
 62
     6
 10
301.853484
 20
256.654069
 11
301.758892
 21
256.601393
  0
LINE
  8
CSLAYER1
  6
CONTINUOUS
 62
     6
 10
301.758892
 20
256.601393
 11
301.662628
 21
256.551191
  0
LINE
  8
CSLAYER1
  6
CONTINUOUS
 62
     6
 10
301.662628
 20
256.551191
 11
301.564876
 21
256.503190
  0
LINE
  8
CSLAYER1
  6
CONTINUOUS
 62
     6
 10
301.564876
 20
256.503190
 11
301.465825
 21
256.457114
  0
LINE
  8
CSLAYER1
  6
CONTINUOUS
 62
     6
 10
301.465825
 20
256.457114
 11
301.365658
 21
256.412687
  0
LINE
  8
CSLAYER1
  6
CONTINUOUS
 62
     6
 10
301.365658
 20
256.412687
 11
301.264562
 21
256.369636
  0
LINE
  8
CSLAYER1
  6
CONTINUOUS
 62
     6
 10
301.264562
 20
256.369636
 11
301.162723
 21
256.327685
  0
LINE
  8
CSLAYER1
  6
CONTINUOUS
 62
     6
 10
301.162723
 20
256.327685
 11
301.060327
 21
256.286558
  0
LINE
  8
CSLAYER1
  6
CONTINUOUS
 62
     6
 10
301.060327
 20
256.286558
 11
300.957558
 21
256.245982
  0
LINE
  8
CSLAYER1
  6
CONTINUOUS
 62
     6
 10
300.957558
 20
256.245982
 11
300.854604
 21
256.205681
  0
ARC
  8
CSLAYER1
  6
CONTINUOUS
 62
     6
 10
300.977336
 20
257.294652
 40
1.095863
 50
203.568976
 51
263.568976
  0
ARC
  8
CSLAYER1
  6
CONTINUOUS
 62
     6
 10
300.095635
 20
257.945436
 40
1.095863
 50
203.568976
 51
263.568976
  0
LINE
  8
CSLAYER1
  6
CONTINUOUS
 62
     6
 10
299.091207
 20
257.507256
 11
299.344319
 21
257.687223
  0
LINE
  8
CSLAYER1
  6
CONTINUOUS
 62
     6
 10
299.344319
 20
257.687223
 11
299.597180
 21
257.867543
  0
LINE
  8
CSLAYER1
  6
CONTINUOUS
 62
     6
 10
299.597180
 20
257.867543
 11
299.849540
 21
258.048568
  0
LINE
  8
CSLAYER1
  6
CONTINUOUS
 62
     6
 10
299.849540
 20
258.048568
 11
300.101148
 21
258.230652
  0
LINE
  8
CSLAYER1
  6
CONTINUOUS
 62
     6
 10
300.101148
 20
258.230652
 11
300.351754
 21
258.414147
  0
LINE
  8
CSLAYER1
  6
CONTINUOUS
 62
     6
 10
300.351754
 20
258.414147
 11
300.601106
 21
258.599406
  0
LINE
  8
CSLAYER1
  6
CONTINUOUS
 62
     6
 10
300.601106
 20
258.599406
 11
300.848955
 21
258.786782
  0
LINE
  8
CSLAYER1
  6
CONTINUOUS
 62
     6
 10
300.848955
 20
258.786782
 11
301.095050
 21
258.976627
  0
LINE
  8
CSLAYER1
  6
CONTINUOUS
 62
     6
 10
301.095050
 20
258.976627
 11
301.339140
 21
259.169294
  0
LINE
  8
CSLAYER1
  6
CONTINUOUS
 62
     6
 10
301.339140
 20
259.169294
 11
301.580974
 21
259.365136
  0
LINE
  8
CSLAYER1
  6
CONTINUOUS
 62
     6
 10
301.580974
 20
259.365136
 11
301.820302
 21
259.564507
  0
LINE
  8
CSLAYER1
  6
CONTINUOUS
 62
     6
 10
301.820302
 20
259.564507
 11
301.977567
 21
259.698803
  0
LINE
  8
CSLAYER1
  6
CONTINUOUS
 62
     6
 10
301.977567
 20
259.698803
 11
302.134617
 21
259.835828
  0
LINE
  8
CSLAYER1
  6
CONTINUOUS
 62
     6
 10
302.134617
 20
259.835828
 11
302.290707
 21
259.975387
  0
LINE
  8
CSLAYER1
  6
CONTINUOUS
 62
     6
 10
302.290707
 20
259.975387
 11
302.445097
 21
260.117290
  0
LINE
  8
CSLAYER1
  6
CONTINUOUS
 62
     6
 10
302.445097
 20
260.117290
 11
302.597041
 21
260.261342
  0
LINE
  8
CSLAYER1
  6
CONTINUOUS
 62
     6
 10
302.597041
 20
260.261342
 11
302.745798
 21
260.407352
  0
LINE
  8
CSLAYER1
  6
CONTINUOUS
 62
     6
 10
302.745798
 20
260.407352
 11
302.890625
 21
260.555127
  0
LINE
  8
CSLAYER1
  6
CONTINUOUS
 62
     6
 10
302.890625
 20
260.555127
 11
303.030777
 21
260.704475
  0
LINE
  8
CSLAYER1
  6
CONTINUOUS
 62
     6
 10
303.030777
 20
260.704475
 11
303.165513
 21
260.855202
  0
LINE
  8
CSLAYER1
  6
CONTINUOUS
 62
     6
 10
303.165513
 20
260.855202
 11
303.294089
 21
261.007117
  0
LINE
  8
CSLAYER1
  6
CONTINUOUS
 62
     6
 10
303.294089
 20
261.007117
 11
303.415761
 21
261.160027
  0
LINE
  8
CSLAYER1
  6
CONTINUOUS
 62
     6
 10
303.415761
 20
261.160027
 11
303.530216
 21
261.311353
  0
LINE
  8
CSLAYER1
  6
CONTINUOUS
 62
     6
 10
303.530216
 20
261.311353
 11
303.645517
 21
261.468606
  0
LINE
  8
CSLAYER1
  6
CONTINUOUS
 62
     6
 10
303.645517
 20
261.468606
 11
303.761130
 21
261.630664
  0
LINE
  8
CSLAYER1
  6
CONTINUOUS
 62
     6
 10
303.761130
 20
261.630664
 11
303.876523
 21
261.796404
  0
LINE
  8
CSLAYER1
  6
CONTINUOUS
 62
     6
 10
303.876523
 20
261.796404
 11
303.991163
 21
261.964704
  0
LINE
  8
CSLAYER1
  6
CONTINUOUS
 62
     6
 10
303.991163
 20
261.964704
 11
304.104517
 21
262.134440
  0
LINE
  8
CSLAYER1
  6
CONTINUOUS
 62
     6
 10
304.104517
 20
262.134440
 11
304.216053
 21
262.304490
  0
LINE
  8
CSLAYER1
  6
CONTINUOUS
 62
     6
 10
304.216053
 20
262.304490
 11
304.325237
 21
262.473733
  0
LINE
  8
CSLAYER1
  6
CONTINUOUS
 62
     6
 10
304.325237
 20
262.473733
 11
304.431537
 21
262.641045
  0
LINE
  8
CSLAYER1
  6
CONTINUOUS
 62
     6
 10
304.431537
 20
262.641045
 11
304.534420
 21
262.805303
  0
LINE
  8
CSLAYER1
  6
CONTINUOUS
 62
     6
 10
304.534420
 20
262.805303
 11
304.633352
 21
262.965386
  0
LINE
  8
CSLAYER1
  6
CONTINUOUS
 62
     6
 10
304.633352
 20
262.965386
 11
304.719826
 21
263.103611
  0
LINE
  8
CSLAYER1
  6
CONTINUOUS
 62
     6
 10
304.719826
 20
263.103611
 11
304.811778
 21
263.246070
  0
LINE
  8
CSLAYER1
  6
CONTINUOUS
 62
     6
 10
304.811778
 20
263.246070
 11
304.907978
 21
263.391549
  0
LINE
  8
CSLAYER1
  6
CONTINUOUS
 62
     6
 10
304.907978
 20
263.391549
 11
305.007197
 21
263.538840
  0
LINE
  8
CSLAYER1
  6
CONTINUOUS
 62
     6
 10
305.007197
 20
263.538840
 11
305.108205
 21
263.686729
  0
LINE
  8
CSLAYER1
  6
CONTINUOUS
 62
     6
 10
305.108205
 20
263.686729
 11
305.209773
 21
263.834008
  0
LINE
  8
CSLAYER1
  6
CONTINUOUS
 62
     6
 10
305.209773
 20
263.834008
 11
305.310671
 21
263.979465
  0
LINE
  8
CSLAYER1
  6
CONTINUOUS
 62
     6
 10
305.310671
 20
263.979465
 11
305.409670
 21
264.121888
  0
LINE
  8
CSLAYER1
  6
CONTINUOUS
 62
     6
 10
305.409670
 20
264.121888
 11
305.505540
 21
264.260068
  0
LINE
  8
CSLAYER1
  6
CONTINUOUS
 62
     6
 10
305.505540
 20
264.260068
 11
305.626081
 21
264.434898
  0
LINE
  8
CSLAYER1
  6
CONTINUOUS
 62
     6
 10
313.762916
 20
266.934898
 11
314.206794
 21
266.234917
  0
LINE
  8
CSLAYER1
  6
CONTINUOUS
 62
     6
 10
314.706794
 20
266.234917
 11
314.262916
 21
266.934898
  0
ARC
  8
CSLAYER1
  6
CONTINUOUS
 62
     6
 10
316.910865
 20
266.834892
 40
0.100000
 50
0.000010
 51
90.000016
  0
LINE
  8
CSLAYER1
  6
CONTINUOUS
 62
     6
 10
317.010841
 20
266.834892
 11
317.010841
 21
266.334892
  0
ARC
  8
CSLAYER1
  6
CONTINUOUS
 62
     6
 10
316.910865
 20
266.334892
 40
0.100000
 50
270.000001
 51
359.942691
  0
ARC
  8
CSLAYER1
  6
CONTINUOUS
 62
     6
 10
305.813001
 20
253.784306
 40
1.200008
 50
30.461486
 51
90.461486
  0
ARC
  8
CSLAYER1
  6
CONTINUOUS
 62
     6
 10
305.049970
 20
254.701263
 40
1.164461
 50
206.024005
 51
266.024005
  0
ARC
  8
CSLAYER1
  6
CONTINUOUS
 62
     6
 10
303.922832
 20
253.028700
 40
1.164461
 50
26.024005
 51
86.024005
  0
ARC
  8
CSLAYER1
  6
CONTINUOUS
 62
     6
 10
304.888486
 20
252.377946
 40
1.164461
 50
21.658505
 51
86.024005
  0
LINE
  8
CSLAYER1
  6
CONTINUOUS
 62
     6
 10
305.970737
 20
252.807718
 11
305.801479
 21
252.600118
  0
LINE
  8
CSLAYER1
  6
CONTINUOUS
 62
     6
 10
305.801479
 20
252.600118
 11
305.677437
 21
252.448006
  0
LINE
  8
CSLAYER1
  6
CONTINUOUS
 62
     6
 10
305.677437
 20
252.448006
 11
305.548151
 21
252.288675
  0
LINE
  8
CSLAYER1
  6
CONTINUOUS
 62
     6
 10
305.548151
 20
252.288675
 11
305.415452
 21
252.123553
  0
LINE
  8
CSLAYER1
  6
CONTINUOUS
 62
     6
 10
305.415452
 20
252.123553
 11
305.281171
 21
251.954068
  0
LINE
  8
CSLAYER1
  6
CONTINUOUS
 62
     6
 10
305.281171
 20
251.954068
 11
305.147139
 21
251.781647
  0
LINE
  8
CSLAYER1
  6
CONTINUOUS
 62
     6
 10
305.147139
 20
251.781647
 11
305.015187
 21
251.607718
  0
LINE
  8
CSLAYER1
  6
CONTINUOUS
 62
     6
 10
305.015187
 20
251.607718
 11
304.887145
 21
251.433708
  0
LINE
  8
CSLAYER1
  6
CONTINUOUS
 62
     6
 10
304.887145
 20
251.433708
 11
304.764845
 21
251.261044
  0
LINE
  8
CSLAYER1
  6
CONTINUOUS
 62
     6
 10
304.764845
 20
251.261044
 11
304.650116
 21
251.091156
  0
LINE
  8
CSLAYER1
  6
CONTINUOUS
 62
     6
 10
304.650116
 20
251.091156
 11
304.544790
 21
250.925469
  0
LINE
  8
CSLAYER1
  6
CONTINUOUS
 62
     6
 10
304.544790
 20
250.925469
 11
304.437166
 21
250.747785
  0
LINE
  8
CSLAYER1
  6
CONTINUOUS
 62
     6
 10
304.437166
 20
250.747785
 11
304.327920
 21
250.564342
  0
LINE
  8
CSLAYER1
  6
CONTINUOUS
 62
     6
 10
304.327920
 20
250.564342
 11
304.216772
 21
250.376496
  0
LINE
  8
CSLAYER1
  6
CONTINUOUS
 62
     6
 10
304.216772
 20
250.376496
 11
304.103439
 21
250.185605
  0
LINE
  8
CSLAYER1
  6
CONTINUOUS
 62
     6
 10
304.103439
 20
250.185605
 11
303.987641
 21
249.993025
  0
LINE
  8
CSLAYER1
  6
CONTINUOUS
 62
     6
 10
303.987641
 20
249.993025
 11
303.869097
 21
249.800113
  0
LINE
  8
CSLAYER1
  6
CONTINUOUS
 62
     6
 10
303.869097
 20
249.800113
 11
303.747525
 21
249.608224
  0
LINE
  8
CSLAYER1
  6
CONTINUOUS
 62
     6
 10
303.747525
 20
249.608224
 11
303.622643
 21
249.418717
  0
LINE
  8
CSLAYER1
  6
CONTINUOUS
 62
     6
 10
303.622643
 20
249.418717
 11
303.494172
 21
249.232947
  0
LINE
  8
CSLAYER1
  6
CONTINUOUS
 62
     6
 10
303.494172
 20
249.232947
 11
303.361829
 21
249.052270
  0
LINE
  8
CSLAYER1
  6
CONTINUOUS
 62
     6
 10
303.361829
 20
249.052270
 11
303.225332
 21
248.878045
  0
LINE
  8
CSLAYER1
  6
CONTINUOUS
 62
     6
 10
303.225332
 20
248.878045
 11
303.110961
 21
248.741881
  0
LINE
  8
CSLAYER1
  6
CONTINUOUS
 62
     6
 10
303.110961
 20
248.741881
 11
302.992451
 21
248.609076
  0
LINE
  8
CSLAYER1
  6
CONTINUOUS
 62
     6
 10
302.992451
 20
248.609076
 11
302.870218
 21
248.479292
  0
LINE
  8
CSLAYER1
  6
CONTINUOUS
 62
     6
 10
302.870218
 20
248.479292
 11
302.744675
 21
248.352194
  0
LINE
  8
CSLAYER1
  6
CONTINUOUS
 62
     6
 10
302.744675
 20
248.352194
 11
302.616235
 21
248.227446
  0
LINE
  8
CSLAYER1
  6
CONTINUOUS
 62
     6
 10
302.616235
 20
248.227446
 11
302.485313
 21
248.104713
  0
LINE
  8
CSLAYER1
  6
CONTINUOUS
 62
     6
 10
302.485313
 20
248.104713
 11
302.352321
 21
247.983659
  0
LINE
  8
CSLAYER1
  6
CONTINUOUS
 62
     6
 10
302.352321
 20
247.983659
 11
302.217675
 21
247.863947
  0
LINE
  8
CSLAYER1
  6
CONTINUOUS
 62
     6
 10
302.217675
 20
247.863947
 11
302.081787
 21
247.745243
  0
LINE
  8
CSLAYER1
  6
CONTINUOUS
 62
     6
 10
302.081787
 20
247.745243
 11
301.945072
 21
247.627211
  0
LINE
  8
CSLAYER1
  6
CONTINUOUS
 62
     6
 10
301.945072
 20
247.627211
 11
301.817725
 21
247.517909
  0
LINE
  8
CSLAYER1
  6
CONTINUOUS
 62
     6
 10
301.817725
 20
247.517909
 11
301.765652
 21
247.583952
  0
LINE
  8
CSLAYER1
  6
CONTINUOUS
 62
     6
 10
301.765652
 20
247.583952
 11
301.711253
 21
247.653424
  0
LINE
  8
CSLAYER1
  6
CONTINUOUS
 62
     6
 10
301.711253
 20
247.653424
 11
301.657357
 21
247.723217
  0
LINE
  8
CSLAYER1
  6
CONTINUOUS
 62
     6
 10
301.657357
 20
247.723217
 11
301.604215
 21
247.793492
  0
LINE
  8
CSLAYER1
  6
CONTINUOUS
 62
     6
 10
301.604215
 20
247.793492
 11
301.552079
 21
247.864408
  0
LINE
  8
CSLAYER1
  6
CONTINUOUS
 62
     6
 10
301.552079
 20
247.864408
 11
301.501200
 21
247.936127
  0
LINE
  8
CSLAYER1
  6
CONTINUOUS
 62
     6
 10
301.501200
 20
247.936127
 11
301.451830
 21
248.008808
  0
LINE
  8
CSLAYER1
  6
CONTINUOUS
 62
     6
 10
301.451830
 20
248.008808
 11
301.404220
 21
248.082613
  0
LINE
  8
CSLAYER1
  6
CONTINUOUS
 62
     6
 10
301.404220
 20
248.082613
 11
301.358622
 21
248.157701
  0
LINE
  8
CSLAYER1
  6
CONTINUOUS
 62
     6
 10
301.358622
 20
248.157701
 11
301.315286
 21
248.234233
  0
LINE
  8
CSLAYER1
  6
CONTINUOUS
 62
     6
 10
301.315286
 20
248.234233
 11
301.274465
 21
248.312371
  0
LINE
  8
CSLAYER1
  6
CONTINUOUS
 62
     6
 10
301.274465
 20
248.312371
 11
301.259203
 21
248.343325
  0
LINE
  8
CSLAYER1
  6
CONTINUOUS
 62
     6
 10
301.259203
 20
248.343325
 11
301.244065
 21
248.374696
  0
LINE
  8
CSLAYER1
  6
CONTINUOUS
 62
     6
 10
301.244065
 20
248.374696
 11
301.229009
 21
248.406319
  0
LINE
  8
CSLAYER1
  6
CONTINUOUS
 62
     6
 10
301.229009
 20
248.406319
 11
301.213994
 21
248.438024
  0
LINE
  8
CSLAYER1
  6
CONTINUOUS
 62
     6
 10
301.213994
 20
248.438024
 11
301.198977
 21
248.469645
  0
LINE
  8
CSLAYER1
  6
CONTINUOUS
 62
     6
 10
301.198977
 20
248.469645
 11
301.183917
 21
248.501015
  0
LINE
  8
CSLAYER1
  6
CONTINUOUS
 62
     6
 10
301.183917
 20
248.501015
 11
301.168771
 21
248.531967
  0
LINE
  8
CSLAYER1
  6
CONTINUOUS
 62
     6
 10
301.168771
 20
248.531967
 11
301.153499
 21
248.562333
  0
LINE
  8
CSLAYER1
  6
CONTINUOUS
 62
     6
 10
301.153499
 20
248.562333
 11
301.138056
 21
248.591947
  0
LINE
  8
CSLAYER1
  6
CONTINUOUS
 62
     6
 10
301.138056
 20
248.591947
 11
301.122403
 21
248.620640
  0
LINE
  8
CSLAYER1
  6
CONTINUOUS
 62
     6
 10
301.122403
 20
248.620640
 11
301.106496
 21
248.648247
  0
LINE
  8
CSLAYER1
  6
CONTINUOUS
 62
     6
 10
301.106496
 20
248.648247
 11
301.054630
 21
248.727296
  0
LINE
  8
CSLAYER1
  6
CONTINUOUS
 62
     6
 10
301.054630
 20
248.727296
 11
300.994060
 21
248.805495
  0
LINE
  8
CSLAYER1
  6
CONTINUOUS
 62
     6
 10
300.994060
 20
248.805495
 11
300.926057
 21
248.882183
  0
LINE
  8
CSLAYER1
  6
CONTINUOUS
 62
     6
 10
300.926057
 20
248.882183
 11
300.851891
 21
248.956698
  0
LINE
  8
CSLAYER1
  6
CONTINUOUS
 62
     6
 10
300.851891
 20
248.956698
 11
300.772832
 21
249.028382
  0
LINE
  8
CSLAYER1
  6
CONTINUOUS
 62
     6
 10
300.772832
 20
249.028382
 11
300.690150
 21
249.096572
  0
LINE
  8
CSLAYER1
  6
CONTINUOUS
 62
     6
 10
300.690150
 20
249.096572
 11
300.605114
 21
249.160610
  0
LINE
  8
CSLAYER1
  6
CONTINUOUS
 62
     6
 10
300.605114
 20
249.160610
 11
300.518995
 21
249.219834
  0
LINE
  8
CSLAYER1
  6
CONTINUOUS
 62
     6
 10
300.518995
 20
249.219834
 11
300.433062
 21
249.273585
  0
LINE
  8
CSLAYER1
  6
CONTINUOUS
 62
     6
 10
300.433062
 20
249.273585
 11
300.348586
 21
249.321201
  0
LINE
  8
CSLAYER1
  6
CONTINUOUS
 62
     6
 10
300.348586
 20
249.321201
 11
300.279439
 21
249.355730
  0
LINE
  8
CSLAYER1
  6
CONTINUOUS
 62
     6
 10
300.279439
 20
249.355730
 11
300.375465
 21
249.439058
  0
LINE
  8
CSLAYER1
  6
CONTINUOUS
 62
     6
 10
300.375465
 20
249.439058
 11
300.491920
 21
249.541252
  0
LINE
  8
CSLAYER1
  6
CONTINUOUS
 62
     6
 10
300.491920
 20
249.541252
 11
300.607357
 21
249.644272
  0
LINE
  8
CSLAYER1
  6
CONTINUOUS
 62
     6
 10
300.607357
 20
249.644272
 11
300.721439
 21
249.748394
  0
LINE
  8
CSLAYER1
  6
CONTINUOUS
 62
     6
 10
300.721439
 20
249.748394
 11
300.833824
 21
249.853893
  0
LINE
  8
CSLAYER1
  6
CONTINUOUS
 62
     6
 10
300.833824
 20
249.853893
 11
300.944175
 21
249.961044
  0
LINE
  8
CSLAYER1
  6
CONTINUOUS
 62
     6
 10
300.944175
 20
249.961044
 11
301.052152
 21
250.070122
  0
LINE
  8
CSLAYER1
  6
CONTINUOUS
 62
     6
 10
301.052152
 20
250.070122
 11
301.157416
 21
250.181403
  0
LINE
  8
CSLAYER1
  6
CONTINUOUS
 62
     6
 10
301.157416
 20
250.181403
 11
301.259628
 21
250.295162
  0
LINE
  8
CSLAYER1
  6
CONTINUOUS
 62
     6
 10
301.259628
 20
250.295162
 11
301.358449
 21
250.411675
  0
LINE
  8
CSLAYER1
  6
CONTINUOUS
 62
     6
 10
301.358449
 20
250.411675
 11
301.485290
 21
250.571897
  0
LINE
  8
CSLAYER1
  6
CONTINUOUS
 62
     6
 10
301.485290
 20
250.571897
 11
301.608280
 21
250.738333
  0
LINE
  8
CSLAYER1
  6
CONTINUOUS
 62
     6
 10
301.608280
 20
250.738333
 11
301.727628
 21
250.909681
  0
LINE
  8
CSLAYER1
  6
CONTINUOUS
 62
     6
 10
301.727628
 20
250.909681
 11
301.843538
 21
251.084638
  0
LINE
  8
CSLAYER1
  6
CONTINUOUS
 62
     6
 10
301.843538
 20
251.084638
 11
301.956219
 21
251.261903
  0
LINE
  8
CSLAYER1
  6
CONTINUOUS
 62
     6
 10
301.956219
 20
251.261903
 11
302.065876
 21
251.440173
  0
LINE
  8
CSLAYER1
  6
CONTINUOUS
 62
     6
 10
302.065876
 20
251.440173
 11
302.172716
 21
251.618145
  0
LINE
  8
CSLAYER1
  6
CONTINUOUS
 62
     6
 10
302.172716
 20
251.618145
 11
302.276946
 21
251.794518
  0
LINE
  8
CSLAYER1
  6
CONTINUOUS
 62
     6
 10
302.276946
 20
251.794518
 11
302.378772
 21
251.967990
  0
LINE
  8
CSLAYER1
  6
CONTINUOUS
 62
     6
 10
302.378772
 20
251.967990
 11
302.478402
 21
252.137257
  0
LINE
  8
CSLAYER1
  6
CONTINUOUS
 62
     6
 10
302.478402
 20
252.137257
 11
302.576040
 21
252.301018
  0
LINE
  8
CSLAYER1
  6
CONTINUOUS
 62
     6
 10
302.576040
 20
252.301018
 11
302.683859
 21
252.473041
  0
LINE
  8
CSLAYER1
  6
CONTINUOUS
 62
     6
 10
302.683859
 20
252.473041
 11
302.802178
 21
252.649727
  0
LINE
  8
CSLAYER1
  6
CONTINUOUS
 62
     6
 10
302.802178
 20
252.649727
 11
302.928962
 21
252.829505
  0
LINE
  8
CSLAYER1
  6
CONTINUOUS
 62
     6
 10
302.928962
 20
252.829505
 11
303.062174
 21
253.010801
  0
LINE
  8
CSLAYER1
  6
CONTINUOUS
 62
     6
 10
303.062174
 20
253.010801
 11
303.199777
 21
253.192044
  0
LINE
  8
CSLAYER1
  6
CONTINUOUS
 62
     6
 10
303.199777
 20
253.192044
 11
303.339735
 21
253.371663
  0
LINE
  8
CSLAYER1
  6
CONTINUOUS
 62
     6
 10
303.339735
 20
253.371663
 11
303.480010
 21
253.548084
  0
LINE
  8
CSLAYER1
  6
CONTINUOUS
 62
     6
 10
303.480010
 20
253.548084
 11
303.618568
 21
253.719737
  0
LINE
  8
CSLAYER1
  6
CONTINUOUS
 62
     6
 10
303.618568
 20
253.719737
 11
303.753369
 21
253.885048
  0
LINE
  8
CSLAYER1
  6
CONTINUOUS
 62
     6
 10
303.753369
 20
253.885048
 11
303.882379
 21
254.042447
  0
LINE
  8
CSLAYER1
  6
CONTINUOUS
 62
     6
 10
303.882379
 20
254.042447
 11
304.003560
 21
254.190362
  0
ARC
  8
CSLAYER1
  6
CONTINUOUS
 62
     6
 10
299.850146
 20
255.767501
 40
1.095863
 50
23.568976
 51
83.568976
  0
LINE
  8
CSLAYER1
  6
CONTINUOUS
 62
     6
 10
299.510305
 20
255.492313
 11
299.405044
 21
255.276772
  0
LINE
  8
CSLAYER1
  6
CONTINUOUS
 62
     6
 10
299.405044
 20
255.276772
 11
299.334535
 21
255.140804
  0
LINE
  8
CSLAYER1
  6
CONTINUOUS
 62
     6
 10
299.334535
 20
255.140804
 11
299.258146
 21
255.001738
  0
LINE
  8
CSLAYER1
  6
CONTINUOUS
 62
     6
 10
299.258146
 20
255.001738
 11
299.176445
 21
254.861263
  0
LINE
  8
CSLAYER1
  6
CONTINUOUS
 62
     6
 10
299.176445
 20
254.861263
 11
299.089999
 21
254.721070
  0
LINE
  8
CSLAYER1
  6
CONTINUOUS
 62
     6
 10
299.089999
 20
254.721070
 11
298.999375
 21
254.582848
  0
LINE
  8
CSLAYER1
  6
CONTINUOUS
 62
     6
 10
298.999375
 20
254.582848
 11
298.905140
 21
254.448288
  0
LINE
  8
CSLAYER1
  6
CONTINUOUS
 62
     6
 10
298.905140
 20
254.448288
 11
298.807862
 21
254.319079
  0
LINE
  8
CSLAYER1
  6
CONTINUOUS
 62
     6
 10
298.807862
 20
254.319079
 11
298.708107
 21
254.196912
  0
LINE
  8
CSLAYER1
  6
CONTINUOUS
 62
     6
 10
298.708107
 20
254.196912
 11
298.606444
 21
254.083476
  0
LINE
  8
CSLAYER1
  6
CONTINUOUS
 62
     6
 10
298.606444
 20
254.083476
 11
298.503438
 21
253.980462
  0
LINE
  8
CSLAYER1
  6
CONTINUOUS
 62
     6
 10
298.503438
 20
253.980462
 11
298.370889
 21
253.863833
  0
LINE
  8
CSLAYER1
  6
CONTINUOUS
 62
     6
 10
298.370889
 20
253.863833
 11
298.227750
 21
253.751248
  0
LINE
  8
CSLAYER1
  6
CONTINUOUS
 62
     6
 10
298.227750
 20
253.751248
 11
298.075954
 21
253.641754
  0
LINE
  8
CSLAYER1
  6
CONTINUOUS
 62
     6
 10
298.075954
 20
253.641754
 11
297.917436
 21
253.534399
  0
LINE
  8
CSLAYER1
  6
CONTINUOUS
 62
     6
 10
297.917436
 20
253.534399
 11
297.754129
 21
253.428231
  0
LINE
  8
CSLAYER1
  6
CONTINUOUS
 62
     6
 10
297.754129
 20
253.428231
 11
297.587968
 21
253.322299
  0
LINE
  8
CSLAYER1
  6
CONTINUOUS
 62
     6
 10
297.587968
 20
253.322299
 11
297.420887
 21
253.215649
  0
LINE
  8
CSLAYER1
  6
CONTINUOUS
 62
     6
 10
297.420887
 20
253.215649
 11
297.254819
 21
253.107330
  0
LINE
  8
CSLAYER1
  6
CONTINUOUS
 62
     6
 10
297.254819
 20
253.107330
 11
297.091698
 21
252.996391
  0
LINE
  8
CSLAYER1
  6
CONTINUOUS
 62
     6
 10
297.091698
 20
252.996391
 11
296.933458
 21
252.881878
  0
LINE
  8
CSLAYER1
  6
CONTINUOUS
 62
     6
 10
296.933458
 20
252.881878
 11
296.782033
 21
252.762841
  0
LINE
  8
CSLAYER1
  6
CONTINUOUS
 62
     6
 10
296.782033
 20
252.762841
 11
296.663718
 21
252.660802
  0
LINE
  8
CSLAYER1
  6
CONTINUOUS
 62
     6
 10
296.663718
 20
252.660802
 11
296.549761
 21
252.554112
  0
LINE
  8
CSLAYER1
  6
CONTINUOUS
 62
     6
 10
296.549761
 20
252.554112
 11
296.439727
 21
252.443234
  0
LINE
  8
CSLAYER1
  6
CONTINUOUS
 62
     6
 10
296.439727
 20
252.443234
 11
296.333180
 21
252.328634
  0
LINE
  8
CSLAYER1
  6
CONTINUOUS
 62
     6
 10
296.333180
 20
252.328634
 11
296.229683
 21
252.210777
  0
LINE
  8
CSLAYER1
  6
CONTINUOUS
 62
     6
 10
296.229683
 20
252.210777
 11
296.128802
 21
252.090128
  0
LINE
  8
CSLAYER1
  6
CONTINUOUS
 62
     6
 10
296.128802
 20
252.090128
 11
296.030100
 21
251.967153
  0
LINE
  8
CSLAYER1
  6
CONTINUOUS
 62
     6
 10
296.030100
 20
251.967153
 11
295.933141
 21
251.842318
  0
LINE
  8
CSLAYER1
  6
CONTINUOUS
 62
     6
 10
295.933141
 20
251.842318
 11
295.837490
 21
251.716086
  0
LINE
  8
CSLAYER1
  6
CONTINUOUS
 62
     6
 10
295.837490
 20
251.716086
 11
295.742710
 21
251.588924
  0
LINE
  8
CSLAYER1
  6
CONTINUOUS
 62
     6
 10
295.742710
 20
251.588924
 11
295.615455
 21
251.416774
  0
LINE
  8
CSLAYER1
  6
CONTINUOUS
 62
     6
 10
295.615455
 20
251.416774
 11
295.534835
 21
251.439236
  0
LINE
  8
CSLAYER1
  6
CONTINUOUS
 62
     6
 10
295.534835
 20
251.439236
 11
295.463248
 21
251.459127
  0
LINE
  8
CSLAYER1
  6
CONTINUOUS
 62
     6
 10
295.463248
 20
251.459127
 11
295.391562
 21
251.478932
  0
LINE
  8
CSLAYER1
  6
CONTINUOUS
 62
     6
 10
295.391562
 20
251.478932
 11
295.319730
 21
251.498610
  0
LINE
  8
CSLAYER1
  6
CONTINUOUS
 62
     6
 10
295.319730
 20
251.498610
 11
295.247703
 21
251.518119
  0
LINE
  8
CSLAYER1
  6
CONTINUOUS
 62
     6
 10
295.247703
 20
251.518119
 11
295.175432
 21
251.537416
  0
LINE
  8
CSLAYER1
  6
CONTINUOUS
 62
     6
 10
295.175432
 20
251.537416
 11
295.102868
 21
251.556458
  0
LINE
  8
CSLAYER1
  6
CONTINUOUS
 62
     6
 10
295.102868
 20
251.556458
 11
295.029962
 21
251.575203
  0
LINE
  8
CSLAYER1
  6
CONTINUOUS
 62
     6
 10
295.029962
 20
251.575203
 11
294.956666
 21
251.593610
  0
LINE
  8
CSLAYER1
  6
CONTINUOUS
 62
     6
 10
294.956666
 20
251.593610
 11
294.882930
 21
251.611634
  0
LINE
  8
CSLAYER1
  6
CONTINUOUS
 62
     6
 10
294.882930
 20
251.611634
 11
294.808706
 21
251.629235
  0
LINE
  8
CSLAYER1
  6
CONTINUOUS
 62
     6
 10
294.808706
 20
251.629235
 11
294.736130
 21
251.645990
  0
LINE
  8
CSLAYER1
  6
CONTINUOUS
 62
     6
 10
294.736130
 20
251.645990
 11
294.662656
 21
251.662925
  0
LINE
  8
CSLAYER1
  6
CONTINUOUS
 62
     6
 10
294.662656
 20
251.662925
 11
294.588841
 21
251.680390
  0
LINE
  8
CSLAYER1
  6
CONTINUOUS
 62
     6
 10
294.588841
 20
251.680390
 11
294.515243
 21
251.698735
  0
LINE
  8
CSLAYER1
  6
CONTINUOUS
 62
     6
 10
294.515243
 20
251.698735
 11
294.442419
 21
251.718310
  0
LINE
  8
CSLAYER1
  6
CONTINUOUS
 62
     6
 10
294.442419
 20
251.718310
 11
294.370924
 21
251.739463
  0
LINE
  8
CSLAYER1
  6
CONTINUOUS
 62
     6
 10
294.370924
 20
251.739463
 11
294.301318
 21
251.762546
  0
LINE
  8
CSLAYER1
  6
CONTINUOUS
 62
     6
 10
294.301318
 20
251.762546
 11
294.234156
 21
251.787907
  0
LINE
  8
CSLAYER1
  6
CONTINUOUS
 62
     6
 10
294.234156
 20
251.787907
 11
294.169995
 21
251.815896
  0
LINE
  8
CSLAYER1
  6
CONTINUOUS
 62
     6
 10
294.169995
 20
251.815896
 11
294.109394
 21
251.846862
  0
LINE
  8
CSLAYER1
  6
CONTINUOUS
 62
     6
 10
294.109394
 20
251.846862
 11
294.052907
 21
251.881157
  0
LINE
  8
CSLAYER1
  6
CONTINUOUS
 62
     6
 10
294.052907
 20
251.881157
 11
293.997880
 21
251.920001
  0
LINE
  8
CSLAYER1
  6
CONTINUOUS
 62
     6
 10
293.997880
 20
251.920001
 11
293.942370
 21
251.963507
  0
LINE
  8
CSLAYER1
  6
CONTINUOUS
 62
     6
 10
293.942370
 20
251.963507
 11
293.886898
 21
252.011093
  0
LINE
  8
CSLAYER1
  6
CONTINUOUS
 62
     6
 10
293.886898
 20
252.011093
 11
293.831988
 21
252.062178
  0
LINE
  8
CSLAYER1
  6
CONTINUOUS
 62
     6
 10
293.831988
 20
252.062178
 11
293.778160
 21
252.116181
  0
LINE
  8
CSLAYER1
  6
CONTINUOUS
 62
     6
 10
293.778160
 20
252.116181
 11
293.725935
 21
252.172522
  0
LINE
  8
CSLAYER1
  6
CONTINUOUS
 62
     6
 10
293.725935
 20
252.172522
 11
293.675837
 21
252.230619
  0
LINE
  8
CSLAYER1
  6
CONTINUOUS
 62
     6
 10
293.675837
 20
252.230619
 11
293.628385
 21
252.289892
  0
LINE
  8
CSLAYER1
  6
CONTINUOUS
 62
     6
 10
293.628385
 20
252.289892
 11
293.584103
 21
252.349760
  0
LINE
  8
CSLAYER1
  6
CONTINUOUS
 62
     6
 10
293.584103
 20
252.349760
 11
293.543511
 21
252.409642
  0
LINE
  8
CSLAYER1
  6
CONTINUOUS
 62
     6
 10
293.543511
 20
252.409642
 11
293.514774
 21
252.456496
  0
LINE
  8
CSLAYER1
  6
CONTINUOUS
 62
     6
 10
293.514774
 20
252.456496
 11
293.643329
 21
252.618914
  0
LINE
  8
CSLAYER1
  6
CONTINUOUS
 62
     6
 10
293.643329
 20
252.618914
 11
293.695631
 21
252.684863
  0
LINE
  8
CSLAYER1
  6
CONTINUOUS
 62
     6
 10
293.695631
 20
252.684863
 11
293.748053
 21
252.750700
  0
LINE
  8
CSLAYER1
  6
CONTINUOUS
 62
     6
 10
293.748053
 20
252.750700
 11
293.800654
 21
252.816371
  0
LINE
  8
CSLAYER1
  6
CONTINUOUS
 62
     6
 10
293.800654
 20
252.816371
 11
293.853494
 21
252.881819
  0
LINE
  8
CSLAYER1
  6
CONTINUOUS
 62
     6
 10
293.853494
 20
252.881819
 11
293.906632
 21
252.946989
  0
LINE
  8
CSLAYER1
  6
CONTINUOUS
 62
     6
 10
293.906632
 20
252.946989
 11
293.960128
 21
253.011824
  0
LINE
  8
CSLAYER1
  6
CONTINUOUS
 62
     6
 10
293.960128
 20
253.011824
 11
294.014042
 21
253.076271
  0
LINE
  8
CSLAYER1
  6
CONTINUOUS
 62
     6
 10
294.014042
 20
253.076271
 11
294.068432
 21
253.140272
  0
LINE
  8
CSLAYER1
  6
CONTINUOUS
 62
     6
 10
294.068432
 20
253.140272
 11
294.123360
 21
253.203773
  0
LINE
  8
CSLAYER1
  6
CONTINUOUS
 62
     6
 10
294.123360
 20
253.203773
 11
294.178884
 21
253.266717
  0
LINE
  8
CSLAYER1
  6
CONTINUOUS
 62
     6
 10
294.178884
 20
253.266717
 11
294.318238
 21
253.419352
  0
LINE
  8
CSLAYER1
  6
CONTINUOUS
 62
     6
 10
294.318238
 20
253.419352
 11
294.462920
 21
253.571109
  0
LINE
  8
CSLAYER1
  6
CONTINUOUS
 62
     6
 10
294.462920
 20
253.571109
 11
294.611787
 21
253.721518
  0
LINE
  8
CSLAYER1
  6
CONTINUOUS
 62
     6
 10
294.611787
 20
253.721518
 11
294.763698
 21
253.870113
  0
LINE
  8
CSLAYER1
  6
CONTINUOUS
 62
     6
 10
294.763698
 20
253.870113
 11
294.917509
 21
254.016426
  0
LINE
  8
CSLAYER1
  6
CONTINUOUS
 62
     6
 10
294.917509
 20
254.016426
 11
295.072080
 21
254.159988
  0
LINE
  8
CSLAYER1
  6
CONTINUOUS
 62
     6
 10
295.072080
 20
254.159988
 11
295.226267
 21
254.300333
  0
LINE
  8
CSLAYER1
  6
CONTINUOUS
 62
     6
 10
295.226267
 20
254.300333
 11
295.378928
 21
254.436993
  0
LINE
  8
CSLAYER1
  6
CONTINUOUS
 62
     6
 10
295.378928
 20
254.436993
 11
295.528921
 21
254.569499
  0
LINE
  8
CSLAYER1
  6
CONTINUOUS
 62
     6
 10
295.528921
 20
254.569499
 11
295.675105
 21
254.697385
  0
LINE
  8
CSLAYER1
  6
CONTINUOUS
 62
     6
 10
295.675105
 20
254.697385
 11
295.816335
 21
254.820183
  0
LINE
  8
CSLAYER1
  6
CONTINUOUS
 62
     6
 10
295.816335
 20
254.820183
 11
295.973241
 21
254.958947
  0
LINE
  8
CSLAYER1
  6
CONTINUOUS
 62
     6
 10
295.973241
 20
254.958947
 11
296.136919
 21
255.108231
  0
LINE
  8
CSLAYER1
  6
CONTINUOUS
 62
     6
 10
296.136919
 20
255.108231
 11
296.305591
 21
255.265710
  0
LINE
  8
CSLAYER1
  6
CONTINUOUS
 62
     6
 10
296.305591
 20
255.265710
 11
296.477483
 21
255.429060
  0
LINE
  8
CSLAYER1
  6
CONTINUOUS
 62
     6
 10
296.477483
 20
255.429060
 11
296.650818
 21
255.595955
  0
LINE
  8
CSLAYER1
  6
CONTINUOUS
 62
     6
 10
296.650818
 20
255.595955
 11
296.823821
 21
255.764070
  0
LINE
  8
CSLAYER1
  6
CONTINUOUS
 62
     6
 10
296.823821
 20
255.764070
 11
296.994716
 21
255.931081
  0
LINE
  8
CSLAYER1
  6
CONTINUOUS
 62
     6
 10
296.994716
 20
255.931081
 11
297.161727
 21
256.094664
  0
LINE
  8
CSLAYER1
  6
CONTINUOUS
 62
     6
 10
297.161727
 20
256.094664
 11
297.323077
 21
256.252492
  0
LINE
  8
CSLAYER1
  6
CONTINUOUS
 62
     6
 10
297.323077
 20
256.252492
 11
297.476992
 21
256.402241
  0
LINE
  8
CSLAYER1
  6
CONTINUOUS
 62
     6
 10
297.476992
 20
256.402241
 11
297.621694
 21
256.541588
  0
ARC
  8
CSLAYER1
  6
CONTINUOUS
 62
     6
 10
297.639502
 20
255.461067
 40
1.080690
 50
30.945197
 51
90.945197
  0
ARC
  8
CSLAYER1
  6
CONTINUOUS
 62
     6
 10
298.584194
 20
254.936235
 40
1.080690
 50
30.945197
 51
90.945197
  0
ARC
  8
CSLAYER1
  6
CONTINUOUS
 62
     6
 10
298.548539
 20
257.097321
 40
1.080690
 50
210.945197
 51
270.945197
  0
LINE
  8
CSLAYER1
  6
CONTINUOUS
 62
     6
 10
294.873269
 20
251.613925
 11
292.647146
 21
248.637688
  0
LINE
  8
CSLAYER1
  6
CONTINUOUS
 62
     6
 10
291.961904
 20
249.086632
 11
294.307435
 21
251.760517
  0
LINE
  8
CSLAYER1
  6
CONTINUOUS
 62
     6
 10
293.890217
 20
252.008246
 11
291.418447
 21
249.606438
  0
LINE
  8
CSLAYER1
  6
CONTINUOUS
 62
     6
 10
297.987142
 20
246.558404
 11
300.732989
 21
249.061241
  0
LINE
  8
CSLAYER1
  6
CONTINUOUS
 62
     6
 10
301.044487
 20
248.740392
 11
298.601491
 21
246.345757
  0
LINE
  8
CSLAYER1
  6
CONTINUOUS
 62
     6
 10
299.074026
 20
245.778649
 11
301.324957
 21
248.217154
  0
LINE
  8
CSLAYER1
  6
CONTINUOUS
 62
     6
 10
301.011268
 20
161.934883
 11
337.210426
 21
161.934883
  0
ARC
  8
CSLAYER1
  6
CONTINUOUS
 62
     6
 10
337.210426
 20
160.934883
 40
1.000000
 50
6.000003
 51
90.000016
  0
LINE
  8
CSLAYER1
  6
CONTINUOUS
 62
     6
 10
338.204994
 20
161.039375
 11
338.852943
 21
154.874153
  0
ARC
  8
CSLAYER1
  6
CONTINUOUS
 62
     6
 10
339.847511
 20
154.978706
 40
1.000000
 50
186.000026
 51
270.000001
  0
LINE
  8
CSLAYER1
  6
CONTINUOUS
 62
     6
 10
340.110877
 20
156.934883
 11
338.635841
 21
156.934883
  0
LINE
  8
CSLAYER1
  6
CONTINUOUS
 62
     6
 10
338.204994
 20
157.039375
 11
338.902625
 21
150.401924
  0
ARC
  8
CSLAYER1
  6
CONTINUOUS
 62
     6
 10
339.897132
 20
150.506416
 40
1.000000
 50
186.000026
 51
270.000001
  0
LINE
  8
CSLAYER1
  6
CONTINUOUS
 62
     6
 10
334.753944
 20
149.328072
 11
302.796852
 21
149.328072
  0
LINE
  8
CSLAYER1
  6
CONTINUOUS
 62
     6
 10
299.319129
 20
150.401924
 11
300.016761
 21
157.039375
  0
ARC
  8
CSLAYER1
  6
CONTINUOUS
 62
     6
 10
301.011268
 20
156.934883
 40
1.000000
 50
90.000003
 51
173.999998
  0
LINE
  8
CSLAYER1
  6
CONTINUOUS
 62
     6
 10
301.011268
 20
157.934883
 11
337.210426
 21
157.934883
  0
ARC
  8
CSLAYER1
  6
CONTINUOUS
 62
     6
 10
337.210426
 20
156.934883
 40
1.000000
 50
6.000003
 51
90.000016
  0
LINE
  8
CSLAYER1
  6
CONTINUOUS
 62
     6
 10
340.110877
 20
157.934898
 11
360.610877
 21
157.934898
  0
LINE
  8
CSLAYER1
  6
CONTINUOUS
 62
     6
 10
360.610877
 20
152.934898
 11
360.610877
 21
167.934898
  0
ARC
  8
CSLAYER1
  6
CONTINUOUS
 62
     6
 10
370.610877
 20
167.934898
 40
10.000000
 50
90.000000
 51
180.000000
  0
LINE
  8
CSLAYER1
  6
CONTINUOUS
 62
     6
 10
370.610877
 20
177.934898
 11
480.610877
 21
177.934898
  0
ARC
  8
CSLAYER1
  6
CONTINUOUS
 62
     6
 10
480.610877
 20
167.934898
 40
10.000000
 50
0.000000
 51
90.000000
  0
LINE
  8
CSLAYER1
  6
CONTINUOUS
 62
     6
 10
490.610877
 20
167.934898
 11
490.610877
 21
152.934898
  0
ARC
  8
CSLAYER1
  6
CONTINUOUS
 62
     6
 10
480.610877
 20
152.934898
 40
10.000000
 50
270.000000
 51
360.000000
  0
LINE
  8
CSLAYER1
  6
CONTINUOUS
 62
     6
 10
480.610877
 20
142.934898
 11
370.610877
 21
142.934898
  0
ARC
  8
CSLAYER1
  6
CONTINUOUS
 62
     6
 10
370.610877
 20
152.934898
 40
10.000000
 50
180.000000
 51
270.000000
  0
LINE
  8
CSLAYER1
  6
CONTINUOUS
 62
     6
 10
376.110877
 20
162.434898
 11
376.110877
 21
168.434898
  0
ARC
  8
CSLAYER1
  6
CONTINUOUS
 62
     6
 10
380.610877
 20
168.434898
 40
4.500000
 50
0.000000
 51
180.000000
  0
LINE
  8
CSLAYER1
  6
CONTINUOUS
 62
     6
 10
385.110877
 20
168.434898
 11
385.110877
 21
162.434898
  0
ARC
  8
CSLAYER1
  6
CONTINUOUS
 62
     6
 10
380.610877
 20
162.434898
 40
4.500000
 50
180.000000
 51
360.000000
  0
ARC
  8
CSLAYER1
  6
CONTINUOUS
 62
     6
 10
397.610877
 20
167.434898
 40
5.000000
 50
90.000000
 51
180.000000
  0
LINE
  8
CSLAYER1
  6
CONTINUOUS
 62
     6
 10
397.610877
 20
172.434898
 11
453.610877
 21
172.434898
  0
ARC
  8
CSLAYER1
  6
CONTINUOUS
 62
     6
 10
453.610877
 20
167.434898
 40
5.000000
 50
0.000000
 51
90.000000
  0
LINE
  8
CSLAYER1
  6
CONTINUOUS
 62
     6
 10
458.610877
 20
167.434898
 11
458.610877
 21
153.434898
  0
ARC
  8
CSLAYER1
  6
CONTINUOUS
 62
     6
 10
453.610877
 20
153.434898
 40
5.000000
 50
270.000000
 51
360.000000
  0
LINE
  8
CSLAYER1
  6
CONTINUOUS
 62
     6
 10
453.610877
 20
148.434898
 11
397.610877
 21
148.434898
  0
ARC
  8
CSLAYER1
  6
CONTINUOUS
 62
     6
 10
397.610877
 20
153.434898
 40
5.000000
 50
180.000000
 51
270.000000
  0
LINE
  8
CSLAYER1
  6
CONTINUOUS
 62
     6
 10
392.610877
 20
153.434898
 11
392.610877
 21
167.434898
  0
LINE
  8
CSLAYER1
  6
CONTINUOUS
 62
     6
 10
340.110877
 20
157.934898
 11
340.110877
 21
67.934898
  0
LINE
  8
CSLAYER1
  6
CONTINUOUS
 62
     6
 10
340.110877
 20
67.934898
 11
360.610877
 21
67.934898
  0
LINE
  8
CSLAYER1
  6
CONTINUOUS
 62
     6
 10
360.610877
 20
72.934898
 11
360.610877
 21
57.934898
  0
ARC
  8
CSLAYER1
  6
CONTINUOUS
 62
     6
 10
370.610877
 20
57.934898
 40
10.000000
 50
180.000000
 51
270.000000
  0
LINE
  8
CSLAYER1
  6
CONTINUOUS
 62
     6
 10
370.610877
 20
47.934898
 11
480.610877
 21
47.934898
  0
ARC
  8
CSLAYER1
  6
CONTINUOUS
 62
     6
 10
480.610877
 20
57.934898
 40
10.000000
 50
270.000000
 51
360.000000
  0
LINE
  8
CSLAYER1
  6
CONTINUOUS
 62
     6
 10
490.610877
 20
57.934898
 11
490.610877
 21
72.934898
  0
ARC
  8
CSLAYER1
  6
CONTINUOUS
 62
     6
 10
480.610877
 20
72.934898
 40
10.000000
 50
0.000000
 51
90.000000
  0
LINE
  8
CSLAYER1
  6
CONTINUOUS
 62
     6
 10
480.610877
 20
82.934898
 11
370.610877
 21
82.934898
  0
ARC
  8
CSLAYER1
  6
CONTINUOUS
 62
     6
 10
370.610877
 20
72.934898
 40
10.000000
 50
90.000000
 51
180.000000
  0
ARC
  8
CSLAYER1
  6
CONTINUOUS
 62
     6
 10
375.610877
 20
107.934898
 40
25.000000
 50
270.000000
 51
360.000000
  0
LINE
  8
CSLAYER1
  6
CONTINUOUS
 62
     6
 10
400.610877
 20
107.934898
 11
400.610877
 21
117.934898
  0
ARC
  8
CSLAYER1
  6
CONTINUOUS
 62
     6
 10
375.610877
 20
117.934898
 40
25.000000
 50
0.000000
 51
90.000000
  0
ARC
  8
CSLAYER1
  6
CONTINUOUS
 62
     6
 10
325.110877
 20
128.934898
 40
2.000000
 50
0.000000
 51
90.000000
  0
LINE
  8
CSLAYER1
  6
CONTINUOUS
 62
     6
 10
325.110877
 20
130.934898
 11
303.110877
 21
130.934898
  0
ARC
  8
CSLAYER1
  6
CONTINUOUS
 62
     6
 10
303.110877
 20
128.934898
 40
2.000000
 50
90.000000
 51
180.000000
  0
LINE
  8
CSLAYER1
  6
CONTINUOUS
 62
     6
 10
301.110877
 20
128.934898
 11
301.110877
 21
116.563258
  0
LINE
  8
CSLAYER1
  6
CONTINUOUS
 62
     6
 10
301.036439
 20
116.566003
 11
301.470871
 21
116.549985
  0
LINE
  8
CSLAYER1
  6
CONTINUOUS
 62
     6
 10
301.470871
 20
116.549985
 11
301.902993
 21
116.521777
  0
LINE
  8
CSLAYER1
  6
CONTINUOUS
 62
     6
 10
301.902993
 20
116.521777
 11
302.330911
 21
116.482892
  0
LINE
  8
CSLAYER1
  6
CONTINUOUS
 62
     6
 10
302.330911
 20
116.482892
 11
302.752730
 21
116.434846
  0
LINE
  8
CSLAYER1
  6
CONTINUOUS
 62
     6
 10
302.752730
 20
116.434846
 11
303.166558
 21
116.379152
  0
LINE
  8
CSLAYER1
  6
CONTINUOUS
 62
     6
 10
303.166558
 20
116.379152
 11
303.570500
 21
116.317326
  0
LINE
  8
CSLAYER1
  6
CONTINUOUS
 62
     6
 10
303.570500
 20
116.317326
 11
303.833877
 21
116.276802
  0
LINE
  8
CSLAYER1
  6
CONTINUOUS
 62
     6
 10
303.833877
 20
116.276802
 11
304.104263
 21
116.238880
  0
LINE
  8
CSLAYER1
  6
CONTINUOUS
 62
     6
 10
304.104263
 20
116.238880
 11
304.380089
 21
116.203279
  0
LINE
  8
CSLAYER1
  6
CONTINUOUS
 62
     6
 10
304.380089
 20
116.203279
 11
304.659788
 21
116.169721
  0
LINE
  8
CSLAYER1
  6
CONTINUOUS
 62
     6
 10
304.659788
 20
116.169721
 11
304.941790
 21
116.137925
  0
LINE
  8
CSLAYER1
  6
CONTINUOUS
 62
     6
 10
304.941790
 20
116.137925
 11
305.224528
 21
116.107612
  0
LINE
  8
CSLAYER1
  6
CONTINUOUS
 62
     6
 10
305.224528
 20
116.107612
 11
305.506434
 21
116.078500
  0
LINE
  8
CSLAYER1
  6
CONTINUOUS
 62
     6
 10
305.506434
 20
116.078500
 11
305.785938
 21
116.050311
  0
LINE
  8
CSLAYER1
  6
CONTINUOUS
 62
     6
 10
305.785938
 20
116.050311
 11
306.061473
 21
116.022764
  0
LINE
  8
CSLAYER1
  6
CONTINUOUS
 62
     6
 10
306.061473
 20
116.022764
 11
306.331471
 21
115.995580
  0
LINE
  8
CSLAYER1
  6
CONTINUOUS
 62
     6
 10
306.331471
 20
115.995580
 11
306.594363
 21
115.968478
  0
LINE
  8
CSLAYER1
  6
CONTINUOUS
 62
     6
 10
306.594363
 20
115.968478
 11
306.841852
 21
115.944167
  0
LINE
  8
CSLAYER1
  6
CONTINUOUS
 62
     6
 10
306.841852
 20
115.944167
 11
307.099109
 21
115.921897
  0
LINE
  8
CSLAYER1
  6
CONTINUOUS
 62
     6
 10
307.099109
 20
115.921897
 11
307.363581
 21
115.901578
  0
LINE
  8
CSLAYER1
  6
CONTINUOUS
 62
     6
 10
307.363581
 20
115.901578
 11
307.632712
 21
115.883117
  0
LINE
  8
CSLAYER1
  6
CONTINUOUS
 62
     6
 10
307.632712
 20
115.883117
 11
307.903948
 21
115.866423
  0
LINE
  8
CSLAYER1
  6
CONTINUOUS
 62
     6
 10
307.903948
 20
115.866423
 11
308.174734
 21
115.851403
  0
LINE
  8
CSLAYER1
  6
CONTINUOUS
 62
     6
 10
308.174734
 20
115.851403
 11
308.442515
 21
115.837966
  0
LINE
  8
CSLAYER1
  6
CONTINUOUS
 62
     6
 10
308.442515
 20
115.837966
 11
308.704737
 21
115.826019
  0
LINE
  8
CSLAYER1
  6
CONTINUOUS
 62
     6
 10
308.704737
 20
115.826019
 11
308.958844
 21
115.815471
  0
LINE
  8
CSLAYER1
  6
CONTINUOUS
 62
     6
 10
308.958844
 20
115.815471
 11
309.202282
 21
115.806229
  0
LINE
  8
CSLAYER1
  6
CONTINUOUS
 62
     6
 10
309.202282
 20
115.806229
 11
309.432497
 21
115.798203
  0
ARC
  8
CSLAYER1
  6
CONTINUOUS
 62
     6
 10
309.342625
 20
114.300918
 40
1.500000
 50
-93.433378
 51
86.566642
  0
LINE
  8
CSLAYER1
  6
CONTINUOUS
 62
     6
 10
309.252825
 20
112.803526
 11
309.016474
 21
112.811600
  0
LINE
  8
CSLAYER1
  6
CONTINUOUS
 62
     6
 10
309.016474
 20
112.811600
 11
308.766057
 21
112.820916
  0
LINE
  8
CSLAYER1
  6
CONTINUOUS
 62
     6
 10
308.766057
 20
112.820916
 11
308.504323
 21
112.831584
  0
LINE
  8
CSLAYER1
  6
CONTINUOUS
 62
     6
 10
308.504323
 20
112.831584
 11
308.234020
 21
112.843714
  0
LINE
  8
CSLAYER1
  6
CONTINUOUS
 62
     6
 10
308.234020
 20
112.843714
 11
307.957894
 21
112.857415
  0
LINE
  8
CSLAYER1
  6
CONTINUOUS
 62
     6
 10
307.957894
 20
112.857415
 11
307.678695
 21
112.872796
  0
LINE
  8
CSLAYER1
  6
CONTINUOUS
 62
     6
 10
307.678695
 20
112.872796
 11
307.399170
 21
112.889967
  0
LINE
  8
CSLAYER1
  6
CONTINUOUS
 62
     6
 10
307.399170
 20
112.889967
 11
307.122067
 21
112.909038
  0
LINE
  8
CSLAYER1
  6
CONTINUOUS
 62
     6
 10
307.122067
 20
112.909038
 11
306.850134
 21
112.930118
  0
LINE
  8
CSLAYER1
  6
CONTINUOUS
 62
     6
 10
306.850134
 20
112.930118
 11
306.586119
 21
112.953318
  0
LINE
  8
CSLAYER1
  6
CONTINUOUS
 62
     6
 10
306.586119
 20
112.953318
 11
306.332770
 21
112.978745
  0
LINE
  8
CSLAYER1
  6
CONTINUOUS
 62
     6
 10
306.332770
 20
112.978745
 11
306.076308
 21
113.005665
  0
LINE
  8
CSLAYER1
  6
CONTINUOUS
 62
     6
 10
306.076308
 20
113.005665
 11
305.812171
 21
113.032422
  0
LINE
  8
CSLAYER1
  6
CONTINUOUS
 62
     6
 10
305.812171
 20
113.032422
 11
305.542047
 21
113.059349
  0
LINE
  8
CSLAYER1
  6
CONTINUOUS
 62
     6
 10
305.542047
 20
113.059349
 11
305.267629
 21
113.086778
  0
LINE
  8
CSLAYER1
  6
CONTINUOUS
 62
     6
 10
305.267629
 20
113.086778
 11
304.990605
 21
113.115041
  0
LINE
  8
CSLAYER1
  6
CONTINUOUS
 62
     6
 10
304.990605
 20
113.115041
 11
304.712666
 21
113.144472
  0
LINE
  8
CSLAYER1
  6
CONTINUOUS
 62
     6
 10
304.712666
 20
113.144472
 11
304.435502
 21
113.175403
  0
LINE
  8
CSLAYER1
  6
CONTINUOUS
 62
     6
 10
304.435502
 20
113.175403
 11
304.160804
 21
113.208165
  0
LINE
  8
CSLAYER1
  6
CONTINUOUS
 62
     6
 10
304.160804
 20
113.208165
 11
303.890261
 21
113.243093
  0
LINE
  8
CSLAYER1
  6
CONTINUOUS
 62
     6
 10
303.890261
 20
113.243093
 11
303.625563
 21
113.280517
  0
LINE
  8
CSLAYER1
  6
CONTINUOUS
 62
     6
 10
303.625563
 20
113.280517
 11
303.368401
 21
113.320771
  0
LINE
  8
CSLAYER1
  6
CONTINUOUS
 62
     6
 10
303.368401
 20
113.320771
 11
303.022588
 21
113.374779
  0
LINE
  8
CSLAYER1
  6
CONTINUOUS
 62
     6
 10
303.022588
 20
113.374779
 11
302.667642
 21
113.423345
  0
LINE
  8
CSLAYER1
  6
CONTINUOUS
 62
     6
 10
302.667642
 20
113.423345
 11
302.305300
 21
113.465166
  0
LINE
  8
CSLAYER1
  6
CONTINUOUS
 62
     6
 10
302.305300
 20
113.465166
 11
301.937296
 21
113.498940
  0
LINE
  8
CSLAYER1
  6
CONTINUOUS
 62
     6
 10
301.937296
 20
113.498940
 11
301.565364
 21
113.523364
  0
LINE
  8
CSLAYER1
  6
CONTINUOUS
 62
     6
 10
301.565364
 20
113.523364
 11
301.191239
 21
113.537138
  0
LINE
  8
CSLAYER1
  6
CONTINUOUS
 62
     6
 10
301.191239
 20
113.537138
 11
300.816657
 21
113.538957
  0
LINE
  8
CSLAYER1
  6
CONTINUOUS
 62
     6
 10
300.816657
 20
113.538957
 11
300.443351
 21
113.527520
  0
LINE
  8
CSLAYER1
  6
CONTINUOUS
 62
     6
 10
300.443351
 20
113.527520
 11
300.073056
 21
113.501525
  0
LINE
  8
CSLAYER1
  6
CONTINUOUS
 62
     6
 10
300.073056
 20
113.501525
 11
299.707508
 21
113.459668
  0
LINE
  8
CSLAYER1
  6
CONTINUOUS
 62
     6
 10
299.707508
 20
113.459668
 11
299.348441
 21
113.400649
  0
LINE
  8
CSLAYER1
  6
CONTINUOUS
 62
     6
 10
299.348441
 20
113.400649
 11
299.128012
 21
113.354487
  0
LINE
  8
CSLAYER1
  6
CONTINUOUS
 62
     6
 10
299.128012
 20
113.354487
 11
298.908834
 21
113.301164
  0
LINE
  8
CSLAYER1
  6
CONTINUOUS
 62
     6
 10
298.908834
 20
113.301164
 11
298.690780
 21
113.241396
  0
LINE
  8
CSLAYER1
  6
CONTINUOUS
 62
     6
 10
298.690780
 20
113.241396
 11
298.473728
 21
113.175898
  0
LINE
  8
CSLAYER1
  6
CONTINUOUS
 62
     6
 10
298.473728
 20
113.175898
 11
298.257550
 21
113.105388
  0
LINE
  8
CSLAYER1
  6
CONTINUOUS
 62
     6
 10
298.257550
 20
113.105388
 11
298.042123
 21
113.030581
  0
LINE
  8
CSLAYER1
  6
CONTINUOUS
 62
     6
 10
298.042123
 20
113.030581
 11
297.827320
 21
112.952193
  0
LINE
  8
CSLAYER1
  6
CONTINUOUS
 62
     6
 10
297.827320
 20
112.952193
 11
297.613018
 21
112.870941
  0
LINE
  8
CSLAYER1
  6
CONTINUOUS
 62
     6
 10
297.613018
 20
112.870941
 11
297.399091
 21
112.787541
  0
LINE
  8
CSLAYER1
  6
CONTINUOUS
 62
     6
 10
297.399091
 20
112.787541
 11
297.185415
 21
112.702708
  0
LINE
  8
CSLAYER1
  6
CONTINUOUS
 62
     6
 10
297.185415
 20
112.702708
 11
296.971863
 21
112.617159
  0
ARC
  8
CSLAYER1
  6
CONTINUOUS
 62
     6
 10
295.503370
 20
112.922704
 40
1.499994
 50
-11.754089
 51
48.245911
  0
ARC
  8
CSLAYER1
  6
CONTINUOUS
 62
     6
 10
297.501167
 20
115.160725
 40
1.499994
 50
168.245911
 51
228.245911
  0
LINE
  8
CSLAYER1
  6
CONTINUOUS
 62
     6
 10
296.032574
 20
115.466327
 11
296.289778
 21
115.569730
  0
LINE
  8
CSLAYER1
  6
CONTINUOUS
 62
     6
 10
296.289778
 20
115.569730
 11
296.547136
 21
115.672252
  0
LINE
  8
CSLAYER1
  6
CONTINUOUS
 62
     6
 10
296.547136
 20
115.672252
 11
296.804805
 21
115.773015
  0
LINE
  8
CSLAYER1
  6
CONTINUOUS
 62
     6
 10
296.804805
 20
115.773015
 11
297.062938
 21
115.871138
  0
LINE
  8
CSLAYER1
  6
CONTINUOUS
 62
     6
 10
297.062938
 20
115.871138
 11
297.321691
 21
115.965743
  0
LINE
  8
CSLAYER1
  6
CONTINUOUS
 62
     6
 10
297.321691
 20
115.965743
 11
297.581218
 21
116.055949
  0
LINE
  8
CSLAYER1
  6
CONTINUOUS
 62
     6
 10
297.581218
 20
116.055949
 11
297.841675
 21
116.140877
  0
LINE
  8
CSLAYER1
  6
CONTINUOUS
 62
     6
 10
297.841675
 20
116.140877
 11
298.103216
 21
116.219647
  0
LINE
  8
CSLAYER1
  6
CONTINUOUS
 62
     6
 10
298.103216
 20
116.219647
 11
298.365997
 21
116.291378
  0
LINE
  8
CSLAYER1
  6
CONTINUOUS
 62
     6
 10
298.365997
 20
116.291378
 11
298.630172
 21
116.355193
  0
LINE
  8
CSLAYER1
  6
CONTINUOUS
 62
     6
 10
298.630172
 20
116.355193
 11
298.895895
 21
116.410210
  0
LINE
  8
CSLAYER1
  6
CONTINUOUS
 62
     6
 10
298.895895
 20
116.410210
 11
299.313476
 21
116.477868
  0
LINE
  8
CSLAYER1
  6
CONTINUOUS
 62
     6
 10
299.313476
 20
116.477868
 11
299.738214
 21
116.525761
  0
LINE
  8
CSLAYER1
  6
CONTINUOUS
 62
     6
 10
299.738214
 20
116.525761
 11
300.168216
 21
116.555405
  0
LINE
  8
CSLAYER1
  6
CONTINUOUS
 62
     6
 10
300.168216
 20
116.555405
 11
300.601589
 21
116.568314
  0
LINE
  8
CSLAYER1
  6
CONTINUOUS
 62
     6
 10
300.601589
 20
116.568314
 11
301.036439
 21
116.566003
  0
ARC
  8
CSLAYER1
  6
CONTINUOUS
 62
     6
 10
308.110856
 20
112.934861
 40
6.750000
 50
-154.073524
 51
148.329015
  0
LINE
  8
CSLAYER1
  6
CONTINUOUS
 62
     6
 10
302.014687
 20
109.980281
 11
301.816142
 21
109.950733
  0
LINE
  8
CSLAYER1
  6
CONTINUOUS
 62
     6
 10
301.816142
 20
109.950733
 11
301.623031
 21
109.918965
  0
LINE
  8
CSLAYER1
  6
CONTINUOUS
 62
     6
 10
301.623031
 20
109.918965
 11
301.436776
 21
109.885619
  0
LINE
  8
CSLAYER1
  6
CONTINUOUS
 62
     6
 10
301.436776
 20
109.885619
 11
301.275245
 21
109.852244
  0
LINE
  8
CSLAYER1
  6
CONTINUOUS
 62
     6
 10
301.275245
 20
109.852244
 11
301.111025
 21
109.811926
  0
LINE
  8
CSLAYER1
  6
CONTINUOUS
 62
     6
 10
301.111025
 20
109.811926
 11
300.944835
 21
109.765117
  0
LINE
  8
CSLAYER1
  6
CONTINUOUS
 62
     6
 10
300.944835
 20
109.765117
 11
300.777393
 21
109.712270
  0
LINE
  8
CSLAYER1
  6
CONTINUOUS
 62
     6
 10
300.777393
 20
109.712270
 11
300.609417
 21
109.653837
  0
LINE
  8
CSLAYER1
  6
CONTINUOUS
 62
     6
 10
300.609417
 20
109.653837
 11
300.441625
 21
109.590270
  0
LINE
  8
CSLAYER1
  6
CONTINUOUS
 62
     6
 10
300.441625
 20
109.590270
 11
300.274735
 21
109.522021
  0
LINE
  8
CSLAYER1
  6
CONTINUOUS
 62
     6
 10
300.274735
 20
109.522021
 11
300.109467
 21
109.449542
  0
LINE
  8
CSLAYER1
  6
CONTINUOUS
 62
     6
 10
300.109467
 20
109.449542
 11
299.946537
 21
109.373286
  0
LINE
  8
CSLAYER1
  6
CONTINUOUS
 62
     6
 10
299.946537
 20
109.373286
 11
299.786664
 21
109.293704
  0
LINE
  8
CSLAYER1
  6
CONTINUOUS
 62
     6
 10
299.786664
 20
109.293704
 11
299.630567
 21
109.211249
  0
LINE
  8
CSLAYER1
  6
CONTINUOUS
 62
     6
 10
299.630567
 20
109.211249
 11
299.501862
 21
109.139457
  0
LINE
  8
CSLAYER1
  6
CONTINUOUS
 62
     6
 10
299.501862
 20
109.139457
 11
299.374673
 21
109.065127
  0
LINE
  8
CSLAYER1
  6
CONTINUOUS
 62
     6
 10
299.374673
 20
109.065127
 11
299.248847
 21
108.988513
  0
LINE
  8
CSLAYER1
  6
CONTINUOUS
 62
     6
 10
299.248847
 20
108.988513
 11
299.124234
 21
108.909869
  0
LINE
  8
CSLAYER1
  6
CONTINUOUS
 62
     6
 10
299.124234
 20
108.909869
 11
299.000682
 21
108.829449
  0
LINE
  8
CSLAYER1
  6
CONTINUOUS
 62
     6
 10
299.000682
 20
108.829449
 11
298.878039
 21
108.747507
  0
LINE
  8
CSLAYER1
  6
CONTINUOUS
 62
     6
 10
298.878039
 20
108.747507
 11
298.756153
 21
108.664296
  0
LINE
  8
CSLAYER1
  6
CONTINUOUS
 62
     6
 10
298.756153
 20
108.664296
 11
298.634874
 21
108.580069
  0
LINE
  8
CSLAYER1
  6
CONTINUOUS
 62
     6
 10
298.634874
 20
108.580069
 11
298.514050
 21
108.495082
  0
LINE
  8
CSLAYER1
  6
CONTINUOUS
 62
     6
 10
298.514050
 20
108.495082
 11
298.393528
 21
108.409587
  0
LINE
  8
CSLAYER1
  6
CONTINUOUS
 62
     6
 10
298.393528
 20
108.409587
 11
298.273158
 21
108.323838
  0
ARC
  8
CSLAYER1
  6
CONTINUOUS
 62
     6
 10
296.775496
 20
108.240622
 40
1.500006
 50
3.178280
 51
63.178280
  0
ARC
  8
CSLAYER1
  6
CONTINUOUS
 62
     6
 10
298.950021
 20
109.662414
 40
1.500006
 50
183.178280
 51
243.178280
  0
ARC
  8
CSLAYER1
  6
CONTINUOUS
 62
     6
 10
298.129149
 20
110.917877
 40
1.500006
 50
183.178280
 51
243.178280
  0
LINE
  8
CSLAYER1
  6
CONTINUOUS
 62
     6
 10
296.631416
 20
110.834767
 11
296.776842
 21
110.937706
  0
LINE
  8
CSLAYER1
  6
CONTINUOUS
 62
     6
 10
296.776842
 20
110.937706
 11
296.922437
 21
111.040362
  0
LINE
  8
CSLAYER1
  6
CONTINUOUS
 62
     6
 10
296.922437
 20
111.040362
 11
297.068370
 21
111.142453
  0
LINE
  8
CSLAYER1
  6
CONTINUOUS
 62
     6
 10
297.068370
 20
111.142453
 11
297.214810
 21
111.243697
  0
LINE
  8
CSLAYER1
  6
CONTINUOUS
 62
     6
 10
297.214810
 20
111.243697
 11
297.361925
 21
111.343809
  0
LINE
  8
CSLAYER1
  6
CONTINUOUS
 62
     6
 10
297.361925
 20
111.343809
 11
297.509885
 21
111.442509
  0
LINE
  8
CSLAYER1
  6
CONTINUOUS
 62
     6
 10
297.509885
 20
111.442509
 11
297.658858
 21
111.539513
  0
LINE
  8
CSLAYER1
  6
CONTINUOUS
 62
     6
 10
297.658858
 20
111.539513
 11
297.809014
 21
111.634538
  0
LINE
  8
CSLAYER1
  6
CONTINUOUS
 62
     6
 10
297.809014
 20
111.634538
 11
297.960521
 21
111.727303
  0
LINE
  8
CSLAYER1
  6
CONTINUOUS
 62
     6
 10
297.960521
 20
111.727303
 11
298.113547
 21
111.817524
  0
LINE
  8
CSLAYER1
  6
CONTINUOUS
 62
     6
 10
298.113547
 20
111.817524
 11
298.268263
 21
111.904918
  0
LINE
  8
CSLAYER1
  6
CONTINUOUS
 62
     6
 10
298.268263
 20
111.904918
 11
298.484754
 21
112.020750
  0
LINE
  8
CSLAYER1
  6
CONTINUOUS
 62
     6
 10
298.484754
 20
112.020750
 11
298.706750
 21
112.132290
  0
LINE
  8
CSLAYER1
  6
CONTINUOUS
 62
     6
 10
298.706750
 20
112.132290
 11
298.933208
 21
112.238932
  0
LINE
  8
CSLAYER1
  6
CONTINUOUS
 62
     6
 10
298.933208
 20
112.238932
 11
299.163088
 21
112.340069
  0
LINE
  8
CSLAYER1
  6
CONTINUOUS
 62
     6
 10
299.163088
 20
112.340069
 11
299.395348
 21
112.435094
  0
LINE
  8
CSLAYER1
  6
CONTINUOUS
 62
     6
 10
299.395348
 20
112.435094
 11
299.628947
 21
112.523399
  0
LINE
  8
CSLAYER1
  6
CONTINUOUS
 62
     6
 10
299.628947
 20
112.523399
 11
299.862844
 21
112.604378
  0
LINE
  8
CSLAYER1
  6
CONTINUOUS
 62
     6
 10
299.862844
 20
112.604378
 11
300.095996
 21
112.677423
  0
LINE
  8
CSLAYER1
  6
CONTINUOUS
 62
     6
 10
300.095996
 20
112.677423
 11
300.327362
 21
112.741928
  0
LINE
  8
CSLAYER1
  6
CONTINUOUS
 62
     6
 10
300.327362
 20
112.741928
 11
300.555901
 21
112.797284
  0
LINE
  8
CSLAYER1
  6
CONTINUOUS
 62
     6
 10
300.555901
 20
112.797284
 11
300.780572
 21
112.842886
  0
LINE
  8
CSLAYER1
  6
CONTINUOUS
 62
     6
 10
300.780572
 20
112.842886
 11
301.024815
 21
112.885891
  0
LINE
  8
CSLAYER1
  6
CONTINUOUS
 62
     6
 10
301.024815
 20
112.885891
 11
301.277860
 21
112.927127
  0
LINE
  8
CSLAYER1
  6
CONTINUOUS
 62
     6
 10
301.277860
 20
112.927127
 11
301.537921
 21
112.965702
  0
LINE
  8
CSLAYER1
  6
CONTINUOUS
 62
     6
 10
301.537921
 20
112.965702
 11
301.803209
 21
113.000727
  0
LINE
  8
CSLAYER1
  6
CONTINUOUS
 62
     6
 10
301.803209
 20
113.000727
 11
302.071937
 21
113.031311
  0
LINE
  8
CSLAYER1
  6
CONTINUOUS
 62
     6
 10
302.071937
 20
113.031311
 11
302.342317
 21
113.056564
  0
LINE
  8
CSLAYER1
  6
CONTINUOUS
 62
     6
 10
302.342317
 20
113.056564
 11
302.612562
 21
113.075595
  0
LINE
  8
CSLAYER1
  6
CONTINUOUS
 62
     6
 10
302.612562
 20
113.075595
 11
302.880884
 21
113.087514
  0
LINE
  8
CSLAYER1
  6
CONTINUOUS
 62
     6
 10
302.880884
 20
113.087514
 11
303.145496
 21
113.091431
  0
LINE
  8
CSLAYER1
  6
CONTINUOUS
 62
     6
 10
303.145496
 20
113.091431
 11
303.404609
 21
113.086455
  0
LINE
  8
CSLAYER1
  6
CONTINUOUS
 62
     6
 10
303.404609
 20
113.086455
 11
303.656437
 21
113.071695
  0
LINE
  8
CSLAYER1
  6
CONTINUOUS
 62
     6
 10
303.656437
 20
113.071695
 11
303.845582
 21
113.056422
  0
LINE
  8
CSLAYER1
  6
CONTINUOUS
 62
     6
 10
303.845582
 20
113.056422
 11
304.039322
 21
113.040597
  0
LINE
  8
CSLAYER1
  6
CONTINUOUS
 62
     6
 10
304.039322
 20
113.040597
 11
304.236624
 21
113.024129
  0
LINE
  8
CSLAYER1
  6
CONTINUOUS
 62
     6
 10
304.236624
 20
113.024129
 11
304.436453
 21
113.006928
  0
LINE
  8
CSLAYER1
  6
CONTINUOUS
 62
     6
 10
304.436453
 20
113.006928
 11
304.637774
 21
112.988904
  0
LINE
  8
CSLAYER1
  6
CONTINUOUS
 62
     6
 10
304.637774
 20
112.988904
 11
304.839552
 21
112.969968
  0
LINE
  8
CSLAYER1
  6
CONTINUOUS
 62
     6
 10
304.839552
 20
112.969968
 11
305.040754
 21
112.950028
  0
LINE
  8
CSLAYER1
  6
CONTINUOUS
 62
     6
 10
305.040754
 20
112.950028
 11
305.240344
 21
112.928994
  0
LINE
  8
CSLAYER1
  6
CONTINUOUS
 62
     6
 10
305.240344
 20
112.928994
 11
305.437289
 21
112.906777
  0
LINE
  8
CSLAYER1
  6
CONTINUOUS
 62
     6
 10
305.437289
 20
112.906777
 11
305.630552
 21
112.883287
  0
LINE
  8
CSLAYER1
  6
CONTINUOUS
 62
     6
 10
305.630552
 20
112.883287
 11
305.819101
 21
112.858433
  0
LINE
  8
CSLAYER1
  6
CONTINUOUS
 62
     6
 10
305.819101
 20
112.858433
 11
305.967722
 21
112.838782
  0
LINE
  8
CSLAYER1
  6
CONTINUOUS
 62
     6
 10
305.967722
 20
112.838782
 11
306.120439
 21
112.820165
  0
LINE
  8
CSLAYER1
  6
CONTINUOUS
 62
     6
 10
306.120439
 20
112.820165
 11
306.276313
 21
112.802728
  0
LINE
  8
CSLAYER1
  6
CONTINUOUS
 62
     6
 10
306.276313
 20
112.802728
 11
306.434401
 21
112.786616
  0
LINE
  8
CSLAYER1
  6
CONTINUOUS
 62
     6
 10
306.434401
 20
112.786616
 11
306.593763
 21
112.771974
  0
LINE
  8
CSLAYER1
  6
CONTINUOUS
 62
     6
 10
306.593763
 20
112.771974
 11
306.753458
 21
112.758947
  0
LINE
  8
CSLAYER1
  6
CONTINUOUS
 62
     6
 10
306.753458
 20
112.758947
 11
306.912544
 21
112.747679
  0
LINE
  8
CSLAYER1
  6
CONTINUOUS
 62
     6
 10
306.912544
 20
112.747679
 11
307.070080
 21
112.738316
  0
LINE
  8
CSLAYER1
  6
CONTINUOUS
 62
     6
 10
307.070080
 20
112.738316
 11
307.225126
 21
112.731003
  0
LINE
  8
CSLAYER1
  6
CONTINUOUS
 62
     6
 10
307.225126
 20
112.731003
 11
307.376740
 21
112.725885
  0
LINE
  8
CSLAYER1
  6
CONTINUOUS
 62
     6
 10
307.376740
 20
112.725885
 11
307.523980
 21
112.723106
  0
LINE
  8
CSLAYER1
  6
CONTINUOUS
 62
     6
 10
307.523980
 20
112.723106
 11
307.667954
 21
112.722513
  0
LINE
  8
CSLAYER1
  6
CONTINUOUS
 62
     6
 10
307.667954
 20
112.722513
 11
307.817940
 21
112.723710
  0
LINE
  8
CSLAYER1
  6
CONTINUOUS
 62
     6
 10
307.817940
 20
112.723710
 11
307.972381
 21
112.726616
  0
LINE
  8
CSLAYER1
  6
CONTINUOUS
 62
     6
 10
307.972381
 20
112.726616
 11
308.129722
 21
112.731152
  0
LINE
  8
CSLAYER1
  6
CONTINUOUS
 62
     6
 10
308.129722
 20
112.731152
 11
308.288408
 21
112.737239
  0
LINE
  8
CSLAYER1
  6
CONTINUOUS
 62
     6
 10
308.288408
 20
112.737239
 11
308.446883
 21
112.744796
  0
LINE
  8
CSLAYER1
  6
CONTINUOUS
 62
     6
 10
308.446883
 20
112.744796
 11
308.603592
 21
112.753745
  0
LINE
  8
CSLAYER1
  6
CONTINUOUS
 62
     6
 10
308.603592
 20
112.753745
 11
308.756980
 21
112.764006
  0
LINE
  8
CSLAYER1
  6
CONTINUOUS
 62
     6
 10
308.756980
 20
112.764006
 11
308.905489
 21
112.775499
  0
LINE
  8
CSLAYER1
  6
CONTINUOUS
 62
     6
 10
308.905489
 20
112.775499
 11
309.047566
 21
112.788145
  0
LINE
  8
CSLAYER1
  6
CONTINUOUS
 62
     6
 10
309.047566
 20
112.788145
 11
309.181655
 21
112.801864
  0
ARC
  8
CSLAYER1
  6
CONTINUOUS
 62
     6
 10
309.288373
 20
111.304441
 40
1.500000
 50
-88.640300
 51
91.359720
  0
LINE
  8
CSLAYER1
  6
CONTINUOUS
 62
     6
 10
309.323994
 20
109.805248
 11
309.174314
 21
109.790011
  0
LINE
  8
CSLAYER1
  6
CONTINUOUS
 62
     6
 10
309.174314
 20
109.790011
 11
309.015593
 21
109.775976
  0
LINE
  8
CSLAYER1
  6
CONTINUOUS
 62
     6
 10
309.015593
 20
109.775976
 11
308.849625
 21
109.763229
  0
LINE
  8
CSLAYER1
  6
CONTINUOUS
 62
     6
 10
308.849625
 20
109.763229
 11
308.678202
 21
109.751850
  0
LINE
  8
CSLAYER1
  6
CONTINUOUS
 62
     6
 10
308.678202
 20
109.751850
 11
308.503119
 21
109.741925
  0
LINE
  8
CSLAYER1
  6
CONTINUOUS
 62
     6
 10
308.503119
 20
109.741925
 11
308.326168
 21
109.733534
  0
LINE
  8
CSLAYER1
  6
CONTINUOUS
 62
     6
 10
308.326168
 20
109.733534
 11
308.149144
 21
109.726763
  0
LINE
  8
CSLAYER1
  6
CONTINUOUS
 62
     6
 10
308.149144
 20
109.726763
 11
307.973838
 21
109.721693
  0
LINE
  8
CSLAYER1
  6
CONTINUOUS
 62
     6
 10
307.973838
 20
109.721693
 11
307.802046
 21
109.718408
  0
LINE
  8
CSLAYER1
  6
CONTINUOUS
 62
     6
 10
307.802046
 20
109.718408
 11
307.635559
 21
109.716990
  0
LINE
  8
CSLAYER1
  6
CONTINUOUS
 62
     6
 10
307.635559
 20
109.716990
 11
307.476172
 21
109.717523
  0
LINE
  8
CSLAYER1
  6
CONTINUOUS
 62
     6
 10
307.476172
 20
109.717523
 11
307.311026
 21
109.720459
  0
LINE
  8
CSLAYER1
  6
CONTINUOUS
 62
     6
 10
307.311026
 20
109.720459
 11
307.140221
 21
109.725973
  0
LINE
  8
CSLAYER1
  6
CONTINUOUS
 62
     6
 10
307.140221
 20
109.725973
 11
306.964996
 21
109.733936
  0
LINE
  8
CSLAYER1
  6
CONTINUOUS
 62
     6
 10
306.964996
 20
109.733936
 11
306.786592
 21
109.744218
  0
LINE
  8
CSLAYER1
  6
CONTINUOUS
 62
     6
 10
306.786592
 20
109.744218
 11
306.606249
 21
109.756688
  0
LINE
  8
CSLAYER1
  6
CONTINUOUS
 62
     6
 10
306.606249
 20
109.756688
 11
306.425206
 21
109.771216
  0
LINE
  8
CSLAYER1
  6
CONTINUOUS
 62
     6
 10
306.425206
 20
109.771216
 11
306.244705
 21
109.787672
  0
LINE
  8
CSLAYER1
  6
CONTINUOUS
 62
     6
 10
306.244705
 20
109.787672
 11
306.065984
 21
109.805924
  0
LINE
  8
CSLAYER1
  6
CONTINUOUS
 62
     6
 10
306.065984
 20
109.805924
 11
305.890283
 21
109.825844
  0
LINE
  8
CSLAYER1
  6
CONTINUOUS
 62
     6
 10
305.890283
 20
109.825844
 11
305.718843
 21
109.847300
  0
LINE
  8
CSLAYER1
  6
CONTINUOUS
 62
     6
 10
305.718843
 20
109.847300
 11
305.552904
 21
109.870162
  0
LINE
  8
CSLAYER1
  6
CONTINUOUS
 62
     6
 10
305.552904
 20
109.870162
 11
305.386820
 21
109.892969
  0
LINE
  8
CSLAYER1
  6
CONTINUOUS
 62
     6
 10
305.386820
 20
109.892969
 11
305.215690
 21
109.914304
  0
LINE
  8
CSLAYER1
  6
CONTINUOUS
 62
     6
 10
305.215690
 20
109.914304
 11
305.040601
 21
109.934287
  0
LINE
  8
CSLAYER1
  6
CONTINUOUS
 62
     6
 10
305.040601
 20
109.934287
 11
304.862642
 21
109.953038
  0
LINE
  8
CSLAYER1
  6
CONTINUOUS
 62
     6
 10
304.862642
 20
109.953038
 11
304.682899
 21
109.970678
  0
LINE
  8
CSLAYER1
  6
CONTINUOUS
 62
     6
 10
304.682899
 20
109.970678
 11
304.502461
 21
109.987326
  0
LINE
  8
CSLAYER1
  6
CONTINUOUS
 62
     6
 10
304.502461
 20
109.987326
 11
304.322415
 21
110.003103
  0
LINE
  8
CSLAYER1
  6
CONTINUOUS
 62
     6
 10
304.322415
 20
110.003103
 11
304.143850
 21
110.018129
  0
LINE
  8
CSLAYER1
  6
CONTINUOUS
 62
     6
 10
304.143850
 20
110.018129
 11
303.967853
 21
110.032523
  0
LINE
  8
CSLAYER1
  6
CONTINUOUS
 62
     6
 10
303.967853
 20
110.032523
 11
303.795512
 21
110.046407
  0
LINE
  8
CSLAYER1
  6
CONTINUOUS
 62
     6
 10
303.795512
 20
110.046407
 11
303.627914
 21
110.059899
  0
LINE
  8
CSLAYER1
  6
CONTINUOUS
 62
     6
 10
303.627914
 20
110.059899
 11
303.437123
 21
110.071169
  0
LINE
  8
CSLAYER1
  6
CONTINUOUS
 62
     6
 10
303.437123
 20
110.071169
 11
303.240383
 21
110.075094
  0
LINE
  8
CSLAYER1
  6
CONTINUOUS
 62
     6
 10
303.240383
 20
110.075094
 11
303.039116
 21
110.072314
  0
LINE
  8
CSLAYER1
  6
CONTINUOUS
 62
     6
 10
303.039116
 20
110.072314
 11
302.834746
 21
110.063472
  0
LINE
  8
CSLAYER1
  6
CONTINUOUS
 62
     6
 10
302.834746
 20
110.063472
 11
302.628695
 21
110.049206
  0
LINE
  8
CSLAYER1
  6
CONTINUOUS
 62
     6
 10
302.628695
 20
110.049206
 11
302.422386
 21
110.030159
  0
LINE
  8
CSLAYER1
  6
CONTINUOUS
 62
     6
 10
302.422386
 20
110.030159
 11
302.217242
 21
110.006970
  0
LINE
  8
CSLAYER1
  6
CONTINUOUS
 62
     6
 10
302.217242
 20
110.006970
 11
302.014687
 21
109.980281
  0
LINE
  8
CSLAYER1
  6
CONTINUOUS
 62
     6
 10
301.110877
 20
109.811926
 11
301.110877
 21
96.934898
  0
ARC
  8
CSLAYER1
  6
CONTINUOUS
 62
     6
 10
303.110877
 20
96.934898
 40
2.000000
 50
180.000000
 51
270.000000
  0
LINE
  8
CSLAYER1
  6
CONTINUOUS
 62
     6
 10
303.110877
 20
94.934898
 11
325.110877
 21
94.934898
  0
ARC
  8
CSLAYER1
  6
CONTINUOUS
 62
     6
 10
325.110877
 20
96.934898
 40
2.000000
 50
270.000000
 51
360.000000
  0
LINE
  8
CSLAYER1
  6
CONTINUOUS
 62
     6
 10
327.110877
 20
96.934898
 11
327.110877
 21
128.934898
  0
ARC
  8
CSLAYER1
  6
CONTINUOUS
 62
     6
 10
314.110874
 20
127.934911
 40
1.527778
 50
-16.601562
 51
16.601572
  0
LINE
  8
CSLAYER1
  6
CONTINUOUS
 62
     6
 10
315.574959
 20
127.498397
 11
314.983901
 21
127.498397
  0
ARC
  8
CSLAYER1
  6
CONTINUOUS
 62
     6
 10
314.983901
 20
127.061907
 40
0.436508
 50
90.000001
 51
179.942691
  0
LINE
  8
CSLAYER1
  6
CONTINUOUS
 62
     6
 10
314.547387
 20
127.061907
 11
314.547387
 21
126.470803
  0
ARC
  8
CSLAYER1
  6
CONTINUOUS
 62
     6
 10
314.110874
 20
127.934911
 40
1.527778
 50
253.398422
 51
286.601583
  0
LINE
  8
CSLAYER1
  6
CONTINUOUS
 62
     6
 10
313.674361
 20
126.470803
 11
313.674361
 21
127.061907
  0
ARC
  8
CSLAYER1
  6
CONTINUOUS
 62
     6
 10
313.237847
 20
127.061907
 40
0.436508
 50
0.000005
 51
89.942654
  0
LINE
  8
CSLAYER1
  6
CONTINUOUS
 62
     6
 10
313.237847
 20
127.498397
 11
312.646789
 21
127.498397
  0
ARC
  8
CSLAYER1
  6
CONTINUOUS
 62
     6
 10
314.110874
 20
127.934911
 40
1.527778
 50
163.398416
 51
196.601577
  0
LINE
  8
CSLAYER1
  6
CONTINUOUS
 62
     6
 10
312.646789
 20
128.371424
 11
313.237847
 21
128.371424
  0
ARC
  8
CSLAYER1
  6
CONTINUOUS
 62
     6
 10
313.237847
 20
128.807915
 40
0.436508
 50
-89.999984
 51
0.000005
  0
LINE
  8
CSLAYER1
  6
CONTINUOUS
 62
     6
 10
313.674361
 20
128.807915
 11
313.674361
 21
129.399019
  0
ARC
  8
CSLAYER1
  6
CONTINUOUS
 62
     6
 10
314.110874
 20
127.934911
 40
1.527778
 50
73.398406
 51
106.601595
  0
LINE
  8
CSLAYER1
  6
CONTINUOUS
 62
     6
 10
314.547387
 20
129.399019
 11
314.547387
 21
128.807915
  0
ARC
  8
CSLAYER1
  6
CONTINUOUS
 62
     6
 10
314.983901
 20
128.807915
 40
0.436508
 50
180.000010
 51
270.000016
  0
LINE
  8
CSLAYER1
  6
CONTINUOUS
 62
     6
 10
314.983901
 20
128.371424
 11
315.574959
 21
128.371424
  0
CIRCLE
  8
CSLAYER1
  6
CONTINUOUS
 62
     6
 10
314.110884
 20
127.934910
 40
2.750000
  0
ARC
  8
CSLAYER1
  6
CONTINUOUS
 62
     6
 10
308.110856
 20
112.934861
 40
4.000000
 50
-129.735526
 51
128.465835
  0
ARC
  8
CSLAYER1
  6
CONTINUOUS
 62
     6
 10
308.110856
 20
112.934861
 40
4.000000
 50
176.007555
 51
178.572301
  0
ARC
  8
CSLAYER1
  6
CONTINUOUS
 62
     6
 10
308.110856
 20
112.934861
 40
6.750000
 50
174.942367
 51
179.961149
  0
LINE
  8
CSLAYER1
  6
CONTINUOUS
 62
     6
 10
301.110849
 20
112.934841
 11
301.110906
 21
113.536193
  0
LINE
  8
CSLAYER1
  6
CONTINUOUS
 62
     6
 10
301.110877
 20
113.537528
 11
301.110877
 21
112.899916
  0
ARC
  8
CSLAYER1
  6
CONTINUOUS
 62
     6
 10
297.970809
 20
113.736148
 40
1.499994
 50
168.245911
 51
228.245911
  0
ARC
  8
CSLAYER1
  6
CONTINUOUS
 62
     6
 10
294.799853
 20
114.165900
 40
1.499998
 50
182.735346
 51
242.735346
  0
ARC
  8
CSLAYER1
  6
CONTINUOUS
 62
     6
 10
292.614413
 20
112.760968
 40
1.499998
 50
2.735346
 51
62.735346
  0
ARC
  8
CSLAYER1
  6
CONTINUOUS
 62
     6
 10
293.425551
 20
111.499203
 40
1.499998
 50
2.735346
 51
62.735346
  0
LINE
  8
CSLAYER1
  6
CONTINUOUS
 62
     6
 10
294.923790
 20
111.570736
 11
294.797655
 21
111.509470
  0
LINE
  8
CSLAYER1
  6
CONTINUOUS
 62
     6
 10
294.797655
 20
111.509470
 11
294.666699
 21
111.440190
  0
LINE
  8
CSLAYER1
  6
CONTINUOUS
 62
     6
 10
294.666699
 20
111.440190
 11
294.532168
 21
111.364015
  0
LINE
  8
CSLAYER1
  6
CONTINUOUS
 62
     6
 10
294.532168
 20
111.364015
 11
294.395309
 21
111.282063
  0
LINE
  8
CSLAYER1
  6
CONTINUOUS
 62
     6
 10
294.395309
 20
111.282063
 11
294.257368
 21
111.195453
  0
LINE
  8
CSLAYER1
  6
CONTINUOUS
 62
     6
 10
294.257368
 20
111.195453
 11
294.119592
 21
111.105303
  0
LINE
  8
CSLAYER1
  6
CONTINUOUS
 62
     6
 10
294.119592
 20
111.105303
 11
293.983229
 21
111.012732
  0
LINE
  8
CSLAYER1
  6
CONTINUOUS
 62
     6
 10
293.983229
 20
111.012732
 11
293.849524
 21
110.918860
  0
LINE
  8
CSLAYER1
  6
CONTINUOUS
 62
     6
 10
293.849524
 20
110.918860
 11
293.719724
 21
110.824803
  0
LINE
  8
CSLAYER1
  6
CONTINUOUS
 62
     6
 10
293.719724
 20
110.824803
 11
293.595077
 21
110.731682
  0
LINE
  8
CSLAYER1
  6
CONTINUOUS
 62
     6
 10
293.595077
 20
110.731682
 11
293.476828
 21
110.640615
  0
LINE
  8
CSLAYER1
  6
CONTINUOUS
 62
     6
 10
293.476828
 20
110.640615
 11
293.384646
 21
110.565463
  0
LINE
  8
CSLAYER1
  6
CONTINUOUS
 62
     6
 10
293.384646
 20
110.565463
 11
293.293236
 21
110.485065
  0
LINE
  8
CSLAYER1
  6
CONTINUOUS
 62
     6
 10
293.293236
 20
110.485065
 11
293.202821
 21
110.399961
  0
LINE
  8
CSLAYER1
  6
CONTINUOUS
 62
     6
 10
293.202821
 20
110.399961
 11
293.113624
 21
110.310693
  0
LINE
  8
CSLAYER1
  6
CONTINUOUS
 62
     6
 10
293.113624
 20
110.310693
 11
293.025868
 21
110.217803
  0
LINE
  8
CSLAYER1
  6
CONTINUOUS
 62
     6
 10
293.025868
 20
110.217803
 11
292.939776
 21
110.121831
  0
LINE
  8
CSLAYER1
  6
CONTINUOUS
 62
     6
 10
292.939776
 20
110.121831
 11
292.855572
 21
110.023318
  0
LINE
  8
CSLAYER1
  6
CONTINUOUS
 62
     6
 10
292.855572
 20
110.023318
 11
292.773479
 21
109.922807
  0
LINE
  8
CSLAYER1
  6
CONTINUOUS
 62
     6
 10
292.773479
 20
109.922807
 11
292.693720
 21
109.820837
  0
LINE
  8
CSLAYER1
  6
CONTINUOUS
 62
     6
 10
292.693720
 20
109.820837
 11
292.616518
 21
109.717951
  0
LINE
  8
CSLAYER1
  6
CONTINUOUS
 62
     6
 10
292.616518
 20
109.717951
 11
292.542097
 21
109.614689
  0
LINE
  8
CSLAYER1
  6
CONTINUOUS
 62
     6
 10
292.542097
 20
109.614689
 11
292.448430
 21
109.478344
  0
LINE
  8
CSLAYER1
  6
CONTINUOUS
 62
     6
 10
292.448430
 20
109.478344
 11
292.358254
 21
109.339887
  0
LINE
  8
CSLAYER1
  6
CONTINUOUS
 62
     6
 10
292.358254
 20
109.339887
 11
292.271219
 21
109.199530
  0
LINE
  8
CSLAYER1
  6
CONTINUOUS
 62
     6
 10
292.271219
 20
109.199530
 11
292.186976
 21
109.057484
  0
LINE
  8
CSLAYER1
  6
CONTINUOUS
 62
     6
 10
292.186976
 20
109.057484
 11
292.105177
 21
108.913960
  0
LINE
  8
CSLAYER1
  6
CONTINUOUS
 62
     6
 10
292.105177
 20
108.913960
 11
292.025472
 21
108.769169
  0
LINE
  8
CSLAYER1
  6
CONTINUOUS
 62
     6
 10
292.025472
 20
108.769169
 11
291.947512
 21
108.623323
  0
LINE
  8
CSLAYER1
  6
CONTINUOUS
 62
     6
 10
291.947512
 20
108.623323
 11
291.870948
 21
108.476632
  0
LINE
  8
CSLAYER1
  6
CONTINUOUS
 62
     6
 10
291.870948
 20
108.476632
 11
291.795432
 21
108.329308
  0
LINE
  8
CSLAYER1
  6
CONTINUOUS
 62
     6
 10
291.795432
 20
108.329308
 11
291.720614
 21
108.181562
  0
LINE
  8
CSLAYER1
  6
CONTINUOUS
 62
     6
 10
291.720614
 20
108.181562
 11
291.646144
 21
108.033605
  0
ARC
  8
CSLAYER1
  6
CONTINUOUS
 62
     6
 10
291.634074
 20
109.533600
 40
1.499998
 50
210.461270
 51
270.461270
  0
ARC
  8
CSLAYER1
  6
CONTINUOUS
 62
     6
 10
290.353193
 20
107.273217
 40
1.499998
 50
30.461270
 51
90.461270
  0
LINE
  8
CSLAYER1
  6
CONTINUOUS
 62
     6
 10
290.772938
 20
108.370069
 11
289.880474
 21
105.088000
  0
LINE
  8
CSLAYER1
  6
CONTINUOUS
 62
     6
 10
289.016785
 20
105.375885
 11
290.110804
 21
108.571637
  0
ARC
  8
CSLAYER1
  6
CONTINUOUS
 62
     6
 10
290.329041
 20
110.273116
 40
1.499998
 50
210.461270
 51
270.461270
  0
LINE
  8
CSLAYER1
  6
CONTINUOUS
 62
     6
 10
289.036061
 20
109.512679
 11
289.125365
 21
109.687252
  0
LINE
  8
CSLAYER1
  6
CONTINUOUS
 62
     6
 10
289.125365
 20
109.687252
 11
289.215031
 21
109.861615
  0
LINE
  8
CSLAYER1
  6
CONTINUOUS
 62
     6
 10
289.215031
 20
109.861615
 11
289.305420
 21
110.035553
  0
LINE
  8
CSLAYER1
  6
CONTINUOUS
 62
     6
 10
289.305420
 20
110.035553
 11
289.396892
 21
110.208857
  0
LINE
  8
CSLAYER1
  6
CONTINUOUS
 62
     6
 10
289.396892
 20
110.208857
 11
289.489810
 21
110.381313
  0
LINE
  8
CSLAYER1
  6
CONTINUOUS
 62
     6
 10
289.489810
 20
110.381313
 11
289.584535
 21
110.552711
  0
LINE
  8
CSLAYER1
  6
CONTINUOUS
 62
     6
 10
289.584535
 20
110.552711
 11
289.681429
 21
110.722838
  0
LINE
  8
CSLAYER1
  6
CONTINUOUS
 62
     6
 10
289.681429
 20
110.722838
 11
289.780852
 21
110.891482
  0
LINE
  8
CSLAYER1
  6
CONTINUOUS
 62
     6
 10
289.780852
 20
110.891482
 11
289.883165
 21
111.058433
  0
LINE
  8
CSLAYER1
  6
CONTINUOUS
 62
     6
 10
289.883165
 20
111.058433
 11
289.988732
 21
111.223478
  0
LINE
  8
CSLAYER1
  6
CONTINUOUS
 62
     6
 10
289.988732
 20
111.223478
 11
290.097912
 21
111.386406
  0
LINE
  8
CSLAYER1
  6
CONTINUOUS
 62
     6
 10
290.097912
 20
111.386406
 11
290.209612
 21
111.545393
  0
LINE
  8
CSLAYER1
  6
CONTINUOUS
 62
     6
 10
290.209612
 20
111.545393
 11
290.326002
 21
111.703642
  0
LINE
  8
CSLAYER1
  6
CONTINUOUS
 62
     6
 10
290.326002
 20
111.703642
 11
290.446715
 21
111.860284
  0
LINE
  8
CSLAYER1
  6
CONTINUOUS
 62
     6
 10
290.446715
 20
111.860284
 11
290.571383
 21
112.014455
  0
LINE
  8
CSLAYER1
  6
CONTINUOUS
 62
     6
 10
290.571383
 20
112.014455
 11
290.699638
 21
112.165285
  0
LINE
  8
CSLAYER1
  6
CONTINUOUS
 62
     6
 10
290.699638
 20
112.165285
 11
290.831112
 21
112.311908
  0
LINE
  8
CSLAYER1
  6
CONTINUOUS
 62
     6
 10
290.831112
 20
112.311908
 11
290.965436
 21
112.453457
  0
LINE
  8
CSLAYER1
  6
CONTINUOUS
 62
     6
 10
290.965436
 20
112.453457
 11
291.102244
 21
112.589064
  0
LINE
  8
CSLAYER1
  6
CONTINUOUS
 62
     6
 10
291.102244
 20
112.589064
 11
291.241168
 21
112.717863
  0
LINE
  8
CSLAYER1
  6
CONTINUOUS
 62
     6
 10
291.241168
 20
112.717863
 11
291.381838
 21
112.838987
  0
LINE
  8
CSLAYER1
  6
CONTINUOUS
 62
     6
 10
291.381838
 20
112.838987
 11
291.523888
 21
112.951568
  0
LINE
  8
CSLAYER1
  6
CONTINUOUS
 62
     6
 10
291.523888
 20
112.951568
 11
291.670339
 21
113.061274
  0
LINE
  8
CSLAYER1
  6
CONTINUOUS
 62
     6
 10
291.670339
 20
113.061274
 11
291.824063
 21
113.173869
  0
LINE
  8
CSLAYER1
  6
CONTINUOUS
 62
     6
 10
291.824063
 20
113.173869
 11
291.983647
 21
113.288001
  0
LINE
  8
CSLAYER1
  6
CONTINUOUS
 62
     6
 10
291.983647
 20
113.288001
 11
292.147675
 21
113.402321
  0
LINE
  8
CSLAYER1
  6
CONTINUOUS
 62
     6
 10
292.147675
 20
113.402321
 11
292.314733
 21
113.515478
  0
LINE
  8
CSLAYER1
  6
CONTINUOUS
 62
     6
 10
292.314733
 20
113.515478
 11
292.483406
 21
113.626122
  0
LINE
  8
CSLAYER1
  6
CONTINUOUS
 62
     6
 10
292.483406
 20
113.626122
 11
292.652280
 21
113.732902
  0
LINE
  8
CSLAYER1
  6
CONTINUOUS
 62
     6
 10
292.652280
 20
113.732902
 11
292.819940
 21
113.834468
  0
LINE
  8
CSLAYER1
  6
CONTINUOUS
 62
     6
 10
292.819940
 20
113.834468
 11
292.984970
 21
113.929469
  0
LINE
  8
CSLAYER1
  6
CONTINUOUS
 62
     6
 10
292.984970
 20
113.929469
 11
293.145958
 21
114.016555
  0
LINE
  8
CSLAYER1
  6
CONTINUOUS
 62
     6
 10
293.145958
 20
114.016555
 11
293.301487
 21
114.094376
  0
LINE
  8
CSLAYER1
  6
CONTINUOUS
 62
     6
 10
294.546192
 20
109.136333
 11
294.443991
 21
109.047094
  0
LINE
  8
CSLAYER1
  6
CONTINUOUS
 62
     6
 10
294.443991
 20
109.047094
 11
294.339816
 21
108.950001
  0
LINE
  8
CSLAYER1
  6
CONTINUOUS
 62
     6
 10
294.339816
 20
108.950001
 11
294.234592
 21
108.846256
  0
LINE
  8
CSLAYER1
  6
CONTINUOUS
 62
     6
 10
294.234592
 20
108.846256
 11
294.129242
 21
108.737059
  0
LINE
  8
CSLAYER1
  6
CONTINUOUS
 62
     6
 10
294.129242
 20
108.737059
 11
294.024690
 21
108.623611
  0
LINE
  8
CSLAYER1
  6
CONTINUOUS
 62
     6
 10
294.024690
 20
108.623611
 11
293.921861
 21
108.507114
  0
LINE
  8
CSLAYER1
  6
CONTINUOUS
 62
     6
 10
293.921861
 20
108.507114
 11
293.821678
 21
108.388768
  0
LINE
  8
CSLAYER1
  6
CONTINUOUS
 62
     6
 10
293.821678
 20
108.388768
 11
293.725066
 21
108.269775
  0
LINE
  8
CSLAYER1
  6
CONTINUOUS
 62
     6
 10
293.725066
 20
108.269775
 11
293.632948
 21
108.151336
  0
LINE
  8
CSLAYER1
  6
CONTINUOUS
 62
     6
 10
293.632948
 20
108.151336
 11
293.546248
 21
108.034651
  0
LINE
  8
CSLAYER1
  6
CONTINUOUS
 62
     6
 10
293.546248
 20
108.034651
 11
293.465891
 21
107.920921
  0
LINE
  8
CSLAYER1
  6
CONTINUOUS
 62
     6
 10
293.465891
 20
107.920921
 11
293.384574
 21
107.795435
  0
LINE
  8
CSLAYER1
  6
CONTINUOUS
 62
     6
 10
293.384574
 20
107.795435
 11
293.307545
 21
107.662736
  0
LINE
  8
CSLAYER1
  6
CONTINUOUS
 62
     6
 10
293.307545
 20
107.662736
 11
293.234524
 21
107.523771
  0
LINE
  8
CSLAYER1
  6
CONTINUOUS
 62
     6
 10
293.234524
 20
107.523771
 11
293.165233
 21
107.379488
  0
LINE
  8
CSLAYER1
  6
CONTINUOUS
 62
     6
 10
293.165233
 20
107.379488
 11
293.099393
 21
107.230834
  0
LINE
  8
CSLAYER1
  6
CONTINUOUS
 62
     6
 10
293.099393
 20
107.230834
 11
293.036724
 21
107.078756
  0
LINE
  8
CSLAYER1
  6
CONTINUOUS
 62
     6
 10
293.036724
 20
107.078756
 11
292.976948
 21
106.924201
  0
LINE
  8
CSLAYER1
  6
CONTINUOUS
 62
     6
 10
292.976948
 20
106.924201
 11
292.919786
 21
106.768117
  0
LINE
  8
CSLAYER1
  6
CONTINUOUS
 62
     6
 10
292.919786
 20
106.768117
 11
292.864958
 21
106.611451
  0
LINE
  8
CSLAYER1
  6
CONTINUOUS
 62
     6
 10
292.864958
 20
106.611451
 11
292.812186
 21
106.455150
  0
LINE
  8
CSLAYER1
  6
CONTINUOUS
 62
     6
 10
292.812186
 20
106.455150
 11
292.761190
 21
106.300162
  0
LINE
  8
CSLAYER1
  6
CONTINUOUS
 62
     6
 10
292.761190
 20
106.300162
 11
292.714683
 21
106.156414
  0
LINE
  8
CSLAYER1
  6
CONTINUOUS
 62
     6
 10
292.714683
 20
106.156414
 11
292.668859
 21
106.012771
  0
LINE
  8
CSLAYER1
  6
CONTINUOUS
 62
     6
 10
292.668859
 20
106.012771
 11
292.623651
 21
105.869223
  0
LINE
  8
CSLAYER1
  6
CONTINUOUS
 62
     6
 10
292.623651
 20
105.869223
 11
292.578989
 21
105.725760
  0
LINE
  8
CSLAYER1
  6
CONTINUOUS
 62
     6
 10
292.578989
 20
105.725760
 11
292.534806
 21
105.582369
  0
LINE
  8
CSLAYER1
  6
CONTINUOUS
 62
     6
 10
292.534806
 20
105.582369
 11
292.491034
 21
105.439042
  0
LINE
  8
CSLAYER1
  6
CONTINUOUS
 62
     6
 10
292.491034
 20
105.439042
 11
292.447603
 21
105.295767
  0
LINE
  8
CSLAYER1
  6
CONTINUOUS
 62
     6
 10
292.447603
 20
105.295767
 11
292.404445
 21
105.152534
  0
LINE
  8
CSLAYER1
  6
CONTINUOUS
 62
     6
 10
292.404445
 20
105.152534
 11
292.361492
 21
105.009333
  0
LINE
  8
CSLAYER1
  6
CONTINUOUS
 62
     6
 10
292.361492
 20
105.009333
 11
292.318677
 21
104.866152
  0
LINE
  8
CSLAYER1
  6
CONTINUOUS
 62
     6
 10
292.318677
 20
104.866152
 11
292.275929
 21
104.722982
  0
ARC
  8
CSLAYER1
  6
CONTINUOUS
 62
     6
 10
293.374790
 20
105.744044
 40
1.500000
 50
222.897147
 51
282.897147
  0
ARC
  8
CSLAYER1
  6
CONTINUOUS
 62
     6
 10
294.808458
 20
105.302912
 40
1.500000
 50
222.897147
 51
282.897147
  0
ARC
  8
CSLAYER1
  6
CONTINUOUS
 62
     6
 10
294.044395
 20
102.819727
 40
1.500000
 50
42.897147
 51
102.897147
  0
LINE
  8
CSLAYER1
  6
CONTINUOUS
 62
     6
 10
293.623223
 20
104.310674
 11
292.817098
 21
101.230084
  0
LINE
  8
CSLAYER1
  6
CONTINUOUS
 62
     6
 10
292.097332
 20
101.748363
 11
292.903437
 21
104.166745
  0
LINE
  8
CSLAYER1
  6
CONTINUOUS
 62
     6
 10
294.342968
 20
103.792470
 11
293.680789
 21
100.855830
  0
LINE
  8
CSLAYER1
  6
CONTINUOUS
 62
     6
 10
295.143227
 20
103.840737
 11
295.181295
 21
103.969426
  0
LINE
  8
CSLAYER1
  6
CONTINUOUS
 62
     6
 10
295.181295
 20
103.969426
 11
295.219441
 21
104.098121
  0
LINE
  8
CSLAYER1
  6
CONTINUOUS
 62
     6
 10
295.219441
 20
104.098121
 11
295.257744
 21
104.226829
  0
LINE
  8
CSLAYER1
  6
CONTINUOUS
 62
     6
 10
295.257744
 20
104.226829
 11
295.296282
 21
104.355556
  0
LINE
  8
CSLAYER1
  6
CONTINUOUS
 62
     6
 10
295.296282
 20
104.355556
 11
295.335133
 21
104.484309
  0
LINE
  8
CSLAYER1
  6
CONTINUOUS
 62
     6
 10
295.335133
 20
104.484309
 11
295.374377
 21
104.613095
  0
LINE
  8
CSLAYER1
  6
CONTINUOUS
 62
     6
 10
295.374377
 20
104.613095
 11
295.414092
 21
104.741919
  0
LINE
  8
CSLAYER1
  6
CONTINUOUS
 62
     6
 10
295.414092
 20
104.741919
 11
295.454355
 21
104.870788
  0
LINE
  8
CSLAYER1
  6
CONTINUOUS
 62
     6
 10
295.454355
 20
104.870788
 11
295.495245
 21
104.999709
  0
LINE
  8
CSLAYER1
  6
CONTINUOUS
 62
     6
 10
295.495245
 20
104.999709
 11
295.536841
 21
105.128688
  0
LINE
  8
CSLAYER1
  6
CONTINUOUS
 62
     6
 10
295.536841
 20
105.128688
 11
295.579222
 21
105.257732
  0
LINE
  8
CSLAYER1
  6
CONTINUOUS
 62
     6
 10
295.579222
 20
105.257732
 11
295.612034
 21
105.355853
  0
LINE
  8
CSLAYER1
  6
CONTINUOUS
 62
     6
 10
295.612034
 20
105.355853
 11
295.645873
 21
105.454670
  0
LINE
  8
CSLAYER1
  6
CONTINUOUS
 62
     6
 10
295.645873
 20
105.454670
 11
295.680917
 21
105.553638
  0
LINE
  8
CSLAYER1
  6
CONTINUOUS
 62
     6
 10
295.680917
 20
105.553638
 11
295.717346
 21
105.652215
  0
LINE
  8
CSLAYER1
  6
CONTINUOUS
 62
     6
 10
295.717346
 20
105.652215
 11
295.755339
 21
105.749858
  0
LINE
  8
CSLAYER1
  6
CONTINUOUS
 62
     6
 10
295.755339
 20
105.749858
 11
295.795076
 21
105.846024
  0
LINE
  8
CSLAYER1
  6
CONTINUOUS
 62
     6
 10
295.795076
 20
105.846024
 11
295.836734
 21
105.940170
  0
LINE
  8
CSLAYER1
  6
CONTINUOUS
 62
     6
 10
295.836734
 20
105.940170
 11
295.880495
 21
106.031753
  0
LINE
  8
CSLAYER1
  6
CONTINUOUS
 62
     6
 10
295.880495
 20
106.031753
 11
295.926536
 21
106.120230
  0
LINE
  8
CSLAYER1
  6
CONTINUOUS
 62
     6
 10
295.926536
 20
106.120230
 11
295.975037
 21
106.205058
  0
LINE
  8
CSLAYER1
  6
CONTINUOUS
 62
     6
 10
295.975037
 20
106.205058
 11
296.026178
 21
106.285694
  0
LINE
  8
CSLAYER1
  6
CONTINUOUS
 62
     6
 10
296.026178
 20
106.285694
 11
296.082469
 21
106.367073
  0
LINE
  8
CSLAYER1
  6
CONTINUOUS
 62
     6
 10
296.082469
 20
106.367073
 11
296.143378
 21
106.450247
  0
LINE
  8
CSLAYER1
  6
CONTINUOUS
 62
     6
 10
296.143378
 20
106.450247
 11
296.208232
 21
106.534388
  0
LINE
  8
CSLAYER1
  6
CONTINUOUS
 62
     6
 10
296.208232
 20
106.534388
 11
296.276359
 21
106.618670
  0
LINE
  8
CSLAYER1
  6
CONTINUOUS
 62
     6
 10
296.276359
 20
106.618670
 11
296.347089
 21
106.702268
  0
LINE
  8
CSLAYER1
  6
CONTINUOUS
 62
     6
 10
296.347089
 20
106.702268
 11
296.419748
 21
106.784355
  0
LINE
  8
CSLAYER1
  6
CONTINUOUS
 62
     6
 10
296.419748
 20
106.784355
 11
296.493666
 21
106.864106
  0
LINE
  8
CSLAYER1
  6
CONTINUOUS
 62
     6
 10
296.493666
 20
106.864106
 11
296.568171
 21
106.940694
  0
LINE
  8
CSLAYER1
  6
CONTINUOUS
 62
     6
 10
296.568171
 20
106.940694
 11
296.642590
 21
107.013293
  0
LINE
  8
CSLAYER1
  6
CONTINUOUS
 62
     6
 10
296.642590
 20
107.013293
 11
296.716253
 21
107.081078
  0
LINE
  8
CSLAYER1
  6
CONTINUOUS
 62
     6
 10
296.716253
 20
107.081078
 11
296.788487
 21
107.143222
  0
ARC
  8
CSLAYER1
  6
CONTINUOUS
 62
     6
 10
295.364827
 20
106.670544
 40
1.500000
 50
18.366208
 51
78.366208
  0
ARC
  8
CSLAYER1
  6
CONTINUOUS
 62
     6
 10
295.969794
 20
109.608913
 40
1.500000
 50
198.366208
 51
258.366208
  0
ARC
  8
CSLAYER1
  6
CONTINUOUS
 62
     6
 10
294.243717
 20
107.667094
 40
1.500000
 50
18.366208
 51
78.366208
  0
LINE
  8
CSLAYER1
  6
CONTINUOUS
 62
     6
 10
289.563746
 20
109.032291
 11
288.124252
 21
105.922905
  0
ARC
  8
CSLAYER1
  6
CONTINUOUS
 62
     6
 10
314.110874
 20
97.934886
 40
1.527778
 50
163.398423
 51
196.601584
  0
LINE
  8
CSLAYER1
  6
CONTINUOUS
 62
     6
 10
312.646789
 20
97.498373
 11
313.237847
 21
97.498373
  0
ARC
  8
CSLAYER1
  6
CONTINUOUS
 62
     6
 10
313.237847
 20
97.061882
 40
0.436508
 50
-0.000005
 51
89.999984
  0
LINE
  8
CSLAYER1
  6
CONTINUOUS
 62
     6
 10
313.674361
 20
97.061882
 11
313.674361
 21
96.470778
  0
ARC
  8
CSLAYER1
  6
CONTINUOUS
 62
     6
 10
314.110874
 20
97.934886
 40
1.527778
 50
253.398405
 51
286.601594
  0
LINE
  8
CSLAYER1
  6
CONTINUOUS
 62
     6
 10
314.547387
 20
96.470778
 11
314.547387
 21
97.061882
  0
ARC
  8
CSLAYER1
  6
CONTINUOUS
 62
     6
 10
314.983901
 20
97.061882
 40
0.436508
 50
89.999984
 51
179.999990
  0
LINE
  8
CSLAYER1
  6
CONTINUOUS
 62
     6
 10
314.983901
 20
97.498373
 11
315.574959
 21
97.498373
  0
ARC
  8
CSLAYER1
  6
CONTINUOUS
 62
     6
 10
314.110874
 20
97.934886
 40
1.527778
 50
-16.601572
 51
16.601562
  0
LINE
  8
CSLAYER1
  6
CONTINUOUS
 62
     6
 10
315.574959
 20
98.371399
 11
314.983901
 21
98.371399
  0
ARC
  8
CSLAYER1
  6
CONTINUOUS
 62
     6
 10
314.983901
 20
98.807890
 40
0.436508
 50
180.057309
 51
269.999999
  0
LINE
  8
CSLAYER1
  6
CONTINUOUS
 62
     6
 10
314.547387
 20
98.807890
 11
314.547387
 21
99.398994
  0
ARC
  8
CSLAYER1
  6
CONTINUOUS
 62
     6
 10
314.110874
 20
97.934886
 40
1.527778
 50
73.398417
 51
106.601578
  0
LINE
  8
CSLAYER1
  6
CONTINUOUS
 62
     6
 10
313.674361
 20
99.398994
 11
313.674361
 21
98.807890
  0
ARC
  8
CSLAYER1
  6
CONTINUOUS
 62
     6
 10
313.237847
 20
98.807890
 40
0.436508
 50
270.057346
 51
359.999995
  0
LINE
  8
CSLAYER1
  6
CONTINUOUS
 62
     6
 10
313.237847
 20
98.371399
 11
312.646789
 21
98.371399
  0
CIRCLE
  8
CSLAYER1
  6
CONTINUOUS
 62
     6
 10
314.110884
 20
97.934887
 40
2.750000
  0
LINE
  8
CSLAYER1
  6
CONTINUOUS
 62
     6
 10
302.796852
 20
76.541695
 11
334.753944
 21
76.541695
  0
ARC
  8
CSLAYER1
  6
CONTINUOUS
 62
     6
 10
339.897132
 20
75.363289
 40
1.000000
 50
90.000009
 51
173.999984
  0
LINE
  8
CSLAYER1
  6
CONTINUOUS
 62
     6
 10
338.902625
 20
75.467842
 11
338.204994
 21
68.830330
  0
ARC
  8
CSLAYER1
  6
CONTINUOUS
 62
     6
 10
337.210426
 20
68.934883
 40
1.000000
 50
270.000001
 51
354.000017
  0
LINE
  8
CSLAYER1
  6
CONTINUOUS
 62
     6
 10
337.210426
 20
67.934883
 11
301.011268
 21
67.934883
  0
ARC
  8
CSLAYER1
  6
CONTINUOUS
 62
     6
 10
301.011268
 20
68.934883
 40
1.000000
 50
186.000012
 51
270.000001
  0
LINE
  8
CSLAYER1
  6
CONTINUOUS
 62
     6
 10
300.016761
 20
68.830330
 11
299.319129
 21
75.467842
  0
ARC
  8
CSLAYER1
  6
CONTINUOUS
 62
     6
 10
298.324561
 20
75.363289
 40
1.000000
 50
6.000021
 51
90.000009
  0
ARC
  8
CSLAYER1
  6
CONTINUOUS
 62
     6
 10
298.374244
 20
70.891060
 40
1.000000
 50
6.000021
 51
90.000009
  0
LINE
  8
CSLAYER1
  6
CONTINUOUS
 62
     6
 10
299.368751
 20
70.995613
 11
300.016761
 21
64.830330
  0
ARC
  8
CSLAYER1
  6
CONTINUOUS
 62
     6
 10
301.011268
 20
64.934883
 40
1.000000
 50
186.000012
 51
270.000001
  0
LINE
  8
CSLAYER1
  6
CONTINUOUS
 62
     6
 10
301.011268
 20
63.934883
 11
337.210426
 21
63.934883
  0
ARC
  8
CSLAYER1
  6
CONTINUOUS
 62
     6
 10
337.210426
 20
64.934883
 40
1.000000
 50
270.000001
 51
354.000017
  0
LINE
  8
CSLAYER1
  6
CONTINUOUS
 62
     6
 10
338.204994
 20
64.830330
 11
338.852943
 21
70.995613
  0
ARC
  8
CSLAYER1
  6
CONTINUOUS
 62
     6
 10
339.847511
 20
70.891060
 40
1.000000
 50
90.000009
 51
173.999984
  0
LINE
  8
CSLAYER1
  6
CONTINUOUS
 62
     6
 10
340.110877
 20
68.934883
 11
338.635841
 21
68.934883
  0
LINE
  8
CSLAYER1
  6
CONTINUOUS
 62
     6
 10
376.110877
 20
63.434898
 11
376.110877
 21
57.434898
  0
ARC
  8
CSLAYER1
  6
CONTINUOUS
 62
     6
 10
380.610877
 20
57.434898
 40
4.500000
 50
180.000000
 51
360.000000
  0
LINE
  8
CSLAYER1
  6
CONTINUOUS
 62
     6
 10
385.110877
 20
57.434898
 11
385.110877
 21
63.434898
  0
ARC
  8
CSLAYER1
  6
CONTINUOUS
 62
     6
 10
380.610877
 20
63.434898
 40
4.500000
 50
0.000000
 51
180.000000
  0
LINE
  8
CSLAYER1
  6
CONTINUOUS
 62
     6
 10
392.610877
 20
58.434898
 11
392.610877
 21
72.434898
  0
ARC
  8
CSLAYER1
  6
CONTINUOUS
 62
     6
 10
397.610877
 20
72.434898
 40
5.000000
 50
90.000000
 51
180.000000
  0
LINE
  8
CSLAYER1
  6
CONTINUOUS
 62
     6
 10
397.610877
 20
77.434898
 11
453.610877
 21
77.434898
  0
ARC
  8
CSLAYER1
  6
CONTINUOUS
 62
     6
 10
453.610877
 20
72.434898
 40
5.000000
 50
0.000000
 51
90.000000
  0
LINE
  8
CSLAYER1
  6
CONTINUOUS
 62
     6
 10
458.610877
 20
72.434898
 11
458.610877
 21
58.434898
  0
ARC
  8
CSLAYER1
  6
CONTINUOUS
 62
     6
 10
453.610877
 20
58.434898
 40
5.000000
 50
270.000000
 51
360.000000
  0
LINE
  8
CSLAYER1
  6
CONTINUOUS
 62
     6
 10
453.610877
 20
53.434898
 11
397.610877
 21
53.434898
  0
ARC
  8
CSLAYER1
  6
CONTINUOUS
 62
     6
 10
397.610877
 20
58.434898
 40
5.000000
 50
180.000000
 51
270.000000
  0
LINE
  8
CSLAYER1
  6
CONTINUOUS
 62
     6
 10
299.585304
 20
68.934883
 11
288.110847
 21
68.934883
  0
LINE
  8
CSLAYER1
  6
CONTINUOUS
 62
     6
 10
288.110847
 20
68.934883
 11
287.110847
 21
69.934883
  0
LINE
  8
CSLAYER1
  6
CONTINUOUS
 62
     6
 10
287.110877
 20
69.934898
 11
287.110877
 21
155.934898
  0
LINE
  8
CSLAYER1
  6
CONTINUOUS
 62
     6
 10
287.110877
 20
155.934898
 11
288.110877
 21
156.934898
  0
LINE
  8
CSLAYER1
  6
CONTINUOUS
 62
     6
 10
288.110877
 20
156.934898
 11
288.110877
 21
68.934898
  0
LINE
  8
CSLAYER1
  6
CONTINUOUS
 62
     6
 10
288.110877
 20
68.934898
 11
287.110877
 21
69.934898
  0
ARC
  8
CSLAYER1
  6
CONTINUOUS
 62
     6
 10
298.324561
 20
150.506416
 40
1.000000
 50
270.000001
 51
353.999989
  0
ARC
  8
CSLAYER1
  6
CONTINUOUS
 62
     6
 10
298.374244
 20
154.978706
 40
1.000000
 50
270.000001
 51
353.999989
  0
LINE
  8
CSLAYER1
  6
CONTINUOUS
 62
     6
 10
299.368751
 20
154.874153
 11
300.016761
 21
161.039375
  0
ARC
  8
CSLAYER1
  6
CONTINUOUS
 62
     6
 10
301.011268
 20
160.934883
 40
1.000000
 50
90.000003
 51
173.999998
  0
LINE
  8
CSLAYER1
  6
CONTINUOUS
 62
     6
 10
299.585304
 20
156.934883
 11
288.110847
 21
156.934883
  0
LINE
  8
CSLAYER1
  6
CONTINUOUS
 62
     6
 10
288.110847
 20
156.934883
 11
287.110847
 21
155.934883
  0
LINE
  8
CSLAYER1
  6
CONTINUOUS
 62
     6
 10
313.110877
 20
308.034905
 11
313.110877
 21
309.834892
  0
LINE
  8
CSLAYER1
  6
CONTINUOUS
 62
     6
 10
313.110877
 20
309.834892
 11
325.110877
 21
309.834892
  0
LINE
  8
CSLAYER1
  6
CONTINUOUS
 62
     6
 10
325.110877
 20
309.834892
 11
325.110877
 21
308.034905
  0
LINE
  8
CSLAYER1
  6
CONTINUOUS
 62
     6
 10
325.110877
 20
308.034905
 11
313.110877
 21
308.034905
  0
CIRCLE
  8
CSLAYER1
  6
CONTINUOUS
 62
     6
 10
319.110877
 20
308.934898
 40
12.000000
  0
CIRCLE
  8
CSLAYER1
  6
CONTINUOUS
 62
     6
 10
319.110877
 20
308.934898
 40
15.000000
  0
CIRCLE
  8
CSLAYER1
  6
CONTINUOUS
 62
     6
 10
319.110877
 20
308.934898
 40
16.000000
  0
ARC
  8
CSLAYER1
  6
CONTINUOUS
 62
     6
 10
301.110877
 20
332.934898
 40
1.000000
 50
180.000019
 51
270.000001
  0
LINE
  8
CSLAYER1
  6
CONTINUOUS
 62
     6
 10
300.110877
 20
332.934898
 11
300.110877
 21
333.934898
  0
ARC
  8
CSLAYER1
  6
CONTINUOUS
 62
     6
 10
301.110877
 20
333.934898
 40
1.000000
 50
90.000016
 51
180.000005
  0
LINE
  8
CSLAYER1
  6
CONTINUOUS
 62
     6
 10
301.110877
 20
334.934898
 11
337.110877
 21
334.934898
  0
ARC
  8
CSLAYER1
  6
CONTINUOUS
 62
     6
 10
337.110877
 20
333.934898
 40
1.000000
 50
0.000000
 51
90.000003
  0
LINE
  8
CSLAYER1
  6
CONTINUOUS
 62
     6
 10
338.110877
 20
333.934898
 11
338.110877
 21
332.934898
  0
ARC
  8
CSLAYER1
  6
CONTINUOUS
 62
     6
 10
337.110877
 20
332.934898
 40
1.000000
 50
270.000001
 51
359.942691
  0
LINE
  8
CSLAYER1
  6
CONTINUOUS
 62
     6
 10
337.110877
 20
331.934898
 11
301.110877
 21
331.934898
  0
LINE
  8
CSLAYER1
  6
CONTINUOUS
 62
     6
 10
288.110877
 20
352.823357
 11
340.110877
 21
352.823357
  0
ARC
  8
CSLAYER1
  6
CONTINUOUS
 62
     6
 10
370.610877
 20
431.934898
 40
10.000000
 50
180.000000
 51
270.000000
  0
LINE
  8
CSLAYER1
  6
CONTINUOUS
 62
     6
 10
360.610877
 20
431.934898
 11
360.610877
 21
441.934898
  0
LINE
  8
CSLAYER1
  6
CONTINUOUS
 62
     6
 10
376.110877
 20
437.434898
 11
376.110877
 21
431.434898
  0
ARC
  8
CSLAYER1
  6
CONTINUOUS
 62
     6
 10
380.610877
 20
431.434898
 40
4.500000
 50
180.000000
 51
360.000000
  0
LINE
  8
CSLAYER1
  6
CONTINUOUS
 62
     6
 10
385.110877
 20
431.434898
 11
385.110877
 21
437.434898
  0
ARC
  8
CSLAYER1
  6
CONTINUOUS
 62
     6
 10
380.610877
 20
437.434898
 40
4.500000
 50
0.000000
 51
180.000000
  0
LINE
  8
CSLAYER1
  6
CONTINUOUS
 62
     6
 10
370.610877
 20
421.934898
 11
480.610877
 21
421.934898
  0
ARC
  8
CSLAYER1
  6
CONTINUOUS
 62
     6
 10
480.610877
 20
431.934898
 40
10.000000
 50
270.000000
 51
360.000000
  0
LINE
  8
CSLAYER1
  6
CONTINUOUS
 62
     6
 10
490.610877
 20
431.934898
 11
490.610877
 21
434.434898
  0
ARC
  8
CSLAYER1
  6
CONTINUOUS
 62
     6
 10
519.610877
 20
453.934898
 40
4.000000
 50
90.000000
 51
180.000000
  0
LINE
  8
CSLAYER1
  6
CONTINUOUS
 62
     6
 10
519.610877
 20
457.934898
 11
538.610877
 21
457.934898
  0
ARC
  8
CSLAYER1
  6
CONTINUOUS
 62
     6
 10
538.610877
 20
461.934898
 40
4.000000
 50
270.000000
 51
360.000000
  0
LINE
  8
CSLAYER1
  6
CONTINUOUS
 62
     6
 10
542.610877
 20
461.934898
 11
542.610877
 21
511.934898
  0
ARC
  8
CSLAYER1
  6
CONTINUOUS
 62
     6
 10
538.610877
 20
511.934898
 40
4.000000
 50
0.000000
 51
90.000000
  0
LINE
  8
CSLAYER1
  6
CONTINUOUS
 62
     6
 10
538.610877
 20
515.934898
 11
519.610877
 21
515.934898
  0
ARC
  8
CSLAYER1
  6
CONTINUOUS
 62
     6
 10
519.610877
 20
519.934898
 40
4.000000
 50
180.000000
 51
270.000000
  0
LINE
  8
CSLAYER1
  6
CONTINUOUS
 62
     6
 10
490.610877
 20
539.434898
 11
490.610877
 21
541.934898
  0
ARC
  8
CSLAYER1
  6
CONTINUOUS
 62
     6
 10
480.610877
 20
541.934898
 40
10.000000
 50
0.000000
 51
90.000000
  0
LINE
  8
CSLAYER1
  6
CONTINUOUS
 62
     6
 10
480.610877
 20
551.934898
 11
370.610877
 21
551.934898
  0
ARC
  8
CSLAYER1
  6
CONTINUOUS
 62
     6
 10
370.610877
 20
541.934898
 40
10.000000
 50
90.000000
 51
180.000000
  0
LINE
  8
CSLAYER1
  6
CONTINUOUS
 62
     6
 10
360.610877
 20
541.934898
 11
360.610877
 21
531.934898
  0
LINE
  8
CSLAYER1
  6
CONTINUOUS
 62
     6
 10
376.110877
 20
536.434898
 11
376.110877
 21
542.434898
  0
ARC
  8
CSLAYER1
  6
CONTINUOUS
 62
     6
 10
380.610877
 20
542.434898
 40
4.500000
 50
0.000000
 51
180.000000
  0
LINE
  8
CSLAYER1
  6
CONTINUOUS
 62
     6
 10
385.110877
 20
542.434898
 11
385.110877
 21
536.434898
  0
ARC
  8
CSLAYER1
  6
CONTINUOUS
 62
     6
 10
380.610877
 20
536.434898
 40
4.500000
 50
180.000000
 51
360.000000
  0
LINE
  8
CSLAYER1
  6
CONTINUOUS
 62
     6
 10
398.610877
 20
543.934898
 11
441.610877
 21
543.934898
  0
ARC
  8
CSLAYER1
  6
CONTINUOUS
 62
     6
 10
441.610877
 20
541.934898
 40
2.000000
 50
0.000000
 51
90.000000
  0
ARC
  8
CSLAYER1
  6
CONTINUOUS
 62
     6
 10
440.610877
 20
536.934898
 40
3.000000
 50
270.000000
 51
360.000000
  0
LINE
  8
CSLAYER1
  6
CONTINUOUS
 62
     6
 10
440.610877
 20
533.934898
 11
436.610877
 21
533.934898
  0
ARC
  8
CSLAYER1
  6
CONTINUOUS
 62
     6
 10
436.610877
 20
532.934898
 40
1.000000
 50
90.000000
 51
180.000000
  0
ARC
  8
CSLAYER1
  6
CONTINUOUS
 62
     6
 10
434.610877
 20
532.934898
 40
1.000000
 50
270.000000
 51
360.000000
  0
LINE
  8
CSLAYER1
  6
CONTINUOUS
 62
     6
 10
434.610877
 20
531.934898
 11
340.110847
 21
531.934898
  0
LINE
  8
CSLAYER1
  6
CONTINUOUS
 62
     6
 10
340.110847
 20
531.934898
 11
340.110847
 21
441.934898
  0
LINE
  8
CSLAYER1
  6
CONTINUOUS
 62
     6
 10
340.110847
 20
441.934898
 11
434.610877
 21
441.934898
  0
ARC
  8
CSLAYER1
  6
CONTINUOUS
 62
     6
 10
434.610877
 20
440.934898
 40
1.000000
 50
0.000000
 51
90.000000
  0
ARC
  8
CSLAYER1
  6
CONTINUOUS
 62
     6
 10
436.610877
 20
440.934898
 40
1.000000
 50
180.000000
 51
270.000000
  0
LINE
  8
CSLAYER1
  6
CONTINUOUS
 62
     6
 10
436.610877
 20
439.934898
 11
440.610877
 21
439.934898
  0
ARC
  8
CSLAYER1
  6
CONTINUOUS
 62
     6
 10
440.610877
 20
436.934898
 40
3.000000
 50
0.000000
 51
90.000000
  0
ARC
  8
CSLAYER1
  6
CONTINUOUS
 62
     6
 10
441.610877
 20
431.934898
 40
2.000000
 50
270.000000
 51
360.000000
  0
LINE
  8
CSLAYER1
  6
CONTINUOUS
 62
     6
 10
441.610877
 20
429.934898
 11
398.610877
 21
429.934898
  0
LINE
  8
CSLAYER1
  6
CONTINUOUS
 62
     6
 10
398.610877
 20
428.664602
 11
398.610877
 21
423.710761
  0
LINE
  8
CSLAYER1
  6
CONTINUOUS
 62
     6
 10
340.110847
 20
442.934883
 11
338.635811
 21
442.934883
  0
LINE
  8
CSLAYER1
  6
CONTINUOUS
 62
     6
 10
338.204964
 20
442.830330
 11
338.902595
 21
449.467842
  0
ARC
  8
CSLAYER1
  6
CONTINUOUS
 62
     6
 10
339.897102
 20
449.363289
 40
1.000000
 50
90.000009
 51
173.999984
  0
ARC
  8
CSLAYER1
  6
CONTINUOUS
 62
     6
 10
339.847481
 20
444.891060
 40
1.000000
 50
90.000009
 51
173.999984
  0
LINE
  8
CSLAYER1
  6
CONTINUOUS
 62
     6
 10
338.852913
 20
444.995613
 11
338.204964
 21
438.830330
  0
ARC
  8
CSLAYER1
  6
CONTINUOUS
 62
     6
 10
337.210396
 20
438.934883
 40
1.000000
 50
270.000001
 51
354.000017
  0
LINE
  8
CSLAYER1
  6
CONTINUOUS
 62
     6
 10
337.210396
 20
437.934883
 11
301.011238
 21
437.934883
  0
ARC
  8
CSLAYER1
  6
CONTINUOUS
 62
     6
 10
301.011238
 20
438.934883
 40
1.000000
 50
186.000012
 51
270.000001
  0
LINE
  8
CSLAYER1
  6
CONTINUOUS
 62
     6
 10
300.016731
 20
438.830330
 11
299.368721
 21
444.995613
  0
ARC
  8
CSLAYER1
  6
CONTINUOUS
 62
     6
 10
298.374214
 20
444.891060
 40
1.000000
 50
6.000021
 51
90.000009
  0
ARC
  8
CSLAYER1
  6
CONTINUOUS
 62
     6
 10
298.324531
 20
449.363289
 40
1.000000
 50
6.000021
 51
90.000009
  0
LINE
  8
CSLAYER1
  6
CONTINUOUS
 62
     6
 10
299.319099
 20
449.467842
 11
300.016731
 21
442.830330
  0
ARC
  8
CSLAYER1
  6
CONTINUOUS
 62
     6
 10
301.011238
 20
442.934883
 40
1.000000
 50
186.000012
 51
270.000001
  0
LINE
  8
CSLAYER1
  6
CONTINUOUS
 62
     6
 10
301.011238
 20
441.934883
 11
337.210396
 21
441.934883
  0
ARC
  8
CSLAYER1
  6
CONTINUOUS
 62
     6
 10
337.210396
 20
442.934883
 40
1.000000
 50
270.000001
 51
354.000017
  0
LINE
  8
CSLAYER1
  6
CONTINUOUS
 62
     6
 10
299.585274
 20
442.934883
 11
288.110817
 21
442.934883
  0
LINE
  8
CSLAYER1
  6
CONTINUOUS
 62
     6
 10
288.110817
 20
442.934883
 11
287.110817
 21
443.934883
  0
LINE
  8
CSLAYER1
  6
CONTINUOUS
 62
     6
 10
287.110847
 20
443.934898
 11
287.110847
 21
529.934898
  0
LINE
  8
CSLAYER1
  6
CONTINUOUS
 62
     6
 10
287.110847
 20
529.934898
 11
288.110847
 21
530.934898
  0
LINE
  8
CSLAYER1
  6
CONTINUOUS
 62
     6
 10
288.110847
 20
530.934898
 11
288.110847
 21
442.934898
  0
LINE
  8
CSLAYER1
  6
CONTINUOUS
 62
     6
 10
288.110847
 20
442.934898
 11
287.110847
 21
443.934898
  0
LINE
  8
CSLAYER1
  6
CONTINUOUS
 62
     6
 10
302.796822
 20
450.541695
 11
334.753914
 21
450.541695
  0
LINE
  8
CSLAYER1
  6
CONTINUOUS
 62
     6
 10
334.753914
 20
523.328072
 11
302.796822
 21
523.328072
  0
LINE
  8
CSLAYER1
  6
CONTINUOUS
 62
     6
 10
299.319099
 20
524.401924
 11
300.016731
 21
531.039375
  0
ARC
  8
CSLAYER1
  6
CONTINUOUS
 62
     6
 10
301.011238
 20
530.934883
 40
1.000000
 50
90.000003
 51
173.999998
  0
LINE
  8
CSLAYER1
  6
CONTINUOUS
 62
     6
 10
301.011238
 20
531.934883
 11
337.210396
 21
531.934883
  0
ARC
  8
CSLAYER1
  6
CONTINUOUS
 62
     6
 10
337.210396
 20
530.934883
 40
1.000000
 50
6.000003
 51
90.000016
  0
LINE
  8
CSLAYER1
  6
CONTINUOUS
 62
     6
 10
338.204964
 20
531.039375
 11
338.902595
 21
524.401924
  0
ARC
  8
CSLAYER1
  6
CONTINUOUS
 62
     6
 10
339.897102
 20
524.506416
 40
1.000000
 50
186.000026
 51
270.000001
  0
ARC
  8
CSLAYER1
  6
CONTINUOUS
 62
     6
 10
339.847481
 20
528.978706
 40
1.000000
 50
186.000026
 51
270.000001
  0
LINE
  8
CSLAYER1
  6
CONTINUOUS
 62
     6
 10
338.852913
 20
528.874153
 11
338.204964
 21
535.039375
  0
ARC
  8
CSLAYER1
  6
CONTINUOUS
 62
     6
 10
337.210396
 20
534.934883
 40
1.000000
 50
6.000003
 51
90.000016
  0
LINE
  8
CSLAYER1
  6
CONTINUOUS
 62
     6
 10
337.210396
 20
535.934883
 11
301.011238
 21
535.934883
  0
ARC
  8
CSLAYER1
  6
CONTINUOUS
 62
     6
 10
301.011238
 20
534.934883
 40
1.000000
 50
90.000003
 51
173.999998
  0
LINE
  8
CSLAYER1
  6
CONTINUOUS
 62
     6
 10
300.016731
 20
535.039375
 11
299.368721
 21
528.874153
  0
ARC
  8
CSLAYER1
  6
CONTINUOUS
 62
     6
 10
298.374214
 20
528.978706
 40
1.000000
 50
270.000001
 51
353.999989
  0
LINE
  8
CSLAYER1
  6
CONTINUOUS
 62
     6
 10
299.585274
 20
530.934883
 11
288.110817
 21
530.934883
  0
LINE
  8
CSLAYER1
  6
CONTINUOUS
 62
     6
 10
288.110817
 20
530.934883
 11
287.110817
 21
529.934883
  0
ARC
  8
CSLAYER1
  6
CONTINUOUS
 62
     6
 10
298.324531
 20
524.506416
 40
1.000000
 50
270.000001
 51
353.999989
  0
LINE
  8
CSLAYER1
  6
CONTINUOUS
 62
     6
 10
338.635811
 20
530.934883
 11
340.110847
 21
530.934883
  0
LINE
  8
CSLAYER1
  6
CONTINUOUS
 62
     6
 10
398.610877
 20
545.205194
 11
398.610877
 21
550.159034
  0
LINE
  8
CSLAYER1
  6
CONTINUOUS
 62
     6
 10
425.110877
 20
531.934898
 11
425.110877
 21
441.934898
  0
LINE
  8
CSLAYER1
  6
CONTINUOUS
 62
     6
 10
435.610877
 20
440.934898
 11
435.610877
 21
532.934898
  0
LINE
  8
CSLAYER1
  6
CONTINUOUS
 62
     6
 10
443.610877
 20
549.934898
 11
443.610877
 21
423.934898
  0
ARC
  8
CSLAYER1
  6
CONTINUOUS
 62
     6
 10
445.610877
 20
423.934898
 40
2.000000
 50
180.000000
 51
270.000000
  0
LINE
  8
CSLAYER1
  6
CONTINUOUS
 62
     6
 10
453.610877
 20
421.934898
 11
453.610877
 21
551.934898
  0
LINE
  8
CSLAYER1
  6
CONTINUOUS
 62
     6
 10
461.110877
 20
551.934898
 11
461.610877
 21
551.434898
  0
LINE
  8
CSLAYER1
  6
CONTINUOUS
 62
     6
 10
461.610877
 20
551.434898
 11
461.610877
 21
422.434898
  0
LINE
  8
CSLAYER1
  6
CONTINUOUS
 62
     6
 10
461.610877
 20
422.434898
 11
461.110877
 21
421.934898
  0
LINE
  8
CSLAYER1
  6
CONTINUOUS
 62
     6
 10
466.110877
 20
431.434898
 11
466.110877
 21
434.434898
  0
ARC
  8
CSLAYER1
  6
CONTINUOUS
 62
     6
 10
470.610877
 20
431.434898
 40
4.500000
 50
180.000000
 51
360.000000
  0
LINE
  8
CSLAYER1
  6
CONTINUOUS
 62
     6
 10
475.110877
 20
431.434898
 11
475.110877
 21
434.434898
  0
ARC
  8
CSLAYER1
  6
CONTINUOUS
 62
     6
 10
511.110877
 20
438.934898
 40
4.500000
 50
270.000000
 51
360.000000
  0
LINE
  8
CSLAYER1
  6
CONTINUOUS
 62
     6
 10
515.610877
 20
438.934898
 11
515.610877
 21
534.934898
  0
ARC
  8
CSLAYER1
  6
CONTINUOUS
 62
     6
 10
511.110877
 20
534.934898
 40
4.500000
 50
0.000000
 51
90.000000
  0
LINE
  8
CSLAYER1
  6
CONTINUOUS
 62
     6
 10
511.110877
 20
539.434898
 11
461.610877
 21
539.434898
  0
LINE
  8
CSLAYER1
  6
CONTINUOUS
 62
     6
 10
466.110877
 20
539.434898
 11
466.110877
 21
542.434898
  0
ARC
  8
CSLAYER1
  6
CONTINUOUS
 62
     6
 10
470.610877
 20
542.434898
 40
4.500000
 50
0.000000
 51
180.000000
  0
LINE
  8
CSLAYER1
  6
CONTINUOUS
 62
     6
 10
475.110877
 20
542.434898
 11
475.110877
 21
539.434898
  0
ARC
  8
CSLAYER1
  6
CONTINUOUS
 62
     6
 10
464.254181
 20
531.694963
 40
1.810349
 50
16.257399
 51
84.999892
  0
LINE
  8
CSLAYER1
  6
CONTINUOUS
 62
     6
 10
464.411968
 20
533.498433
 11
463.271771
 21
533.598183
  0
ARC
  8
CSLAYER1
  6
CONTINUOUS
 62
     6
 10
463.240169
 20
533.237500
 40
0.362070
 50
84.999865
 51
179.942691
  0
LINE
  8
CSLAYER1
  6
CONTINUOUS
 62
     6
 10
462.878077
 20
533.723125
 11
462.878077
 21
523.585217
  0
ARC
  8
CSLAYER1
  6
CONTINUOUS
 62
     6
 10
462.697087
 20
523.585217
 40
0.181035
 50
-89.999997
 51
0.000005
  0
LINE
  8
CSLAYER1
  6
CONTINUOUS
 62
     6
 10
462.697087
 20
523.404171
 11
461.791912
 21
523.404171
  0
ARC
  8
CSLAYER1
  6
CONTINUOUS
 62
     6
 10
461.791912
 20
523.585217
 40
0.181035
 50
180.000000
 51
270.000003
  0
ARC
  8
CSLAYER1
  6
CONTINUOUS
 62
     6
 10
463.240169
 20
524.070842
 40
0.362070
 50
180.000000
 51
275.000152
  0
LINE
  8
CSLAYER1
  6
CONTINUOUS
 62
     6
 10
463.271771
 20
523.710159
 11
464.411968
 21
523.809908
  0
ARC
  8
CSLAYER1
  6
CONTINUOUS
 62
     6
 10
464.254181
 20
525.613378
 40
1.810349
 50
275.000111
 51
343.742611
  0
ARC
  8
CSLAYER1
  6
CONTINUOUS
 62
     6
 10
453.826334
 20
528.654171
 40
12.672440
 50
-16.257006
 51
16.257016
  0
ARC
  8
CSLAYER1
  6
CONTINUOUS
 62
     6
 10
462.697087
 20
533.723125
 40
0.181035
 50
0.000005
 51
90.000001
  0
LINE
  8
CSLAYER1
  6
CONTINUOUS
 62
     6
 10
462.697087
 20
533.904171
 11
461.791912
 21
533.904171
  0
ARC
  8
CSLAYER1
  6
CONTINUOUS
 62
     6
 10
461.791912
 20
533.723125
 40
0.181035
 50
90.000001
 51
179.942691
  0
LINE
  8
CSLAYER1
  6
CONTINUOUS
 62
     6
 10
462.878077
 20
529.733015
 11
461.610866
 21
528.929469
  0
LINE
  8
CSLAYER1
  6
CONTINUOUS
 62
     6
 10
461.610866
 20
528.024295
 11
462.878077
 21
528.827841
  0
ARC
  8
CSLAYER1
  6
CONTINUOUS
 62
     6
 10
445.610877
 20
549.934898
 40
2.000000
 50
90.000000
 51
180.000000
  0
ARC
  8
CSLAYER1
  6
CONTINUOUS
 62
     6
 10
542.610877
 20
503.934898
 40
1.000000
 50
0.000000
 51
90.000000
  0
LINE
  8
CSLAYER1
  6
CONTINUOUS
 62
     6
 10
543.610877
 20
503.934898
 11
543.610877
 21
469.934898
  0
ARC
  8
CSLAYER1
  6
CONTINUOUS
 62
     6
 10
542.610877
 20
469.934898
 40
1.000000
 50
270.000000
 51
360.000000
  0
LINE
  8
CSLAYER1
  6
CONTINUOUS
 62
     6
 10
543.610877
 20
476.934898
 11
544.610877
 21
476.934898
  0
LINE
  8
CSLAYER1
  6
CONTINUOUS
 62
     6
 10
544.610877
 20
476.934898
 11
544.610877
 21
496.934898
  0
LINE
  8
CSLAYER1
  6
CONTINUOUS
 62
     6
 10
544.610877
 20
496.934898
 11
543.610877
 21
496.934898
  0
LINE
  8
CSLAYER1
  6
CONTINUOUS
 62
     6
 10
544.610877
 20
495.934898
 11
572.610877
 21
495.934898
  0
LINE
  8
CSLAYER1
  6
CONTINUOUS
 62
     6
 10
572.610877
 20
495.934898
 11
572.610877
 21
477.934898
  0
LINE
  8
CSLAYER1
  6
CONTINUOUS
 62
     6
 10
572.610877
 20
477.934898
 11
544.610877
 21
477.934898
  0
LINE
  8
CSLAYER1
  6
DASHED
 62
     6
 10
547.610877
 20
477.934898
 11
547.610877
 21
480.934898
  0
LINE
  8
CSLAYER1
  6
DASHED
 62
     6
 10
547.610877
 20
480.934898
 11
572.610877
 21
480.934898
  0
ARC
  8
CSLAYER1
  6
CONTINUOUS
 62
     6
 10
464.254181
 20
448.256363
 40
1.810349
 50
16.257399
 51
84.999892
  0
LINE
  8
CSLAYER1
  6
CONTINUOUS
 62
     6
 10
464.411968
 20
450.059833
 11
463.271771
 21
450.159583
  0
ARC
  8
CSLAYER1
  6
CONTINUOUS
 62
     6
 10
463.240169
 20
449.798900
 40
0.362070
 50
84.999865
 51
179.942691
  0
LINE
  8
CSLAYER1
  6
CONTINUOUS
 62
     6
 10
462.878077
 20
450.284525
 11
462.878077
 21
440.146617
  0
ARC
  8
CSLAYER1
  6
CONTINUOUS
 62
     6
 10
462.697087
 20
440.146617
 40
0.181035
 50
-89.999997
 51
0.000005
  0
LINE
  8
CSLAYER1
  6
CONTINUOUS
 62
     6
 10
462.697087
 20
439.965571
 11
461.791912
 21
439.965571
  0
ARC
  8
CSLAYER1
  6
CONTINUOUS
 62
     6
 10
461.791912
 20
440.146617
 40
0.181035
 50
180.000000
 51
270.000003
  0
ARC
  8
CSLAYER1
  6
CONTINUOUS
 62
     6
 10
463.240169
 20
440.632242
 40
0.362070
 50
180.000000
 51
275.000152
  0
LINE
  8
CSLAYER1
  6
CONTINUOUS
 62
     6
 10
463.271771
 20
440.271559
 11
464.411968
 21
440.371308
  0
ARC
  8
CSLAYER1
  6
CONTINUOUS
 62
     6
 10
464.254181
 20
442.174778
 40
1.810349
 50
275.000111
 51
343.742611
  0
ARC
  8
CSLAYER1
  6
CONTINUOUS
 62
     6
 10
453.826334
 20
445.215571
 40
12.672440
 50
-16.257006
 51
16.257016
  0
ARC
  8
CSLAYER1
  6
CONTINUOUS
 62
     6
 10
462.697087
 20
450.284525
 40
0.181035
 50
0.000005
 51
90.000001
  0
LINE
  8
CSLAYER1
  6
CONTINUOUS
 62
     6
 10
462.697087
 20
450.465571
 11
461.791912
 21
450.465571
  0
ARC
  8
CSLAYER1
  6
CONTINUOUS
 62
     6
 10
461.791912
 20
450.284525
 40
0.181035
 50
90.000001
 51
179.942691
  0
LINE
  8
CSLAYER1
  6
CONTINUOUS
 62
     6
 10
462.878077
 20
446.294415
 11
461.610866
 21
445.490869
  0
LINE
  8
CSLAYER1
  6
CONTINUOUS
 62
     6
 10
461.610866
 20
444.585695
 11
462.878077
 21
445.389241
  0
LINE
  8
CSLAYER1
  6
CONTINUOUS
 62
     6
 10
461.610877
 20
434.434898
 11
511.110877
 21
434.434898
  0
ARC
  8
CSLAYER1
  6
CONTINUOUS
 62
     6
 10
542.610877
 20
325.934898
 40
1.000000
 50
0.000000
 51
90.000000
  0
LINE
  8
CSLAYER1
  6
CONTINUOUS
 62
     6
 10
543.610877
 20
325.934898
 11
543.610877
 21
291.934898
  0
ARC
  8
CSLAYER1
  6
CONTINUOUS
 62
     6
 10
542.610877
 20
291.934898
 40
1.000000
 50
270.000000
 51
360.000000
  0
LINE
  8
CSLAYER1
  6
DASHED
 62
     6
 10
475.110877
 20
253.934898
 11
475.110877
 21
238.934898
  0
ARC
  8
CSLAYER1
  6
CONTINUOUS
 62
     6
 10
456.610877
 20
258.934898
 40
5.000000
 50
180.000000
 51
270.000000
  0
ARC
  8
CSLAYER1
  6
CONTINUOUS
 62
     6
 10
470.610877
 20
168.434898
 40
4.500000
 50
0.000000
 51
180.000000
  0
LINE
  8
CSLAYER1
  6
CONTINUOUS
 62
     6
 10
475.110877
 20
168.434898
 11
475.110877
 21
162.434898
  0
ARC
  8
CSLAYER1
  6
CONTINUOUS
 62
     6
 10
470.610877
 20
162.434898
 40
4.500000
 50
180.000000
 51
360.000000
  0
LINE
  8
CSLAYER1
  6
CONTINUOUS
 62
     6
 10
466.110877
 20
162.434898
 11
466.110877
 21
168.434898
  0
LINE
  8
CSLAYER1
  6
CONTINUOUS
 62
     6
 10
466.110877
 20
165.434898
 11
475.110877
 21
165.434898
  0
LINE
  8
CSLAYER1
  6
CONTINUOUS
 62
     6
 10
620.610877
 20
238.934898
 11
655.610877
 21
238.934898
  0
LINE
  8
CSLAYER1
  6
CONTINUOUS
 62
     6
 10
655.610877
 20
238.934898
 11
655.610877
 21
244.436836
  0
ARC
  8
CSLAYER1
  6
CONTINUOUS
 62
     6
 10
653.610877
 20
244.436836
 40
2.000000
 50
0.000000
 51
63.612200
  0
ARC
  8
CSLAYER1
  6
CONTINUOUS
 62
     6
 10
685.610877
 20
308.934898
 40
70.000000
 50
231.786789
 51
243.612200
  0
LINE
  8
CSLAYER1
  6
CONTINUOUS
 62
     6
 10
642.309607
 20
253.934898
 11
622.610877
 21
253.934898
  0
ARC
  8
CSLAYER1
  6
CONTINUOUS
 62
     6
 10
622.610877
 20
251.934898
 40
2.000000
 50
90.000000
 51
180.000000
  0
LINE
  8
CSLAYER1
  6
DASHED
 62
     6
 10
625.610877
 20
253.934898
 11
625.610877
 21
238.934898
  0
LINE
  8
CSLAYER1
  6
CONTINUOUS
 62
     6
 10
620.610877
 20
238.934898
 11
620.610877
 21
308.934898
  0
LINE
  8
CSLAYER1
  6
CONTINUOUS
 62
     6
 10
572.610877
 20
311.434898
 11
550.110877
 21
311.434898
  0
ARC
  8
CSLAYER1
  6
CONTINUOUS
 62
     6
 10
550.110877
 20
308.934898
 40
2.500000
 50
90.000000
 51
270.000000
  0
LINE
  8
CSLAYER1
  6
CONTINUOUS
 62
     6
 10
550.110877
 20
306.434898
 11
572.610877
 21
306.434898
  0
LINE
  8
CSLAYER1
  6
CONTINUOUS
 62
     6
 10
572.610877
 20
299.934898
 11
544.610877
 21
299.934898
  0
LINE
  8
CSLAYER1
  6
CONTINUOUS
 62
     6
 10
544.610877
 20
298.934898
 11
544.610877
 21
318.934898
  0
LINE
  8
CSLAYER1
  6
CONTINUOUS
 62
     6
 10
544.610877
 20
318.934898
 11
543.610877
 21
318.934898
  0
LINE
  8
CSLAYER1
  6
CONTINUOUS
 62
     6
 10
544.610877
 20
317.934898
 11
572.610877
 21
317.934898
  0
LINE
  8
CSLAYER1
  6
CONTINUOUS
 62
     6
 10
572.610877
 20
317.934898
 11
572.610877
 21
299.934898
  0
LINE
  8
CSLAYER1
  6
CONTINUOUS
 62
     6
 10
544.610877
 20
298.934898
 11
543.610877
 21
298.934898
  0
LINE
  8
CSLAYER1
  6
CONTINUOUS
 62
     6
 10
628.610877
 20
261.934898
 11
628.610877
 21
255.934898
  0
ARC
  8
CSLAYER1
  6
CONTINUOUS
 62
     6
 10
626.610877
 20
255.934898
 40
2.000000
 50
270.000000
 51
360.000000
  0
ARC
  8
CSLAYER1
  6
CONTINUOUS
 62
     6
 10
638.610877
 20
255.934898
 40
2.000000
 50
180.000000
 51
270.000000
  0
LINE
  8
CSLAYER1
  6
CONTINUOUS
 62
     6
 10
636.610877
 20
255.934898
 11
636.610877
 21
261.934898
  0
ARC
  8
CSLAYER1
  6
CONTINUOUS
 62
     6
 10
643.891558
 20
267.215599
 40
2.916667
 50
163.398416
 51
196.601577
  0
LINE
  8
CSLAYER1
  6
CONTINUOUS
 62
     6
 10
641.096486
 20
268.048943
 11
642.224871
 21
268.048943
  0
ARC
  8
CSLAYER1
  6
CONTINUOUS
 62
     6
 10
642.224871
 20
268.882243
 40
0.833333
 50
-89.999984
 51
0.000005
  0
LINE
  8
CSLAYER1
  6
CONTINUOUS
 62
     6
 10
643.058214
 20
268.882243
 11
643.058214
 21
270.010715
  0
ARC
  8
CSLAYER1
  6
CONTINUOUS
 62
     6
 10
643.891558
 20
267.215599
 40
2.916667
 50
73.398406
 51
106.601595
  0
LINE
  8
CSLAYER1
  6
CONTINUOUS
 62
     6
 10
644.724902
 20
270.010715
 11
644.724902
 21
268.882243
  0
ARC
  8
CSLAYER1
  6
CONTINUOUS
 62
     6
 10
645.558245
 20
268.882243
 40
0.833333
 50
180.000010
 51
270.000016
  0
LINE
  8
CSLAYER1
  6
CONTINUOUS
 62
     6
 10
645.558245
 20
268.048943
 11
646.686630
 21
268.048943
  0
ARC
  8
CSLAYER1
  6
CONTINUOUS
 62
     6
 10
643.891558
 20
267.215599
 40
2.916667
 50
-16.601562
 51
16.601572
  0
LINE
  8
CSLAYER1
  6
CONTINUOUS
 62
     6
 10
646.686630
 20
266.382256
 11
645.558245
 21
266.382256
  0
ARC
  8
CSLAYER1
  6
CONTINUOUS
 62
     6
 10
645.558245
 20
265.548956
 40
0.833333
 50
90.000001
 51
179.942691
  0
LINE
  8
CSLAYER1
  6
CONTINUOUS
 62
     6
 10
644.724902
 20
265.548956
 11
644.724902
 21
264.420484
  0
ARC
  8
CSLAYER1
  6
CONTINUOUS
 62
     6
 10
643.891558
 20
267.215599
 40
2.916667
 50
253.398422
 51
286.601583
  0
LINE
  8
CSLAYER1
  6
CONTINUOUS
 62
     6
 10
643.058214
 20
264.420484
 11
643.058214
 21
265.548956
  0
ARC
  8
CSLAYER1
  6
CONTINUOUS
 62
     6
 10
642.224871
 20
265.548956
 40
0.833333
 50
0.000005
 51
89.942654
  0
LINE
  8
CSLAYER1
  6
CONTINUOUS
 62
     6
 10
642.224871
 20
266.382256
 11
641.096486
 21
266.382256
  0
CIRCLE
  8
CSLAYER1
  6
CONTINUOUS
 62
     6
 10
643.891577
 20
267.215598
 40
5.250000
  0
LINE
  8
CSLAYER1
  6
DASHED
 62
     6
 10
640.610877
 20
253.934898
 11
640.610877
 21
238.934898
  0
ARC
  8
CSLAYER1
  6
CONTINUOUS
 62
     6
 10
657.610877
 20
241.934898
 40
2.000000
 50
90.000000
 51
180.000000
  0
LINE
  8
CSLAYER1
  6
CONTINUOUS
 62
     6
 10
657.610877
 20
243.934898
 11
713.610877
 21
243.934898
  0
ARC
  8
CSLAYER1
  6
CONTINUOUS
 62
     6
 10
713.610877
 20
241.934898
 40
2.000000
 50
0.000000
 51
90.000000
  0
LINE
  8
CSLAYER1
  6
CONTINUOUS
 62
     6
 10
715.610877
 20
244.436836
 11
715.610877
 21
238.934898
  0
LINE
  8
CSLAYER1
  6
CONTINUOUS
 62
     6
 10
715.610877
 20
238.934898
 11
750.610877
 21
238.934898
  0
LINE
  8
CSLAYER1
  6
CONTINUOUS
 62
     6
 10
750.610877
 20
238.934898
 11
750.610877
 21
308.934898
  0
LINE
  8
CSLAYER1
  6
CONTINUOUS
 62
     6
 10
728.163502
 20
347.859084
 11
728.163502
 21
348.987556
  0
ARC
  8
CSLAYER1
  6
CONTINUOUS
 62
     6
 10
728.996845
 20
348.987556
 40
0.833333
 50
90.000001
 51
179.942691
  0
LINE
  8
CSLAYER1
  6
CONTINUOUS
 62
     6
 10
728.996845
 20
349.820856
 11
730.125230
 21
349.820856
  0
ARC
  8
CSLAYER1
  6
CONTINUOUS
 62
     6
 10
727.330158
 20
350.654200
 40
2.916667
 50
-16.601562
 51
16.601572
  0
LINE
  8
CSLAYER1
  6
CONTINUOUS
 62
     6
 10
730.125230
 20
351.487543
 11
728.996845
 21
351.487543
  0
ARC
  8
CSLAYER1
  6
CONTINUOUS
 62
     6
 10
728.996845
 20
352.320843
 40
0.833333
 50
180.000010
 51
270.000016
  0
LINE
  8
CSLAYER1
  6
CONTINUOUS
 62
     6
 10
728.163502
 20
352.320843
 11
728.163502
 21
353.449315
  0
ARC
  8
CSLAYER1
  6
CONTINUOUS
 62
     6
 10
727.330158
 20
350.654200
 40
2.916667
 50
73.398406
 51
106.601595
  0
LINE
  8
CSLAYER1
  6
CONTINUOUS
 62
     6
 10
726.496815
 20
353.449315
 11
726.496815
 21
352.320843
  0
ARC
  8
CSLAYER1
  6
CONTINUOUS
 62
     6
 10
725.663471
 20
352.320843
 40
0.833333
 50
-89.999984
 51
0.000005
  0
LINE
  8
CSLAYER1
  6
CONTINUOUS
 62
     6
 10
725.663471
 20
351.487543
 11
724.535086
 21
351.487543
  0
ARC
  8
CSLAYER1
  6
CONTINUOUS
 62
     6
 10
727.330158
 20
350.654200
 40
2.916667
 50
163.398416
 51
196.601577
  0
LINE
  8
CSLAYER1
  6
CONTINUOUS
 62
     6
 10
724.535086
 20
349.820856
 11
725.663471
 21
349.820856
  0
ARC
  8
CSLAYER1
  6
CONTINUOUS
 62
     6
 10
725.663471
 20
348.987556
 40
0.833333
 50
0.000005
 51
89.942654
  0
LINE
  8
CSLAYER1
  6
CONTINUOUS
 62
     6
 10
726.496815
 20
348.987556
 11
726.496815
 21
347.859084
  0
ARC
  8
CSLAYER1
  6
CONTINUOUS
 62
     6
 10
727.330158
 20
350.654200
 40
2.916667
 50
253.398422
 51
286.601583
  0
CIRCLE
  8
CSLAYER1
  6
CONTINUOUS
 62
     6
 10
727.330178
 20
350.654198
 40
5.250000
  0
CIRCLE
  8
CSLAYER1
  6
CONTINUOUS
 62
     6
 10
685.610877
 20
308.934898
 40
65.000000
  0
CIRCLE
  8
CSLAYER1
  6
CONTINUOUS
 62
     6
 10
685.610877
 20
308.934898
 40
29.000000
  0
CIRCLE
  8
CSLAYER1
  6
CONTINUOUS
 62
     6
 10
685.610877
 20
308.934898
 40
18.000000
  0
CIRCLE
  8
CSLAYER1
  6
CONTINUOUS
 62
     6
 10
685.610877
 20
308.934898
 40
52.500000
  0
CIRCLE
  8
CSLAYER1
  6
CONTINUOUS
 62
     6
 10
685.610877
 20
308.934898
 40
9.000000
  0
CIRCLE
  8
CSLAYER1
  6
CONTINUOUS
 62
     6
 10
685.610877
 20
308.934898
 40
10.000000
  0
LINE
  8
CSLAYER1
  6
CONTINUOUS
 62
     6
 10
679.610877
 20
311.434898
 11
676.935467
 21
311.434898
  0
LINE
  8
CSLAYER1
  6
CONTINUOUS
 62
     6
 10
679.610877
 20
311.434898
 11
679.610877
 21
306.434898
  0
LINE
  8
CSLAYER1
  6
CONTINUOUS
 62
     6
 10
679.610877
 20
306.434898
 11
676.935467
 21
306.434898
  0
LINE
  8
CSLAYER1
  6
CONTINUOUS
 62
     6
 10
644.724901
 20
347.859084
 11
644.724901
 21
348.987555
  0
ARC
  8
CSLAYER1
  6
CONTINUOUS
 62
     6
 10
645.558245
 20
348.987555
 40
0.833333
 50
90.000001
 51
179.942691
  0
LINE
  8
CSLAYER1
  6
CONTINUOUS
 62
     6
 10
645.558245
 20
349.820855
 11
646.686630
 21
349.820855
  0
ARC
  8
CSLAYER1
  6
CONTINUOUS
 62
     6
 10
643.891558
 20
350.654199
 40
2.916667
 50
-16.601562
 51
16.601572
  0
LINE
  8
CSLAYER1
  6
CONTINUOUS
 62
     6
 10
646.686630
 20
351.487543
 11
645.558245
 21
351.487543
  0
ARC
  8
CSLAYER1
  6
CONTINUOUS
 62
     6
 10
645.558245
 20
352.320843
 40
0.833333
 50
180.000010
 51
270.000016
  0
LINE
  8
CSLAYER1
  6
CONTINUOUS
 62
     6
 10
644.724901
 20
352.320843
 11
644.724901
 21
353.449314
  0
ARC
  8
CSLAYER1
  6
CONTINUOUS
 62
     6
 10
643.891558
 20
350.654199
 40
2.916667
 50
73.398406
 51
106.601595
  0
LINE
  8
CSLAYER1
  6
CONTINUOUS
 62
     6
 10
643.058214
 20
353.449314
 11
643.058214
 21
352.320843
  0
ARC
  8
CSLAYER1
  6
CONTINUOUS
 62
     6
 10
642.224870
 20
352.320843
 40
0.833333
 50
-89.999984
 51
0.000005
  0
LINE
  8
CSLAYER1
  6
CONTINUOUS
 62
     6
 10
642.224870
 20
351.487543
 11
641.096486
 21
351.487543
  0
ARC
  8
CSLAYER1
  6
CONTINUOUS
 62
     6
 10
643.891558
 20
350.654199
 40
2.916667
 50
163.398416
 51
196.601577
  0
LINE
  8
CSLAYER1
  6
CONTINUOUS
 62
     6
 10
641.096486
 20
349.820855
 11
642.224870
 21
349.820855
  0
ARC
  8
CSLAYER1
  6
CONTINUOUS
 62
     6
 10
642.224870
 20
348.987555
 40
0.833333
 50
0.000005
 51
89.942654
  0
LINE
  8
CSLAYER1
  6
CONTINUOUS
 62
     6
 10
643.058214
 20
348.987555
 11
643.058214
 21
347.859084
  0
ARC
  8
CSLAYER1
  6
CONTINUOUS
 62
     6
 10
643.891558
 20
350.654199
 40
2.916667
 50
253.398422
 51
286.601583
  0
CIRCLE
  8
CSLAYER1
  6
CONTINUOUS
 62
     6
 10
643.891577
 20
350.654198
 40
5.250000
  0
LINE
  8
CSLAYER1
  6
CONTINUOUS
 62
     6
 10
726.496814
 20
270.010714
 11
726.496814
 21
268.882243
  0
ARC
  8
CSLAYER1
  6
CONTINUOUS
 62
     6
 10
725.663471
 20
268.882243
 40
0.833333
 50
-89.999984
 51
0.000005
  0
LINE
  8
CSLAYER1
  6
CONTINUOUS
 62
     6
 10
725.663471
 20
268.048942
 11
724.535086
 21
268.048942
  0
ARC
  8
CSLAYER1
  6
CONTINUOUS
 62
     6
 10
727.330158
 20
267.215599
 40
2.916667
 50
163.398416
 51
196.601577
  0
LINE
  8
CSLAYER1
  6
CONTINUOUS
 62
     6
 10
724.535086
 20
266.382255
 11
725.663471
 21
266.382255
  0
ARC
  8
CSLAYER1
  6
CONTINUOUS
 62
     6
 10
725.663471
 20
265.548955
 40
0.833333
 50
0.000005
 51
89.942654
  0
LINE
  8
CSLAYER1
  6
CONTINUOUS
 62
     6
 10
726.496814
 20
265.548955
 11
726.496814
 21
264.420483
  0
ARC
  8
CSLAYER1
  6
CONTINUOUS
 62
     6
 10
727.330158
 20
267.215599
 40
2.916667
 50
253.398422
 51
286.601583
  0
LINE
  8
CSLAYER1
  6
CONTINUOUS
 62
     6
 10
728.163501
 20
264.420483
 11
728.163501
 21
265.548955
  0
ARC
  8
CSLAYER1
  6
CONTINUOUS
 62
     6
 10
728.996845
 20
265.548955
 40
0.833333
 50
90.000001
 51
179.942691
  0
LINE
  8
CSLAYER1
  6
CONTINUOUS
 62
     6
 10
728.996845
 20
266.382255
 11
730.125230
 21
266.382255
  0
ARC
  8
CSLAYER1
  6
CONTINUOUS
 62
     6
 10
727.330158
 20
267.215599
 40
2.916667
 50
-16.601562
 51
16.601572
  0
LINE
  8
CSLAYER1
  6
CONTINUOUS
 62
     6
 10
730.125230
 20
268.048942
 11
728.996845
 21
268.048942
  0
ARC
  8
CSLAYER1
  6
CONTINUOUS
 62
     6
 10
728.996845
 20
268.882243
 40
0.833333
 50
180.000010
 51
270.000016
  0
LINE
  8
CSLAYER1
  6
CONTINUOUS
 62
     6
 10
728.163501
 20
268.882243
 11
728.163501
 21
270.010714
  0
ARC
  8
CSLAYER1
  6
CONTINUOUS
 62
     6
 10
727.330158
 20
267.215599
 40
2.916667
 50
73.398406
 51
106.601595
  0
CIRCLE
  8
CSLAYER1
  6
CONTINUOUS
 62
     6
 10
727.330177
 20
267.215598
 40
5.250000
  0
LINE
  8
CSLAYER1
  6
CONTINUOUS
 62
     6
 10
734.610877
 20
261.934898
 11
734.610877
 21
255.934898
  0
ARC
  8
CSLAYER1
  6
CONTINUOUS
 62
     6
 10
732.610877
 20
255.934898
 40
2.000000
 50
270.000000
 51
360.000000
  0
LINE
  8
CSLAYER1
  6
DASHED
 62
     6
 10
730.610877
 20
253.934898
 11
730.610877
 21
238.934898
  0
LINE
  8
CSLAYER1
  6
DASHED
 62
     6
 10
745.610877
 20
238.934898
 11
745.610877
 21
253.934898
  0
ARC
  8
CSLAYER1
  6
CONTINUOUS
 62
     6
 10
744.610877
 20
255.934898
 40
2.000000
 50
180.000000
 51
270.000000
  0
LINE
  8
CSLAYER1
  6
CONTINUOUS
 62
     6
 10
742.610877
 20
255.934898
 11
742.610877
 21
261.934898
  0
LINE
  8
CSLAYER1
  6
CONTINUOUS
 62
     6
 10
748.610877
 20
253.934898
 11
728.912147
 21
253.934898
  0
ARC
  8
CSLAYER1
  6
CONTINUOUS
 62
     6
 10
685.610877
 20
308.934898
 40
70.000000
 50
296.387800
 51
308.213211
  0
ARC
  8
CSLAYER1
  6
CONTINUOUS
 62
     6
 10
717.610877
 20
244.436836
 40
2.000000
 50
116.387800
 51
180.000000
  0
ARC
  8
CSLAYER1
  6
CONTINUOUS
 62
     6
 10
748.610877
 20
251.934898
 40
2.000000
 50
0.000000
 51
90.000000
  0
LINE
  8
CSLAYER1
  6
CONTINUOUS
 62
     6
 10
572.610877
 20
121.934898
 11
572.610877
 21
103.934898
  0
LINE
  8
CSLAYER1
  6
CONTINUOUS
 62
     6
 10
572.610877
 20
103.934898
 11
544.610877
 21
103.934898
  0
LINE
  8
CSLAYER1
  6
CONTINUOUS
 62
     6
 10
544.610877
 20
102.934898
 11
544.610877
 21
122.934898
  0
LINE
  8
CSLAYER1
  6
CONTINUOUS
 62
     6
 10
544.610877
 20
122.934898
 11
543.610877
 21
122.934898
  0
LINE
  8
CSLAYER1
  6
CONTINUOUS
 62
     6
 10
544.610877
 20
121.934898
 11
572.610877
 21
121.934898
  0
LINE
  8
CSLAYER1
  6
CONTINUOUS
 62
     6
 10
543.610877
 20
129.934898
 11
543.610877
 21
95.934898
  0
ARC
  8
CSLAYER1
  6
CONTINUOUS
 62
     6
 10
542.610877
 20
95.934898
 40
1.000000
 50
270.000000
 51
360.000000
  0
ARC
  8
CSLAYER1
  6
CONTINUOUS
 62
     6
 10
538.610877
 20
87.934898
 40
4.000000
 50
270.000000
 51
360.000000
  0
LINE
  8
CSLAYER1
  6
CONTINUOUS
 62
     6
 10
538.610877
 20
83.934898
 11
519.610877
 21
83.934898
  0
ARC
  8
CSLAYER1
  6
CONTINUOUS
 62
     6
 10
519.610877
 20
79.934898
 40
4.000000
 50
90.000000
 51
151.124426
  0
LINE
  8
CSLAYER1
  6
CONTINUOUS
 62
     6
 10
515.610877
 20
64.934898
 11
515.610877
 21
160.934898
  0
ARC
  8
CSLAYER1
  6
CONTINUOUS
 62
     6
 10
519.610877
 20
145.934898
 40
4.000000
 50
208.875574
 51
270.000000
  0
LINE
  8
CSLAYER1
  6
CONTINUOUS
 62
     6
 10
519.610877
 20
141.934898
 11
538.610877
 21
141.934898
  0
ARC
  8
CSLAYER1
  6
CONTINUOUS
 62
     6
 10
538.610877
 20
137.934898
 40
4.000000
 50
0.000000
 51
90.000000
  0
LINE
  8
CSLAYER1
  6
CONTINUOUS
 62
     6
 10
542.610877
 20
137.934898
 11
542.610877
 21
87.934898
  0
LINE
  8
CSLAYER1
  6
CONTINUOUS
 62
     6
 10
543.610877
 20
102.934898
 11
544.610877
 21
102.934898
  0
ARC
  8
CSLAYER1
  6
CONTINUOUS
 62
     6
 10
542.610877
 20
129.934898
 40
1.000000
 50
0.000000
 51
90.000000
  0
LINE
  8
CSLAYER1
  6
CONTINUOUS
 62
     6
 10
461.610877
 20
142.934898
 11
461.610877
 21
82.934898
  0
LINE
  8
CSLAYER1
  6
CONTINUOUS
 62
     6
 10
453.610877
 20
82.934898
 11
453.610877
 21
142.934898
  0
LINE
  8
CSLAYER1
  6
CONTINUOUS
 62
     6
 10
451.610877
 20
142.934898
 11
451.610877
 21
82.934898
  0
LINE
  8
CSLAYER1
  6
CONTINUOUS
 62
     6
 10
466.110877
 20
63.434898
 11
466.110877
 21
57.434898
  0
ARC
  8
CSLAYER1
  6
CONTINUOUS
 62
     6
 10
470.610877
 20
57.434898
 40
4.500000
 50
180.000000
 51
360.000000
  0
LINE
  8
CSLAYER1
  6
CONTINUOUS
 62
     6
 10
475.110877
 20
57.434898
 11
475.110877
 21
63.434898
  0
ARC
  8
CSLAYER1
  6
CONTINUOUS
 62
     6
 10
470.610877
 20
63.434898
 40
4.500000
 50
0.000000
 51
180.000000
  0
LINE
  8
CSLAYER1
  6
CONTINUOUS
 62
     6
 10
466.110877
 20
60.434898
 11
475.110877
 21
60.434898
  0
CIRCLE
  8
CSLAYER1
  6
CONTINUOUS
 62
     6
 10
178.603028
 20
297.658162
 40
1.363635
  0
CIRCLE
  8
CSLAYER1
  6
CONTINUOUS
 62
     6
 10
165.618779
 20
297.658162
 40
1.363635
  0
CIRCLE
  8
CSLAYER1
  6
CONTINUOUS
 62
     6
 10
172.110908
 20
308.934898
 40
44.000000
  0
CIRCLE
  8
CSLAYER1
  6
CONTINUOUS
 62
     6
 10
172.110908
 20
308.934898
 40
15.000000
  0
ARC
  8
CSLAYER1
  6
CONTINUOUS
 62
     6
 10
165.110908
 20
330.843801
 40
2.000000
 50
287.718932
 51
360.000000
  0
LINE
  8
CSLAYER1
  6
CONTINUOUS
 62
     6
 10
167.110908
 20
330.843801
 11
167.110908
 21
338.934898
  0
ARC
  8
CSLAYER1
  6
CONTINUOUS
 62
     6
 10
165.110908
 20
338.934898
 40
2.000000
 50
0.000000
 51
90.000000
  0
LINE
  8
CSLAYER1
  6
CONTINUOUS
 62
     6
 10
165.110908
 20
340.934898
 11
160.110908
 21
340.934898
  0
ARC
  8
CSLAYER1
  6
CONTINUOUS
 62
     6
 10
160.110908
 20
338.934898
 40
2.000000
 50
90.000000
 51
180.000000
  0
LINE
  8
CSLAYER1
  6
CONTINUOUS
 62
     6
 10
158.110908
 20
338.934898
 11
158.110908
 21
328.556315
  0
ARC
  8
CSLAYER1
  6
CONTINUOUS
 62
     6
 10
160.110908
 20
328.556315
 40
2.000000
 50
180.000000
 51
301.448981
  0
ARC
  8
CSLAYER1
  6
CONTINUOUS
 62
     6
 10
172.110908
 20
308.934898
 40
21.000000
 50
107.718932
 51
121.448981
  0
LINE
  8
CSLAYER1
  6
CONTINUOUS
 62
     6
 10
177.110908
 20
330.843801
 11
177.110908
 21
338.934898
  0
ARC
  8
CSLAYER1
  6
CONTINUOUS
 62
     6
 10
179.110908
 20
338.934898
 40
2.000000
 50
90.000000
 51
180.000000
  0
LINE
  8
CSLAYER1
  6
CONTINUOUS
 62
     6
 10
179.110908
 20
340.934898
 11
184.110908
 21
340.934898
  0
ARC
  8
CSLAYER1
  6
CONTINUOUS
 62
     6
 10
184.110908
 20
338.934898
 40
2.000000
 50
0.000000
 51
90.000000
  0
LINE
  8
CSLAYER1
  6
CONTINUOUS
 62
     6
 10
186.110908
 20
338.934898
 11
186.110908
 21
328.556315
  0
ARC
  8
CSLAYER1
  6
CONTINUOUS
 62
     6
 10
184.110908
 20
328.556315
 40
2.000000
 50
238.551019
 51
360.000000
  0
ARC
  8
CSLAYER1
  6
CONTINUOUS
 62
     6
 10
172.110908
 20
308.934898
 40
21.000000
 50
58.551019
 51
72.281068
  0
ARC
  8
CSLAYER1
  6
CONTINUOUS
 62
     6
 10
179.110908
 20
330.843801
 40
2.000000
 50
180.000000
 51
252.281068
  0
LINE
  8
CSLAYER1
  6
CONTINUOUS
 62
     6
 10
151.110908
 20
335.316710
 11
151.110908
 21
321.934898
  0
ARC
  8
CSLAYER1
  6
CONTINUOUS
 62
     6
 10
148.110908
 20
321.934898
 40
3.000000
 50
270.000000
 51
360.000000
  0
LINE
  8
CSLAYER1
  6
CONTINUOUS
 62
     6
 10
148.110908
 20
318.934898
 11
142.110908
 21
318.934898
  0
ARC
  8
CSLAYER1
  6
CONTINUOUS
 62
     6
 10
142.110908
 20
320.934898
 40
2.000000
 50
180.000000
 51
270.000000
  0
LINE
  8
CSLAYER1
  6
CONTINUOUS
 62
     6
 10
140.110908
 20
320.934898
 11
140.110908
 21
327.509074
  0
ARC
  8
CSLAYER1
  6
CONTINUOUS
 62
     6
 10
172.110908
 20
308.934898
 40
37.000000
 50
131.082333
 51
149.867278
  0
ARC
  8
CSLAYER1
  6
CONTINUOUS
 62
     6
 10
149.110908
 20
335.316710
 40
2.000000
 50
0.000000
 51
131.082333
  0
CIRCLE
  8
CSLAYER1
  6
CONTINUOUS
 62
     6
 10
130.391608
 20
350.654198
 40
2.500000
  0
CIRCLE
  8
CSLAYER1
  6
CONTINUOUS
 62
     6
 10
130.391608
 20
267.215598
 40
2.500000
  0
CIRCLE
  8
CSLAYER1
  6
CONTINUOUS
 62
     6
 10
130.391608
 20
267.215598
 40
4.000000
  0
ARC
  8
CSLAYER1
  6
CONTINUOUS
 62
     6
 10
109.110908
 20
251.934898
 40
2.000000
 50
90.000000
 51
180.000000
  0
LINE
  8
CSLAYER1
  6
CENTER
 62
     3
 10
388.110877
 20
536.434898
 11
373.110877
 21
536.434898
  0
LINE
  8
CSLAYER1
  6
CENTER
 62
     3
 10
388.110877
 20
542.434898
 11
373.110877
 21
542.434898
  0
LINE
  8
CSLAYER1
  6
CENTER
 62
     3
 10
478.110877
 20
542.434898
 11
463.110877
 21
542.434898
  0
LINE
  8
CSLAYER1
  6
CENTER
 62
     3
 10
388.110877
 20
431.434898
 11
373.110877
 21
431.434898
  0
LINE
  8
CSLAYER1
  6
CENTER
 62
     3
 10
388.110877
 20
437.434898
 11
373.110877
 21
437.434898
  0
LINE
  8
CSLAYER1
  6
CENTER
 62
     3
 10
478.110877
 20
431.434898
 11
463.110877
 21
431.434898
  0
LINE
  8
CSLAYER1
  6
CONTINUOUS
 62
     6
 10
191.110935
 20
253.934898
 11
191.110935
 21
260.934898
  0
LINE
  8
CSLAYER1
  6
CONTINUOUS
 62
     6
 10
197.110935
 20
253.934898
 11
197.110935
 21
260.934898
  0
LINE
  8
CSLAYER1
  6
CONTINUOUS
 62
     6
 10
153.110882
 20
253.934898
 11
153.110882
 21
260.934898
  0
LINE
  8
CSLAYER1
  6
CONTINUOUS
 62
     6
 10
147.110882
 20
253.934898
 11
147.110882
 21
260.934898
  0
ARC
  8
CSLAYER1
  6
CONTINUOUS
 62
     6
 10
511.110877
 20
160.934898
 40
4.500000
 50
0.000000
 51
90.000000
  0
ARC
  8
CSLAYER1
  6
CONTINUOUS
 62
     6
 10
511.110877
 20
64.934898
 40
4.500000
 50
270.000000
 51
360.000000
  0
LINE
  8
CSLAYER1
  6
CONTINUOUS
 62
     6
 10
490.610877
 20
165.434898
 11
511.110877
 21
165.434898
  0
LINE
  8
CSLAYER1
  6
CONTINUOUS
 62
     6
 10
490.610877
 20
60.434898
 11
511.110877
 21
60.434898
  0
ENDSEC
  0
EOF
