  0
SECTION
  2
HEADER
  9
$ACADVER
  1
AC1006
  9
$INSBASE
 10
0.000000
 20
0.000000
 30
0.0
  9
$EXTMIN
 10
0.000000
 20
0.000000
  9
$EXTMAX
 10
594.000000
 20
420.000000
  9
$LIMMIN
 10
0.000000
 20
0.000000
  9
$LIMMAX
 10
594.000000
 20
420.000000
  9
$VIEWCTR
 10
297.000000
 20
210.000000
  9
$VIEWSIZE
 40
420.000000
  9
$SNAPMODE
 70
     0
  9
$SNAPUNIT
 10
1.0
 20
1.0
  9
$SNAPBASE
 10
0.0
 20
0.0
  9
$SNAPANG
 50
0.0
  9
$SNAPSTYLE
 70
     0
  9
$SNAPISOPAIR
 70
     0
  9
$GRIDMODE
 70
     0
  9
$GRIDUNIT
 10
0.0
 20
0.0
  9
$ORTHOMODE
 70
     0
  9
$REGENMODE
 70
     1
  9
$FILLMODE
 70
     1
  9
$QTEXTMODE
 70
     0
  9
$DRAGMODE
 70
     2
  9
$LTSCALE
 40
15.000000
  9
$OSMODE
 70
     0
  9
$ATTMODE
 70
     1
  9
$TEXTSIZE
 40
0.2
  9
$TRACEWID
 40
0.05
  9
$TEXTSTYLE
  7
STANDARD
  9
$CLAYER
  8
CSLAYER1
  9
$CELTYPE
  6
BYLAYER
  9
$CECOLOR
 62
   256
  9
$DIMSCALE
 40
1.0
  9
$DIMASZ
 40
0.18
  9
$DIMEXO
 40
0.0625
  9
$DIMDLI
 40
0.38
  9
$DIMRND
 40
0.0
  9
$DIMDLE
 40
0.0
  9
$DIMEXE
 40
0.18
  9
$DIMTP
 40
0.0
  9
$DIMTM
 40
0.0
  9
$DIMTXT
 40
0.18
  9
$DIMCEN
 40
0.09
  9
$DIMTSZ
 40
0.0
  9
$DIMTOL
 70
     0
  9
$DIMLIM
 70
     0
  9
$DIMTIH
 70
     1
  9
$DIMTOH
 70
     1
  9
$DIMSE1
 70
     0
  9
$DIMSE2
 70
     0
  9
$DIMTAD
 70
     0
  9
$DIMZIN
 70
     0
  9
$DIMBLK
  1

  9
$LUNITS
 70
     2
  9
$LUPREC
 70
     4
  9
$AXISMODE
 70
     0
  9
$AXISUNIT
 10
0.0
 20
0.0
  9
$SKETCHINC
 40
0.1
  9
$FILLETRAD
 40
0.0
  9
$AUNITS
 70
     0
  9
$AUPREC
 70
     0
  9
$MENU
  1
ACAD
  9
$ELEVATION
 40
0.0
  9
$THICKNESS
 40
0.0
  9
$VIEWDIR
 10
0.0
 20
0.0
 30
1.0
  9
$LIMCHECK
 70
     0
  9
$BLIPMODE
 70
     1
  9
$CHAMFERA
 40
0.0
  9
$CHAMFERB
 40
0.0
  9
$FASTZOOM
 70
     1
  9
$SKPOLY
 70
     0
  9
$TDCREATE
 40
0.000000
  9
$TDUPDATE
 40
0.000000
  9
$TDINDWG
 40
0.0
  9
$TDUSRTIMER
 40
0.0
  9
$USRTIMER
 70
     1
  9
$ANGBASE
 50
0.0
  9
$ANGDIR
 70
     0
  9
$PDMODE
 70
     0
  9
$PDSIZE
 40
0.0
  9
$PLINEWID
 40
0.0
  9
$COORDS
 70
     0
  9
$USERI1
 70
     0
  9
$USERI2
 70
     0
  9
$USERI3
 70
     0
  9
$USERI4
 70
     0
  9
$USERI5
 70
     0
  9
$USERR1
 40
0.0
  9
$USERR2
 40
0.0
  9
$USERR3
 40
0.0
  9
$USERR4
 40
0.0
  9
$USERR5
 40
0.0
  0
ENDSEC
  0
SECTION
  2
TABLES
  0
TABLE
  2
LTYPE
 70
     9
  0
LTYPE
  2
CONTINUOUS
 70
    64
  3
Solid line
 72
    65
 73
     0
 40
0.0
  0
LTYPE
  2
DASHED
 70
    64
  3
__ __ __ __ __ __ __ __ __ __ __ __ __ __ __
 72
    65
 73
     2
 40
0.75
 49
0.5
 49
-0.25
  0
LTYPE
  2
HIDDEN
 70
    64
  3
_ _ _ _ _ _ _ _ _ _ _ _ _ _ _ _ _ _ _ _ _ _ _
 72
    65
 73
     2
 40
0.375
 49
0.25
 49
-0.125
  0
LTYPE
  2
DOT
 70
    64
  3
...............................................
 72
    65
 73
     2
 40
0.25
 49
0.0
 49
-0.25
  0
LTYPE
  2
DASHDOT
 70
    64
  3
__ . __ . __ . __ . __ . __ . __ . __ . __ . __
 72
    65
 73
     4
 40
1.0
 49
0.5
 49
-0.25
 49
0.0
 49
-0.25
  0
LTYPE
  2
DIVIDE
 70
    64
  3
__ . . __ . . __ . . __ . . __ . . __ . . __
 72
    65
 73
     6
 40
1.25
 49
0.5
 49
-0.25
 49
0.0
 49
-0.25
 49
0.0
 49
-0.25
  0
LTYPE
  2
CENTER
 70
    64
  3
____ _ ____ _ ____ _ ____ _ ____ _ ____ _ ____ 
 72
    65
 73
     4
 40
2.0
 49
1.25
 49
-0.25
 49
0.25
 49
-0.25
  0
LTYPE
  2
PHANTOM
 70
    64
  3
______  __  __  ______  __  __  ______  __  __ 
 72
    65
 73
     6
 40
2.5
 49
1.25
 49
-0.25
 49
0.25
 49
-0.25
 49
0.25
 49
-0.25
  0
LTYPE
  2
BORDER
 70
    64
  3
__ __ . __ __ . __ __ . __ __ . __ __ . __ __ .
 72
    65
 73
     6
 40
1.75
 49
0.5
 49
-0.25
 49
0.5
 49
-0.25
 49
0.0
 49
-0.25
  0
ENDTAB
  0
TABLE
  2
LAYER
 70
    16
  0
LAYER
  2
CSLAYER1
 70
    64
 62
     7
  6
CONTINUOUS
  0
LAYER
  2
CSLAYER2
 70
    64
 62
     7
  6
CONTINUOUS
  0
LAYER
  2
CSLAYER3
 70
    64
 62
     7
  6
CONTINUOUS
  0
LAYER
  2
CSLAYER4
 70
    64
 62
     7
  6
CONTINUOUS
  0
LAYER
  2
CSLAYER5
 70
    64
 62
     7
  6
CONTINUOUS
  0
LAYER
  2
CSLAYER6
 70
    64
 62
     7
  6
CONTINUOUS
  0
LAYER
  2
CSLAYER7
 70
    64
 62
     7
  6
CONTINUOUS
  0
LAYER
  2
CSLAYER8
 70
    64
 62
     7
  6
CONTINUOUS
  0
LAYER
  2
CSLAYER9
 70
    64
 62
     7
  6
CONTINUOUS
  0
LAYER
  2
CSLAYER10
 70
    64
 62
     7
  6
CONTINUOUS
  0
LAYER
  2
CSLAYER11
 70
    64
 62
     7
  6
CONTINUOUS
  0
LAYER
  2
CSLAYER12
 70
    64
 62
     7
  6
CONTINUOUS
  0
LAYER
  2
CSLAYER13
 70
    64
 62
     7
  6
CONTINUOUS
  0
LAYER
  2
CSLAYER14
 70
    64
 62
     7
  6
CONTINUOUS
  0
LAYER
  2
CSLAYER15
 70
    64
 62
     7
  6
CONTINUOUS
  0
LAYER
  2
CSLAYER16
 70
    64
 62
     7
  6
CONTINUOUS
  0
ENDTAB
  0
TABLE
  2
STYLE
 70
     1
  0
STYLE
  2
JX_FONT
 70
     0
 40
1.0
 41
1.0
 50
0.0
 71
     0
 42
1.0
  3
monotxt
  4
bigfont
  0
ENDTAB
  0
TABLE
  2
VIEW
 70
     0
  0
ENDTAB
  0
ENDSEC
  0
SECTION
  2
BLOCKS
  0
ENDSEC
  0
SECTION
  2
ENTITIES
  0
LINE
  8
CSLAYER1
  6
CENTER
 62
     3
 10
54.073180
 20
151.851894
 11
59.072030
 21
160.510218
  0
ARC
  8
CSLAYER1
  6
CONTINUOUS
 62
     3
 10
56.572566
 20
156.181079
 40
2.000000
 50
8.571429
 51
33.212694
  0
ARC
  8
CSLAYER1
  6
CONTINUOUS
 62
     3
 10
56.572566
 20
156.181079
 40
2.000000
 50
317.142857
 51
342.857143
  0
ARC
  8
CSLAYER1
  6
CONTINUOUS
 62
     3
 10
56.572566
 20
156.181079
 40
2.000000
 50
265.714286
 51
291.428571
  0
ARC
  8
CSLAYER1
  6
CONTINUOUS
 62
     3
 10
56.572566
 20
156.181079
 40
2.000000
 50
214.285714
 51
240.000000
  0
ARC
  8
CSLAYER1
  6
CONTINUOUS
 62
     3
 10
56.572566
 20
156.181079
 40
2.000000
 50
162.857143
 51
188.571429
  0
ARC
  8
CSLAYER1
  6
CENTER
 62
     3
 10
86.072567
 20
207.276577
 40
59.000000
 50
235.144105
 51
244.855979
  0
LINE
  8
CSLAYER1
  6
CENTER
 62
     3
 10
53.072567
 20
164.776577
 11
34.072567
 21
164.776577
  0
LINE
  8
CSLAYER1
  6
CENTER
 62
     3
 10
43.572567
 20
174.276577
 11
43.572567
 21
155.276577
  0
ARC
  8
CSLAYER1
  6
CENTER
 62
     3
 10
86.072545
 20
207.276661
 40
59.000000
 50
260.277211
 51
279.722833
  0
LINE
  8
CSLAYER1
  6
CENTER
 62
     3
 10
86.072567
 20
138.276546
 11
86.072567
 21
276.276607
  0
ARC
  8
CSLAYER1
  6
CENTER
 62
     3
 10
86.072590
 20
207.276493
 40
59.000000
 50
80.277211
 51
99.722833
  0
LINE
  8
CSLAYER1
  6
CENTER
 62
     3
 10
53.072567
 20
249.776577
 11
34.072567
 21
249.776577
  0
ARC
  8
CSLAYER1
  6
CENTER
 62
     3
 10
86.072567
 20
207.276577
 40
59.000000
 50
145.144105
 51
154.855979
  0
ARC
  8
CSLAYER1
  6
CONTINUOUS
 62
     3
 10
34.977070
 20
236.776578
 40
2.000000
 50
227.142857
 51
252.857143
  0
ARC
  8
CSLAYER1
  6
CONTINUOUS
 62
     3
 10
34.977070
 20
236.776578
 40
2.000000
 50
175.714286
 51
201.428571
  0
ARC
  8
CSLAYER1
  6
CONTINUOUS
 62
     3
 10
34.977070
 20
236.776578
 40
2.000000
 50
124.285714
 51
150.000000
  0
ARC
  8
CSLAYER1
  6
CONTINUOUS
 62
     3
 10
34.977070
 20
236.776578
 40
2.000000
 50
72.857143
 51
98.571429
  0
ARC
  8
CSLAYER1
  6
CONTINUOUS
 62
     3
 10
34.977070
 20
236.776578
 40
2.000000
 50
278.571429
 51
303.212694
  0
LINE
  8
CSLAYER1
  6
CENTER
 62
     3
 10
39.306208
 20
234.277114
 11
30.647885
 21
239.275964
  0
LINE
  8
CSLAYER1
  6
CENTER
 62
     3
 10
43.572567
 20
240.276577
 11
43.572567
 21
259.276577
  0
ARC
  8
CSLAYER1
  6
CENTER
 62
     3
 10
86.072651
 20
207.276599
 40
59.000000
 50
170.277211
 51
189.722833
  0
LINE
  8
CSLAYER1
  6
CENTER
 62
     3
 10
17.072537
 20
207.276577
 11
156.072582
 21
207.276577
  0
LINE
  8
CSLAYER1
  6
CENTER
 62
     3
 10
161.072582
 20
207.276577
 11
443.072582
 21
207.276577
  0
LINE
  8
CSLAYER1
  6
CENTER
 62
     3
 10
344.072582
 20
148.276661
 11
312.072582
 21
148.276661
  0
LINE
  8
CSLAYER1
  6
CENTER
 62
     3
 10
312.072582
 20
131.276493
 11
344.072582
 21
131.276493
  0
LINE
  8
CSLAYER1
  6
CENTER
 62
     3
 10
317.072643
 20
113.995877
 11
297.184746
 21
113.995877
  0
LINE
  8
CSLAYER1
  6
CENTER
 62
     3
 10
297.184746
 20
165.557277
 11
317.072643
 21
165.557277
  0
LINE
  8
CSLAYER1
  6
CENTER
 62
     3
 10
317.072643
 20
248.995877
 11
297.184746
 21
248.995877
  0
LINE
  8
CSLAYER1
  6
CENTER
 62
     3
 10
312.072582
 20
266.276493
 11
344.072582
 21
266.276493
  0
LINE
  8
CSLAYER1
  6
CENTER
 62
     3
 10
344.072582
 20
283.276661
 11
312.072582
 21
283.276661
  0
LINE
  8
CSLAYER1
  6
CENTER
 62
     3
 10
317.072643
 20
300.557277
 11
297.184746
 21
300.557277
  0
ARC
  8
CSLAYER1
  6
CONTINUOUS
 62
     3
 10
281.072582
 20
318.776577
 40
2.000000
 50
270.000000
 51
360.000000
  0
LINE
  8
CSLAYER1
  6
CONTINUOUS
 62
     3
 10
283.072582
 20
318.776577
 11
283.072582
 21
365.776577
  0
ARC
  8
CSLAYER1
  6
CONTINUOUS
 62
     3
 10
281.072582
 20
365.776577
 40
2.000000
 50
0.000000
 51
90.000000
  0
LINE
  8
CSLAYER1
  6
CONTINUOUS
 62
     3
 10
281.072582
 20
367.776577
 11
253.072582
 21
367.776577
  0
ARC
  8
CSLAYER1
  6
CONTINUOUS
 62
     3
 10
253.072582
 20
365.776577
 40
2.000000
 50
90.000000
 51
180.000000
  0
LINE
  8
CSLAYER1
  6
CONTINUOUS
 62
     3
 10
251.072582
 20
365.776577
 11
251.072582
 21
318.776577
  0
ARC
  8
CSLAYER1
  6
CONTINUOUS
 62
     3
 10
253.072582
 20
318.776577
 40
2.000000
 50
180.000000
 51
270.000000
  0
LINE
  8
CSLAYER1
  6
CONTINUOUS
 62
     3
 10
253.072582
 20
316.776577
 11
281.072582
 21
316.776577
  0
LINE
  8
CSLAYER1
  6
CENTER
 62
     3
 10
198.072552
 20
375.614010
 11
198.072552
 21
394.220821
  0
LINE
  8
CSLAYER1
  6
CENTER
 62
     3
 10
161.072582
 20
342.276577
 11
443.072582
 21
342.276577
  0
LINE
  8
CSLAYER1
  6
CENTER
 62
     3
 10
344.072582
 20
401.276493
 11
312.072582
 21
401.276493
  0
LINE
  8
CSLAYER1
  6
CENTER
 62
     3
 10
317.072643
 20
383.995877
 11
297.184746
 21
383.995877
  0
LINE
  8
CSLAYER1
  6
CENTER
 62
     3
 10
198.072552
 20
308.827633
 11
198.072552
 21
290.220821
  0
LINE
  8
CSLAYER1
  6
CENTER
 62
     3
 10
198.072582
 20
239.276577
 11
198.072582
 21
175.276577
  0
LINE
  8
CSLAYER1
  6
CENTER
 62
     3
 10
193.072582
 20
170.276577
 11
193.072582
 21
159.576564
  0
LINE
  8
CSLAYER1
  6
CENTER
 62
     3
 10
198.072582
 20
126.276561
 11
198.072582
 21
103.669750
  0
LINE
  8
CSLAYER1
  6
CENTER
 62
     3
 10
193.072582
 20
93.276577
 11
193.072582
 21
51.276577
  0
LINE
  8
CSLAYER1
  6
CENTER
 62
     3
 10
187.322589
 20
57.276577
 11
198.822589
 21
57.276577
  0
LINE
  8
CSLAYER1
  6
CENTER
 62
     3
 10
187.072582
 20
62.526539
 11
187.072582
 21
82.026539
  0
LINE
  8
CSLAYER1
  6
CENTER
 62
     3
 10
187.322589
 20
87.276577
 11
198.822589
 21
87.276577
  0
LINE
  8
CSLAYER1
  6
CENTER
 62
     3
 10
161.072582
 20
72.276577
 11
443.072582
 21
72.276577
  0
LINE
  8
CSLAYER1
  6
CENTER
 62
     3
 10
344.072582
 20
13.276661
 11
312.072582
 21
13.276661
  0
LINE
  8
CSLAYER1
  6
CENTER
 62
     3
 10
317.072643
 20
30.557277
 11
297.184746
 21
30.557277
  0
LINE
  8
CSLAYER1
  6
CENTER
 62
     3
 10
198.072582
 20
40.883373
 11
198.072582
 21
18.276561
  0
LINE
  8
CSLAYER1
  6
CENTER
 62
     3
 10
128.572567
 20
155.276577
 11
128.572567
 21
174.276577
  0
ARC
  8
CSLAYER1
  6
CENTER
 62
     3
 10
86.072567
 20
207.276577
 40
59.000000
 50
325.144105
 51
334.855979
  0
ARC
  8
CSLAYER1
  6
CONTINUOUS
 62
     3
 10
137.168064
 20
177.776575
 40
2.000000
 50
47.142857
 51
72.857143
  0
ARC
  8
CSLAYER1
  6
CONTINUOUS
 62
     3
 10
137.168064
 20
177.776575
 40
2.000000
 50
-4.285714
 51
21.428571
  0
ARC
  8
CSLAYER1
  6
CONTINUOUS
 62
     3
 10
137.168064
 20
177.776575
 40
2.000000
 50
304.285714
 51
330.000000
  0
ARC
  8
CSLAYER1
  6
CONTINUOUS
 62
     3
 10
137.168064
 20
177.776575
 40
2.000000
 50
252.857143
 51
278.571429
  0
ARC
  8
CSLAYER1
  6
CONTINUOUS
 62
     3
 10
137.168064
 20
177.776575
 40
2.000000
 50
98.571429
 51
123.212694
  0
LINE
  8
CSLAYER1
  6
CENTER
 62
     3
 10
132.838926
 20
180.276040
 11
141.497250
 21
175.277189
  0
LINE
  8
CSLAYER1
  6
CENTER
 62
     3
 10
138.072567
 20
164.776577
 11
119.072567
 21
164.776577
  0
ARC
  8
CSLAYER1
  6
CENTER
 62
     3
 10
86.072483
 20
207.276554
 40
59.000000
 50
-9.722789
 51
9.722833
  0
LINE
  8
CSLAYER1
  6
CENTER
 62
     3
 10
128.572567
 20
240.276577
 11
128.572567
 21
259.276577
  0
ARC
  8
CSLAYER1
  6
CENTER
 62
     3
 10
86.072567
 20
207.276577
 40
59.000000
 50
55.144105
 51
64.855979
  0
ARC
  8
CSLAYER1
  6
CONTINUOUS
 62
     3
 10
115.572569
 20
258.372074
 40
2.000000
 50
137.142857
 51
162.857143
  0
ARC
  8
CSLAYER1
  6
CONTINUOUS
 62
     3
 10
115.572569
 20
258.372074
 40
2.000000
 50
85.714286
 51
111.428571
  0
ARC
  8
CSLAYER1
  6
CONTINUOUS
 62
     3
 10
115.572569
 20
258.372074
 40
2.000000
 50
34.285714
 51
60.000000
  0
ARC
  8
CSLAYER1
  6
CONTINUOUS
 62
     3
 10
115.572569
 20
258.372074
 40
2.000000
 50
-17.142857
 51
8.571429
  0
ARC
  8
CSLAYER1
  6
CONTINUOUS
 62
     3
 10
115.572569
 20
258.372074
 40
2.000000
 50
188.571429
 51
213.212694
  0
LINE
  8
CSLAYER1
  6
CENTER
 62
     3
 10
113.072805
 20
254.042417
 11
118.071955
 21
262.701259
  0
LINE
  8
CSLAYER1
  6
CENTER
 62
     3
 10
119.072567
 20
249.776577
 11
138.072567
 21
249.776577
  0
LINE
  8
CSLAYER1
  6
CONTINUOUS
 62
     3
 10
251.072552
 20
252.276577
 11
251.072552
 21
245.682341
  0
ARC
  8
CSLAYER1
  6
CONTINUOUS
 62
     3
 10
253.072552
 20
245.682341
 40
2.000000
 50
180.000005
 51
270.000001
  0
LINE
  8
CSLAYER1
  6
CONTINUOUS
 62
     3
 10
253.072552
 20
243.682341
 11
281.072552
 21
243.682311
  0
ARC
  8
CSLAYER1
  6
CONTINUOUS
 62
     3
 10
281.072552
 20
245.682311
 40
2.000000
 50
270.000001
 51
359.942691
  0
LINE
  8
CSLAYER1
  6
CONTINUOUS
 62
     3
 10
283.072552
 20
245.682311
 11
283.072552
 21
252.276577
  0
LINE
  8
CSLAYER1
  6
CENTER
 62
     3
 10
448.072582
 20
207.276577
 11
589.072582
 21
207.276577
  0
ARC
  8
CSLAYER1
  6
CENTER
 62
     3
 10
518.072498
 20
207.276599
 40
59.000000
 50
-9.722833
 51
9.722789
  0
ARC
  8
CSLAYER1
  6
CENTER
 62
     3
 10
518.072582
 20
207.276577
 40
59.000000
 50
20.489321
 51
40.680781
  0
LINE
  8
CSLAYER1
  6
CENTER
 62
     3
 10
560.420849
 20
231.726345
 11
576.962308
 21
241.276581
  0
ARC
  8
CSLAYER1
  6
CENTER
 62
     3
 10
518.072560
 20
207.276493
 40
59.000000
 50
80.277167
 51
99.722789
  0
ARC
  8
CSLAYER1
  6
CENTER
 62
     3
 10
518.072582
 20
207.276577
 40
59.000000
 50
110.489347
 51
130.680780
  0
LINE
  8
CSLAYER1
  6
CENTER
 62
     3
 10
493.622814
 20
249.624843
 11
484.072644
 21
266.166339
  0
LINE
  8
CSLAYER1
  6
CENTER
 62
     3
 10
518.072582
 20
278.276577
 11
518.072582
 21
136.276577
  0
ARC
  8
CSLAYER1
  6
CENTER
 62
     3
 10
518.072605
 20
207.276661
 40
59.000000
 50
260.277167
 51
279.722789
  0
ARC
  8
CSLAYER1
  6
CENTER
 62
     3
 10
518.072582
 20
207.276577
 40
59.000000
 50
290.489339
 51
310.680771
  0
LINE
  8
CSLAYER1
  6
CENTER
 62
     3
 10
542.522412
 20
164.928310
 11
552.072591
 21
148.386854
  0
ARC
  8
CSLAYER1
  6
CENTER
 62
     3
 10
518.072582
 20
207.276577
 40
59.000000
 50
200.489343
 51
220.680776
  0
ARC
  8
CSLAYER1
  6
CENTER
 62
     3
 10
518.072667
 20
207.276554
 40
59.000000
 50
170.277167
 51
189.722789
  0
LINE
  8
CSLAYER1
  6
CENTER
 62
     3
 10
475.724316
 20
182.826748
 11
459.182874
 21
173.276544
  0
TEXT
  8
CSLAYER1
 62
     3
 10
265.129333
 20
347.526581
 40
3.500000
 41
1.125000
  1
N P
 50
-90.000000
 51
10.000000
  7
JX_FONT
 72
     5
 11
265.129333
 21
337.026581
  0
LINE
  8
CSLAYER1
  6
CONTINUOUS
 62
     6
 10
81.184314
 20
139.666395
 11
82.945235
 21
143.097898
  0
LINE
  8
CSLAYER1
  6
CONTINUOUS
 62
     6
 10
82.349469
 20
143.399708
 11
80.492239
 21
140.138043
  0
LINE
  8
CSLAYER1
  6
CONTINUOUS
 62
     6
 10
81.971033
 20
139.379180
 11
83.537821
 21
142.789890
  0
LINE
  8
CSLAYER1
  6
CONTINUOUS
 62
     6
 10
84.054374
 20
142.521401
 11
81.836097
 21
143.674394
  0
ARC
  8
CSLAYER1
  6
CONTINUOUS
 62
     6
 10
68.164668
 20
150.780283
 40
15.407880
 50
332.536225
 51
359.942687
  0
LINE
  8
CSLAYER1
  6
CONTINUOUS
 62
     6
 10
83.572541
 20
150.780340
 11
83.572541
 21
152.227154
  0
ARC
  8
CSLAYER1
  6
CONTINUOUS
 62
     6
 10
84.197543
 20
151.144612
 40
1.250008
 50
60.000345
 51
120.000345
  0
ARC
  8
CSLAYER1
  6
CONTINUOUS
 62
     6
 10
84.197530
 20
153.309689
 40
1.250008
 50
240.000345
 51
300.000345
  0
ARC
  8
CSLAYER1
  6
CONTINUOUS
 62
     6
 10
85.447551
 20
151.144619
 40
1.250008
 50
60.000345
 51
120.000345
  0
ARC
  8
CSLAYER1
  6
CONTINUOUS
 62
     6
 10
86.697566
 20
153.309689
 40
1.250008
 50
240.000345
 51
300.000345
  0
ARC
  8
CSLAYER1
  6
CONTINUOUS
 62
     6
 10
86.697579
 20
151.144612
 40
1.250008
 50
60.000345
 51
120.000345
  0
LINE
  8
CSLAYER1
  6
CONTINUOUS
 62
     6
 10
86.072568
 20
152.227147
 11
86.072538
 21
150.762370
  0
ARC
  8
CSLAYER1
  6
CONTINUOUS
 62
     6
 10
68.164668
 20
150.780283
 40
17.907879
 50
332.536225
 51
359.942687
  0
ARC
  8
CSLAYER1
  6
CONTINUOUS
 62
     6
 10
86.072567
 20
148.276546
 40
3.250000
 50
253.807353
 51
286.192965
  0
ARC
  8
CSLAYER1
  6
CONTINUOUS
 62
     6
 10
86.072567
 20
148.276546
 40
3.250000
 50
-23.627180
 51
46.265189
  0
ARC
  8
CSLAYER1
  6
CONTINUOUS
 62
     6
 10
103.980466
 20
150.780283
 40
15.407880
 50
179.999963
 51
207.463892
  0
LINE
  8
CSLAYER1
  6
CONTINUOUS
 62
     6
 10
90.309057
 20
143.674356
 11
88.090780
 21
142.521401
  0
ARC
  8
CSLAYER1
  6
CONTINUOUS
 62
     6
 10
103.980466
 20
150.780340
 40
17.907879
 50
180.000020
 51
207.463892
  0
ARC
  8
CSLAYER1
  6
CONTINUOUS
 62
     6
 10
87.947587
 20
151.144619
 40
1.250008
 50
60.000345
 51
120.000345
  0
LINE
  8
CSLAYER1
  6
CONTINUOUS
 62
     6
 10
88.572595
 20
152.227154
 11
88.572595
 21
150.780340
  0
ARC
  8
CSLAYER1
  6
CONTINUOUS
 62
     6
 10
87.947623
 20
155.172190
 40
1.250017
 50
239.999981
 51
299.999981
  0
ARC
  8
CSLAYER1
  6
CONTINUOUS
 62
     6
 10
86.697606
 20
155.172190
 40
1.250017
 50
239.999981
 51
299.999981
  0
LINE
  8
CSLAYER1
  6
CONTINUOUS
 62
     6
 10
86.072595
 20
154.089643
 11
86.072567
 21
162.276577
  0
LINE
  8
CSLAYER1
  6
CONTINUOUS
 62
     6
 10
83.572550
 20
162.332216
 11
83.572560
 21
154.089643
  0
ARC
  8
CSLAYER1
  6
CONTINUOUS
 62
     6
 10
84.197570
 20
155.172190
 40
1.250017
 50
239.999981
 51
299.999981
  0
ARC
  8
CSLAYER1
  6
CONTINUOUS
 62
     6
 10
85.447587
 20
155.172190
 40
1.250017
 50
239.999981
 51
299.999981
  0
ARC
  8
CSLAYER1
  6
CONTINUOUS
 62
     6
 10
85.447586
 20
153.007097
 40
1.250017
 50
59.999981
 51
119.999981
  0
ARC
  8
CSLAYER1
  6
CONTINUOUS
 62
     6
 10
87.947622
 20
153.007097
 40
1.250017
 50
59.999981
 51
119.999981
  0
LINE
  8
CSLAYER1
  6
CONTINUOUS
 62
     6
 10
88.572595
 20
154.089643
 11
88.572585
 21
162.332216
  0
LINE
  8
CSLAYER1
  6
CONTINUOUS
 62
     6
 10
88.572591
 20
157.276577
 11
128.572567
 21
157.276577
  0
ARC
  8
CSLAYER1
  6
CONTINUOUS
 62
     6
 10
86.072567
 20
207.276577
 40
65.000015
 50
230.284847
 51
309.715153
  0
LINE
  8
CSLAYER1
  6
CONTINUOUS
 62
     6
 10
43.572567
 20
157.276577
 11
83.572556
 21
157.276577
  0
ARC
  8
CSLAYER1
  6
CONTINUOUS
 62
     6
 10
86.072567
 20
148.276546
 40
3.250000
 50
133.734811
 51
203.627180
  0
LINE
  8
CSLAYER1
  6
CONTINUOUS
 62
     6
 10
88.625091
 20
142.805153
 11
90.004794
 21
139.589405
  0
LINE
  8
CSLAYER1
  6
CONTINUOUS
 62
     6
 10
90.849721
 20
139.891172
 11
89.199919
 21
143.097878
  0
LINE
  8
CSLAYER1
  6
CONTINUOUS
 62
     6
 10
89.772294
 20
143.395371
 11
91.586490
 21
140.403163
  0
ARC
  8
CSLAYER1
  6
CONTINUOUS
 62
     6
 10
108.913379
 20
161.677264
 40
6.000000
 50
56.246253
 51
116.606406
  0
LINE
  8
CSLAYER1
  6
CONTINUOUS
 62
     6
 10
112.247127
 20
166.665864
 11
124.405383
 21
158.540827
  0
ARC
  8
CSLAYER1
  6
CONTINUOUS
 62
     6
 10
128.572567
 20
164.776577
 40
7.500000
 50
-123.753747
 51
33.753747
  0
LINE
  8
CSLAYER1
  6
CONTINUOUS
 62
     6
 10
134.808317
 20
168.943761
 11
126.685254
 21
181.099062
  0
LINE
  8
CSLAYER1
  6
CONTINUOUS
 62
     6
 10
126.513292
 20
184.463936
 11
130.087612
 21
184.276577
  0
ARC
  8
CSLAYER1
  6
CONTINUOUS
 62
     6
 10
130.087612
 20
183.276577
 40
1.000000
 50
0.000018
 51
89.999999
  0
LINE
  8
CSLAYER1
  6
CONTINUOUS
 62
     6
 10
131.072567
 20
183.276577
 11
131.072567
 21
182.276577
  0
ARC
  8
CSLAYER1
  6
CONTINUOUS
 62
     6
 10
130.072567
 20
182.276577
 40
1.000000
 50
270.000019
 51
360.000000
  0
LINE
  8
CSLAYER1
  6
CONTINUOUS
 62
     6
 10
130.072567
 20
181.276577
 11
121.224719
 21
180.812900
  0
ARC
  8
CSLAYER1
  6
CONTINUOUS
 62
     6
 10
86.072567
 20
207.276577
 40
45.000000
 50
215.914393
 51
324.085608
  0
LINE
  8
CSLAYER1
  6
CONTINUOUS
 62
     6
 10
50.920416
 20
180.812899
 11
42.072567
 21
181.276577
  0
ARC
  8
CSLAYER1
  6
CONTINUOUS
 62
     6
 10
42.072567
 20
182.276577
 40
1.000000
 50
180.000020
 51
270.000001
  0
LINE
  8
CSLAYER1
  6
CONTINUOUS
 62
     6
 10
41.072567
 20
182.276577
 11
41.072567
 21
183.276577
  0
ARC
  8
CSLAYER1
  6
CONTINUOUS
 62
     6
 10
42.057522
 20
183.276577
 40
1.000000
 50
90.000039
 51
180.000020
  0
LINE
  8
CSLAYER1
  6
CONTINUOUS
 62
     6
 10
42.057522
 20
184.276577
 11
45.631842
 21
184.463936
  0
ARC
  8
CSLAYER1
  6
CONTINUOUS
 62
     6
 10
45.542850
 20
186.161680
 40
1.700075
 50
-86.999412
 51
87.000310
  0
LINE
  8
CSLAYER1
  6
CONTINUOUS
 62
     6
 10
45.631816
 20
187.859425
 11
38.052151
 21
188.256618
  0
ARC
  8
CSLAYER1
  6
CONTINUOUS
 62
     6
 10
38.072567
 20
189.256374
 40
1.000000
 50
180.000020
 51
268.830766
  0
LINE
  8
CSLAYER1
  6
CONTINUOUS
 62
     6
 10
37.072567
 20
189.256374
 11
37.072567
 21
225.296780
  0
ARC
  8
CSLAYER1
  6
CONTINUOUS
 62
     6
 10
38.072567
 20
225.296780
 40
1.000000
 50
91.169216
 51
180.000020
  0
LINE
  8
CSLAYER1
  6
CONTINUOUS
 62
     6
 10
38.052151
 20
226.296536
 11
45.631816
 21
226.693728
  0
ARC
  8
CSLAYER1
  6
CONTINUOUS
 62
     6
 10
45.542850
 20
228.391473
 40
1.700075
 50
-87.000310
 51
86.999412
  0
LINE
  8
CSLAYER1
  6
CONTINUOUS
 62
     6
 10
45.631842
 20
230.089218
 11
42.057522
 21
230.276577
  0
ARC
  8
CSLAYER1
  6
CONTINUOUS
 62
     6
 10
42.057522
 20
231.276577
 40
1.000000
 50
180.000020
 51
270.000001
  0
LINE
  8
CSLAYER1
  6
CONTINUOUS
 62
     6
 10
41.072567
 20
231.276577
 11
41.072567
 21
232.276577
  0
ARC
  8
CSLAYER1
  6
CONTINUOUS
 62
     6
 10
42.072567
 20
232.276577
 40
1.000000
 50
90.000039
 51
180.000020
  0
LINE
  8
CSLAYER1
  6
CONTINUOUS
 62
     6
 10
42.072567
 20
233.276577
 11
50.920416
 21
233.740255
  0
ARC
  8
CSLAYER1
  6
CONTINUOUS
 62
     6
 10
86.072567
 20
207.276577
 40
45.000000
 50
35.914392
 51
144.085607
  0
LINE
  8
CSLAYER1
  6
CONTINUOUS
 62
     6
 10
121.224719
 20
233.740254
 11
130.072567
 21
233.276577
  0
ARC
  8
CSLAYER1
  6
CONTINUOUS
 62
     6
 10
130.072567
 20
232.276577
 40
1.000000
 50
0.000000
 51
89.999981
  0
LINE
  8
CSLAYER1
  6
CONTINUOUS
 62
     6
 10
131.072567
 20
232.276577
 11
131.072567
 21
231.276577
  0
ARC
  8
CSLAYER1
  6
CONTINUOUS
 62
     6
 10
130.087612
 20
231.276577
 40
1.000000
 50
270.000001
 51
359.999982
  0
LINE
  8
CSLAYER1
  6
CONTINUOUS
 62
     6
 10
130.087612
 20
230.276577
 11
126.513292
 21
230.089218
  0
ARC
  8
CSLAYER1
  6
CONTINUOUS
 62
     6
 10
126.602285
 20
228.391473
 40
1.700075
 50
93.000588
 51
267.000310
  0
LINE
  8
CSLAYER1
  6
CONTINUOUS
 62
     6
 10
126.513319
 20
226.693728
 11
134.092983
 21
226.296536
  0
ARC
  8
CSLAYER1
  6
CONTINUOUS
 62
     6
 10
134.072567
 20
225.296780
 40
1.000000
 50
0.000000
 51
88.830746
  0
LINE
  8
CSLAYER1
  6
CONTINUOUS
 62
     6
 10
135.072567
 20
225.296780
 11
135.072567
 21
189.256374
  0
ARC
  8
CSLAYER1
  6
CONTINUOUS
 62
     6
 10
134.072567
 20
189.256374
 40
1.000000
 50
271.169236
 51
359.999982
  0
LINE
  8
CSLAYER1
  6
CONTINUOUS
 62
     6
 10
134.092983
 20
188.256618
 11
126.513319
 21
187.859425
  0
ARC
  8
CSLAYER1
  6
CONTINUOUS
 62
     6
 10
126.602285
 20
186.161680
 40
1.700075
 50
92.999690
 51
266.999412
  0
ARC
  8
CSLAYER1
  6
CONTINUOUS
 62
     6
 10
131.671880
 20
184.435765
 40
6.000000
 50
153.393594
 51
177.151140
  0
ARC
  8
CSLAYER1
  6
CONTINUOUS
 62
     6
 10
86.072567
 20
207.276577
 40
45.000000
 50
330.524210
 51
334.456908
  0
ARC
  8
CSLAYER1
  6
CONTINUOUS
 62
     6
 10
86.072567
 20
207.276577
 40
37.000000
 50
311.082333
 51
329.867278
  0
ARC
  8
CSLAYER1
  6
CONTINUOUS
 62
     6
 10
109.072567
 20
180.894765
 40
2.000000
 50
180.000000
 51
311.082333
  0
LINE
  8
CSLAYER1
  6
CONTINUOUS
 62
     6
 10
107.072567
 20
180.894765
 11
107.072567
 21
194.276577
  0
ARC
  8
CSLAYER1
  6
CONTINUOUS
 62
     6
 10
110.072567
 20
194.276577
 40
3.000000
 50
90.000000
 51
180.000000
  0
LINE
  8
CSLAYER1
  6
CONTINUOUS
 62
     6
 10
110.072567
 20
197.276577
 11
116.072567
 21
197.276577
  0
ARC
  8
CSLAYER1
  6
CONTINUOUS
 62
     6
 10
116.072567
 20
195.276577
 40
2.000000
 50
0.000000
 51
90.000000
  0
LINE
  8
CSLAYER1
  6
CONTINUOUS
 62
     6
 10
118.072567
 20
195.276577
 11
118.072567
 21
188.702401
  0
LINE
  8
CSLAYER1
  6
CONTINUOUS
 62
     6
 10
100.072567
 20
187.655160
 11
100.072567
 21
177.276577
  0
ARC
  8
CSLAYER1
  6
CONTINUOUS
 62
     6
 10
98.072567
 20
177.276577
 40
2.000000
 50
270.000000
 51
360.000000
  0
LINE
  8
CSLAYER1
  6
CONTINUOUS
 62
     6
 10
98.072567
 20
175.276577
 11
93.072567
 21
175.276577
  0
ARC
  8
CSLAYER1
  6
CONTINUOUS
 62
     6
 10
93.072567
 20
177.276577
 40
2.000000
 50
180.000000
 51
270.000000
  0
LINE
  8
CSLAYER1
  6
CONTINUOUS
 62
     6
 10
91.072567
 20
177.276577
 11
91.072567
 21
185.367674
  0
ARC
  8
CSLAYER1
  6
CONTINUOUS
 62
     6
 10
93.072567
 20
185.367674
 40
2.000000
 50
107.718932
 51
180.000000
  0
ARC
  8
CSLAYER1
  6
CONTINUOUS
 62
     6
 10
86.072567
 20
207.276577
 40
21.000000
 50
287.718932
 51
301.448981
  0
ARC
  8
CSLAYER1
  6
CONTINUOUS
 62
     6
 10
98.072567
 20
187.655160
 40
2.000000
 50
0.000000
 51
121.448981
  0
LINE
  8
CSLAYER1
  6
CONTINUOUS
 62
     6
 10
90.466583
 20
192.934612
 11
89.884238
 21
194.835382
  0
ARC
  8
CSLAYER1
  6
CONTINUOUS
 62
     6
 10
92.564687
 20
195.999841
 40
2.922462
 50
50.235851
 51
203.481549
  0
ARC
  8
CSLAYER1
  6
CONTINUOUS
 62
     6
 10
95.306186
 20
199.294504
 40
1.363635
 50
230.236329
 51
322.096590
  0
ARC
  8
CSLAYER1
  6
CONTINUOUS
 62
     6
 10
86.072567
 20
206.483455
 40
13.065822
 50
-37.903067
 51
217.903051
  0
ARC
  8
CSLAYER1
  6
CONTINUOUS
 62
     6
 10
76.838936
 20
199.294504
 40
1.363635
 50
217.903413
 51
309.763730
  0
ARC
  8
CSLAYER1
  6
CONTINUOUS
 62
     6
 10
79.580438
 20
195.999841
 40
2.922462
 50
-23.481547
 51
129.764151
  0
LINE
  8
CSLAYER1
  6
CONTINUOUS
 62
     6
 10
82.260884
 20
194.835382
 11
81.678539
 21
192.934612
  0
CIRCLE
  8
CSLAYER1
  6
CONTINUOUS
 62
     6
 10
79.580438
 20
195.999841
 40
1.363635
  0
ARC
  8
CSLAYER1
  6
CONTINUOUS
 62
     6
 10
86.072567
 20
207.276577
 40
21.000000
 50
238.551019
 51
252.281068
  0
ARC
  8
CSLAYER1
  6
CONTINUOUS
 62
     6
 10
79.072567
 20
185.367674
 40
2.000000
 50
0.000000
 51
72.281068
  0
LINE
  8
CSLAYER1
  6
CONTINUOUS
 62
     6
 10
81.072567
 20
185.367674
 11
81.072567
 21
177.276577
  0
ARC
  8
CSLAYER1
  6
CONTINUOUS
 62
     6
 10
79.072567
 20
177.276577
 40
2.000000
 50
270.000000
 51
360.000000
  0
LINE
  8
CSLAYER1
  6
CONTINUOUS
 62
     6
 10
79.072567
 20
175.276577
 11
74.072567
 21
175.276577
  0
ARC
  8
CSLAYER1
  6
CONTINUOUS
 62
     6
 10
74.072567
 20
177.276577
 40
2.000000
 50
180.000000
 51
270.000000
  0
LINE
  8
CSLAYER1
  6
CONTINUOUS
 62
     6
 10
72.072567
 20
177.276577
 11
72.072567
 21
187.655160
  0
ARC
  8
CSLAYER1
  6
CONTINUOUS
 62
     6
 10
74.072567
 20
187.655160
 40
2.000000
 50
58.551019
 51
180.000000
  0
LINE
  8
CSLAYER1
  6
CONTINUOUS
 62
     6
 10
65.072567
 20
194.276577
 11
65.072567
 21
180.894765
  0
ARC
  8
CSLAYER1
  6
CONTINUOUS
 62
     6
 10
63.072567
 20
180.894765
 40
2.000000
 50
228.917667
 51
360.000000
  0
ARC
  8
CSLAYER1
  6
CONTINUOUS
 62
     6
 10
86.072567
 20
207.276577
 40
37.000000
 50
210.132722
 51
228.917667
  0
LINE
  8
CSLAYER1
  6
CONTINUOUS
 62
     6
 10
54.072567
 20
188.702401
 11
54.072567
 21
195.276577
  0
ARC
  8
CSLAYER1
  6
CONTINUOUS
 62
     6
 10
56.072567
 20
195.276577
 40
2.000000
 50
90.000000
 51
180.000000
  0
LINE
  8
CSLAYER1
  6
CONTINUOUS
 62
     6
 10
56.072567
 20
197.276577
 11
62.072567
 21
197.276577
  0
ARC
  8
CSLAYER1
  6
CONTINUOUS
 62
     6
 10
62.072567
 20
194.276577
 40
3.000000
 50
0.000000
 51
90.000000
  0
ARC
  8
CSLAYER1
  6
CONTINUOUS
 62
     6
 10
86.072567
 20
207.276577
 40
45.000000
 50
205.543092
 51
209.475790
  0
ARC
  8
CSLAYER1
  6
CONTINUOUS
 62
     6
 10
40.473255
 20
184.435765
 40
6.000000
 50
2.848860
 51
26.606406
  0
LINE
  8
CSLAYER1
  6
CONTINUOUS
 62
     6
 10
45.461854
 20
181.102017
 11
37.336818
 21
168.943761
  0
ARC
  8
CSLAYER1
  6
CONTINUOUS
 62
     6
 10
43.572567
 20
164.776577
 40
7.500000
 50
146.246253
 51
303.753747
  0
LINE
  8
CSLAYER1
  6
CONTINUOUS
 62
     6
 10
47.739752
 20
158.540827
 11
59.898007
 21
166.665864
  0
ARC
  8
CSLAYER1
  6
CONTINUOUS
 62
     6
 10
63.231755
 20
161.677264
 40
6.000000
 50
63.393594
 51
123.753747
  0
ARC
  8
CSLAYER1
  6
CONTINUOUS
 62
     6
 10
56.572566
 20
156.181079
 40
1.600000
 50
-223.210898
 51
43.210898
  0
ARC
  8
CSLAYER1
  6
CONTINUOUS
 62
     6
 10
43.572560
 20
164.776600
 40
2.916667
 50
-16.601562
 51
16.601572
  0
LINE
  8
CSLAYER1
  6
CONTINUOUS
 62
     6
 10
46.367633
 20
165.609944
 11
45.239248
 21
165.609944
  0
ARC
  8
CSLAYER1
  6
CONTINUOUS
 62
     6
 10
45.239248
 20
166.443244
 40
0.833333
 50
180.000010
 51
270.000016
  0
LINE
  8
CSLAYER1
  6
CONTINUOUS
 62
     6
 10
44.405904
 20
166.443244
 11
44.405904
 21
167.571716
  0
ARC
  8
CSLAYER1
  6
CONTINUOUS
 62
     6
 10
43.572560
 20
164.776600
 40
2.916667
 50
73.398406
 51
106.601595
  0
LINE
  8
CSLAYER1
  6
CONTINUOUS
 62
     6
 10
42.739217
 20
167.571716
 11
42.739217
 21
166.443244
  0
ARC
  8
CSLAYER1
  6
CONTINUOUS
 62
     6
 10
41.905873
 20
166.443244
 40
0.833333
 50
-89.999984
 51
0.000005
  0
LINE
  8
CSLAYER1
  6
CONTINUOUS
 62
     6
 10
41.905873
 20
165.609944
 11
40.777488
 21
165.609944
  0
ARC
  8
CSLAYER1
  6
CONTINUOUS
 62
     6
 10
43.572560
 20
164.776600
 40
2.916667
 50
163.398416
 51
196.601577
  0
LINE
  8
CSLAYER1
  6
CONTINUOUS
 62
     6
 10
40.777488
 20
163.943257
 11
41.905873
 21
163.943257
  0
ARC
  8
CSLAYER1
  6
CONTINUOUS
 62
     6
 10
41.905873
 20
163.109956
 40
0.833333
 50
0.000005
 51
89.942654
  0
LINE
  8
CSLAYER1
  6
CONTINUOUS
 62
     6
 10
42.739217
 20
163.109956
 11
42.739217
 21
161.981485
  0
ARC
  8
CSLAYER1
  6
CONTINUOUS
 62
     6
 10
43.572560
 20
164.776600
 40
2.916667
 50
253.398422
 51
286.601583
  0
LINE
  8
CSLAYER1
  6
CONTINUOUS
 62
     6
 10
44.405904
 20
161.981485
 11
44.405904
 21
163.109956
  0
ARC
  8
CSLAYER1
  6
CONTINUOUS
 62
     6
 10
45.239248
 20
163.109956
 40
0.833333
 50
90.000001
 51
179.942691
  0
LINE
  8
CSLAYER1
  6
CONTINUOUS
 62
     6
 10
45.239248
 20
163.943257
 11
46.367633
 21
163.943257
  0
CIRCLE
  8
CSLAYER1
  6
CONTINUOUS
 62
     6
 10
43.572580
 20
164.776599
 40
5.250000
  0
LINE
  8
CSLAYER1
  6
CONTINUOUS
 62
     6
 10
36.072567
 20
164.776577
 11
36.072567
 21
249.776577
  0
ARC
  8
CSLAYER1
  6
CONTINUOUS
 62
     6
 10
86.072567
 20
207.276577
 40
65.000015
 50
140.284847
 51
219.715153
  0
CIRCLE
  8
CSLAYER1
  6
CONTINUOUS
 62
     6
 10
27.072537
 20
207.276577
 40
3.250000
  0
CIRCLE
  8
CSLAYER1
  6
CONTINUOUS
 62
     6
 10
86.072567
 20
207.276577
 40
44.000000
  0
CIRCLE
  8
CSLAYER1
  6
CONTINUOUS
 62
     6
 10
86.072567
 20
207.276577
 40
15.000000
  0
CIRCLE
  8
CSLAYER1
  6
CONTINUOUS
 62
     6
 10
92.564687
 20
195.999841
 40
1.363635
  0
ARC
  8
CSLAYER1
  6
CONTINUOUS
 62
     6
 10
128.572574
 20
164.776600
 40
2.916667
 50
163.398428
 51
196.601562
  0
LINE
  8
CSLAYER1
  6
CONTINUOUS
 62
     6
 10
125.777502
 20
163.943257
 11
126.905887
 21
163.943257
  0
ARC
  8
CSLAYER1
  6
CONTINUOUS
 62
     6
 10
126.905887
 20
163.109956
 40
0.833333
 50
0.057309
 51
89.999999
  0
LINE
  8
CSLAYER1
  6
CONTINUOUS
 62
     6
 10
127.739230
 20
163.109956
 11
127.739230
 21
161.981485
  0
ARC
  8
CSLAYER1
  6
CONTINUOUS
 62
     6
 10
128.572574
 20
164.776600
 40
2.916667
 50
253.398417
 51
286.601578
  0
LINE
  8
CSLAYER1
  6
CONTINUOUS
 62
     6
 10
129.405917
 20
161.981485
 11
129.405917
 21
163.109956
  0
ARC
  8
CSLAYER1
  6
CONTINUOUS
 62
     6
 10
130.239261
 20
163.109956
 40
0.833333
 50
90.057346
 51
179.999995
  0
LINE
  8
CSLAYER1
  6
CONTINUOUS
 62
     6
 10
130.239261
 20
163.943257
 11
131.367646
 21
163.943257
  0
ARC
  8
CSLAYER1
  6
CONTINUOUS
 62
     6
 10
128.572574
 20
164.776600
 40
2.916667
 50
-16.601577
 51
16.601584
  0
LINE
  8
CSLAYER1
  6
CONTINUOUS
 62
     6
 10
131.367646
 20
165.609944
 11
130.239261
 21
165.609944
  0
ARC
  8
CSLAYER1
  6
CONTINUOUS
 62
     6
 10
130.239261
 20
166.443244
 40
0.833333
 50
179.999995
 51
269.999984
  0
LINE
  8
CSLAYER1
  6
CONTINUOUS
 62
     6
 10
129.405917
 20
166.443244
 11
129.405917
 21
167.571716
  0
ARC
  8
CSLAYER1
  6
CONTINUOUS
 62
     6
 10
128.572574
 20
164.776600
 40
2.916667
 50
73.398405
 51
106.601594
  0
LINE
  8
CSLAYER1
  6
CONTINUOUS
 62
     6
 10
127.739230
 20
167.571716
 11
127.739230
 21
166.443244
  0
ARC
  8
CSLAYER1
  6
CONTINUOUS
 62
     6
 10
126.905887
 20
166.443244
 40
0.833333
 50
269.999984
 51
359.999990
  0
LINE
  8
CSLAYER1
  6
CONTINUOUS
 62
     6
 10
126.905887
 20
165.609944
 11
125.777502
 21
165.609944
  0
CIRCLE
  8
CSLAYER1
  6
CONTINUOUS
 62
     6
 10
128.572555
 20
164.776599
 40
5.250000
  0
LINE
  8
CSLAYER1
  6
CONTINUOUS
 62
     6
 10
136.072567
 20
164.776577
 11
136.072567
 21
249.776577
  0
ARC
  8
CSLAYER1
  6
CONTINUOUS
 62
     6
 10
86.072567
 20
207.276577
 40
65.000015
 50
-39.715153
 51
39.715153
  0
ARC
  8
CSLAYER1
  6
CONTINUOUS
 62
     6
 10
137.168064
 20
177.776575
 40
1.600000
 50
-133.210898
 51
133.210898
  0
CIRCLE
  8
CSLAYER1
  6
CONTINUOUS
 62
     6
 10
145.072598
 20
207.276577
 40
3.250000
  0
ARC
  8
CSLAYER1
  6
CONTINUOUS
 62
     6
 10
86.072567
 20
207.276577
 40
45.000000
 50
25.550580
 51
29.475790
  0
ARC
  8
CSLAYER1
  6
CONTINUOUS
 62
     6
 10
131.671880
 20
230.117389
 40
6.000000
 50
182.848860
 51
206.606406
  0
LINE
  8
CSLAYER1
  6
CONTINUOUS
 62
     6
 10
126.683280
 20
233.451136
 11
134.808317
 21
245.609392
  0
ARC
  8
CSLAYER1
  6
CONTINUOUS
 62
     6
 10
128.572567
 20
249.776577
 40
7.500000
 50
-33.753747
 51
123.753747
  0
LINE
  8
CSLAYER1
  6
CONTINUOUS
 62
     6
 10
124.405383
 20
256.012326
 11
112.247127
 21
247.887289
  0
ARC
  8
CSLAYER1
  6
CONTINUOUS
 62
     6
 10
108.913379
 20
252.875889
 40
6.000000
 50
243.393594
 51
303.753747
  0
LINE
  8
CSLAYER1
  6
CONTINUOUS
 62
     6
 10
98.072567
 20
239.276577
 11
93.072567
 21
239.276577
  0
ARC
  8
CSLAYER1
  6
CONTINUOUS
 62
     6
 10
93.072567
 20
237.276577
 40
2.000000
 50
90.000000
 51
180.000000
  0
LINE
  8
CSLAYER1
  6
CONTINUOUS
 62
     6
 10
91.072567
 20
237.276577
 11
91.072567
 21
229.185479
  0
ARC
  8
CSLAYER1
  6
CONTINUOUS
 62
     6
 10
93.072567
 20
229.185479
 40
2.000000
 50
180.000000
 51
252.281068
  0
ARC
  8
CSLAYER1
  6
CONTINUOUS
 62
     6
 10
86.072567
 20
207.276577
 40
21.000000
 50
58.551019
 51
72.281068
  0
ARC
  8
CSLAYER1
  6
CONTINUOUS
 62
     6
 10
98.072567
 20
226.897994
 40
2.000000
 50
238.551019
 51
360.000000
  0
LINE
  8
CSLAYER1
  6
CONTINUOUS
 62
     6
 10
100.072567
 20
226.897994
 11
100.072567
 21
237.276577
  0
ARC
  8
CSLAYER1
  6
CONTINUOUS
 62
     6
 10
98.072567
 20
237.276577
 40
2.000000
 50
0.000000
 51
90.000000
  0
LINE
  8
CSLAYER1
  6
CONTINUOUS
 62
     6
 10
107.072567
 20
233.658389
 11
107.072567
 21
220.276577
  0
ARC
  8
CSLAYER1
  6
CONTINUOUS
 62
     6
 10
110.072567
 20
220.276577
 40
3.000000
 50
180.000000
 51
270.000000
  0
LINE
  8
CSLAYER1
  6
CONTINUOUS
 62
     6
 10
110.072567
 20
217.276577
 11
116.072567
 21
217.276577
  0
ARC
  8
CSLAYER1
  6
CONTINUOUS
 62
     6
 10
116.072567
 20
219.276577
 40
2.000000
 50
270.000000
 51
360.000000
  0
LINE
  8
CSLAYER1
  6
CONTINUOUS
 62
     6
 10
118.072567
 20
219.276577
 11
118.072567
 21
225.850752
  0
ARC
  8
CSLAYER1
  6
CONTINUOUS
 62
     6
 10
86.072567
 20
207.276577
 40
37.000000
 50
30.132722
 51
48.917667
  0
ARC
  8
CSLAYER1
  6
CONTINUOUS
 62
     6
 10
109.072567
 20
233.658389
 40
2.000000
 50
48.917667
 51
180.000000
  0
ARC
  8
CSLAYER1
  6
CONTINUOUS
 62
     6
 10
128.572574
 20
249.776553
 40
2.916667
 50
163.398438
 51
196.601572
  0
LINE
  8
CSLAYER1
  6
CONTINUOUS
 62
     6
 10
125.777502
 20
250.609897
 11
126.905887
 21
250.609897
  0
ARC
  8
CSLAYER1
  6
CONTINUOUS
 62
     6
 10
126.905887
 20
251.443197
 40
0.833333
 50
270.000001
 51
359.942691
  0
LINE
  8
CSLAYER1
  6
CONTINUOUS
 62
     6
 10
127.739230
 20
251.443197
 11
127.739230
 21
252.571669
  0
ARC
  8
CSLAYER1
  6
CONTINUOUS
 62
     6
 10
128.572574
 20
249.776553
 40
2.916667
 50
73.398422
 51
106.601583
  0
LINE
  8
CSLAYER1
  6
CONTINUOUS
 62
     6
 10
129.405917
 20
252.571669
 11
129.405917
 21
251.443197
  0
ARC
  8
CSLAYER1
  6
CONTINUOUS
 62
     6
 10
130.239261
 20
251.443197
 40
0.833333
 50
180.000005
 51
269.942654
  0
LINE
  8
CSLAYER1
  6
CONTINUOUS
 62
     6
 10
130.239261
 20
250.609897
 11
131.367646
 21
250.609897
  0
ARC
  8
CSLAYER1
  6
CONTINUOUS
 62
     6
 10
128.572574
 20
249.776553
 40
2.916667
 50
-16.601584
 51
16.601577
  0
LINE
  8
CSLAYER1
  6
CONTINUOUS
 62
     6
 10
131.367646
 20
248.943210
 11
130.239261
 21
248.943210
  0
ARC
  8
CSLAYER1
  6
CONTINUOUS
 62
     6
 10
130.239261
 20
248.109909
 40
0.833333
 50
90.000016
 51
180.000005
  0
LINE
  8
CSLAYER1
  6
CONTINUOUS
 62
     6
 10
129.405917
 20
248.109909
 11
129.405917
 21
246.981438
  0
ARC
  8
CSLAYER1
  6
CONTINUOUS
 62
     6
 10
128.572574
 20
249.776553
 40
2.916667
 50
253.398406
 51
286.601595
  0
LINE
  8
CSLAYER1
  6
CONTINUOUS
 62
     6
 10
127.739230
 20
246.981438
 11
127.739230
 21
248.109909
  0
ARC
  8
CSLAYER1
  6
CONTINUOUS
 62
     6
 10
126.905887
 20
248.109909
 40
0.833333
 50
0.000010
 51
90.000016
  0
LINE
  8
CSLAYER1
  6
CONTINUOUS
 62
     6
 10
126.905887
 20
248.943210
 11
125.777502
 21
248.943210
  0
CIRCLE
  8
CSLAYER1
  6
CONTINUOUS
 62
     6
 10
128.572555
 20
249.776554
 40
5.250000
  0
LINE
  8
CSLAYER1
  6
CONTINUOUS
 62
     6
 10
128.572567
 20
257.276577
 11
43.572567
 21
257.276577
  0
ARC
  8
CSLAYER1
  6
CONTINUOUS
 62
     6
 10
86.072567
 20
207.276577
 40
65.000015
 50
50.284847
 51
129.715153
  0
ARC
  8
CSLAYER1
  6
CONTINUOUS
 62
     6
 10
115.572569
 20
258.372074
 40
1.600000
 50
-43.210898
 51
223.210898
  0
CIRCLE
  8
CSLAYER1
  6
CONTINUOUS
 62
     6
 10
86.072567
 20
266.276607
 40
3.250000
  0
ARC
  8
CSLAYER1
  6
CONTINUOUS
 62
     6
 10
63.231755
 20
252.875889
 40
6.000000
 50
236.246253
 51
296.606406
  0
LINE
  8
CSLAYER1
  6
CONTINUOUS
 62
     6
 10
59.898007
 20
247.887289
 11
47.739752
 21
256.012326
  0
ARC
  8
CSLAYER1
  6
CONTINUOUS
 62
     6
 10
43.572567
 20
249.776577
 40
7.500000
 50
56.246253
 51
213.753747
  0
LINE
  8
CSLAYER1
  6
CONTINUOUS
 62
     6
 10
37.336818
 20
245.609392
 11
45.461854
 21
233.451136
  0
ARC
  8
CSLAYER1
  6
CONTINUOUS
 62
     6
 10
40.473255
 20
230.117389
 40
6.000000
 50
333.393594
 51
357.151140
  0
ARC
  8
CSLAYER1
  6
CONTINUOUS
 62
     6
 10
86.072567
 20
207.276577
 40
45.000000
 50
150.524210
 51
154.449420
  0
ARC
  8
CSLAYER1
  6
CONTINUOUS
 62
     6
 10
86.072567
 20
207.276577
 40
37.000000
 50
131.082333
 51
149.867278
  0
ARC
  8
CSLAYER1
  6
CONTINUOUS
 62
     6
 10
63.072567
 20
233.658389
 40
2.000000
 50
0.000000
 51
131.082333
  0
LINE
  8
CSLAYER1
  6
CONTINUOUS
 62
     6
 10
65.072567
 20
233.658389
 11
65.072567
 21
220.276577
  0
ARC
  8
CSLAYER1
  6
CONTINUOUS
 62
     6
 10
62.072567
 20
220.276577
 40
3.000000
 50
270.000000
 51
360.000000
  0
LINE
  8
CSLAYER1
  6
CONTINUOUS
 62
     6
 10
62.072567
 20
217.276577
 11
56.072567
 21
217.276577
  0
ARC
  8
CSLAYER1
  6
CONTINUOUS
 62
     6
 10
56.072567
 20
219.276577
 40
2.000000
 50
180.000000
 51
270.000000
  0
LINE
  8
CSLAYER1
  6
CONTINUOUS
 62
     6
 10
54.072567
 20
219.276577
 11
54.072567
 21
225.850752
  0
LINE
  8
CSLAYER1
  6
CONTINUOUS
 62
     6
 10
72.072567
 20
226.897994
 11
72.072567
 21
237.276577
  0
ARC
  8
CSLAYER1
  6
CONTINUOUS
 62
     6
 10
74.072567
 20
237.276577
 40
2.000000
 50
90.000000
 51
180.000000
  0
LINE
  8
CSLAYER1
  6
CONTINUOUS
 62
     6
 10
74.072567
 20
239.276577
 11
79.072567
 21
239.276577
  0
ARC
  8
CSLAYER1
  6
CONTINUOUS
 62
     6
 10
79.072567
 20
237.276577
 40
2.000000
 50
0.000000
 51
90.000000
  0
LINE
  8
CSLAYER1
  6
CONTINUOUS
 62
     6
 10
81.072567
 20
237.276577
 11
81.072567
 21
229.185479
  0
ARC
  8
CSLAYER1
  6
CONTINUOUS
 62
     6
 10
79.072567
 20
229.185479
 40
2.000000
 50
287.718932
 51
360.000000
  0
ARC
  8
CSLAYER1
  6
CONTINUOUS
 62
     6
 10
86.072567
 20
207.276577
 40
21.000000
 50
107.718932
 51
121.448981
  0
ARC
  8
CSLAYER1
  6
CONTINUOUS
 62
     6
 10
74.072567
 20
226.897994
 40
2.000000
 50
180.000000
 51
301.448981
  0
ARC
  8
CSLAYER1
  6
CONTINUOUS
 62
     6
 10
43.572560
 20
249.776553
 40
2.916667
 50
-16.601572
 51
16.601562
  0
LINE
  8
CSLAYER1
  6
CONTINUOUS
 62
     6
 10
46.367633
 20
250.609897
 11
45.239248
 21
250.609897
  0
ARC
  8
CSLAYER1
  6
CONTINUOUS
 62
     6
 10
45.239248
 20
251.443197
 40
0.833333
 50
180.057309
 51
269.999999
  0
LINE
  8
CSLAYER1
  6
CONTINUOUS
 62
     6
 10
44.405904
 20
251.443197
 11
44.405904
 21
252.571669
  0
ARC
  8
CSLAYER1
  6
CONTINUOUS
 62
     6
 10
43.572560
 20
249.776553
 40
2.916667
 50
73.398417
 51
106.601578
  0
LINE
  8
CSLAYER1
  6
CONTINUOUS
 62
     6
 10
42.739217
 20
252.571669
 11
42.739217
 21
251.443197
  0
ARC
  8
CSLAYER1
  6
CONTINUOUS
 62
     6
 10
41.905873
 20
251.443197
 40
0.833333
 50
270.057346
 51
359.999995
  0
LINE
  8
CSLAYER1
  6
CONTINUOUS
 62
     6
 10
41.905873
 20
250.609897
 11
40.777488
 21
250.609897
  0
ARC
  8
CSLAYER1
  6
CONTINUOUS
 62
     6
 10
43.572560
 20
249.776553
 40
2.916667
 50
163.398423
 51
196.601584
  0
LINE
  8
CSLAYER1
  6
CONTINUOUS
 62
     6
 10
40.777488
 20
248.943210
 11
41.905873
 21
248.943210
  0
ARC
  8
CSLAYER1
  6
CONTINUOUS
 62
     6
 10
41.905873
 20
248.109909
 40
0.833333
 50
-0.000005
 51
89.999984
  0
LINE
  8
CSLAYER1
  6
CONTINUOUS
 62
     6
 10
42.739217
 20
248.109909
 11
42.739217
 21
246.981438
  0
ARC
  8
CSLAYER1
  6
CONTINUOUS
 62
     6
 10
43.572560
 20
249.776553
 40
2.916667
 50
253.398405
 51
286.601594
  0
LINE
  8
CSLAYER1
  6
CONTINUOUS
 62
     6
 10
44.405904
 20
246.981438
 11
44.405904
 21
248.109909
  0
ARC
  8
CSLAYER1
  6
CONTINUOUS
 62
     6
 10
45.239248
 20
248.109909
 40
0.833333
 50
89.999984
 51
179.999990
  0
LINE
  8
CSLAYER1
  6
CONTINUOUS
 62
     6
 10
45.239248
 20
248.943210
 11
46.367633
 21
248.943210
  0
CIRCLE
  8
CSLAYER1
  6
CONTINUOUS
 62
     6
 10
43.572580
 20
249.776554
 40
5.250000
  0
ARC
  8
CSLAYER1
  6
CONTINUOUS
 62
     6
 10
34.977070
 20
236.776578
 40
1.600000
 50
46.789102
 51
313.210898
  0
LINE
  8
CSLAYER1
  6
CONTINUOUS
 62
     6
 10
166.072582
 20
250.165035
 11
166.072582
 21
164.276577
  0
LINE
  8
CSLAYER1
  6
CONTINUOUS
 62
     6
 10
166.072582
 20
164.276577
 11
167.072582
 21
163.276577
  0
LINE
  8
CSLAYER1
  6
CONTINUOUS
 62
     6
 10
167.072582
 20
163.276577
 11
167.072582
 21
251.165035
  0
LINE
  8
CSLAYER1
  6
CONTINUOUS
 62
     6
 10
167.072582
 20
251.165035
 11
166.072582
 21
250.165035
  0
LINE
  8
CSLAYER1
  6
CONTINUOUS
 62
     6
 10
167.072582
 20
251.165035
 11
219.072582
 21
251.165035
  0
LINE
  8
CSLAYER1
  6
CONTINUOUS
 62
     6
 10
219.072582
 20
252.276577
 11
219.072582
 21
162.276577
  0
LINE
  8
CSLAYER1
  6
CONTINUOUS
 62
     6
 10
219.072582
 20
162.276577
 11
300.616718
 21
162.276577
  0
ARC
  8
CSLAYER1
  6
CONTINUOUS
 62
     6
 10
302.429279
 20
162.516512
 40
1.810349
 50
196.257399
 51
264.999892
  0
LINE
  8
CSLAYER1
  6
CONTINUOUS
 62
     6
 10
302.271492
 20
160.713042
 11
303.411689
 21
160.613292
  0
ARC
  8
CSLAYER1
  6
CONTINUOUS
 62
     6
 10
303.443291
 20
160.973975
 40
0.362070
 50
264.999865
 51
359.942691
  0
LINE
  8
CSLAYER1
  6
CONTINUOUS
 62
     6
 10
303.805383
 20
160.488350
 11
303.805383
 21
170.626258
  0
ARC
  8
CSLAYER1
  6
CONTINUOUS
 62
     6
 10
303.986373
 20
170.626258
 40
0.181035
 50
90.000003
 51
180.000005
  0
LINE
  8
CSLAYER1
  6
CONTINUOUS
 62
     6
 10
303.986373
 20
170.807304
 11
304.891548
 21
170.807304
  0
ARC
  8
CSLAYER1
  6
CONTINUOUS
 62
     6
 10
304.891548
 20
170.626258
 40
0.181035
 50
0.000000
 51
90.000003
  0
LINE
  8
CSLAYER1
  6
CONTINUOUS
 62
     6
 10
304.072582
 20
170.807304
 11
304.072582
 21
243.745904
  0
ARC
  8
CSLAYER1
  6
CONTINUOUS
 62
     6
 10
303.986373
 20
243.926950
 40
0.181035
 50
180.000005
 51
270.000001
  0
LINE
  8
CSLAYER1
  6
CONTINUOUS
 62
     6
 10
303.805383
 20
243.926950
 11
303.805383
 21
254.064858
  0
ARC
  8
CSLAYER1
  6
CONTINUOUS
 62
     6
 10
303.986373
 20
254.064858
 40
0.181035
 50
90.000003
 51
180.000005
  0
LINE
  8
CSLAYER1
  6
CONTINUOUS
 62
     6
 10
303.986373
 20
254.245904
 11
304.891548
 21
254.245904
  0
ARC
  8
CSLAYER1
  6
CONTINUOUS
 62
     6
 10
304.891548
 20
254.064858
 40
0.181035
 50
0.000000
 51
90.000003
  0
ARC
  8
CSLAYER1
  6
CONTINUOUS
 62
     6
 10
303.443291
 20
253.579233
 40
0.362070
 50
0.000000
 51
95.000152
  0
LINE
  8
CSLAYER1
  6
CONTINUOUS
 62
     6
 10
303.411689
 20
253.939916
 11
302.271492
 21
253.840167
  0
ARC
  8
CSLAYER1
  6
CONTINUOUS
 62
     6
 10
302.429279
 20
252.036697
 40
1.810349
 50
95.000111
 51
163.742611
  0
ARC
  8
CSLAYER1
  6
CONTINUOUS
 62
     6
 10
312.857126
 20
248.995904
 40
12.672440
 50
163.742994
 51
196.257016
  0
ARC
  8
CSLAYER1
  6
CONTINUOUS
 62
     6
 10
302.429279
 20
245.955112
 40
1.810349
 50
196.257399
 51
264.999892
  0
LINE
  8
CSLAYER1
  6
CONTINUOUS
 62
     6
 10
302.271492
 20
244.151642
 11
303.411689
 21
244.051892
  0
ARC
  8
CSLAYER1
  6
CONTINUOUS
 62
     6
 10
303.443291
 20
244.412575
 40
0.362070
 50
264.999865
 51
359.942691
  0
LINE
  8
CSLAYER1
  6
CONTINUOUS
 62
     6
 10
303.986373
 20
243.745904
 11
304.891548
 21
243.745904
  0
ARC
  8
CSLAYER1
  6
CONTINUOUS
 62
     6
 10
304.891548
 20
243.926950
 40
0.181035
 50
270.000001
 51
359.942691
  0
LINE
  8
CSLAYER1
  6
CONTINUOUS
 62
     6
 10
303.805383
 20
247.917060
 11
305.072594
 21
248.720606
  0
LINE
  8
CSLAYER1
  6
CONTINUOUS
 62
     6
 10
305.072594
 20
249.625781
 11
303.805383
 21
248.822234
  0
LINE
  8
CSLAYER1
  6
CONTINUOUS
 62
     6
 10
300.616704
 20
252.276577
 11
219.072582
 21
252.276577
  0
LINE
  8
CSLAYER1
  6
CONTINUOUS
 62
     6
 10
216.072582
 20
233.276577
 11
180.072582
 21
233.276577
  0
ARC
  8
CSLAYER1
  6
CONTINUOUS
 62
     6
 10
180.072582
 20
232.276577
 40
1.000000
 50
90.000016
 51
180.000005
  0
LINE
  8
CSLAYER1
  6
CONTINUOUS
 62
     6
 10
179.072582
 20
232.276577
 11
179.072582
 21
231.276577
  0
ARC
  8
CSLAYER1
  6
CONTINUOUS
 62
     6
 10
180.072582
 20
231.276577
 40
1.000000
 50
180.000019
 51
270.000001
  0
LINE
  8
CSLAYER1
  6
CONTINUOUS
 62
     6
 10
180.072582
 20
230.276577
 11
216.072582
 21
230.276577
  0
ARC
  8
CSLAYER1
  6
CONTINUOUS
 62
     6
 10
216.072582
 20
231.276577
 40
1.000000
 50
270.000001
 51
359.942691
  0
LINE
  8
CSLAYER1
  6
CONTINUOUS
 62
     6
 10
217.072582
 20
231.276577
 11
217.072582
 21
232.276577
  0
ARC
  8
CSLAYER1
  6
CONTINUOUS
 62
     6
 10
216.072582
 20
232.276577
 40
1.000000
 50
0.000000
 51
90.000003
  0
ARC
  8
CSLAYER1
  6
CONTINUOUS
 62
     6
 10
216.072582
 20
225.276577
 40
1.000000
 50
0.000000
 51
90.000003
  0
LINE
  8
CSLAYER1
  6
CONTINUOUS
 62
     6
 10
217.072582
 20
225.276577
 11
217.072582
 21
224.276577
  0
ARC
  8
CSLAYER1
  6
CONTINUOUS
 62
     6
 10
216.072582
 20
224.276577
 40
1.000000
 50
270.000001
 51
359.942691
  0
LINE
  8
CSLAYER1
  6
CONTINUOUS
 62
     6
 10
216.072582
 20
223.276577
 11
211.301342
 21
223.276577
  0
ARC
  8
CSLAYER1
  6
CONTINUOUS
 62
     6
 10
211.301342
 20
222.276577
 40
1.000000
 50
90.000003
 51
228.590367
  0
ARC
  8
CSLAYER1
  6
CONTINUOUS
 62
     6
 10
198.072582
 20
207.276577
 40
19.000000
 50
-48.590366
 51
48.590386
  0
ARC
  8
CSLAYER1
  6
CONTINUOUS
 62
     6
 10
211.301342
 20
192.276577
 40
1.000000
 50
131.409643
 51
270.000001
  0
LINE
  8
CSLAYER1
  6
CONTINUOUS
 62
     6
 10
211.301342
 20
191.276577
 11
216.072582
 21
191.276577
  0
ARC
  8
CSLAYER1
  6
CONTINUOUS
 62
     6
 10
216.072582
 20
190.276577
 40
1.000000
 50
0.057309
 51
89.999999
  0
LINE
  8
CSLAYER1
  6
CONTINUOUS
 62
     6
 10
217.072582
 20
190.276577
 11
217.072582
 21
189.276577
  0
ARC
  8
CSLAYER1
  6
CONTINUOUS
 62
     6
 10
216.072582
 20
189.276577
 40
1.000000
 50
269.999997
 51
360.000000
  0
LINE
  8
CSLAYER1
  6
CONTINUOUS
 62
     6
 10
216.072582
 20
188.276577
 11
180.072582
 21
188.276577
  0
ARC
  8
CSLAYER1
  6
CONTINUOUS
 62
     6
 10
180.072582
 20
189.276577
 40
1.000000
 50
179.999995
 51
269.999984
  0
LINE
  8
CSLAYER1
  6
CONTINUOUS
 62
     6
 10
179.072582
 20
189.276577
 11
179.072582
 21
190.276577
  0
ARC
  8
CSLAYER1
  6
CONTINUOUS
 62
     6
 10
180.072582
 20
190.276577
 40
1.000000
 50
89.999999
 51
179.999981
  0
LINE
  8
CSLAYER1
  6
CONTINUOUS
 62
     6
 10
180.072582
 20
191.276577
 11
184.843823
 21
191.276577
  0
ARC
  8
CSLAYER1
  6
CONTINUOUS
 62
     6
 10
184.843823
 20
192.276577
 40
1.000000
 50
-89.999999
 51
48.590386
  0
ARC
  8
CSLAYER1
  6
CONTINUOUS
 62
     6
 10
198.072582
 20
207.276577
 40
19.000000
 50
131.409657
 51
228.590367
  0
ARC
  8
CSLAYER1
  6
CONTINUOUS
 62
     6
 10
184.843823
 20
222.276577
 40
1.000000
 50
-48.590366
 51
90.000019
  0
LINE
  8
CSLAYER1
  6
CONTINUOUS
 62
     6
 10
184.843823
 20
223.276577
 11
180.072582
 21
223.276577
  0
ARC
  8
CSLAYER1
  6
CONTINUOUS
 62
     6
 10
180.072582
 20
224.276577
 40
1.000000
 50
180.000019
 51
270.000001
  0
LINE
  8
CSLAYER1
  6
CONTINUOUS
 62
     6
 10
179.072582
 20
224.276577
 11
179.072582
 21
225.276577
  0
ARC
  8
CSLAYER1
  6
CONTINUOUS
 62
     6
 10
180.072582
 20
225.276577
 40
1.000000
 50
90.000016
 51
180.000005
  0
LINE
  8
CSLAYER1
  6
CONTINUOUS
 62
     6
 10
180.072582
 20
226.276577
 11
216.072582
 21
226.276577
  0
ARC
  8
CSLAYER1
  6
CONTINUOUS
 62
     6
 10
216.172100
 20
294.220821
 40
1.000000
 50
269.999984
 51
353.999997
  0
LINE
  8
CSLAYER1
  6
CONTINUOUS
 62
     6
 10
217.166668
 20
294.116329
 11
217.814617
 21
300.281551
  0
ARC
  8
CSLAYER1
  6
CONTINUOUS
 62
     6
 10
218.809185
 20
300.176998
 40
1.000000
 50
89.999999
 51
173.999974
  0
LINE
  8
CSLAYER1
  6
CONTINUOUS
 62
     6
 10
219.072582
 20
298.220821
 11
217.597515
 21
298.220821
  0
LINE
  8
CSLAYER1
  6
CONTINUOUS
 62
     6
 10
217.166668
 20
298.116329
 11
217.864300
 21
304.753780
  0
ARC
  8
CSLAYER1
  6
CONTINUOUS
 62
     6
 10
218.858807
 20
304.649288
 40
1.000000
 50
89.999999
 51
173.999974
  0
LINE
  8
CSLAYER1
  6
CONTINUOUS
 62
     6
 10
213.715618
 20
305.827633
 11
181.758526
 21
305.827633
  0
LINE
  8
CSLAYER1
  6
CONTINUOUS
 62
     6
 10
178.280804
 20
304.753780
 11
178.978436
 21
298.116329
  0
ARC
  8
CSLAYER1
  6
CONTINUOUS
 62
     6
 10
179.972943
 20
298.220821
 40
1.000000
 50
186.000002
 51
269.999997
  0
LINE
  8
CSLAYER1
  6
CONTINUOUS
 62
     6
 10
179.972943
 20
297.220821
 11
216.172100
 21
297.220821
  0
ARC
  8
CSLAYER1
  6
CONTINUOUS
 62
     6
 10
216.172100
 20
298.220821
 40
1.000000
 50
269.999984
 51
353.999997
  0
LINE
  8
CSLAYER1
  6
CONTINUOUS
 62
     6
 10
219.072582
 20
297.276577
 11
219.072582
 21
387.276577
  0
LINE
  8
CSLAYER1
  6
CONTINUOUS
 62
     6
 10
219.072582
 20
387.276577
 11
300.616765
 21
387.276577
  0
ARC
  8
CSLAYER1
  6
CONTINUOUS
 62
     6
 10
302.429340
 20
387.036697
 40
1.810349
 50
95.000111
 51
163.742611
  0
LINE
  8
CSLAYER1
  6
CONTINUOUS
 62
     6
 10
302.271553
 20
388.840167
 11
303.411750
 21
388.939916
  0
ARC
  8
CSLAYER1
  6
CONTINUOUS
 62
     6
 10
303.443352
 20
388.579233
 40
0.362070
 50
0.000000
 51
95.000152
  0
ARC
  8
CSLAYER1
  6
CONTINUOUS
 62
     6
 10
303.986434
 20
389.064858
 40
0.181035
 50
90.000003
 51
180.000005
  0
LINE
  8
CSLAYER1
  6
CONTINUOUS
 62
     6
 10
303.986434
 20
389.245904
 11
304.891609
 21
389.245904
  0
ARC
  8
CSLAYER1
  6
CONTINUOUS
 62
     6
 10
304.891609
 20
389.064858
 40
0.181035
 50
0.000000
 51
90.000003
  0
LINE
  8
CSLAYER1
  6
CONTINUOUS
 62
     6
 10
303.805444
 20
389.064858
 11
303.805444
 21
378.926950
  0
ARC
  8
CSLAYER1
  6
CONTINUOUS
 62
     6
 10
303.986434
 20
378.926950
 40
0.181035
 50
180.000005
 51
270.000001
  0
LINE
  8
CSLAYER1
  6
CONTINUOUS
 62
     6
 10
303.986434
 20
378.745904
 11
304.891609
 21
378.745904
  0
ARC
  8
CSLAYER1
  6
CONTINUOUS
 62
     6
 10
304.891609
 20
378.926950
 40
0.181035
 50
270.000001
 51
359.942691
  0
LINE
  8
CSLAYER1
  6
CONTINUOUS
 62
     6
 10
304.072582
 20
378.745904
 11
304.072582
 21
305.807304
  0
LINE
  8
CSLAYER1
  6
CONTINUOUS
 62
     6
 10
303.986434
 20
305.807304
 11
304.891609
 21
305.807304
  0
ARC
  8
CSLAYER1
  6
CONTINUOUS
 62
     6
 10
304.891609
 20
305.626258
 40
0.181035
 50
0.000000
 51
90.000003
  0
ARC
  8
CSLAYER1
  6
CONTINUOUS
 62
     6
 10
303.986434
 20
305.626258
 40
0.181035
 50
90.000003
 51
180.000005
  0
LINE
  8
CSLAYER1
  6
CONTINUOUS
 62
     6
 10
303.805444
 20
305.626258
 11
303.805444
 21
295.488350
  0
ARC
  8
CSLAYER1
  6
CONTINUOUS
 62
     6
 10
303.986434
 20
295.488350
 40
0.181035
 50
180.000005
 51
270.000001
  0
LINE
  8
CSLAYER1
  6
CONTINUOUS
 62
     6
 10
303.986434
 20
295.307304
 11
304.891609
 21
295.307304
  0
ARC
  8
CSLAYER1
  6
CONTINUOUS
 62
     6
 10
304.891609
 20
295.488350
 40
0.181035
 50
270.000001
 51
359.942691
  0
ARC
  8
CSLAYER1
  6
CONTINUOUS
 62
     6
 10
303.443352
 20
295.973975
 40
0.362070
 50
264.999865
 51
359.942691
  0
LINE
  8
CSLAYER1
  6
CONTINUOUS
 62
     6
 10
303.411750
 20
295.613292
 11
302.271553
 21
295.713042
  0
ARC
  8
CSLAYER1
  6
CONTINUOUS
 62
     6
 10
302.429340
 20
297.516512
 40
1.810349
 50
196.257399
 51
264.999892
  0
ARC
  8
CSLAYER1
  6
CONTINUOUS
 62
     6
 10
312.857187
 20
300.557304
 40
12.672440
 50
163.742994
 51
196.257016
  0
ARC
  8
CSLAYER1
  6
CONTINUOUS
 62
     6
 10
302.429340
 20
303.598097
 40
1.810349
 50
95.000111
 51
163.742611
  0
LINE
  8
CSLAYER1
  6
CONTINUOUS
 62
     6
 10
302.271553
 20
305.401567
 11
303.411750
 21
305.501316
  0
ARC
  8
CSLAYER1
  6
CONTINUOUS
 62
     6
 10
303.443352
 20
305.140633
 40
0.362070
 50
0.000000
 51
95.000152
  0
LINE
  8
CSLAYER1
  6
CONTINUOUS
 62
     6
 10
305.072655
 20
301.187180
 11
303.805444
 21
300.383634
  0
LINE
  8
CSLAYER1
  6
CONTINUOUS
 62
     6
 10
303.805444
 20
299.478459
 11
305.072655
 21
300.282006
  0
LINE
  8
CSLAYER1
  6
CONTINUOUS
 62
     6
 10
300.616779
 20
297.276577
 11
219.072582
 21
297.276577
  0
LINE
  8
CSLAYER1
  6
CONTINUOUS
 62
     6
 10
216.172100
 20
293.220821
 11
179.972943
 21
293.220821
  0
ARC
  8
CSLAYER1
  6
CONTINUOUS
 62
     6
 10
179.972943
 20
294.220821
 40
1.000000
 50
186.000002
 51
269.999997
  0
LINE
  8
CSLAYER1
  6
CONTINUOUS
 62
     6
 10
178.978436
 20
294.116329
 11
178.330425
 21
300.281551
  0
ARC
  8
CSLAYER1
  6
CONTINUOUS
 62
     6
 10
177.335919
 20
300.176998
 40
1.000000
 50
6.000011
 51
89.999999
  0
LINE
  8
CSLAYER1
  6
CONTINUOUS
 62
     6
 10
178.546978
 20
298.220821
 11
167.072552
 21
298.220821
  0
LINE
  8
CSLAYER1
  6
CONTINUOUS
 62
     6
 10
167.072552
 20
298.220821
 11
166.072552
 21
299.220821
  0
LINE
  8
CSLAYER1
  6
CONTINUOUS
 62
     6
 10
166.072582
 20
299.220806
 11
166.072582
 21
385.220806
  0
LINE
  8
CSLAYER1
  6
CONTINUOUS
 62
     6
 10
166.072582
 20
385.220806
 11
167.072582
 21
386.220806
  0
LINE
  8
CSLAYER1
  6
CONTINUOUS
 62
     6
 10
167.072582
 20
386.220806
 11
167.072582
 21
298.220806
  0
LINE
  8
CSLAYER1
  6
CONTINUOUS
 62
     6
 10
167.072582
 20
298.220806
 11
166.072582
 21
299.220806
  0
ARC
  8
CSLAYER1
  6
CONTINUOUS
 62
     6
 10
177.286236
 20
304.649288
 40
1.000000
 50
6.000011
 51
89.999999
  0
LINE
  8
CSLAYER1
  6
CONTINUOUS
 62
     6
 10
181.758526
 20
378.614010
 11
213.715618
 21
378.614010
  0
ARC
  8
CSLAYER1
  6
CONTINUOUS
 62
     6
 10
218.858807
 20
379.792415
 40
1.000000
 50
186.000016
 51
269.999991
  0
LINE
  8
CSLAYER1
  6
CONTINUOUS
 62
     6
 10
217.864300
 20
379.687862
 11
217.166668
 21
386.325374
  0
ARC
  8
CSLAYER1
  6
CONTINUOUS
 62
     6
 10
216.172100
 20
386.220821
 40
1.000000
 50
5.999983
 51
89.999999
  0
LINE
  8
CSLAYER1
  6
CONTINUOUS
 62
     6
 10
216.172100
 20
387.220821
 11
179.972943
 21
387.220821
  0
ARC
  8
CSLAYER1
  6
CONTINUOUS
 62
     6
 10
179.972943
 20
386.220821
 40
1.000000
 50
89.999999
 51
173.999988
  0
LINE
  8
CSLAYER1
  6
CONTINUOUS
 62
     6
 10
178.978436
 20
386.325374
 11
178.280804
 21
379.687862
  0
ARC
  8
CSLAYER1
  6
CONTINUOUS
 62
     6
 10
177.286236
 20
379.792415
 40
1.000000
 50
269.999991
 51
353.999979
  0
ARC
  8
CSLAYER1
  6
CONTINUOUS
 62
     6
 10
177.335919
 20
384.264644
 40
1.000000
 50
269.999991
 51
353.999979
  0
LINE
  8
CSLAYER1
  6
CONTINUOUS
 62
     6
 10
178.330425
 20
384.160091
 11
178.978436
 21
390.325374
  0
ARC
  8
CSLAYER1
  6
CONTINUOUS
 62
     6
 10
179.972943
 20
390.220821
 40
1.000000
 50
89.999999
 51
173.999988
  0
LINE
  8
CSLAYER1
  6
CONTINUOUS
 62
     6
 10
179.972943
 20
391.220821
 11
216.172100
 21
391.220821
  0
ARC
  8
CSLAYER1
  6
CONTINUOUS
 62
     6
 10
216.172100
 20
390.220821
 40
1.000000
 50
5.999983
 51
89.999999
  0
LINE
  8
CSLAYER1
  6
CONTINUOUS
 62
     6
 10
217.166668
 20
390.325374
 11
217.814617
 21
384.160091
  0
ARC
  8
CSLAYER1
  6
CONTINUOUS
 62
     6
 10
218.809185
 20
384.264644
 40
1.000000
 50
186.000016
 51
269.999991
  0
LINE
  8
CSLAYER1
  6
CONTINUOUS
 62
     6
 10
219.072582
 20
386.220821
 11
217.597515
 21
386.220821
  0
LINE
  8
CSLAYER1
  6
CONTINUOUS
 62
     6
 10
178.546978
 20
386.220821
 11
167.072552
 21
386.220821
  0
LINE
  8
CSLAYER1
  6
CONTINUOUS
 62
     6
 10
167.072552
 20
386.220821
 11
166.072552
 21
385.220821
  0
ARC
  8
CSLAYER1
  6
CONTINUOUS
 62
     6
 10
312.857187
 20
383.995904
 40
12.672440
 50
163.742994
 51
196.257016
  0
ARC
  8
CSLAYER1
  6
CONTINUOUS
 62
     6
 10
302.429340
 20
380.955112
 40
1.810349
 50
196.257399
 51
264.999892
  0
LINE
  8
CSLAYER1
  6
CONTINUOUS
 62
     6
 10
302.271553
 20
379.151642
 11
303.411750
 21
379.051892
  0
ARC
  8
CSLAYER1
  6
CONTINUOUS
 62
     6
 10
303.443352
 20
379.412575
 40
0.362070
 50
264.999865
 51
359.942691
  0
LINE
  8
CSLAYER1
  6
CONTINUOUS
 62
     6
 10
303.805444
 20
382.917060
 11
305.072655
 21
383.720606
  0
LINE
  8
CSLAYER1
  6
CONTINUOUS
 62
     6
 10
305.072655
 20
384.625781
 11
303.805444
 21
383.822234
  0
LINE
  8
CSLAYER1
  6
CONTINUOUS
 62
     6
 10
311.072582
 20
382.276577
 11
311.072582
 21
302.276577
  0
LINE
  8
CSLAYER1
  6
CONTINUOUS
 62
     6
 10
315.072582
 20
292.276577
 11
305.072643
 21
292.276577
  0
LINE
  8
CSLAYER1
  6
CONTINUOUS
 62
     6
 10
305.072643
 20
292.276577
 11
305.072643
 21
315.215328
  0
LINE
  8
CSLAYER1
  6
CONTINUOUS
 62
     6
 10
305.072643
 20
369.337795
 11
305.072643
 21
392.276577
  0
LINE
  8
CSLAYER1
  6
CONTINUOUS
 62
     6
 10
305.072552
 20
392.276577
 11
315.072552
 21
392.276577
  0
LINE
  8
CSLAYER1
  6
CONTINUOUS
 62
     6
 10
315.072582
 20
407.276577
 11
315.072582
 21
277.276577
  0
LINE
  8
CSLAYER1
  6
CONTINUOUS
 62
     6
 10
315.072582
 20
277.276577
 11
341.072582
 21
277.276577
  0
LINE
  8
CSLAYER1
  6
CONTINUOUS
 62
     6
 10
341.072582
 20
277.276577
 11
341.072582
 21
407.276577
  0
LINE
  8
CSLAYER1
  6
CONTINUOUS
 62
     6
 10
341.072582
 20
407.276577
 11
315.072582
 21
407.276577
  0
LINE
  8
CSLAYER1
  6
CONTINUOUS
 62
     6
 10
333.072582
 20
407.276577
 11
333.072582
 21
277.276577
  0
LINE
  8
CSLAYER1
  6
CONTINUOUS
 62
     6
 10
333.072582
 20
272.276577
 11
333.072582
 21
142.276577
  0
LINE
  8
CSLAYER1
  6
CONTINUOUS
 62
     6
 10
333.072582
 20
137.276577
 11
333.072582
 21
7.276577
  0
LINE
  8
CSLAYER1
  6
CONTINUOUS
 62
     6
 10
341.072582
 20
7.276577
 11
341.072582
 21
137.276577
  0
LINE
  8
CSLAYER1
  6
CONTINUOUS
 62
     6
 10
341.072582
 20
137.276577
 11
315.072582
 21
137.276577
  0
LINE
  8
CSLAYER1
  6
CONTINUOUS
 62
     6
 10
315.072582
 20
137.276577
 11
315.072582
 21
7.276577
  0
LINE
  8
CSLAYER1
  6
CONTINUOUS
 62
     6
 10
315.072582
 20
7.276577
 11
341.072582
 21
7.276577
  0
LINE
  8
CSLAYER1
  6
CONTINUOUS
 62
     6
 10
341.072582
 20
19.776577
 11
375.572582
 21
19.776577
  0
ARC
  8
CSLAYER1
  6
CONTINUOUS
 62
     6
 10
375.572582
 20
24.276577
 40
4.500000
 50
270.000000
 51
360.000000
  0
LINE
  8
CSLAYER1
  6
CONTINUOUS
 62
     6
 10
380.072582
 20
24.276577
 11
380.072582
 21
120.276577
  0
ARC
  8
CSLAYER1
  6
CONTINUOUS
 62
     6
 10
375.572582
 20
120.276577
 40
4.500000
 50
0.000000
 51
90.000000
  0
LINE
  8
CSLAYER1
  6
CONTINUOUS
 62
     6
 10
375.572582
 20
124.776577
 11
341.072582
 21
124.776577
  0
LINE
  8
CSLAYER1
  6
CONTINUOUS
 62
     6
 10
341.072582
 20
142.276577
 11
341.072582
 21
272.276577
  0
LINE
  8
CSLAYER1
  6
CONTINUOUS
 62
     6
 10
341.072582
 20
272.276577
 11
315.072582
 21
272.276577
  0
LINE
  8
CSLAYER1
  6
CONTINUOUS
 62
     6
 10
315.072582
 20
272.276577
 11
315.072582
 21
142.276577
  0
LINE
  8
CSLAYER1
  6
CONTINUOUS
 62
     6
 10
315.072582
 20
142.276577
 11
341.072582
 21
142.276577
  0
LINE
  8
CSLAYER1
  6
CONTINUOUS
 62
     6
 10
341.072582
 20
154.776577
 11
375.572582
 21
154.776577
  0
ARC
  8
CSLAYER1
  6
CONTINUOUS
 62
     6
 10
375.572582
 20
159.276577
 40
4.500000
 50
270.000000
 51
360.000000
  0
LINE
  8
CSLAYER1
  6
CONTINUOUS
 62
     6
 10
380.072582
 20
159.276577
 11
380.072582
 21
255.276577
  0
ARC
  8
CSLAYER1
  6
CONTINUOUS
 62
     6
 10
375.572582
 20
255.276577
 40
4.500000
 50
0.000000
 51
90.000000
  0
LINE
  8
CSLAYER1
  6
CONTINUOUS
 62
     6
 10
375.572582
 20
259.776577
 11
341.072582
 21
259.776577
  0
LINE
  8
CSLAYER1
  6
CONTINUOUS
 62
     6
 10
315.072582
 20
257.276577
 11
305.072582
 21
257.276577
  0
LINE
  8
CSLAYER1
  6
CONTINUOUS
 62
     6
 10
305.072582
 20
257.276577
 11
305.072582
 21
234.337825
  0
LINE
  8
CSLAYER1
  6
CONTINUOUS
 62
     6
 10
311.072582
 20
247.276577
 11
311.072582
 21
167.276577
  0
LINE
  8
CSLAYER1
  6
CONTINUOUS
 62
     6
 10
305.072594
 20
166.187180
 11
303.805383
 21
165.383634
  0
LINE
  8
CSLAYER1
  6
CONTINUOUS
 62
     6
 10
303.805383
 20
164.478459
 11
305.072594
 21
165.282006
  0
ARC
  8
CSLAYER1
  6
CONTINUOUS
 62
     6
 10
304.891548
 20
160.488350
 40
0.181035
 50
270.000001
 51
359.942691
  0
LINE
  8
CSLAYER1
  6
CONTINUOUS
 62
     6
 10
304.891548
 20
160.307304
 11
303.986373
 21
160.307304
  0
ARC
  8
CSLAYER1
  6
CONTINUOUS
 62
     6
 10
303.986373
 20
160.488350
 40
0.181035
 50
180.000005
 51
270.000001
  0
LINE
  8
CSLAYER1
  6
CONTINUOUS
 62
     6
 10
305.072491
 20
157.276577
 11
315.072552
 21
157.276577
  0
LINE
  8
CSLAYER1
  6
CONTINUOUS
 62
     6
 10
305.072582
 20
157.276577
 11
305.072582
 21
180.215358
  0
ARC
  8
CSLAYER1
  6
CONTINUOUS
 62
     6
 10
303.443291
 20
170.140633
 40
0.362070
 50
0.000000
 51
95.000152
  0
LINE
  8
CSLAYER1
  6
CONTINUOUS
 62
     6
 10
303.411689
 20
170.501316
 11
302.271492
 21
170.401567
  0
ARC
  8
CSLAYER1
  6
CONTINUOUS
 62
     6
 10
302.429279
 20
168.598097
 40
1.810349
 50
95.000111
 51
163.742611
  0
ARC
  8
CSLAYER1
  6
CONTINUOUS
 62
     6
 10
312.857126
 20
165.557304
 40
12.672440
 50
163.742994
 51
196.257016
  0
LINE
  8
CSLAYER1
  6
CONTINUOUS
 62
     6
 10
305.072643
 20
122.276577
 11
315.072582
 21
122.276577
  0
LINE
  8
CSLAYER1
  6
CONTINUOUS
 62
     6
 10
305.072643
 20
122.276577
 11
305.072643
 21
99.337825
  0
LINE
  8
CSLAYER1
  6
CONTINUOUS
 62
     6
 10
305.072643
 20
45.215358
 11
305.072643
 21
22.276577
  0
LINE
  8
CSLAYER1
  6
CONTINUOUS
 62
     6
 10
305.072552
 20
22.276577
 11
315.072552
 21
22.276577
  0
ARC
  8
CSLAYER1
  6
CONTINUOUS
 62
     6
 10
304.891609
 20
25.488350
 40
0.181035
 50
270.000001
 51
359.942691
  0
LINE
  8
CSLAYER1
  6
CONTINUOUS
 62
     6
 10
304.891609
 20
25.307304
 11
303.986434
 21
25.307304
  0
ARC
  8
CSLAYER1
  6
CONTINUOUS
 62
     6
 10
303.986434
 20
25.488350
 40
0.181035
 50
180.000005
 51
270.000001
  0
LINE
  8
CSLAYER1
  6
CONTINUOUS
 62
     6
 10
303.805444
 20
25.488350
 11
303.805444
 21
35.626258
  0
ARC
  8
CSLAYER1
  6
CONTINUOUS
 62
     6
 10
303.986434
 20
35.626258
 40
0.181035
 50
90.000003
 51
180.000005
  0
LINE
  8
CSLAYER1
  6
CONTINUOUS
 62
     6
 10
303.986434
 20
35.807304
 11
304.891609
 21
35.807304
  0
ARC
  8
CSLAYER1
  6
CONTINUOUS
 62
     6
 10
304.891609
 20
35.626258
 40
0.181035
 50
0.000000
 51
90.000003
  0
LINE
  8
CSLAYER1
  6
CONTINUOUS
 62
     6
 10
304.072582
 20
35.807304
 11
304.072582
 21
108.745904
  0
ARC
  8
CSLAYER1
  6
CONTINUOUS
 62
     6
 10
303.986434
 20
108.926950
 40
0.181035
 50
180.000005
 51
270.000001
  0
LINE
  8
CSLAYER1
  6
CONTINUOUS
 62
     6
 10
303.805444
 20
108.926950
 11
303.805444
 21
119.064858
  0
ARC
  8
CSLAYER1
  6
CONTINUOUS
 62
     6
 10
303.986434
 20
119.064858
 40
0.181035
 50
90.000003
 51
180.000005
  0
LINE
  8
CSLAYER1
  6
CONTINUOUS
 62
     6
 10
303.986434
 20
119.245904
 11
304.891609
 21
119.245904
  0
ARC
  8
CSLAYER1
  6
CONTINUOUS
 62
     6
 10
304.891609
 20
119.064858
 40
0.181035
 50
0.000000
 51
90.000003
  0
ARC
  8
CSLAYER1
  6
CONTINUOUS
 62
     6
 10
303.443352
 20
118.579233
 40
0.362070
 50
0.000000
 51
95.000152
  0
LINE
  8
CSLAYER1
  6
CONTINUOUS
 62
     6
 10
303.411750
 20
118.939916
 11
302.271553
 21
118.840167
  0
ARC
  8
CSLAYER1
  6
CONTINUOUS
 62
     6
 10
302.429340
 20
117.036697
 40
1.810349
 50
95.000111
 51
163.742611
  0
ARC
  8
CSLAYER1
  6
CONTINUOUS
 62
     6
 10
312.857187
 20
113.995904
 40
12.672440
 50
163.742994
 51
196.257016
  0
ARC
  8
CSLAYER1
  6
CONTINUOUS
 62
     6
 10
302.429340
 20
110.955112
 40
1.810349
 50
196.257399
 51
264.999892
  0
LINE
  8
CSLAYER1
  6
CONTINUOUS
 62
     6
 10
302.271553
 20
109.151642
 11
303.411750
 21
109.051892
  0
ARC
  8
CSLAYER1
  6
CONTINUOUS
 62
     6
 10
303.443352
 20
109.412575
 40
0.362070
 50
264.999865
 51
359.942691
  0
LINE
  8
CSLAYER1
  6
CONTINUOUS
 62
     6
 10
303.986434
 20
108.745904
 11
304.891609
 21
108.745904
  0
ARC
  8
CSLAYER1
  6
CONTINUOUS
 62
     6
 10
304.891609
 20
108.926950
 40
0.181035
 50
270.000001
 51
359.942691
  0
LINE
  8
CSLAYER1
  6
CONTINUOUS
 62
     6
 10
303.805444
 20
112.917060
 11
305.072655
 21
113.720606
  0
LINE
  8
CSLAYER1
  6
CONTINUOUS
 62
     6
 10
305.072655
 20
114.625781
 11
303.805444
 21
113.822234
  0
LINE
  8
CSLAYER1
  6
CONTINUOUS
 62
     6
 10
300.616765
 20
117.276577
 11
219.072582
 21
117.276577
  0
LINE
  8
CSLAYER1
  6
CONTINUOUS
 62
     6
 10
219.072582
 20
117.276577
 11
219.072582
 21
27.276577
  0
LINE
  8
CSLAYER1
  6
CONTINUOUS
 62
     6
 10
219.072582
 20
27.276577
 11
300.616779
 21
27.276577
  0
ARC
  8
CSLAYER1
  6
CONTINUOUS
 62
     6
 10
302.429340
 20
27.516512
 40
1.810349
 50
196.257399
 51
264.999892
  0
LINE
  8
CSLAYER1
  6
CONTINUOUS
 62
     6
 10
302.271553
 20
25.713042
 11
303.411750
 21
25.613292
  0
ARC
  8
CSLAYER1
  6
CONTINUOUS
 62
     6
 10
303.443352
 20
25.973975
 40
0.362070
 50
264.999865
 51
359.942691
  0
ARC
  8
CSLAYER1
  6
CONTINUOUS
 62
     6
 10
312.857187
 20
30.557304
 40
12.672440
 50
163.742994
 51
196.257016
  0
ARC
  8
CSLAYER1
  6
CONTINUOUS
 62
     6
 10
302.429340
 20
33.598097
 40
1.810349
 50
95.000111
 51
163.742611
  0
LINE
  8
CSLAYER1
  6
CONTINUOUS
 62
     6
 10
302.271553
 20
35.401567
 11
303.411750
 21
35.501316
  0
ARC
  8
CSLAYER1
  6
CONTINUOUS
 62
     6
 10
303.443352
 20
35.140633
 40
0.362070
 50
0.000000
 51
95.000152
  0
LINE
  8
CSLAYER1
  6
CONTINUOUS
 62
     6
 10
305.072655
 20
31.187180
 11
303.805444
 21
30.383634
  0
LINE
  8
CSLAYER1
  6
CONTINUOUS
 62
     6
 10
303.805444
 20
29.478459
 11
305.072655
 21
30.282006
  0
LINE
  8
CSLAYER1
  6
CONTINUOUS
 62
     6
 10
311.072582
 20
32.276577
 11
311.072582
 21
112.276577
  0
ARC
  8
CSLAYER1
  6
CONTINUOUS
 62
     6
 10
384.072582
 20
105.276577
 40
4.000000
 50
180.000000
 51
270.000000
  0
LINE
  8
CSLAYER1
  6
CONTINUOUS
 62
     6
 10
384.072582
 20
101.276577
 11
403.072582
 21
101.276577
  0
ARC
  8
CSLAYER1
  6
CONTINUOUS
 62
     6
 10
403.072582
 20
97.276577
 40
4.000000
 50
0.000000
 51
90.000000
  0
LINE
  8
CSLAYER1
  6
CONTINUOUS
 62
     6
 10
407.072582
 20
97.276577
 11
407.072582
 21
47.276577
  0
ARC
  8
CSLAYER1
  6
CONTINUOUS
 62
     6
 10
403.072582
 20
47.276577
 40
4.000000
 50
270.000000
 51
360.000000
  0
LINE
  8
CSLAYER1
  6
CONTINUOUS
 62
     6
 10
403.072582
 20
43.276577
 11
384.072582
 21
43.276577
  0
ARC
  8
CSLAYER1
  6
CONTINUOUS
 62
     6
 10
384.072582
 20
39.276577
 40
4.000000
 50
90.000000
 51
180.000000
  0
ARC
  8
CSLAYER1
  6
CONTINUOUS
 62
     6
 10
407.072582
 20
55.276577
 40
1.000000
 50
270.000000
 51
360.000000
  0
LINE
  8
CSLAYER1
  6
CONTINUOUS
 62
     6
 10
408.072582
 20
55.276577
 11
408.072582
 21
89.276577
  0
ARC
  8
CSLAYER1
  6
CONTINUOUS
 62
     6
 10
407.072582
 20
89.276577
 40
1.000000
 50
0.000000
 51
90.000000
  0
LINE
  8
CSLAYER1
  6
CONTINUOUS
 62
     6
 10
408.072582
 20
82.276577
 11
409.072582
 21
82.276577
  0
LINE
  8
CSLAYER1
  6
CONTINUOUS
 62
     6
 10
409.072582
 20
82.276577
 11
409.072582
 21
62.276577
  0
LINE
  8
CSLAYER1
  6
CONTINUOUS
 62
     6
 10
409.072582
 20
62.276577
 11
408.072582
 21
62.276577
  0
LINE
  8
CSLAYER1
  6
CONTINUOUS
 62
     6
 10
409.072582
 20
63.276577
 11
437.072582
 21
63.276577
  0
LINE
  8
CSLAYER1
  6
CONTINUOUS
 62
     6
 10
437.072582
 20
63.276577
 11
437.072582
 21
81.276577
  0
LINE
  8
CSLAYER1
  6
CONTINUOUS
 62
     6
 10
437.072582
 20
81.276577
 11
409.072582
 21
81.276577
  0
ARC
  8
CSLAYER1
  6
CONTINUOUS
 62
     6
 10
403.072582
 20
182.276577
 40
4.000000
 50
270.000000
 51
360.000000
  0
LINE
  8
CSLAYER1
  6
CONTINUOUS
 62
     6
 10
407.072582
 20
182.276577
 11
407.072582
 21
232.276577
  0
ARC
  8
CSLAYER1
  6
CONTINUOUS
 62
     6
 10
403.072582
 20
232.276577
 40
4.000000
 50
0.000000
 51
90.000000
  0
LINE
  8
CSLAYER1
  6
CONTINUOUS
 62
     6
 10
403.072582
 20
236.276577
 11
384.072582
 21
236.276577
  0
ARC
  8
CSLAYER1
  6
CONTINUOUS
 62
     6
 10
384.072582
 20
240.276577
 40
4.000000
 50
180.000000
 51
270.000000
  0
ARC
  8
CSLAYER1
  6
CONTINUOUS
 62
     6
 10
407.072582
 20
224.276577
 40
1.000000
 50
0.000000
 51
90.000000
  0
LINE
  8
CSLAYER1
  6
CONTINUOUS
 62
     6
 10
408.072582
 20
224.276577
 11
408.072582
 21
190.276577
  0
ARC
  8
CSLAYER1
  6
CONTINUOUS
 62
     6
 10
407.072582
 20
190.276577
 40
1.000000
 50
270.000000
 51
360.000000
  0
LINE
  8
CSLAYER1
  6
CONTINUOUS
 62
     6
 10
408.072582
 20
197.276577
 11
409.072582
 21
197.276577
  0
LINE
  8
CSLAYER1
  6
CONTINUOUS
 62
     6
 10
409.072582
 20
197.276577
 11
409.072582
 21
217.276577
  0
LINE
  8
CSLAYER1
  6
CONTINUOUS
 62
     6
 10
409.072582
 20
217.276577
 11
408.072582
 21
217.276577
  0
LINE
  8
CSLAYER1
  6
CONTINUOUS
 62
     6
 10
409.072582
 20
216.276577
 11
437.072582
 21
216.276577
  0
LINE
  8
CSLAYER1
  6
CONTINUOUS
 62
     6
 10
437.072582
 20
216.276577
 11
437.072582
 21
198.276577
  0
LINE
  8
CSLAYER1
  6
CONTINUOUS
 62
     6
 10
437.072582
 20
198.276577
 11
409.072582
 21
198.276577
  0
ARC
  8
CSLAYER1
  6
CONTINUOUS
 62
     6
 10
414.572582
 20
207.276577
 40
2.500000
 50
90.000000
 51
270.000000
  0
LINE
  8
CSLAYER1
  6
CONTINUOUS
 62
     6
 10
414.572582
 20
209.776577
 11
437.072582
 21
209.776577
  0
LINE
  8
CSLAYER1
  6
CONTINUOUS
 62
     6
 10
437.072582
 20
204.776577
 11
414.572582
 21
204.776577
  0
LINE
  8
CSLAYER1
  6
CONTINUOUS
 62
     6
 10
403.072582
 20
178.276577
 11
384.072582
 21
178.276577
  0
ARC
  8
CSLAYER1
  6
CONTINUOUS
 62
     6
 10
384.072582
 20
174.276577
 40
4.000000
 50
90.000000
 51
180.000000
  0
LINE
  8
CSLAYER1
  6
CONTINUOUS
 62
     6
 10
465.174633
 20
176.802028
 11
465.735241
 21
177.362636
  0
ARC
  8
CSLAYER1
  6
CONTINUOUS
 62
     6
 10
465.321301
 20
177.776638
 40
0.585442
 50
-45.000008
 51
44.942682
  0
LINE
  8
CSLAYER1
  6
CONTINUOUS
 62
     6
 10
465.735241
 20
178.190548
 11
465.174633
 21
178.751094
  0
ARC
  8
CSLAYER1
  6
CONTINUOUS
 62
     6
 10
466.977184
 20
177.776546
 40
2.049047
 50
118.398420
 51
151.601581
  0
LINE
  8
CSLAYER1
  6
CONTINUOUS
 62
     6
 10
466.002575
 20
179.579067
 11
466.563183
 21
179.018489
  0
ARC
  8
CSLAYER1
  6
CONTINUOUS
 62
     6
 10
466.977062
 20
179.432430
 40
0.585442
 50
225.000010
 51
314.999992
  0
LINE
  8
CSLAYER1
  6
CONTINUOUS
 62
     6
 10
467.391064
 20
179.018459
 11
467.951672
 21
179.579067
  0
ARC
  8
CSLAYER1
  6
CONTINUOUS
 62
     6
 10
466.977184
 20
177.776546
 40
2.049047
 50
28.398434
 51
61.601565
  0
LINE
  8
CSLAYER1
  6
CONTINUOUS
 62
     6
 10
468.779614
 20
178.751125
 11
468.219067
 21
178.190517
  0
ARC
  8
CSLAYER1
  6
CONTINUOUS
 62
     6
 10
468.633068
 20
177.776546
 40
0.585442
 50
135.000000
 51
225.000010
  0
LINE
  8
CSLAYER1
  6
CONTINUOUS
 62
     6
 10
468.219067
 20
177.362575
 11
468.779614
 21
176.802028
  0
ARC
  8
CSLAYER1
  6
CONTINUOUS
 62
     6
 10
466.977184
 20
177.776546
 40
2.049047
 50
298.398425
 51
331.601586
  0
LINE
  8
CSLAYER1
  6
CONTINUOUS
 62
     6
 10
467.951672
 20
175.974086
 11
467.391125
 21
176.534633
  0
ARC
  8
CSLAYER1
  6
CONTINUOUS
 62
     6
 10
466.977184
 20
176.120693
 40
0.585442
 50
45.000011
 51
134.942695
  0
LINE
  8
CSLAYER1
  6
CONTINUOUS
 62
     6
 10
466.563183
 20
176.534664
 11
466.002575
 21
175.974086
  0
ARC
  8
CSLAYER1
  6
CONTINUOUS
 62
     6
 10
466.977184
 20
177.776546
 40
2.049047
 50
208.398429
 51
241.601577
  0
CIRCLE
  8
CSLAYER1
  6
CONTINUOUS
 62
     6
 10
466.977184
 20
177.776546
 40
3.499925
  0
CIRCLE
  8
CSLAYER1
  6
CONTINUOUS
 62
     6
 10
466.977184
 20
177.776546
 40
4.000000
  0
LINE
  8
CSLAYER1
  6
CONTINUOUS
 62
     6
 10
468.072582
 20
165.743457
 11
468.072582
 21
164.776577
  0
ARC
  8
CSLAYER1
  6
CONTINUOUS
 62
     6
 10
475.572582
 20
164.776577
 40
7.500000
 50
180.000000
 51
270.000000
  0
LINE
  8
CSLAYER1
  6
CONTINUOUS
 62
     6
 10
475.572582
 20
157.276577
 11
476.539463
 21
157.276577
  0
CIRCLE
  8
CSLAYER1
  6
CONTINUOUS
 62
     6
 10
518.072582
 20
148.276577
 40
3.250000
  0
LINE
  8
CSLAYER1
  6
CONTINUOUS
 62
     6
 10
545.770092
 20
155.206569
 11
546.330700
 21
155.767116
  0
ARC
  8
CSLAYER1
  6
CONTINUOUS
 62
     6
 10
545.916760
 20
156.181057
 40
0.585442
 50
-45.000008
 51
44.942682
  0
LINE
  8
CSLAYER1
  6
CONTINUOUS
 62
     6
 10
546.330700
 20
156.595058
 11
545.770092
 21
157.155605
  0
ARC
  8
CSLAYER1
  6
CONTINUOUS
 62
     6
 10
547.572643
 20
156.181087
 40
2.049047
 50
118.398447
 51
151.601581
  0
LINE
  8
CSLAYER1
  6
CONTINUOUS
 62
     6
 10
546.598034
 20
157.983577
 11
547.158642
 21
157.423000
  0
ARC
  8
CSLAYER1
  6
CONTINUOUS
 62
     6
 10
547.572643
 20
157.836971
 40
0.585442
 50
225.000010
 51
314.999992
  0
LINE
  8
CSLAYER1
  6
CONTINUOUS
 62
     6
 10
547.986584
 20
157.423000
 11
548.547131
 21
157.983547
  0
ARC
  8
CSLAYER1
  6
CONTINUOUS
 62
     6
 10
547.572643
 20
156.181087
 40
2.049047
 50
28.398407
 51
61.601592
  0
LINE
  8
CSLAYER1
  6
CONTINUOUS
 62
     6
 10
549.375073
 20
157.155605
 11
548.814526
 21
156.595058
  0
ARC
  8
CSLAYER1
  6
CONTINUOUS
 62
     6
 10
549.228527
 20
156.181087
 40
0.585442
 50
135.000014
 51
224.942691
  0
LINE
  8
CSLAYER1
  6
CONTINUOUS
 62
     6
 10
548.814526
 20
155.767116
 11
549.375073
 21
155.206508
  0
ARC
  8
CSLAYER1
  6
CONTINUOUS
 62
     6
 10
547.572643
 20
156.181087
 40
2.049047
 50
298.398425
 51
331.601586
  0
LINE
  8
CSLAYER1
  6
CONTINUOUS
 62
     6
 10
548.547131
 20
154.378566
 11
547.986584
 21
154.939174
  0
ARC
  8
CSLAYER1
  6
CONTINUOUS
 62
     6
 10
547.572643
 20
154.525203
 40
0.585442
 50
45.000011
 51
135.000014
  0
LINE
  8
CSLAYER1
  6
CONTINUOUS
 62
     6
 10
547.158642
 20
154.939174
 11
546.598034
 21
154.378597
  0
ARC
  8
CSLAYER1
  6
CONTINUOUS
 62
     6
 10
547.572643
 20
156.181087
 40
2.049047
 50
208.398443
 51
241.601631
  0
CIRCLE
  8
CSLAYER1
  6
CONTINUOUS
 62
     6
 10
547.572643
 20
156.181087
 40
3.499925
  0
CIRCLE
  8
CSLAYER1
  6
CONTINUOUS
 62
     6
 10
547.572643
 20
156.181087
 40
4.000000
  0
LINE
  8
CSLAYER1
  6
CONTINUOUS
 62
     6
 10
559.605702
 20
157.276577
 11
560.572582
 21
157.276577
  0
ARC
  8
CSLAYER1
  6
CONTINUOUS
 62
     6
 10
560.572582
 20
164.776577
 40
7.500000
 50
270.000000
 51
360.000000
  0
LINE
  8
CSLAYER1
  6
CONTINUOUS
 62
     6
 10
568.072582
 20
164.776577
 11
568.072582
 21
165.743457
  0
CIRCLE
  8
CSLAYER1
  6
CONTINUOUS
 62
     6
 10
577.072582
 20
207.276577
 40
3.250000
  0
CIRCLE
  8
CSLAYER1
  6
CONTINUOUS
 62
     6
 10
518.072582
 20
207.276577
 40
10.000000
  0
CIRCLE
  8
CSLAYER1
  6
CONTINUOUS
 62
     6
 10
518.072582
 20
207.276577
 40
9.000000
  0
CIRCLE
  8
CSLAYER1
  6
CONTINUOUS
 62
     6
 10
518.072582
 20
207.276577
 40
65.000000
  0
CIRCLE
  8
CSLAYER1
  6
CONTINUOUS
 62
     6
 10
518.072582
 20
207.276577
 40
29.000000
  0
CIRCLE
  8
CSLAYER1
  6
CONTINUOUS
 62
     6
 10
518.072582
 20
207.276577
 40
18.000000
  0
CIRCLE
  8
CSLAYER1
  6
CONTINUOUS
 62
     6
 10
518.072582
 20
207.276577
 40
52.500000
  0
LINE
  8
CSLAYER1
  6
CONTINUOUS
 62
     6
 10
512.072582
 20
204.776577
 11
509.397172
 21
204.776577
  0
LINE
  8
CSLAYER1
  6
CONTINUOUS
 62
     6
 10
512.072582
 20
204.776577
 11
512.072582
 21
209.776577
  0
LINE
  8
CSLAYER1
  6
CONTINUOUS
 62
     6
 10
512.072582
 20
209.776577
 11
509.397172
 21
209.776577
  0
CIRCLE
  8
CSLAYER1
  6
CONTINUOUS
 62
     6
 10
459.072643
 20
207.276577
 40
3.250000
  0
LINE
  8
CSLAYER1
  6
CONTINUOUS
 62
     6
 10
468.072582
 20
248.809696
 11
468.072582
 21
249.776577
  0
ARC
  8
CSLAYER1
  6
CONTINUOUS
 62
     6
 10
475.572582
 20
249.776577
 40
7.500000
 50
90.000000
 51
180.000000
  0
LINE
  8
CSLAYER1
  6
CONTINUOUS
 62
     6
 10
475.572582
 20
257.276577
 11
476.539463
 21
257.276577
  0
LINE
  8
CSLAYER1
  6
CONTINUOUS
 62
     6
 10
486.770153
 20
257.397609
 11
487.330700
 21
257.958095
  0
ARC
  8
CSLAYER1
  6
CONTINUOUS
 62
     6
 10
486.916760
 20
258.372066
 40
0.585442
 50
-45.000008
 51
44.942682
  0
LINE
  8
CSLAYER1
  6
CONTINUOUS
 62
     6
 10
487.330700
 20
258.786037
 11
486.770092
 21
259.346584
  0
ARC
  8
CSLAYER1
  6
CONTINUOUS
 62
     6
 10
488.572643
 20
258.372066
 40
2.049047
 50
118.398420
 51
151.601581
  0
LINE
  8
CSLAYER1
  6
CONTINUOUS
 62
     6
 10
487.598095
 20
260.174526
 11
488.158642
 21
259.613979
  0
ARC
  8
CSLAYER1
  6
CONTINUOUS
 62
     6
 10
488.572643
 20
260.027950
 40
0.585442
 50
225.000010
 51
314.999992
  0
LINE
  8
CSLAYER1
  6
CONTINUOUS
 62
     6
 10
488.986584
 20
259.614010
 11
489.547131
 21
260.174526
  0
ARC
  8
CSLAYER1
  6
CONTINUOUS
 62
     6
 10
488.572643
 20
258.372066
 40
2.049047
 50
28.398407
 51
61.601592
  0
LINE
  8
CSLAYER1
  6
CONTINUOUS
 62
     6
 10
490.375134
 20
259.346584
 11
489.814526
 21
258.786068
  0
ARC
  8
CSLAYER1
  6
CONTINUOUS
 62
     6
 10
490.228527
 20
258.372097
 40
0.585442
 50
135.000000
 51
225.000010
  0
LINE
  8
CSLAYER1
  6
CONTINUOUS
 62
     6
 10
489.814526
 20
257.958126
 11
490.375134
 21
257.397518
  0
ARC
  8
CSLAYER1
  6
CONTINUOUS
 62
     6
 10
488.572643
 20
258.372066
 40
2.049047
 50
298.398425
 51
331.601559
  0
LINE
  8
CSLAYER1
  6
CONTINUOUS
 62
     6
 10
489.547192
 20
256.569576
 11
488.986584
 21
257.130184
  0
ARC
  8
CSLAYER1
  6
CONTINUOUS
 62
     6
 10
488.572643
 20
256.716213
 40
0.585442
 50
45.000001
 51
135.000000
  0
LINE
  8
CSLAYER1
  6
CONTINUOUS
 62
     6
 10
488.158642
 20
257.130153
 11
487.598095
 21
256.569576
  0
ARC
  8
CSLAYER1
  6
CONTINUOUS
 62
     6
 10
488.572643
 20
258.372066
 40
2.049047
 50
208.398429
 51
241.601577
  0
CIRCLE
  8
CSLAYER1
  6
CONTINUOUS
 62
     6
 10
488.572643
 20
258.372066
 40
3.499925
  0
CIRCLE
  8
CSLAYER1
  6
CONTINUOUS
 62
     6
 10
488.572643
 20
258.372066
 40
4.000000
  0
CIRCLE
  8
CSLAYER1
  6
CONTINUOUS
 62
     6
 10
518.072582
 20
266.276607
 40
3.250000
  0
LINE
  8
CSLAYER1
  6
CONTINUOUS
 62
     6
 10
559.605702
 20
257.276577
 11
560.572582
 21
257.276577
  0
ARC
  8
CSLAYER1
  6
CONTINUOUS
 62
     6
 10
560.572582
 20
249.776577
 40
7.500000
 50
0.000000
 51
90.000000
  0
LINE
  8
CSLAYER1
  6
CONTINUOUS
 62
     6
 10
568.072582
 20
249.776577
 11
568.072582
 21
248.809696
  0
ARC
  8
CSLAYER1
  6
CONTINUOUS
 62
     6
 10
569.168102
 20
236.776577
 40
2.049047
 50
118.398420
 51
151.601581
  0
LINE
  8
CSLAYER1
  6
CONTINUOUS
 62
     6
 10
567.365612
 20
237.751064
 11
567.926159
 21
237.190517
  0
ARC
  8
CSLAYER1
  6
CONTINUOUS
 62
     6
 10
567.512219
 20
236.776607
 40
0.585442
 50
-45.000008
 51
44.942682
  0
LINE
  8
CSLAYER1
  6
CONTINUOUS
 62
     6
 10
567.926159
 20
236.362575
 11
567.365612
 21
235.802059
  0
ARC
  8
CSLAYER1
  6
CONTINUOUS
 62
     6
 10
569.168102
 20
236.776577
 40
2.049047
 50
208.398443
 51
241.601577
  0
LINE
  8
CSLAYER1
  6
CONTINUOUS
 62
     6
 10
568.193615
 20
234.974086
 11
568.754101
 21
235.534633
  0
ARC
  8
CSLAYER1
  6
CONTINUOUS
 62
     6
 10
569.168102
 20
235.120693
 40
0.585442
 50
45.000011
 51
135.000014
  0
LINE
  8
CSLAYER1
  6
CONTINUOUS
 62
     6
 10
569.582043
 20
235.534633
 11
570.142651
 21
234.974117
  0
ARC
  8
CSLAYER1
  6
CONTINUOUS
 62
     6
 10
569.168102
 20
236.776577
 40
2.049047
 50
298.398397
 51
331.601586
  0
LINE
  8
CSLAYER1
  6
CONTINUOUS
 62
     6
 10
570.970593
 20
235.802059
 11
570.409985
 21
236.362575
  0
ARC
  8
CSLAYER1
  6
CONTINUOUS
 62
     6
 10
570.823986
 20
236.776577
 40
0.585442
 50
135.000014
 51
225.000010
  0
LINE
  8
CSLAYER1
  6
CONTINUOUS
 62
     6
 10
570.409985
 20
237.190517
 11
570.970593
 21
237.751125
  0
ARC
  8
CSLAYER1
  6
CONTINUOUS
 62
     6
 10
569.168102
 20
236.776577
 40
2.049047
 50
28.398407
 51
61.601565
  0
LINE
  8
CSLAYER1
  6
CONTINUOUS
 62
     6
 10
570.142651
 20
238.579067
 11
569.582043
 21
238.018459
  0
ARC
  8
CSLAYER1
  6
CONTINUOUS
 62
     6
 10
569.168102
 20
238.432460
 40
0.585442
 50
225.000010
 51
314.942645
  0
LINE
  8
CSLAYER1
  6
CONTINUOUS
 62
     6
 10
568.754101
 20
238.018459
 11
568.193615
 21
238.579036
  0
CIRCLE
  8
CSLAYER1
  6
CONTINUOUS
 62
     6
 10
569.168102
 20
236.776577
 40
3.499925
  0
CIRCLE
  8
CSLAYER1
  6
CONTINUOUS
 62
     6
 10
569.168102
 20
236.776577
 40
4.000000
  0
LINE
  8
CSLAYER1
  6
CONTINUOUS
 62
     6
 10
437.072582
 20
333.276577
 11
437.072582
 21
351.276577
  0
LINE
  8
CSLAYER1
  6
CONTINUOUS
 62
     6
 10
437.072582
 20
351.276577
 11
409.072582
 21
351.276577
  0
LINE
  8
CSLAYER1
  6
CONTINUOUS
 62
     6
 10
409.072582
 20
352.276577
 11
409.072582
 21
332.276577
  0
LINE
  8
CSLAYER1
  6
CONTINUOUS
 62
     6
 10
409.072582
 20
332.276577
 11
408.072582
 21
332.276577
  0
LINE
  8
CSLAYER1
  6
CONTINUOUS
 62
     6
 10
409.072582
 20
333.276577
 11
437.072582
 21
333.276577
  0
LINE
  8
CSLAYER1
  6
DASHED
 62
     6
 10
437.072582
 20
336.276583
 11
412.072580
 21
336.276583
  0
LINE
  8
CSLAYER1
  6
DASHED
 62
     6
 10
412.072580
 20
336.276583
 11
412.072580
 21
333.276601
  0
LINE
  8
CSLAYER1
  6
CONTINUOUS
 62
     6
 10
408.072582
 20
325.276577
 11
408.072582
 21
359.276577
  0
ARC
  8
CSLAYER1
  6
CONTINUOUS
 62
     6
 10
407.072582
 20
359.276577
 40
1.000000
 50
0.000000
 51
90.000000
  0
LINE
  8
CSLAYER1
  6
CONTINUOUS
 62
     6
 10
407.072582
 20
367.276577
 11
407.072582
 21
317.276577
  0
ARC
  8
CSLAYER1
  6
CONTINUOUS
 62
     6
 10
403.072582
 20
317.276577
 40
4.000000
 50
270.000000
 51
360.000000
  0
LINE
  8
CSLAYER1
  6
CONTINUOUS
 62
     6
 10
403.072582
 20
313.276577
 11
384.072582
 21
313.276577
  0
ARC
  8
CSLAYER1
  6
CONTINUOUS
 62
     6
 10
384.072582
 20
309.276577
 40
4.000000
 50
90.000000
 51
180.000000
  0
LINE
  8
CSLAYER1
  6
CONTINUOUS
 62
     6
 10
380.072582
 20
294.276577
 11
380.072582
 21
390.276577
  0
ARC
  8
CSLAYER1
  6
CONTINUOUS
 62
     6
 10
375.572582
 20
390.276577
 40
4.500000
 50
0.000000
 51
90.000000
  0
LINE
  8
CSLAYER1
  6
CONTINUOUS
 62
     6
 10
375.572582
 20
394.776577
 11
341.072582
 21
394.776577
  0
ARC
  8
CSLAYER1
  6
CONTINUOUS
 62
     6
 10
384.072582
 20
375.276577
 40
4.000000
 50
180.000000
 51
270.000000
  0
LINE
  8
CSLAYER1
  6
CONTINUOUS
 62
     6
 10
384.072582
 20
371.276577
 11
403.072582
 21
371.276577
  0
ARC
  8
CSLAYER1
  6
CONTINUOUS
 62
     6
 10
403.072582
 20
367.276577
 40
4.000000
 50
0.000000
 51
90.000000
  0
LINE
  8
CSLAYER1
  6
CONTINUOUS
 62
     6
 10
408.072582
 20
352.276577
 11
409.072582
 21
352.276577
  0
ARC
  8
CSLAYER1
  6
CONTINUOUS
 62
     6
 10
407.072582
 20
325.276577
 40
1.000000
 50
270.000000
 51
360.000000
  0
ARC
  8
CSLAYER1
  6
CONTINUOUS
 62
     6
 10
375.572582
 20
294.276577
 40
4.500000
 50
270.000000
 51
360.000000
  0
LINE
  8
CSLAYER1
  6
CONTINUOUS
 62
     6
 10
375.572582
 20
289.776577
 11
341.072582
 21
289.776577
  0
LINE
  8
CSLAYER1
  6
CONTINUOUS
 62
     6
 10
204.072582
 20
208.176571
 11
192.072582
 21
208.176571
  0
LINE
  8
CSLAYER1
  6
CONTINUOUS
 62
     6
 10
192.072582
 20
208.176571
 11
192.072582
 21
206.376583
  0
LINE
  8
CSLAYER1
  6
CONTINUOUS
 62
     6
 10
192.072582
 20
206.376583
 11
204.072582
 21
206.376583
  0
LINE
  8
CSLAYER1
  6
CONTINUOUS
 62
     6
 10
204.072582
 20
206.376583
 11
204.072582
 21
208.176571
  0
CIRCLE
  8
CSLAYER1
  6
CONTINUOUS
 62
     6
 10
198.072582
 20
207.276577
 40
12.000000
  0
CIRCLE
  8
CSLAYER1
  6
CONTINUOUS
 62
     6
 10
198.072582
 20
207.276577
 40
15.000000
  0
CIRCLE
  8
CSLAYER1
  6
CONTINUOUS
 62
     6
 10
198.072582
 20
207.276577
 40
16.000000
  0
ARC
  8
CSLAYER1
  6
CONTINUOUS
 62
     6
 10
180.072582
 20
183.276577
 40
1.000000
 50
89.999999
 51
179.999981
  0
LINE
  8
CSLAYER1
  6
CONTINUOUS
 62
     6
 10
179.072582
 20
183.276577
 11
179.072582
 21
182.276577
  0
ARC
  8
CSLAYER1
  6
CONTINUOUS
 62
     6
 10
180.072582
 20
182.276577
 40
1.000000
 50
179.999995
 51
269.999984
  0
LINE
  8
CSLAYER1
  6
CONTINUOUS
 62
     6
 10
180.072582
 20
181.276577
 11
216.072582
 21
181.276577
  0
ARC
  8
CSLAYER1
  6
CONTINUOUS
 62
     6
 10
216.072582
 20
182.276577
 40
1.000000
 50
269.999997
 51
360.000000
  0
LINE
  8
CSLAYER1
  6
CONTINUOUS
 62
     6
 10
217.072582
 20
182.276577
 11
217.072582
 21
183.276577
  0
ARC
  8
CSLAYER1
  6
CONTINUOUS
 62
     6
 10
216.072582
 20
183.276577
 40
1.000000
 50
0.057309
 51
89.999999
  0
LINE
  8
CSLAYER1
  6
CONTINUOUS
 62
     6
 10
216.072582
 20
184.276577
 11
180.072582
 21
184.276577
  0
LINE
  8
CSLAYER1
  6
CONTINUOUS
 62
     6
 10
180.072582
 20
167.276577
 11
180.072582
 21
163.276577
  0
LINE
  8
CSLAYER1
  6
CONTINUOUS
 62
     6
 10
180.072582
 20
163.276577
 11
167.072582
 21
163.276577
  0
LINE
  8
CSLAYER1
  6
CONTINUOUS
 62
     6
 10
175.956421
 20
154.272760
 11
175.785526
 21
154.105748
  0
LINE
  8
CSLAYER1
  6
CONTINUOUS
 62
     6
 10
175.785526
 20
154.105748
 11
175.612523
 21
153.937633
  0
LINE
  8
CSLAYER1
  6
CONTINUOUS
 62
     6
 10
175.612523
 20
153.937633
 11
175.439188
 21
153.770738
  0
LINE
  8
CSLAYER1
  6
CONTINUOUS
 62
     6
 10
175.439188
 20
153.770738
 11
175.267296
 21
153.607389
  0
LINE
  8
CSLAYER1
  6
CONTINUOUS
 62
     6
 10
175.267296
 20
153.607389
 11
175.098624
 21
153.449909
  0
LINE
  8
CSLAYER1
  6
CONTINUOUS
 62
     6
 10
175.098624
 20
153.449909
 11
174.934946
 21
153.300625
  0
LINE
  8
CSLAYER1
  6
CONTINUOUS
 62
     6
 10
174.934946
 20
153.300625
 11
174.778040
 21
153.161861
  0
LINE
  8
CSLAYER1
  6
CONTINUOUS
 62
     6
 10
174.778040
 20
153.161861
 11
174.636810
 21
153.039063
  0
LINE
  8
CSLAYER1
  6
CONTINUOUS
 62
     6
 10
174.636810
 20
153.039063
 11
174.490626
 21
152.911177
  0
LINE
  8
CSLAYER1
  6
CONTINUOUS
 62
     6
 10
174.490626
 20
152.911177
 11
174.340633
 21
152.778671
  0
LINE
  8
CSLAYER1
  6
CONTINUOUS
 62
     6
 10
174.340633
 20
152.778671
 11
174.187972
 21
152.642011
  0
LINE
  8
CSLAYER1
  6
CONTINUOUS
 62
     6
 10
174.187972
 20
152.642011
 11
174.033785
 21
152.501666
  0
LINE
  8
CSLAYER1
  6
CONTINUOUS
 62
     6
 10
174.033785
 20
152.501666
 11
173.879214
 21
152.358104
  0
LINE
  8
CSLAYER1
  6
CONTINUOUS
 62
     6
 10
173.879214
 20
152.358104
 11
173.725403
 21
152.211791
  0
LINE
  8
CSLAYER1
  6
CONTINUOUS
 62
     6
 10
173.725403
 20
152.211791
 11
173.573492
 21
152.063196
  0
LINE
  8
CSLAYER1
  6
CONTINUOUS
 62
     6
 10
173.573492
 20
152.063196
 11
173.424625
 21
151.912787
  0
LINE
  8
CSLAYER1
  6
CONTINUOUS
 62
     6
 10
173.424625
 20
151.912787
 11
173.279943
 21
151.761031
  0
LINE
  8
CSLAYER1
  6
CONTINUOUS
 62
     6
 10
173.279943
 20
151.761031
 11
173.140589
 21
151.608395
  0
LINE
  8
CSLAYER1
  6
CONTINUOUS
 62
     6
 10
173.140589
 20
151.608395
 11
173.085065
 21
151.545451
  0
LINE
  8
CSLAYER1
  6
CONTINUOUS
 62
     6
 10
173.085065
 20
151.545451
 11
173.030137
 21
151.481950
  0
LINE
  8
CSLAYER1
  6
CONTINUOUS
 62
     6
 10
173.030137
 20
151.481950
 11
172.975747
 21
151.417949
  0
LINE
  8
CSLAYER1
  6
CONTINUOUS
 62
     6
 10
172.975747
 20
151.417949
 11
172.921833
 21
151.353503
  0
LINE
  8
CSLAYER1
  6
CONTINUOUS
 62
     6
 10
172.921833
 20
151.353503
 11
172.868337
 21
151.288667
  0
LINE
  8
CSLAYER1
  6
CONTINUOUS
 62
     6
 10
172.868337
 20
151.288667
 11
172.815199
 21
151.223497
  0
LINE
  8
CSLAYER1
  6
CONTINUOUS
 62
     6
 10
172.815199
 20
151.223497
 11
172.762360
 21
151.158049
  0
LINE
  8
CSLAYER1
  6
CONTINUOUS
 62
     6
 10
172.762360
 20
151.158049
 11
172.709758
 21
151.092378
  0
LINE
  8
CSLAYER1
  6
CONTINUOUS
 62
     6
 10
172.709758
 20
151.092378
 11
172.657336
 21
151.026541
  0
LINE
  8
CSLAYER1
  6
CONTINUOUS
 62
     6
 10
172.657336
 20
151.026541
 11
172.605034
 21
150.960592
  0
LINE
  8
CSLAYER1
  6
CONTINUOUS
 62
     6
 10
172.605034
 20
150.960592
 11
172.476479
 21
150.798175
  0
LINE
  8
CSLAYER1
  6
CONTINUOUS
 62
     6
 10
172.476479
 20
150.798175
 11
172.505216
 21
150.751320
  0
LINE
  8
CSLAYER1
  6
CONTINUOUS
 62
     6
 10
172.505216
 20
150.751320
 11
172.545808
 21
150.691438
  0
LINE
  8
CSLAYER1
  6
CONTINUOUS
 62
     6
 10
172.545808
 20
150.691438
 11
172.590090
 21
150.631571
  0
LINE
  8
CSLAYER1
  6
CONTINUOUS
 62
     6
 10
172.590090
 20
150.631571
 11
172.637542
 21
150.572298
  0
LINE
  8
CSLAYER1
  6
CONTINUOUS
 62
     6
 10
172.637542
 20
150.572298
 11
172.687640
 21
150.514200
  0
LINE
  8
CSLAYER1
  6
CONTINUOUS
 62
     6
 10
172.687640
 20
150.514200
 11
172.739865
 21
150.457859
  0
LINE
  8
CSLAYER1
  6
CONTINUOUS
 62
     6
 10
172.739865
 20
150.457859
 11
172.793693
 21
150.403856
  0
LINE
  8
CSLAYER1
  6
CONTINUOUS
 62
     6
 10
172.793693
 20
150.403856
 11
172.848603
 21
150.352771
  0
LINE
  8
CSLAYER1
  6
CONTINUOUS
 62
     6
 10
172.848603
 20
150.352771
 11
172.904075
 21
150.305185
  0
LINE
  8
CSLAYER1
  6
CONTINUOUS
 62
     6
 10
172.904075
 20
150.305185
 11
172.959585
 21
150.261679
  0
LINE
  8
CSLAYER1
  6
CONTINUOUS
 62
     6
 10
172.959585
 20
150.261679
 11
173.014612
 21
150.222835
  0
LINE
  8
CSLAYER1
  6
CONTINUOUS
 62
     6
 10
173.014612
 20
150.222835
 11
173.071099
 21
150.188541
  0
LINE
  8
CSLAYER1
  6
CONTINUOUS
 62
     6
 10
173.071099
 20
150.188541
 11
173.131700
 21
150.157574
  0
LINE
  8
CSLAYER1
  6
CONTINUOUS
 62
     6
 10
173.131700
 20
150.157574
 11
173.195861
 21
150.129585
  0
LINE
  8
CSLAYER1
  6
CONTINUOUS
 62
     6
 10
173.195861
 20
150.129585
 11
173.263023
 21
150.104224
  0
LINE
  8
CSLAYER1
  6
CONTINUOUS
 62
     6
 10
173.263023
 20
150.104224
 11
173.332629
 21
150.081142
  0
LINE
  8
CSLAYER1
  6
CONTINUOUS
 62
     6
 10
173.332629
 20
150.081142
 11
173.404124
 21
150.059988
  0
LINE
  8
CSLAYER1
  6
CONTINUOUS
 62
     6
 10
173.404124
 20
150.059988
 11
173.476948
 21
150.040414
  0
LINE
  8
CSLAYER1
  6
CONTINUOUS
 62
     6
 10
173.476948
 20
150.040414
 11
173.550547
 21
150.022068
  0
LINE
  8
CSLAYER1
  6
CONTINUOUS
 62
     6
 10
173.550547
 20
150.022068
 11
173.624361
 21
150.004603
  0
LINE
  8
CSLAYER1
  6
CONTINUOUS
 62
     6
 10
173.624361
 20
150.004603
 11
173.697835
 21
149.987668
  0
LINE
  8
CSLAYER1
  6
CONTINUOUS
 62
     6
 10
173.697835
 20
149.987668
 11
173.770411
 21
149.970913
  0
LINE
  8
CSLAYER1
  6
CONTINUOUS
 62
     6
 10
173.770411
 20
149.970913
 11
173.844635
 21
149.953312
  0
LINE
  8
CSLAYER1
  6
CONTINUOUS
 62
     6
 10
173.844635
 20
149.953312
 11
173.918371
 21
149.935288
  0
LINE
  8
CSLAYER1
  6
CONTINUOUS
 62
     6
 10
173.918371
 20
149.935288
 11
173.991667
 21
149.916882
  0
LINE
  8
CSLAYER1
  6
CONTINUOUS
 62
     6
 10
173.991667
 20
149.916882
 11
174.064573
 21
149.898136
  0
LINE
  8
CSLAYER1
  6
CONTINUOUS
 62
     6
 10
174.064573
 20
149.898136
 11
174.137137
 21
149.879094
  0
LINE
  8
CSLAYER1
  6
CONTINUOUS
 62
     6
 10
174.137137
 20
149.879094
 11
174.209408
 21
149.859797
  0
LINE
  8
CSLAYER1
  6
CONTINUOUS
 62
     6
 10
174.209408
 20
149.859797
 11
174.281435
 21
149.840289
  0
LINE
  8
CSLAYER1
  6
CONTINUOUS
 62
     6
 10
174.281435
 20
149.840289
 11
174.353267
 21
149.820610
  0
LINE
  8
CSLAYER1
  6
CONTINUOUS
 62
     6
 10
174.353267
 20
149.820610
 11
174.424953
 21
149.800805
  0
LINE
  8
CSLAYER1
  6
CONTINUOUS
 62
     6
 10
174.424953
 20
149.800805
 11
174.496540
 21
149.780915
  0
LINE
  8
CSLAYER1
  6
CONTINUOUS
 62
     6
 10
174.496540
 20
149.780915
 11
174.577160
 21
149.758452
  0
LINE
  8
CSLAYER1
  6
CONTINUOUS
 62
     6
 10
174.577160
 20
149.758452
 11
174.704415
 21
149.930602
  0
LINE
  8
CSLAYER1
  6
CONTINUOUS
 62
     6
 10
174.704415
 20
149.930602
 11
174.799195
 21
150.057764
  0
LINE
  8
CSLAYER1
  6
CONTINUOUS
 62
     6
 10
174.799195
 20
150.057764
 11
174.894846
 21
150.183996
  0
LINE
  8
CSLAYER1
  6
CONTINUOUS
 62
     6
 10
174.894846
 20
150.183996
 11
174.991805
 21
150.308832
  0
LINE
  8
CSLAYER1
  6
CONTINUOUS
 62
     6
 10
174.991805
 20
150.308832
 11
175.090507
 21
150.431806
  0
LINE
  8
CSLAYER1
  6
CONTINUOUS
 62
     6
 10
175.090507
 20
150.431806
 11
175.191388
 21
150.552455
  0
LINE
  8
CSLAYER1
  6
CONTINUOUS
 62
     6
 10
175.191388
 20
150.552455
 11
175.294885
 21
150.670312
  0
LINE
  8
CSLAYER1
  6
CONTINUOUS
 62
     6
 10
175.294885
 20
150.670312
 11
175.401432
 21
150.784912
  0
LINE
  8
CSLAYER1
  6
CONTINUOUS
 62
     6
 10
175.401432
 20
150.784912
 11
175.511466
 21
150.895790
  0
LINE
  8
CSLAYER1
  6
CONTINUOUS
 62
     6
 10
175.511466
 20
150.895790
 11
175.625423
 21
151.002481
  0
LINE
  8
CSLAYER1
  6
CONTINUOUS
 62
     6
 10
175.625423
 20
151.002481
 11
175.743738
 21
151.104519
  0
LINE
  8
CSLAYER1
  6
CONTINUOUS
 62
     6
 10
175.743738
 20
151.104519
 11
175.895163
 21
151.223557
  0
LINE
  8
CSLAYER1
  6
CONTINUOUS
 62
     6
 10
175.895163
 20
151.223557
 11
176.053403
 21
151.338069
  0
LINE
  8
CSLAYER1
  6
CONTINUOUS
 62
     6
 10
176.053403
 20
151.338069
 11
176.216524
 21
151.449009
  0
LINE
  8
CSLAYER1
  6
CONTINUOUS
 62
     6
 10
176.216524
 20
151.449009
 11
176.382592
 21
151.557327
  0
LINE
  8
CSLAYER1
  6
CONTINUOUS
 62
     6
 10
176.382592
 20
151.557327
 11
176.549673
 21
151.663977
  0
LINE
  8
CSLAYER1
  6
CONTINUOUS
 62
     6
 10
176.549673
 20
151.663977
 11
176.715834
 21
151.769909
  0
LINE
  8
CSLAYER1
  6
CONTINUOUS
 62
     6
 10
176.715834
 20
151.769909
 11
176.879141
 21
151.876077
  0
LINE
  8
CSLAYER1
  6
CONTINUOUS
 62
     6
 10
176.879141
 20
151.876077
 11
177.037659
 21
151.983432
  0
LINE
  8
CSLAYER1
  6
CONTINUOUS
 62
     6
 10
177.037659
 20
151.983432
 11
177.189455
 21
152.092926
  0
LINE
  8
CSLAYER1
  6
CONTINUOUS
 62
     6
 10
177.189455
 20
152.092926
 11
177.332594
 21
152.205511
  0
LINE
  8
CSLAYER1
  6
CONTINUOUS
 62
     6
 10
177.332594
 20
152.205511
 11
177.465143
 21
152.322140
  0
LINE
  8
CSLAYER1
  6
CONTINUOUS
 62
     6
 10
177.465143
 20
152.322140
 11
177.568149
 21
152.425154
  0
LINE
  8
CSLAYER1
  6
CONTINUOUS
 62
     6
 10
177.568149
 20
152.425154
 11
177.669812
 21
152.538590
  0
LINE
  8
CSLAYER1
  6
CONTINUOUS
 62
     6
 10
177.669812
 20
152.538590
 11
177.769567
 21
152.660758
  0
LINE
  8
CSLAYER1
  6
CONTINUOUS
 62
     6
 10
177.769567
 20
152.660758
 11
177.866845
 21
152.789966
  0
LINE
  8
CSLAYER1
  6
CONTINUOUS
 62
     6
 10
177.866845
 20
152.789966
 11
177.961080
 21
152.924527
  0
LINE
  8
CSLAYER1
  6
CONTINUOUS
 62
     6
 10
177.961080
 20
152.924527
 11
178.051704
 21
153.062748
  0
LINE
  8
CSLAYER1
  6
CONTINUOUS
 62
     6
 10
178.051704
 20
153.062748
 11
178.138150
 21
153.202941
  0
LINE
  8
CSLAYER1
  6
CONTINUOUS
 62
     6
 10
178.138150
 20
153.202941
 11
178.219851
 21
153.343416
  0
LINE
  8
CSLAYER1
  6
CONTINUOUS
 62
     6
 10
178.219851
 20
153.343416
 11
178.296240
 21
153.482482
  0
LINE
  8
CSLAYER1
  6
CONTINUOUS
 62
     6
 10
178.296240
 20
153.482482
 11
178.366749
 21
153.618450
  0
LINE
  8
CSLAYER1
  6
CONTINUOUS
 62
     6
 10
178.366749
 20
153.618450
 11
178.472010
 21
153.833991
  0
ARC
  8
CSLAYER1
  6
CONTINUOUS
 62
     6
 10
177.545899
 20
153.277913
 40
1.080690
 50
30.945197
 51
90.945197
  0
ARC
  8
CSLAYER1
  6
CONTINUOUS
 62
     6
 10
176.601207
 20
153.802746
 40
1.080690
 50
30.945197
 51
90.945197
  0
ARC
  8
CSLAYER1
  6
CONTINUOUS
 62
     6
 10
177.510244
 20
155.438999
 40
1.080690
 50
210.945197
 51
270.945197
  0
LINE
  8
CSLAYER1
  6
CONTINUOUS
 62
     6
 10
176.583399
 20
154.883266
 11
176.438697
 21
154.743920
  0
LINE
  8
CSLAYER1
  6
CONTINUOUS
 62
     6
 10
176.438697
 20
154.743920
 11
176.284782
 21
154.594170
  0
LINE
  8
CSLAYER1
  6
CONTINUOUS
 62
     6
 10
176.284782
 20
154.594170
 11
176.123432
 21
154.436342
  0
LINE
  8
CSLAYER1
  6
CONTINUOUS
 62
     6
 10
176.123432
 20
154.436342
 11
175.956421
 21
154.272760
  0
ARC
  8
CSLAYER1
  6
CONTINUOUS
 62
     6
 10
179.057340
 20
156.287114
 40
1.095863
 50
203.568976
 51
263.568976
  0
ARC
  8
CSLAYER1
  6
CONTINUOUS
 62
     6
 10
179.939041
 20
155.636331
 40
1.095863
 50
203.568976
 51
263.568976
  0
ARC
  8
CSLAYER1
  6
CONTINUOUS
 62
     6
 10
178.811851
 20
154.109180
 40
1.095863
 50
23.568976
 51
83.568976
  0
LINE
  8
CSLAYER1
  6
CONTINUOUS
 62
     6
 10
178.306024
 20
156.028901
 11
178.052912
 21
155.848934
  0
LINE
  8
CSLAYER1
  6
CONTINUOUS
 62
     6
 10
178.306024
 20
156.028901
 11
178.558885
 21
156.209221
  0
LINE
  8
CSLAYER1
  6
CONTINUOUS
 62
     6
 10
178.558885
 20
156.209221
 11
178.811245
 21
156.390247
  0
LINE
  8
CSLAYER1
  6
CONTINUOUS
 62
     6
 10
178.811245
 20
156.390247
 11
179.062853
 21
156.572330
  0
LINE
  8
CSLAYER1
  6
CONTINUOUS
 62
     6
 10
179.062853
 20
156.572330
 11
179.313459
 21
156.755825
  0
LINE
  8
CSLAYER1
  6
CONTINUOUS
 62
     6
 10
179.313459
 20
156.755825
 11
179.562811
 21
156.941084
  0
LINE
  8
CSLAYER1
  6
CONTINUOUS
 62
     6
 10
179.562811
 20
156.941084
 11
179.810660
 21
157.128460
  0
LINE
  8
CSLAYER1
  6
CONTINUOUS
 62
     6
 10
179.810660
 20
157.128460
 11
180.056755
 21
157.318305
  0
LINE
  8
CSLAYER1
  6
CONTINUOUS
 62
     6
 10
180.056755
 20
157.318305
 11
180.300845
 21
157.510972
  0
LINE
  8
CSLAYER1
  6
CONTINUOUS
 62
     6
 10
180.300845
 20
157.510972
 11
180.542679
 21
157.706815
  0
LINE
  8
CSLAYER1
  6
CONTINUOUS
 62
     6
 10
180.542679
 20
157.706815
 11
180.782007
 21
157.906185
  0
LINE
  8
CSLAYER1
  6
CONTINUOUS
 62
     6
 10
180.782007
 20
157.906185
 11
180.939272
 21
158.040482
  0
LINE
  8
CSLAYER1
  6
CONTINUOUS
 62
     6
 10
180.939272
 20
158.040482
 11
181.096322
 21
158.177506
  0
LINE
  8
CSLAYER1
  6
CONTINUOUS
 62
     6
 10
181.096322
 20
158.177506
 11
181.252413
 21
158.317066
  0
LINE
  8
CSLAYER1
  6
CONTINUOUS
 62
     6
 10
181.252413
 20
158.317066
 11
181.406802
 21
158.458968
  0
LINE
  8
CSLAYER1
  6
CONTINUOUS
 62
     6
 10
181.406802
 20
158.458968
 11
181.558746
 21
158.603021
  0
LINE
  8
CSLAYER1
  6
CONTINUOUS
 62
     6
 10
181.558746
 20
158.603021
 11
181.707503
 21
158.749031
  0
LINE
  8
CSLAYER1
  6
CONTINUOUS
 62
     6
 10
181.707503
 20
158.749031
 11
181.852330
 21
158.896806
  0
LINE
  8
CSLAYER1
  6
CONTINUOUS
 62
     6
 10
181.852330
 20
158.896806
 11
181.992482
 21
159.046153
  0
LINE
  8
CSLAYER1
  6
CONTINUOUS
 62
     6
 10
181.992482
 20
159.046153
 11
182.127218
 21
159.196881
  0
LINE
  8
CSLAYER1
  6
CONTINUOUS
 62
     6
 10
182.127218
 20
159.196881
 11
182.255794
 21
159.348795
  0
LINE
  8
CSLAYER1
  6
CONTINUOUS
 62
     6
 10
182.255794
 20
159.348795
 11
182.377466
 21
159.501705
  0
LINE
  8
CSLAYER1
  6
CONTINUOUS
 62
     6
 10
182.377466
 20
159.501705
 11
182.491921
 21
159.653031
  0
LINE
  8
CSLAYER1
  6
CONTINUOUS
 62
     6
 10
182.491921
 20
159.653031
 11
182.607222
 21
159.810285
  0
LINE
  8
CSLAYER1
  6
CONTINUOUS
 62
     6
 10
182.607222
 20
159.810285
 11
182.722835
 21
159.972342
  0
LINE
  8
CSLAYER1
  6
CONTINUOUS
 62
     6
 10
182.722835
 20
159.972342
 11
182.838228
 21
160.138082
  0
LINE
  8
CSLAYER1
  6
CONTINUOUS
 62
     6
 10
182.838228
 20
160.138082
 11
182.952868
 21
160.306382
  0
LINE
  8
CSLAYER1
  6
CONTINUOUS
 62
     6
 10
182.952868
 20
160.306382
 11
183.066222
 21
160.476118
  0
LINE
  8
CSLAYER1
  6
CONTINUOUS
 62
     6
 10
183.066222
 20
160.476118
 11
183.177758
 21
160.646169
  0
LINE
  8
CSLAYER1
  6
CONTINUOUS
 62
     6
 10
183.177758
 20
160.646169
 11
183.286942
 21
160.815411
  0
LINE
  8
CSLAYER1
  6
CONTINUOUS
 62
     6
 10
183.286942
 20
160.815411
 11
183.393242
 21
160.982723
  0
LINE
  8
CSLAYER1
  6
CONTINUOUS
 62
     6
 10
183.393242
 20
160.982723
 11
183.496125
 21
161.146981
  0
LINE
  8
CSLAYER1
  6
CONTINUOUS
 62
     6
 10
183.496125
 20
161.146981
 11
183.595057
 21
161.307064
  0
LINE
  8
CSLAYER1
  6
CONTINUOUS
 62
     6
 10
183.595057
 20
161.307064
 11
183.681531
 21
161.445290
  0
LINE
  8
CSLAYER1
  6
CONTINUOUS
 62
     6
 10
183.681531
 20
161.445290
 11
183.773483
 21
161.587748
  0
LINE
  8
CSLAYER1
  6
CONTINUOUS
 62
     6
 10
183.773483
 20
161.587748
 11
183.869683
 21
161.733228
  0
LINE
  8
CSLAYER1
  6
CONTINUOUS
 62
     6
 10
183.869683
 20
161.733228
 11
183.968902
 21
161.880518
  0
LINE
  8
CSLAYER1
  6
CONTINUOUS
 62
     6
 10
183.968902
 20
161.880518
 11
184.069910
 21
162.028408
  0
LINE
  8
CSLAYER1
  6
CONTINUOUS
 62
     6
 10
184.069910
 20
162.028408
 11
184.171478
 21
162.175686
  0
LINE
  8
CSLAYER1
  6
CONTINUOUS
 62
     6
 10
184.171478
 20
162.175686
 11
184.272376
 21
162.321143
  0
LINE
  8
CSLAYER1
  6
CONTINUOUS
 62
     6
 10
184.272376
 20
162.321143
 11
184.371375
 21
162.463567
  0
LINE
  8
CSLAYER1
  6
CONTINUOUS
 62
     6
 10
184.371375
 20
162.463567
 11
184.467245
 21
162.601746
  0
LINE
  8
CSLAYER1
  6
CONTINUOUS
 62
     6
 10
184.467245
 20
162.601746
 11
184.587786
 21
162.776577
  0
ARC
  8
CSLAYER1
  6
CONTINUOUS
 62
     6
 10
182.322582
 20
164.776577
 40
2.000000
 50
180.000000
 51
270.000000
  0
LINE
  8
CSLAYER1
  6
CONTINUOUS
 62
     6
 10
180.322582
 20
164.776577
 11
180.322582
 21
165.276577
  0
LINE
  8
CSLAYER1
  6
CONTINUOUS
 62
     6
 10
180.072582
 20
165.276577
 11
206.072582
 21
165.276577
  0
LINE
  8
CSLAYER1
  6
CONTINUOUS
 62
     6
 10
206.072582
 20
167.276577
 11
180.072582
 21
167.276577
  0
LINE
  8
CSLAYER1
  6
CONTINUOUS
 62
     6
 10
182.322582
 20
162.776577
 11
191.411208
 21
162.776577
  0
ARC
  8
CSLAYER1
  6
CONTINUOUS
 62
     6
 10
193.072582
 20
169.576564
 40
7.000000
 50
253.743003
 51
286.257026
  0
ARC
  8
CSLAYER1
  6
CONTINUOUS
 62
     6
 10
194.752239
 20
163.816494
 40
1.000000
 50
286.257408
 51
354.999902
  0
LINE
  8
CSLAYER1
  6
CONTINUOUS
 62
     6
 10
195.748425
 20
163.729335
 11
195.803539
 21
164.359157
  0
ARC
  8
CSLAYER1
  6
CONTINUOUS
 62
     6
 10
195.604321
 20
164.376583
 40
0.200000
 50
-5.000126
 51
90.000019
  0
LINE
  8
CSLAYER1
  6
CONTINUOUS
 62
     6
 10
195.872570
 20
164.576595
 11
193.072582
 21
164.576564
  0
LINE
  8
CSLAYER1
  6
CONTINUOUS
 62
     6
 10
193.072582
 20
164.576564
 11
190.272595
 21
164.576564
  0
ARC
  8
CSLAYER1
  6
CONTINUOUS
 62
     6
 10
190.272595
 20
164.676571
 40
0.100000
 50
180.000005
 51
270.000001
  0
LINE
  8
CSLAYER1
  6
CONTINUOUS
 62
     6
 10
190.172558
 20
164.676571
 11
190.172558
 21
165.176571
  0
ARC
  8
CSLAYER1
  6
CONTINUOUS
 62
     6
 10
190.272595
 20
165.176571
 40
0.100000
 50
90.000003
 51
180.000005
  0
ARC
  8
CSLAYER1
  6
CONTINUOUS
 62
     6
 10
190.540844
 20
164.376583
 40
0.200000
 50
90.000003
 51
185.000154
  0
LINE
  8
CSLAYER1
  6
CONTINUOUS
 62
     6
 10
190.341595
 20
164.359157
 11
190.396679
 21
163.729335
  0
ARC
  8
CSLAYER1
  6
CONTINUOUS
 62
     6
 10
191.392895
 20
163.816494
 40
1.000000
 50
185.000113
 51
253.742620
  0
LINE
  8
CSLAYER1
  6
CONTINUOUS
 62
     6
 10
189.501205
 20
162.776577
 11
189.336087
 21
161.758533
  0
LINE
  8
CSLAYER1
  6
CONTINUOUS
 62
     6
 10
189.336087
 20
161.758533
 11
189.277952
 21
161.436106
  0
LINE
  8
CSLAYER1
  6
CONTINUOUS
 62
     6
 10
189.277952
 20
161.436106
 11
189.213099
 21
161.104296
  0
LINE
  8
CSLAYER1
  6
CONTINUOUS
 62
     6
 10
189.213099
 20
161.104296
 11
189.142724
 21
160.766500
  0
LINE
  8
CSLAYER1
  6
CONTINUOUS
 62
     6
 10
189.142724
 20
160.766500
 11
189.068020
 21
160.426112
  0
LINE
  8
CSLAYER1
  6
CONTINUOUS
 62
     6
 10
189.068020
 20
160.426112
 11
188.990184
 21
160.086528
  0
LINE
  8
CSLAYER1
  6
CONTINUOUS
 62
     6
 10
188.990184
 20
160.086528
 11
188.910411
 21
159.751143
  0
LINE
  8
CSLAYER1
  6
CONTINUOUS
 62
     6
 10
188.910411
 20
159.751143
 11
188.829894
 21
159.423352
  0
LINE
  8
CSLAYER1
  6
CONTINUOUS
 62
     6
 10
188.829894
 20
159.423352
 11
188.749830
 21
159.106551
  0
LINE
  8
CSLAYER1
  6
CONTINUOUS
 62
     6
 10
188.749830
 20
159.106551
 11
188.671412
 21
158.804134
  0
LINE
  8
CSLAYER1
  6
CONTINUOUS
 62
     6
 10
188.671412
 20
158.804134
 11
188.588040
 21
158.504384
  0
LINE
  8
CSLAYER1
  6
CONTINUOUS
 62
     6
 10
188.588040
 20
158.504384
 11
188.494127
 21
158.198860
  0
LINE
  8
CSLAYER1
  6
CONTINUOUS
 62
     6
 10
188.494127
 20
158.198860
 11
188.390542
 21
157.888820
  0
LINE
  8
CSLAYER1
  6
CONTINUOUS
 62
     6
 10
188.390542
 20
157.888820
 11
188.278153
 21
157.575525
  0
LINE
  8
CSLAYER1
  6
CONTINUOUS
 62
     6
 10
188.278153
 20
157.575525
 11
188.157831
 21
157.260234
  0
LINE
  8
CSLAYER1
  6
CONTINUOUS
 62
     6
 10
188.157831
 20
157.260234
 11
188.030444
 21
156.944205
  0
LINE
  8
CSLAYER1
  6
CONTINUOUS
 62
     6
 10
188.030444
 20
156.944205
 11
187.896862
 21
156.628700
  0
LINE
  8
CSLAYER1
  6
CONTINUOUS
 62
     6
 10
187.896862
 20
156.628700
 11
187.757953
 21
156.314976
  0
LINE
  8
CSLAYER1
  6
CONTINUOUS
 62
     6
 10
187.757953
 20
156.314976
 11
187.614587
 21
156.004293
  0
LINE
  8
CSLAYER1
  6
CONTINUOUS
 62
     6
 10
187.614587
 20
156.004293
 11
187.467632
 21
155.697912
  0
LINE
  8
CSLAYER1
  6
CONTINUOUS
 62
     6
 10
187.467632
 20
155.697912
 11
187.317957
 21
155.397091
  0
LINE
  8
CSLAYER1
  6
CONTINUOUS
 62
     6
 10
187.317957
 20
155.397091
 11
187.190613
 21
155.149471
  0
LINE
  8
CSLAYER1
  6
CONTINUOUS
 62
     6
 10
187.190613
 20
155.149471
 11
187.060461
 21
154.903437
  0
LINE
  8
CSLAYER1
  6
CONTINUOUS
 62
     6
 10
187.060461
 20
154.903437
 11
186.927782
 21
154.658831
  0
LINE
  8
CSLAYER1
  6
CONTINUOUS
 62
     6
 10
186.927782
 20
154.658831
 11
186.792857
 21
154.415494
  0
LINE
  8
CSLAYER1
  6
CONTINUOUS
 62
     6
 10
186.792857
 20
154.415494
 11
186.655967
 21
154.173267
  0
LINE
  8
CSLAYER1
  6
CONTINUOUS
 62
     6
 10
186.655967
 20
154.173267
 11
186.517392
 21
153.931992
  0
LINE
  8
CSLAYER1
  6
CONTINUOUS
 62
     6
 10
186.517392
 20
153.931992
 11
186.377414
 21
153.691510
  0
LINE
  8
CSLAYER1
  6
CONTINUOUS
 62
     6
 10
186.377414
 20
153.691510
 11
186.236312
 21
153.451662
  0
LINE
  8
CSLAYER1
  6
CONTINUOUS
 62
     6
 10
186.236312
 20
153.451662
 11
186.094369
 21
153.212291
  0
LINE
  8
CSLAYER1
  6
CONTINUOUS
 62
     6
 10
186.094369
 20
153.212291
 11
185.951863
 21
152.973237
  0
LINE
  8
CSLAYER1
  6
CONTINUOUS
 62
     6
 10
185.951863
 20
152.973237
 11
185.809077
 21
152.734341
  0
ARC
  8
CSLAYER1
  6
CONTINUOUS
 62
     6
 10
185.799412
 20
153.934309
 40
1.200008
 50
210.461486
 51
270.461486
  0
ARC
  8
CSLAYER1
  6
CONTINUOUS
 62
     6
 10
184.755375
 20
154.525923
 40
1.200008
 50
210.461486
 51
270.461486
  0
LINE
  8
CSLAYER1
  6
CONTINUOUS
 62
     6
 10
183.720972
 20
153.917568
 11
183.856254
 21
154.143490
  0
LINE
  8
CSLAYER1
  6
CONTINUOUS
 62
     6
 10
183.856254
 20
154.143490
 11
183.991261
 21
154.369566
  0
LINE
  8
CSLAYER1
  6
CONTINUOUS
 62
     6
 10
183.991261
 20
154.369566
 11
184.125717
 21
154.595952
  0
LINE
  8
CSLAYER1
  6
CONTINUOUS
 62
     6
 10
184.125717
 20
154.595952
 11
184.259347
 21
154.822802
  0
LINE
  8
CSLAYER1
  6
CONTINUOUS
 62
     6
 10
184.259347
 20
154.822802
 11
184.391877
 21
155.050270
  0
LINE
  8
CSLAYER1
  6
CONTINUOUS
 62
     6
 10
184.391877
 20
155.050270
 11
184.523030
 21
155.278512
  0
LINE
  8
CSLAYER1
  6
CONTINUOUS
 62
     6
 10
184.523030
 20
155.278512
 11
184.652533
 21
155.507681
  0
LINE
  8
CSLAYER1
  6
CONTINUOUS
 62
     6
 10
184.652533
 20
155.507681
 11
184.780108
 21
155.737934
  0
LINE
  8
CSLAYER1
  6
CONTINUOUS
 62
     6
 10
184.780108
 20
155.737934
 11
184.905482
 21
155.969423
  0
LINE
  8
CSLAYER1
  6
CONTINUOUS
 62
     6
 10
184.905482
 20
155.969423
 11
185.028379
 21
156.202305
  0
LINE
  8
CSLAYER1
  6
CONTINUOUS
 62
     6
 10
185.028379
 20
156.202305
 11
185.148524
 21
156.436733
  0
LINE
  8
CSLAYER1
  6
CONTINUOUS
 62
     6
 10
185.148524
 20
156.436733
 11
185.282766
 21
156.707538
  0
LINE
  8
CSLAYER1
  6
CONTINUOUS
 62
     6
 10
185.282766
 20
156.707538
 11
185.414629
 21
156.983303
  0
LINE
  8
CSLAYER1
  6
CONTINUOUS
 62
     6
 10
185.414629
 20
156.983303
 11
185.543336
 21
157.262896
  0
LINE
  8
CSLAYER1
  6
CONTINUOUS
 62
     6
 10
185.543336
 20
157.262896
 11
185.668110
 21
157.545187
  0
LINE
  8
CSLAYER1
  6
CONTINUOUS
 62
     6
 10
185.668110
 20
157.545187
 11
185.788173
 21
157.829042
  0
LINE
  8
CSLAYER1
  6
CONTINUOUS
 62
     6
 10
185.788173
 20
157.829042
 11
185.902748
 21
158.113333
  0
LINE
  8
CSLAYER1
  6
CONTINUOUS
 62
     6
 10
185.902748
 20
158.113333
 11
186.011057
 21
158.396926
  0
LINE
  8
CSLAYER1
  6
CONTINUOUS
 62
     6
 10
186.011057
 20
158.396926
 11
186.112323
 21
158.678691
  0
LINE
  8
CSLAYER1
  6
CONTINUOUS
 62
     6
 10
186.112323
 20
158.678691
 11
186.205767
 21
158.957497
  0
LINE
  8
CSLAYER1
  6
CONTINUOUS
 62
     6
 10
186.205767
 20
158.957497
 11
186.290613
 21
159.232212
  0
LINE
  8
CSLAYER1
  6
CONTINUOUS
 62
     6
 10
186.290613
 20
159.232212
 11
186.366083
 21
159.501705
  0
LINE
  8
CSLAYER1
  6
CONTINUOUS
 62
     6
 10
186.366083
 20
159.501705
 11
186.440624
 21
159.787144
  0
LINE
  8
CSLAYER1
  6
CONTINUOUS
 62
     6
 10
186.440624
 20
159.787144
 11
186.516632
 21
160.086322
  0
LINE
  8
CSLAYER1
  6
CONTINUOUS
 62
     6
 10
186.516632
 20
160.086322
 11
186.592975
 21
160.395988
  0
LINE
  8
CSLAYER1
  6
CONTINUOUS
 62
     6
 10
186.592975
 20
160.395988
 11
186.668521
 21
160.712888
  0
LINE
  8
CSLAYER1
  6
CONTINUOUS
 62
     6
 10
186.668521
 20
160.712888
 11
186.742137
 21
161.033770
  0
LINE
  8
CSLAYER1
  6
CONTINUOUS
 62
     6
 10
186.742137
 20
161.033770
 11
186.812690
 21
161.355381
  0
LINE
  8
CSLAYER1
  6
CONTINUOUS
 62
     6
 10
186.812690
 20
161.355381
 11
186.879047
 21
161.674469
  0
LINE
  8
CSLAYER1
  6
CONTINUOUS
 62
     6
 10
186.879047
 20
161.674469
 11
186.940075
 21
161.987780
  0
LINE
  8
CSLAYER1
  6
CONTINUOUS
 62
     6
 10
186.940075
 20
161.987780
 11
186.994642
 21
162.292063
  0
LINE
  8
CSLAYER1
  6
CONTINUOUS
 62
     6
 10
186.994642
 20
162.292063
 11
187.072582
 21
162.776577
  0
LINE
  8
CSLAYER1
  6
CONTINUOUS
 62
     6
 10
186.944182
 20
162.010682
 11
186.895936
 21
161.922849
  0
LINE
  8
CSLAYER1
  6
CONTINUOUS
 62
     6
 10
186.895936
 20
161.922849
 11
186.786048
 21
161.731040
  0
LINE
  8
CSLAYER1
  6
CONTINUOUS
 62
     6
 10
186.786048
 20
161.731040
 11
186.667794
 21
161.531552
  0
LINE
  8
CSLAYER1
  6
CONTINUOUS
 62
     6
 10
186.667794
 20
161.531552
 11
186.542756
 21
161.326573
  0
LINE
  8
CSLAYER1
  6
CONTINUOUS
 62
     6
 10
186.542756
 20
161.326573
 11
186.412515
 21
161.118287
  0
LINE
  8
CSLAYER1
  6
CONTINUOUS
 62
     6
 10
186.412515
 20
161.118287
 11
186.278652
 21
160.908882
  0
LINE
  8
CSLAYER1
  6
CONTINUOUS
 62
     6
 10
186.278652
 20
160.908882
 11
186.142750
 21
160.700542
  0
LINE
  8
CSLAYER1
  6
CONTINUOUS
 62
     6
 10
186.142750
 20
160.700542
 11
186.006390
 21
160.495454
  0
LINE
  8
CSLAYER1
  6
CONTINUOUS
 62
     6
 10
186.006390
 20
160.495454
 11
185.871153
 21
160.295805
  0
LINE
  8
CSLAYER1
  6
CONTINUOUS
 62
     6
 10
185.871153
 20
160.295805
 11
185.738622
 21
160.103780
  0
LINE
  8
CSLAYER1
  6
CONTINUOUS
 62
     6
 10
185.738622
 20
160.103780
 11
185.610377
 21
159.921566
  0
LINE
  8
CSLAYER1
  6
CONTINUOUS
 62
     6
 10
185.610377
 20
159.921566
 11
185.505297
 21
159.777387
  0
LINE
  8
CSLAYER1
  6
CONTINUOUS
 62
     6
 10
185.505297
 20
159.777387
 11
185.393406
 21
159.630337
  0
LINE
  8
CSLAYER1
  6
CONTINUOUS
 62
     6
 10
185.393406
 20
159.630337
 11
185.275838
 21
159.481315
  0
LINE
  8
CSLAYER1
  6
CONTINUOUS
 62
     6
 10
185.275838
 20
159.481315
 11
185.153725
 21
159.331220
  0
LINE
  8
CSLAYER1
  6
CONTINUOUS
 62
     6
 10
185.153725
 20
159.331220
 11
185.028199
 21
159.180952
  0
LINE
  8
CSLAYER1
  6
CONTINUOUS
 62
     6
 10
185.028199
 20
159.180952
 11
184.900393
 21
159.031410
  0
LINE
  8
CSLAYER1
  6
CONTINUOUS
 62
     6
 10
184.900393
 20
159.031410
 11
184.771440
 21
158.883491
  0
LINE
  8
CSLAYER1
  6
CONTINUOUS
 62
     6
 10
184.771440
 20
158.883491
 11
184.642473
 21
158.738097
  0
LINE
  8
CSLAYER1
  6
CONTINUOUS
 62
     6
 10
184.642473
 20
158.738097
 11
184.514624
 21
158.596125
  0
LINE
  8
CSLAYER1
  6
CONTINUOUS
 62
     6
 10
184.514624
 20
158.596125
 11
184.389026
 21
158.458475
  0
LINE
  8
CSLAYER1
  6
CONTINUOUS
 62
     6
 10
184.389026
 20
158.458475
 11
184.266810
 21
158.326046
  0
LINE
  8
CSLAYER1
  6
CONTINUOUS
 62
     6
 10
184.266810
 20
158.326046
 11
184.121834
 21
158.173886
  0
LINE
  8
CSLAYER1
  6
CONTINUOUS
 62
     6
 10
184.121834
 20
158.173886
 11
183.968659
 21
158.019935
  0
LINE
  8
CSLAYER1
  6
CONTINUOUS
 62
     6
 10
183.968659
 20
158.019935
 11
183.809250
 21
157.864501
  0
LINE
  8
CSLAYER1
  6
CONTINUOUS
 62
     6
 10
183.809250
 20
157.864501
 11
183.645573
 21
157.707893
  0
LINE
  8
CSLAYER1
  6
CONTINUOUS
 62
     6
 10
183.645573
 20
157.707893
 11
183.479593
 21
157.550420
  0
LINE
  8
CSLAYER1
  6
CONTINUOUS
 62
     6
 10
183.479593
 20
157.550420
 11
183.313276
 21
157.392389
  0
LINE
  8
CSLAYER1
  6
CONTINUOUS
 62
     6
 10
183.313276
 20
157.392389
 11
183.148586
 21
157.234109
  0
LINE
  8
CSLAYER1
  6
CONTINUOUS
 62
     6
 10
183.148586
 20
157.234109
 11
182.987488
 21
157.075889
  0
LINE
  8
CSLAYER1
  6
CONTINUOUS
 62
     6
 10
182.987488
 20
157.075889
 11
182.831949
 21
156.918036
  0
LINE
  8
CSLAYER1
  6
CONTINUOUS
 62
     6
 10
182.831949
 20
156.918036
 11
182.683933
 21
156.760861
  0
LINE
  8
CSLAYER1
  6
CONTINUOUS
 62
     6
 10
182.683933
 20
156.760861
 11
182.545405
 21
156.604671
  0
LINE
  8
CSLAYER1
  6
CONTINUOUS
 62
     6
 10
182.545405
 20
156.604671
 11
182.419490
 21
156.458089
  0
LINE
  8
CSLAYER1
  6
CONTINUOUS
 62
     6
 10
182.419490
 20
156.458089
 11
182.288681
 21
156.307910
  0
LINE
  8
CSLAYER1
  6
CONTINUOUS
 62
     6
 10
182.288681
 20
156.307910
 11
182.153078
 21
156.155691
  0
LINE
  8
CSLAYER1
  6
CONTINUOUS
 62
     6
 10
182.153078
 20
156.155691
 11
182.012785
 21
156.002986
  0
LINE
  8
CSLAYER1
  6
CONTINUOUS
 62
     6
 10
182.012785
 20
156.002986
 11
181.867902
 21
155.851353
  0
LINE
  8
CSLAYER1
  6
CONTINUOUS
 62
     6
 10
181.867902
 20
155.851353
 11
181.718531
 21
155.702346
  0
LINE
  8
CSLAYER1
  6
CONTINUOUS
 62
     6
 10
181.718531
 20
155.702346
 11
181.564775
 21
155.557522
  0
LINE
  8
CSLAYER1
  6
CONTINUOUS
 62
     6
 10
181.564775
 20
155.557522
 11
181.406734
 21
155.418437
  0
LINE
  8
CSLAYER1
  6
CONTINUOUS
 62
     6
 10
181.406734
 20
155.418437
 11
181.244511
 21
155.286647
  0
LINE
  8
CSLAYER1
  6
CONTINUOUS
 62
     6
 10
181.244511
 20
155.286647
 11
181.078207
 21
155.163707
  0
LINE
  8
CSLAYER1
  6
CONTINUOUS
 62
     6
 10
181.078207
 20
155.163707
 11
180.907923
 21
155.051174
  0
LINE
  8
CSLAYER1
  6
CONTINUOUS
 62
     6
 10
180.907923
 20
155.051174
 11
180.815189
 21
154.995747
  0
LINE
  8
CSLAYER1
  6
CONTINUOUS
 62
     6
 10
180.815189
 20
154.995747
 11
180.720597
 21
154.943071
  0
LINE
  8
CSLAYER1
  6
CONTINUOUS
 62
     6
 10
180.720597
 20
154.943071
 11
180.624333
 21
154.892870
  0
LINE
  8
CSLAYER1
  6
CONTINUOUS
 62
     6
 10
180.624333
 20
154.892870
 11
180.526581
 21
154.844868
  0
LINE
  8
CSLAYER1
  6
CONTINUOUS
 62
     6
 10
180.526581
 20
154.844868
 11
180.427530
 21
154.798792
  0
LINE
  8
CSLAYER1
  6
CONTINUOUS
 62
     6
 10
180.427530
 20
154.798792
 11
180.327363
 21
154.754366
  0
LINE
  8
CSLAYER1
  6
CONTINUOUS
 62
     6
 10
180.327363
 20
154.754366
 11
180.226267
 21
154.711314
  0
LINE
  8
CSLAYER1
  6
CONTINUOUS
 62
     6
 10
180.226267
 20
154.711314
 11
180.124428
 21
154.669363
  0
LINE
  8
CSLAYER1
  6
CONTINUOUS
 62
     6
 10
180.124428
 20
154.669363
 11
180.022032
 21
154.628237
  0
LINE
  8
CSLAYER1
  6
CONTINUOUS
 62
     6
 10
180.022032
 20
154.628237
 11
179.919263
 21
154.587660
  0
LINE
  8
CSLAYER1
  6
CONTINUOUS
 62
     6
 10
179.919263
 20
154.587660
 11
179.816309
 21
154.547359
  0
LINE
  8
CSLAYER1
  6
CONTINUOUS
 62
     6
 10
182.715074
 20
152.226727
 11
182.580273
 21
152.061415
  0
LINE
  8
CSLAYER1
  6
CONTINUOUS
 62
     6
 10
182.580273
 20
152.061415
 11
182.441715
 21
151.889762
  0
LINE
  8
CSLAYER1
  6
CONTINUOUS
 62
     6
 10
182.441715
 20
151.889762
 11
182.301440
 21
151.713341
  0
LINE
  8
CSLAYER1
  6
CONTINUOUS
 62
     6
 10
182.301440
 20
151.713341
 11
182.161482
 21
151.533723
  0
LINE
  8
CSLAYER1
  6
CONTINUOUS
 62
     6
 10
182.161482
 20
151.533723
 11
182.023879
 21
151.352479
  0
LINE
  8
CSLAYER1
  6
CONTINUOUS
 62
     6
 10
182.023879
 20
151.352479
 11
181.890667
 21
151.171183
  0
LINE
  8
CSLAYER1
  6
CONTINUOUS
 62
     6
 10
181.890667
 20
151.171183
 11
181.763883
 21
150.991406
  0
LINE
  8
CSLAYER1
  6
CONTINUOUS
 62
     6
 10
181.763883
 20
150.991406
 11
181.645564
 21
150.814719
  0
LINE
  8
CSLAYER1
  6
CONTINUOUS
 62
     6
 10
181.645564
 20
150.814719
 11
181.537745
 21
150.642696
  0
LINE
  8
CSLAYER1
  6
CONTINUOUS
 62
     6
 10
181.537745
 20
150.642696
 11
181.440107
 21
150.478935
  0
LINE
  8
CSLAYER1
  6
CONTINUOUS
 62
     6
 10
181.440107
 20
150.478935
 11
181.340477
 21
150.309668
  0
LINE
  8
CSLAYER1
  6
CONTINUOUS
 62
     6
 10
181.340477
 20
150.309668
 11
181.238651
 21
150.136197
  0
LINE
  8
CSLAYER1
  6
CONTINUOUS
 62
     6
 10
181.238651
 20
150.136197
 11
181.134421
 21
149.959824
  0
LINE
  8
CSLAYER1
  6
CONTINUOUS
 62
     6
 10
181.134421
 20
149.959824
 11
181.027581
 21
149.781851
  0
LINE
  8
CSLAYER1
  6
CONTINUOUS
 62
     6
 10
181.027581
 20
149.781851
 11
180.917924
 21
149.603581
  0
LINE
  8
CSLAYER1
  6
CONTINUOUS
 62
     6
 10
180.917924
 20
149.603581
 11
180.805243
 21
149.426317
  0
LINE
  8
CSLAYER1
  6
CONTINUOUS
 62
     6
 10
180.805243
 20
149.426317
 11
180.689333
 21
149.251359
  0
LINE
  8
CSLAYER1
  6
CONTINUOUS
 62
     6
 10
180.689333
 20
149.251359
 11
180.569985
 21
149.080011
  0
LINE
  8
CSLAYER1
  6
CONTINUOUS
 62
     6
 10
180.569985
 20
149.080011
 11
180.446995
 21
148.913575
  0
LINE
  8
CSLAYER1
  6
CONTINUOUS
 62
     6
 10
180.446995
 20
148.913575
 11
180.320154
 21
148.753353
  0
LINE
  8
CSLAYER1
  6
CONTINUOUS
 62
     6
 10
180.320154
 20
148.753353
 11
180.221333
 21
148.636840
  0
LINE
  8
CSLAYER1
  6
CONTINUOUS
 62
     6
 10
180.221333
 20
148.636840
 11
180.119121
 21
148.523081
  0
LINE
  8
CSLAYER1
  6
CONTINUOUS
 62
     6
 10
180.119121
 20
148.523081
 11
180.013857
 21
148.411800
  0
LINE
  8
CSLAYER1
  6
CONTINUOUS
 62
     6
 10
180.013857
 20
148.411800
 11
179.905880
 21
148.302722
  0
LINE
  8
CSLAYER1
  6
CONTINUOUS
 62
     6
 10
179.905880
 20
148.302722
 11
179.795529
 21
148.195571
  0
LINE
  8
CSLAYER1
  6
CONTINUOUS
 62
     6
 10
179.795529
 20
148.195571
 11
179.683144
 21
148.090073
  0
LINE
  8
CSLAYER1
  6
CONTINUOUS
 62
     6
 10
179.683144
 20
148.090073
 11
179.569062
 21
147.985951
  0
LINE
  8
CSLAYER1
  6
CONTINUOUS
 62
     6
 10
179.569062
 20
147.985951
 11
179.453625
 21
147.882930
  0
LINE
  8
CSLAYER1
  6
CONTINUOUS
 62
     6
 10
179.453625
 20
147.882930
 11
179.337170
 21
147.780736
  0
LINE
  8
CSLAYER1
  6
CONTINUOUS
 62
     6
 10
179.337170
 20
147.780736
 11
179.241144
 21
147.697408
  0
LINE
  8
CSLAYER1
  6
CONTINUOUS
 62
     6
 10
179.241144
 20
147.697408
 11
179.310291
 21
147.662879
  0
LINE
  8
CSLAYER1
  6
CONTINUOUS
 62
     6
 10
179.310291
 20
147.662879
 11
179.394767
 21
147.615263
  0
LINE
  8
CSLAYER1
  6
CONTINUOUS
 62
     6
 10
179.394767
 20
147.615263
 11
179.480700
 21
147.561513
  0
LINE
  8
CSLAYER1
  6
CONTINUOUS
 62
     6
 10
179.480700
 20
147.561513
 11
179.566819
 21
147.502288
  0
LINE
  8
CSLAYER1
  6
CONTINUOUS
 62
     6
 10
179.566819
 20
147.502288
 11
179.651855
 21
147.438251
  0
LINE
  8
CSLAYER1
  6
CONTINUOUS
 62
     6
 10
179.651855
 20
147.438251
 11
179.734537
 21
147.370060
  0
LINE
  8
CSLAYER1
  6
CONTINUOUS
 62
     6
 10
179.734537
 20
147.370060
 11
179.813596
 21
147.298376
  0
LINE
  8
CSLAYER1
  6
CONTINUOUS
 62
     6
 10
179.813596
 20
147.298376
 11
179.887762
 21
147.223861
  0
LINE
  8
CSLAYER1
  6
CONTINUOUS
 62
     6
 10
179.887762
 20
147.223861
 11
179.955765
 21
147.147173
  0
LINE
  8
CSLAYER1
  6
CONTINUOUS
 62
     6
 10
179.955765
 20
147.147173
 11
180.016335
 21
147.068975
  0
LINE
  8
CSLAYER1
  6
CONTINUOUS
 62
     6
 10
180.016335
 20
147.068975
 11
180.068201
 21
146.989925
  0
LINE
  8
CSLAYER1
  6
CONTINUOUS
 62
     6
 10
180.068201
 20
146.989925
 11
180.084108
 21
146.962318
  0
LINE
  8
CSLAYER1
  6
CONTINUOUS
 62
     6
 10
180.084108
 20
146.962318
 11
180.099761
 21
146.933625
  0
LINE
  8
CSLAYER1
  6
CONTINUOUS
 62
     6
 10
180.099761
 20
146.933625
 11
180.115204
 21
146.904011
  0
LINE
  8
CSLAYER1
  6
CONTINUOUS
 62
     6
 10
180.115204
 20
146.904011
 11
180.130476
 21
146.873645
  0
LINE
  8
CSLAYER1
  6
CONTINUOUS
 62
     6
 10
180.130476
 20
146.873645
 11
180.145622
 21
146.842694
  0
LINE
  8
CSLAYER1
  6
CONTINUOUS
 62
     6
 10
180.145622
 20
146.842694
 11
180.160682
 21
146.811323
  0
LINE
  8
CSLAYER1
  6
CONTINUOUS
 62
     6
 10
180.160682
 20
146.811323
 11
180.175699
 21
146.779702
  0
LINE
  8
CSLAYER1
  6
CONTINUOUS
 62
     6
 10
180.175699
 20
146.779702
 11
180.190714
 21
146.747997
  0
LINE
  8
CSLAYER1
  6
CONTINUOUS
 62
     6
 10
180.190714
 20
146.747997
 11
180.205770
 21
146.716375
  0
LINE
  8
CSLAYER1
  6
CONTINUOUS
 62
     6
 10
180.205770
 20
146.716375
 11
180.220908
 21
146.685003
  0
LINE
  8
CSLAYER1
  6
CONTINUOUS
 62
     6
 10
180.220908
 20
146.685003
 11
180.236170
 21
146.654049
  0
LINE
  8
CSLAYER1
  6
CONTINUOUS
 62
     6
 10
180.236170
 20
146.654049
 11
180.276992
 21
146.575912
  0
LINE
  8
CSLAYER1
  6
CONTINUOUS
 62
     6
 10
180.276992
 20
146.575912
 11
180.320327
 21
146.499379
  0
LINE
  8
CSLAYER1
  6
CONTINUOUS
 62
     6
 10
180.320327
 20
146.499379
 11
180.365925
 21
146.424291
  0
LINE
  8
CSLAYER1
  6
CONTINUOUS
 62
     6
 10
180.365925
 20
146.424291
 11
180.413535
 21
146.350486
  0
LINE
  8
CSLAYER1
  6
CONTINUOUS
 62
     6
 10
180.413535
 20
146.350486
 11
180.462906
 21
146.277805
  0
LINE
  8
CSLAYER1
  6
CONTINUOUS
 62
     6
 10
180.462906
 20
146.277805
 11
180.513784
 21
146.206086
  0
LINE
  8
CSLAYER1
  6
CONTINUOUS
 62
     6
 10
180.513784
 20
146.206086
 11
180.565920
 21
146.135170
  0
LINE
  8
CSLAYER1
  6
CONTINUOUS
 62
     6
 10
180.565920
 20
146.135170
 11
180.619062
 21
146.064896
  0
LINE
  8
CSLAYER1
  6
CONTINUOUS
 62
     6
 10
180.619062
 20
146.064896
 11
180.672958
 21
145.995103
  0
LINE
  8
CSLAYER1
  6
CONTINUOUS
 62
     6
 10
180.672958
 20
145.995103
 11
180.727357
 21
145.925630
  0
LINE
  8
CSLAYER1
  6
CONTINUOUS
 62
     6
 10
180.727357
 20
145.925630
 11
180.779430
 21
145.859587
  0
LINE
  8
CSLAYER1
  6
CONTINUOUS
 62
     6
 10
180.779430
 20
145.859587
 11
180.906777
 21
145.968889
  0
LINE
  8
CSLAYER1
  6
CONTINUOUS
 62
     6
 10
180.906777
 20
145.968889
 11
181.043493
 21
146.086921
  0
LINE
  8
CSLAYER1
  6
CONTINUOUS
 62
     6
 10
181.043493
 20
146.086921
 11
181.179380
 21
146.205626
  0
LINE
  8
CSLAYER1
  6
CONTINUOUS
 62
     6
 10
181.179380
 20
146.205626
 11
181.314026
 21
146.325337
  0
LINE
  8
CSLAYER1
  6
CONTINUOUS
 62
     6
 10
181.314026
 20
146.325337
 11
181.447018
 21
146.446392
  0
LINE
  8
CSLAYER1
  6
CONTINUOUS
 62
     6
 10
181.447018
 20
146.446392
 11
181.577940
 21
146.569125
  0
LINE
  8
CSLAYER1
  6
CONTINUOUS
 62
     6
 10
181.577940
 20
146.569125
 11
181.706380
 21
146.693872
  0
LINE
  8
CSLAYER1
  6
CONTINUOUS
 62
     6
 10
181.706380
 20
146.693872
 11
181.831923
 21
146.820970
  0
LINE
  8
CSLAYER1
  6
CONTINUOUS
 62
     6
 10
181.831923
 20
146.820970
 11
181.954156
 21
146.950754
  0
LINE
  8
CSLAYER1
  6
CONTINUOUS
 62
     6
 10
181.954156
 20
146.950754
 11
182.072666
 21
147.083560
  0
LINE
  8
CSLAYER1
  6
CONTINUOUS
 62
     6
 10
182.072666
 20
147.083560
 11
182.187037
 21
147.219723
  0
LINE
  8
CSLAYER1
  6
CONTINUOUS
 62
     6
 10
182.187037
 20
147.219723
 11
182.323534
 21
147.393949
  0
LINE
  8
CSLAYER1
  6
CONTINUOUS
 62
     6
 10
182.323534
 20
147.393949
 11
182.455877
 21
147.574625
  0
LINE
  8
CSLAYER1
  6
CONTINUOUS
 62
     6
 10
182.455877
 20
147.574625
 11
182.584348
 21
147.760395
  0
LINE
  8
CSLAYER1
  6
CONTINUOUS
 62
     6
 10
182.584348
 20
147.760395
 11
182.709230
 21
147.949903
  0
LINE
  8
CSLAYER1
  6
CONTINUOUS
 62
     6
 10
182.709230
 20
147.949903
 11
182.830802
 21
148.141791
  0
LINE
  8
CSLAYER1
  6
CONTINUOUS
 62
     6
 10
182.830802
 20
148.141791
 11
182.949346
 21
148.334704
  0
LINE
  8
CSLAYER1
  6
CONTINUOUS
 62
     6
 10
182.949346
 20
148.334704
 11
183.065144
 21
148.527284
  0
LINE
  8
CSLAYER1
  6
CONTINUOUS
 62
     6
 10
183.065144
 20
148.527284
 11
183.178477
 21
148.718175
  0
LINE
  8
CSLAYER1
  6
CONTINUOUS
 62
     6
 10
183.178477
 20
148.718175
 11
183.289625
 21
148.906020
  0
LINE
  8
CSLAYER1
  6
CONTINUOUS
 62
     6
 10
183.289625
 20
148.906020
 11
183.398871
 21
149.089463
  0
LINE
  8
CSLAYER1
  6
CONTINUOUS
 62
     6
 10
183.398871
 20
149.089463
 11
183.506495
 21
149.267147
  0
LINE
  8
CSLAYER1
  6
CONTINUOUS
 62
     6
 10
183.506495
 20
149.267147
 11
183.611821
 21
149.432834
  0
LINE
  8
CSLAYER1
  6
CONTINUOUS
 62
     6
 10
183.611821
 20
149.432834
 11
183.726550
 21
149.602723
  0
LINE
  8
CSLAYER1
  6
CONTINUOUS
 62
     6
 10
183.726550
 20
149.602723
 11
183.848850
 21
149.775386
  0
LINE
  8
CSLAYER1
  6
CONTINUOUS
 62
     6
 10
183.848850
 20
149.775386
 11
183.976892
 21
149.949396
  0
LINE
  8
CSLAYER1
  6
CONTINUOUS
 62
     6
 10
183.976892
 20
149.949396
 11
184.108844
 21
150.123325
  0
LINE
  8
CSLAYER1
  6
CONTINUOUS
 62
     6
 10
184.108844
 20
150.123325
 11
184.242876
 21
150.295746
  0
LINE
  8
CSLAYER1
  6
CONTINUOUS
 62
     6
 10
184.242876
 20
150.295746
 11
184.377157
 21
150.465232
  0
LINE
  8
CSLAYER1
  6
CONTINUOUS
 62
     6
 10
184.377157
 20
150.465232
 11
184.509856
 21
150.630353
  0
LINE
  8
CSLAYER1
  6
CONTINUOUS
 62
     6
 10
184.509856
 20
150.630353
 11
184.639142
 21
150.789684
  0
LINE
  8
CSLAYER1
  6
CONTINUOUS
 62
     6
 10
184.639142
 20
150.789684
 11
184.763184
 21
150.941796
  0
LINE
  8
CSLAYER1
  6
CONTINUOUS
 62
     6
 10
184.763184
 20
150.941796
 11
184.932442
 21
151.149396
  0
ARC
  8
CSLAYER1
  6
CONTINUOUS
 62
     6
 10
183.850191
 20
150.719624
 40
1.164461
 50
21.658505
 51
86.024005
  0
ARC
  8
CSLAYER1
  6
CONTINUOUS
 62
     6
 10
182.884537
 20
151.370378
 40
1.164461
 50
26.024005
 51
86.024005
  0
ARC
  8
CSLAYER1
  6
CONTINUOUS
 62
     6
 10
184.011676
 20
153.042941
 40
1.164461
 50
206.024005
 51
266.024005
  0
LINE
  8
CSLAYER1
  6
CONTINUOUS
 62
     6
 10
182.965265
 20
152.532040
 11
182.844084
 21
152.384126
  0
LINE
  8
CSLAYER1
  6
CONTINUOUS
 62
     6
 10
182.844084
 20
152.384126
 11
182.715074
 21
152.226727
  0
ARC
  8
CSLAYER1
  6
CONTINUOUS
 62
     6
 10
184.774706
 20
152.125985
 40
1.200008
 50
30.461486
 51
90.461486
  0
LINE
  8
CSLAYER1
  6
CONTINUOUS
 62
     6
 10
180.006192
 20
147.082070
 11
177.563196
 21
144.687435
  0
LINE
  8
CSLAYER1
  6
CONTINUOUS
 62
     6
 10
176.948847
 20
144.900082
 11
179.694694
 21
147.402919
  0
LINE
  8
CSLAYER1
  6
CONTINUOUS
 62
     6
 10
180.286662
 20
146.558833
 11
178.035731
 21
144.120327
  0
LINE
  8
CSLAYER1
  6
CONTINUOUS
 62
     6
 10
171.608851
 20
146.979366
 11
173.834974
 21
149.955603
  0
LINE
  8
CSLAYER1
  6
CONTINUOUS
 62
     6
 10
173.269140
 20
150.102196
 11
170.923609
 21
147.428310
  0
LINE
  8
CSLAYER1
  6
CONTINUOUS
 62
     6
 10
170.380152
 20
147.948116
 11
172.851922
 21
150.349924
  0
LINE
  8
CSLAYER1
  6
CONTINUOUS
 62
     6
 10
193.168499
 20
164.576595
 11
192.724621
 21
165.276577
  0
LINE
  8
CSLAYER1
  6
CONTINUOUS
 62
     6
 10
193.224621
 20
165.276577
 11
193.668499
 21
164.576595
  0
ARC
  8
CSLAYER1
  6
CONTINUOUS
 62
     6
 10
195.872570
 20
164.676571
 40
0.100000
 50
270.000001
 51
359.942691
  0
LINE
  8
CSLAYER1
  6
CONTINUOUS
 62
     6
 10
195.972546
 20
164.676571
 11
195.972546
 21
165.176571
  0
ARC
  8
CSLAYER1
  6
CONTINUOUS
 62
     6
 10
195.872570
 20
165.176571
 40
0.100000
 50
0.000010
 51
90.000016
  0
LINE
  8
CSLAYER1
  6
CONTINUOUS
 62
     6
 10
206.072582
 20
163.276577
 11
206.072582
 21
167.276577
  0
LINE
  8
CSLAYER1
  6
CONTINUOUS
 62
     6
 10
206.072582
 20
163.276577
 11
219.072582
 21
163.276577
  0
LINE
  8
CSLAYER1
  6
CONTINUOUS
 62
     6
 10
216.172131
 20
121.276561
 11
179.972973
 21
121.276561
  0
ARC
  8
CSLAYER1
  6
CONTINUOUS
 62
     6
 10
179.972973
 20
120.276561
 40
1.000000
 50
90.000003
 51
173.999998
  0
LINE
  8
CSLAYER1
  6
CONTINUOUS
 62
     6
 10
178.978466
 20
120.381054
 11
178.330456
 21
114.215831
  0
ARC
  8
CSLAYER1
  6
CONTINUOUS
 62
     6
 10
177.335949
 20
114.320385
 40
1.000000
 50
270.000001
 51
353.999989
  0
LINE
  8
CSLAYER1
  6
CONTINUOUS
 62
     6
 10
178.547009
 20
116.276561
 11
167.072552
 21
116.276561
  0
LINE
  8
CSLAYER1
  6
CONTINUOUS
 62
     6
 10
167.072552
 20
116.276561
 11
166.072552
 21
115.276561
  0
LINE
  8
CSLAYER1
  6
CONTINUOUS
 62
     6
 10
166.072582
 20
115.276577
 11
166.072582
 21
29.276577
  0
LINE
  8
CSLAYER1
  6
CONTINUOUS
 62
     6
 10
166.072582
 20
29.276577
 11
167.072582
 21
28.276577
  0
LINE
  8
CSLAYER1
  6
CONTINUOUS
 62
     6
 10
167.072582
 20
28.276577
 11
167.072582
 21
116.276577
  0
LINE
  8
CSLAYER1
  6
CONTINUOUS
 62
     6
 10
167.072582
 20
116.276577
 11
166.072582
 21
115.276577
  0
ARC
  8
CSLAYER1
  6
CONTINUOUS
 62
     6
 10
177.286267
 20
109.848095
 40
1.000000
 50
270.000001
 51
353.999989
  0
LINE
  8
CSLAYER1
  6
CONTINUOUS
 62
     6
 10
178.280834
 20
109.743602
 11
178.978466
 21
116.381054
  0
ARC
  8
CSLAYER1
  6
CONTINUOUS
 62
     6
 10
179.972973
 20
116.276561
 40
1.000000
 50
90.000003
 51
173.999998
  0
LINE
  8
CSLAYER1
  6
CONTINUOUS
 62
     6
 10
179.972973
 20
117.276561
 11
216.172131
 21
117.276561
  0
ARC
  8
CSLAYER1
  6
CONTINUOUS
 62
     6
 10
216.172131
 20
116.276561
 40
1.000000
 50
6.000003
 51
90.000016
  0
LINE
  8
CSLAYER1
  6
CONTINUOUS
 62
     6
 10
217.166699
 20
116.381054
 11
217.864330
 21
109.743602
  0
ARC
  8
CSLAYER1
  6
CONTINUOUS
 62
     6
 10
218.858837
 20
109.848095
 40
1.000000
 50
186.000026
 51
270.000001
  0
ARC
  8
CSLAYER1
  6
CONTINUOUS
 62
     6
 10
218.809216
 20
114.320385
 40
1.000000
 50
186.000026
 51
270.000001
  0
LINE
  8
CSLAYER1
  6
CONTINUOUS
 62
     6
 10
217.814648
 20
114.215831
 11
217.166699
 21
120.381054
  0
ARC
  8
CSLAYER1
  6
CONTINUOUS
 62
     6
 10
216.172131
 20
120.276561
 40
1.000000
 50
6.000003
 51
90.000016
  0
LINE
  8
CSLAYER1
  6
CONTINUOUS
 62
     6
 10
217.597546
 20
116.276561
 11
219.072582
 21
116.276561
  0
LINE
  8
CSLAYER1
  6
CONTINUOUS
 62
     6
 10
213.715649
 20
108.669750
 11
181.758557
 21
108.669750
  0
LINE
  8
CSLAYER1
  6
CONTINUOUS
 62
     6
 10
182.072582
 20
90.276577
 11
204.072582
 21
90.276577
  0
ARC
  8
CSLAYER1
  6
CONTINUOUS
 62
     6
 10
204.072582
 20
88.276577
 40
2.000000
 50
0.000000
 51
90.000000
  0
LINE
  8
CSLAYER1
  6
CONTINUOUS
 62
     6
 10
206.072582
 20
88.276577
 11
206.072582
 21
56.276577
  0
ARC
  8
CSLAYER1
  6
CONTINUOUS
 62
     6
 10
204.072582
 20
56.276577
 40
2.000000
 50
270.000000
 51
360.000000
  0
LINE
  8
CSLAYER1
  6
CONTINUOUS
 62
     6
 10
204.072582
 20
54.276577
 11
182.072582
 21
54.276577
  0
ARC
  8
CSLAYER1
  6
CONTINUOUS
 62
     6
 10
182.072582
 20
56.276577
 40
2.000000
 50
180.000000
 51
270.000000
  0
LINE
  8
CSLAYER1
  6
CONTINUOUS
 62
     6
 10
180.072582
 20
56.276577
 11
180.072582
 21
69.153604
  0
LINE
  8
CSLAYER1
  6
CONTINUOUS
 62
     6
 10
180.072730
 20
69.153604
 11
180.236950
 21
69.193922
  0
LINE
  8
CSLAYER1
  6
CONTINUOUS
 62
     6
 10
180.236950
 20
69.193922
 11
180.398481
 21
69.227298
  0
LINE
  8
CSLAYER1
  6
CONTINUOUS
 62
     6
 10
180.398481
 20
69.227298
 11
180.584736
 21
69.260643
  0
LINE
  8
CSLAYER1
  6
CONTINUOUS
 62
     6
 10
180.584736
 20
69.260643
 11
180.777847
 21
69.292411
  0
LINE
  8
CSLAYER1
  6
CONTINUOUS
 62
     6
 10
180.777847
 20
69.292411
 11
180.976392
 21
69.321959
  0
LINE
  8
CSLAYER1
  6
CONTINUOUS
 62
     6
 10
180.976392
 20
69.321959
 11
181.178948
 21
69.348648
  0
LINE
  8
CSLAYER1
  6
CONTINUOUS
 62
     6
 10
181.178948
 20
69.348648
 11
181.384091
 21
69.371837
  0
LINE
  8
CSLAYER1
  6
CONTINUOUS
 62
     6
 10
181.384091
 20
69.371837
 11
181.590400
 21
69.390884
  0
LINE
  8
CSLAYER1
  6
CONTINUOUS
 62
     6
 10
181.590400
 20
69.390884
 11
181.796451
 21
69.405150
  0
LINE
  8
CSLAYER1
  6
CONTINUOUS
 62
     6
 10
181.796451
 20
69.405150
 11
182.000821
 21
69.413993
  0
LINE
  8
CSLAYER1
  6
CONTINUOUS
 62
     6
 10
182.000821
 20
69.413993
 11
182.202088
 21
69.416772
  0
LINE
  8
CSLAYER1
  6
CONTINUOUS
 62
     6
 10
182.202088
 20
69.416772
 11
182.398828
 21
69.412847
  0
LINE
  8
CSLAYER1
  6
CONTINUOUS
 62
     6
 10
182.398828
 20
69.412847
 11
182.589619
 21
69.401578
  0
LINE
  8
CSLAYER1
  6
CONTINUOUS
 62
     6
 10
182.589619
 20
69.401578
 11
182.757217
 21
69.388085
  0
LINE
  8
CSLAYER1
  6
CONTINUOUS
 62
     6
 10
182.757217
 20
69.388085
 11
182.929558
 21
69.374201
  0
LINE
  8
CSLAYER1
  6
CONTINUOUS
 62
     6
 10
182.929558
 20
69.374201
 11
183.105555
 21
69.359807
  0
LINE
  8
CSLAYER1
  6
CONTINUOUS
 62
     6
 10
183.105555
 20
69.359807
 11
183.284120
 21
69.344781
  0
LINE
  8
CSLAYER1
  6
CONTINUOUS
 62
     6
 10
183.284120
 20
69.344781
 11
183.464166
 21
69.329004
  0
LINE
  8
CSLAYER1
  6
CONTINUOUS
 62
     6
 10
183.464166
 20
69.329004
 11
183.644604
 21
69.312356
  0
LINE
  8
CSLAYER1
  6
CONTINUOUS
 62
     6
 10
183.644604
 20
69.312356
 11
183.824347
 21
69.294716
  0
LINE
  8
CSLAYER1
  6
CONTINUOUS
 62
     6
 10
183.824347
 20
69.294716
 11
184.002306
 21
69.275965
  0
LINE
  8
CSLAYER1
  6
CONTINUOUS
 62
     6
 10
184.002306
 20
69.275965
 11
184.177395
 21
69.255982
  0
LINE
  8
CSLAYER1
  6
CONTINUOUS
 62
     6
 10
184.177395
 20
69.255982
 11
184.348525
 21
69.234647
  0
LINE
  8
CSLAYER1
  6
CONTINUOUS
 62
     6
 10
184.348525
 20
69.234647
 11
184.514609
 21
69.211840
  0
LINE
  8
CSLAYER1
  6
CONTINUOUS
 62
     6
 10
184.514609
 20
69.211840
 11
184.680548
 21
69.188978
  0
LINE
  8
CSLAYER1
  6
CONTINUOUS
 62
     6
 10
184.680548
 20
69.188978
 11
184.851988
 21
69.167522
  0
LINE
  8
CSLAYER1
  6
CONTINUOUS
 62
     6
 10
184.851988
 20
69.167522
 11
185.027689
 21
69.147602
  0
LINE
  8
CSLAYER1
  6
CONTINUOUS
 62
     6
 10
185.027689
 20
69.147602
 11
185.206410
 21
69.129350
  0
LINE
  8
CSLAYER1
  6
CONTINUOUS
 62
     6
 10
185.206410
 20
69.129350
 11
185.386911
 21
69.112894
  0
LINE
  8
CSLAYER1
  6
CONTINUOUS
 62
     6
 10
185.386911
 20
69.112894
 11
185.567954
 21
69.098366
  0
LINE
  8
CSLAYER1
  6
CONTINUOUS
 62
     6
 10
185.567954
 20
69.098366
 11
185.748297
 21
69.085896
  0
LINE
  8
CSLAYER1
  6
CONTINUOUS
 62
     6
 10
185.748297
 20
69.085896
 11
185.926701
 21
69.075615
  0
LINE
  8
CSLAYER1
  6
CONTINUOUS
 62
     6
 10
185.926701
 20
69.075615
 11
186.101926
 21
69.067651
  0
LINE
  8
CSLAYER1
  6
CONTINUOUS
 62
     6
 10
186.101926
 20
69.067651
 11
186.272731
 21
69.062137
  0
LINE
  8
CSLAYER1
  6
CONTINUOUS
 62
     6
 10
186.272731
 20
69.062137
 11
186.437877
 21
69.059201
  0
LINE
  8
CSLAYER1
  6
CONTINUOUS
 62
     6
 10
186.437877
 20
69.059201
 11
186.597264
 21
69.058668
  0
LINE
  8
CSLAYER1
  6
CONTINUOUS
 62
     6
 10
186.597264
 20
69.058668
 11
186.763751
 21
69.060086
  0
LINE
  8
CSLAYER1
  6
CONTINUOUS
 62
     6
 10
186.763751
 20
69.060086
 11
186.935543
 21
69.063371
  0
LINE
  8
CSLAYER1
  6
CONTINUOUS
 62
     6
 10
186.935543
 20
69.063371
 11
187.110849
 21
69.068441
  0
LINE
  8
CSLAYER1
  6
CONTINUOUS
 62
     6
 10
187.110849
 20
69.068441
 11
187.287873
 21
69.075213
  0
LINE
  8
CSLAYER1
  6
CONTINUOUS
 62
     6
 10
187.287873
 20
69.075213
 11
187.464824
 21
69.083603
  0
LINE
  8
CSLAYER1
  6
CONTINUOUS
 62
     6
 10
187.464824
 20
69.083603
 11
187.639907
 21
69.093529
  0
LINE
  8
CSLAYER1
  6
CONTINUOUS
 62
     6
 10
187.639907
 20
69.093529
 11
187.811330
 21
69.104907
  0
LINE
  8
CSLAYER1
  6
CONTINUOUS
 62
     6
 10
187.811330
 20
69.104907
 11
187.977298
 21
69.117655
  0
LINE
  8
CSLAYER1
  6
CONTINUOUS
 62
     6
 10
187.977298
 20
69.117655
 11
188.136019
 21
69.131689
  0
LINE
  8
CSLAYER1
  6
CONTINUOUS
 62
     6
 10
188.136019
 20
69.131689
 11
188.285699
 21
69.146926
  0
ARC
  8
CSLAYER1
  6
CONTINUOUS
 62
     6
 10
188.250078
 20
70.646119
 40
1.500000
 50
-88.640300
 51
91.359720
  0
ARC
  8
CSLAYER1
  6
CONTINUOUS
 62
     6
 10
188.304330
 20
73.642596
 40
1.500000
 50
-93.433378
 51
86.566642
  0
LINE
  8
CSLAYER1
  6
CONTINUOUS
 62
     6
 10
188.394202
 20
75.139881
 11
188.163987
 21
75.147907
  0
LINE
  8
CSLAYER1
  6
CONTINUOUS
 62
     6
 10
188.163987
 20
75.147907
 11
187.920549
 21
75.157149
  0
LINE
  8
CSLAYER1
  6
CONTINUOUS
 62
     6
 10
187.920549
 20
75.157149
 11
187.666442
 21
75.167697
  0
LINE
  8
CSLAYER1
  6
CONTINUOUS
 62
     6
 10
187.666442
 20
75.167697
 11
187.404220
 21
75.179644
  0
LINE
  8
CSLAYER1
  6
CONTINUOUS
 62
     6
 10
187.404220
 20
75.179644
 11
187.136439
 21
75.193081
  0
LINE
  8
CSLAYER1
  6
CONTINUOUS
 62
     6
 10
187.136439
 20
75.193081
 11
186.865653
 21
75.208101
  0
LINE
  8
CSLAYER1
  6
CONTINUOUS
 62
     6
 10
186.865653
 20
75.208101
 11
186.594417
 21
75.224796
  0
LINE
  8
CSLAYER1
  6
CONTINUOUS
 62
     6
 10
186.594417
 20
75.224796
 11
186.325286
 21
75.243256
  0
LINE
  8
CSLAYER1
  6
CONTINUOUS
 62
     6
 10
186.325286
 20
75.243256
 11
186.060814
 21
75.263576
  0
LINE
  8
CSLAYER1
  6
CONTINUOUS
 62
     6
 10
186.060814
 20
75.263576
 11
185.803557
 21
75.285845
  0
LINE
  8
CSLAYER1
  6
CONTINUOUS
 62
     6
 10
185.803557
 20
75.285845
 11
185.556068
 21
75.310157
  0
LINE
  8
CSLAYER1
  6
CONTINUOUS
 62
     6
 10
185.556068
 20
75.310157
 11
185.293176
 21
75.337258
  0
LINE
  8
CSLAYER1
  6
CONTINUOUS
 62
     6
 10
185.293176
 20
75.337258
 11
185.023178
 21
75.364442
  0
LINE
  8
CSLAYER1
  6
CONTINUOUS
 62
     6
 10
185.023178
 20
75.364442
 11
184.747643
 21
75.391989
  0
LINE
  8
CSLAYER1
  6
CONTINUOUS
 62
     6
 10
184.747643
 20
75.391989
 11
184.468139
 21
75.420178
  0
LINE
  8
CSLAYER1
  6
CONTINUOUS
 62
     6
 10
184.468139
 20
75.420178
 11
184.186233
 21
75.449290
  0
LINE
  8
CSLAYER1
  6
CONTINUOUS
 62
     6
 10
184.186233
 20
75.449290
 11
183.903495
 21
75.479604
  0
LINE
  8
CSLAYER1
  6
CONTINUOUS
 62
     6
 10
183.903495
 20
75.479604
 11
183.621493
 21
75.511400
  0
LINE
  8
CSLAYER1
  6
CONTINUOUS
 62
     6
 10
183.621493
 20
75.511400
 11
183.341794
 21
75.544958
  0
LINE
  8
CSLAYER1
  6
CONTINUOUS
 62
     6
 10
183.341794
 20
75.544958
 11
183.065968
 21
75.580558
  0
LINE
  8
CSLAYER1
  6
CONTINUOUS
 62
     6
 10
183.065968
 20
75.580558
 11
182.795582
 21
75.618480
  0
LINE
  8
CSLAYER1
  6
CONTINUOUS
 62
     6
 10
182.795582
 20
75.618480
 11
182.532205
 21
75.659004
  0
LINE
  8
CSLAYER1
  6
CONTINUOUS
 62
     6
 10
182.532205
 20
75.659004
 11
182.128263
 21
75.720830
  0
LINE
  8
CSLAYER1
  6
CONTINUOUS
 62
     6
 10
182.128263
 20
75.720830
 11
181.714435
 21
75.776524
  0
LINE
  8
CSLAYER1
  6
CONTINUOUS
 62
     6
 10
181.714435
 20
75.776524
 11
181.292616
 21
75.824570
  0
LINE
  8
CSLAYER1
  6
CONTINUOUS
 62
     6
 10
181.292616
 20
75.824570
 11
180.864698
 21
75.863455
  0
LINE
  8
CSLAYER1
  6
CONTINUOUS
 62
     6
 10
180.864698
 20
75.863455
 11
180.432576
 21
75.891664
  0
LINE
  8
CSLAYER1
  6
CONTINUOUS
 62
     6
 10
180.432576
 20
75.891664
 11
179.998144
 21
75.907681
  0
LINE
  8
CSLAYER1
  6
CONTINUOUS
 62
     6
 10
179.998144
 20
75.907681
 11
179.563294
 21
75.909992
  0
LINE
  8
CSLAYER1
  6
CONTINUOUS
 62
     6
 10
179.563294
 20
75.909992
 11
179.129921
 21
75.897083
  0
LINE
  8
CSLAYER1
  6
CONTINUOUS
 62
     6
 10
179.129921
 20
75.897083
 11
178.699919
 21
75.867440
  0
LINE
  8
CSLAYER1
  6
CONTINUOUS
 62
     6
 10
178.699919
 20
75.867440
 11
178.275181
 21
75.819546
  0
LINE
  8
CSLAYER1
  6
CONTINUOUS
 62
     6
 10
178.275181
 20
75.819546
 11
177.857601
 21
75.751888
  0
LINE
  8
CSLAYER1
  6
CONTINUOUS
 62
     6
 10
177.857601
 20
75.751888
 11
177.591877
 21
75.696871
  0
LINE
  8
CSLAYER1
  6
CONTINUOUS
 62
     6
 10
177.591877
 20
75.696871
 11
177.327702
 21
75.633057
  0
LINE
  8
CSLAYER1
  6
CONTINUOUS
 62
     6
 10
177.327702
 20
75.633057
 11
177.064921
 21
75.561325
  0
LINE
  8
CSLAYER1
  6
CONTINUOUS
 62
     6
 10
177.064921
 20
75.561325
 11
176.803380
 21
75.482555
  0
LINE
  8
CSLAYER1
  6
CONTINUOUS
 62
     6
 10
176.803380
 20
75.482555
 11
176.542923
 21
75.397627
  0
LINE
  8
CSLAYER1
  6
CONTINUOUS
 62
     6
 10
176.542923
 20
75.397627
 11
176.283396
 21
75.307421
  0
LINE
  8
CSLAYER1
  6
CONTINUOUS
 62
     6
 10
176.283396
 20
75.307421
 11
176.024643
 21
75.212817
  0
LINE
  8
CSLAYER1
  6
CONTINUOUS
 62
     6
 10
176.024643
 20
75.212817
 11
175.766510
 21
75.114693
  0
LINE
  8
CSLAYER1
  6
CONTINUOUS
 62
     6
 10
175.766510
 20
75.114693
 11
175.508841
 21
75.013930
  0
LINE
  8
CSLAYER1
  6
CONTINUOUS
 62
     6
 10
175.508841
 20
75.013930
 11
175.251483
 21
74.911408
  0
LINE
  8
CSLAYER1
  6
CONTINUOUS
 62
     6
 10
175.251483
 20
74.911408
 11
174.994279
 21
74.808006
  0
ARC
  8
CSLAYER1
  6
CONTINUOUS
 62
     6
 10
176.462872
 20
74.502403
 40
1.499994
 50
168.245911
 51
228.245911
  0
ARC
  8
CSLAYER1
  6
CONTINUOUS
 62
     6
 10
174.465075
 20
72.264382
 40
1.499994
 50
-11.754089
 51
48.245911
  0
ARC
  8
CSLAYER1
  6
CONTINUOUS
 62
     6
 10
176.932514
 20
73.077827
 40
1.499994
 50
168.245911
 51
228.245911
  0
LINE
  8
CSLAYER1
  6
CONTINUOUS
 62
     6
 10
175.933568
 20
71.958838
 11
176.147120
 21
72.044386
  0
LINE
  8
CSLAYER1
  6
CONTINUOUS
 62
     6
 10
176.147120
 20
72.044386
 11
176.360797
 21
72.129219
  0
LINE
  8
CSLAYER1
  6
CONTINUOUS
 62
     6
 10
176.360797
 20
72.129219
 11
176.574723
 21
72.212620
  0
LINE
  8
CSLAYER1
  6
CONTINUOUS
 62
     6
 10
176.574723
 20
72.212620
 11
176.789025
 21
72.293872
  0
LINE
  8
CSLAYER1
  6
CONTINUOUS
 62
     6
 10
176.789025
 20
72.293872
 11
177.003828
 21
72.372259
  0
LINE
  8
CSLAYER1
  6
CONTINUOUS
 62
     6
 10
177.003828
 20
72.372259
 11
177.219255
 21
72.447066
  0
LINE
  8
CSLAYER1
  6
CONTINUOUS
 62
     6
 10
177.219255
 20
72.447066
 11
177.435433
 21
72.517576
  0
LINE
  8
CSLAYER1
  6
CONTINUOUS
 62
     6
 10
177.435433
 20
72.517576
 11
177.652485
 21
72.583074
  0
LINE
  8
CSLAYER1
  6
CONTINUOUS
 62
     6
 10
177.652485
 20
72.583074
 11
177.870539
 21
72.642842
  0
LINE
  8
CSLAYER1
  6
CONTINUOUS
 62
     6
 10
177.870539
 20
72.642842
 11
178.089717
 21
72.696166
  0
LINE
  8
CSLAYER1
  6
CONTINUOUS
 62
     6
 10
178.089717
 20
72.696166
 11
178.310146
 21
72.742328
  0
LINE
  8
CSLAYER1
  6
CONTINUOUS
 62
     6
 10
178.310146
 20
72.742328
 11
178.669213
 21
72.801347
  0
LINE
  8
CSLAYER1
  6
CONTINUOUS
 62
     6
 10
178.669213
 20
72.801347
 11
179.034761
 21
72.843203
  0
LINE
  8
CSLAYER1
  6
CONTINUOUS
 62
     6
 10
179.034761
 20
72.843203
 11
179.405056
 21
72.869198
  0
LINE
  8
CSLAYER1
  6
CONTINUOUS
 62
     6
 10
179.405056
 20
72.869198
 11
179.778362
 21
72.880635
  0
LINE
  8
CSLAYER1
  6
CONTINUOUS
 62
     6
 10
179.778362
 20
72.880635
 11
180.152944
 21
72.878816
  0
LINE
  8
CSLAYER1
  6
CONTINUOUS
 62
     6
 10
180.152944
 20
72.878816
 11
180.527069
 21
72.865043
  0
LINE
  8
CSLAYER1
  6
CONTINUOUS
 62
     6
 10
180.527069
 20
72.865043
 11
180.899001
 21
72.840618
  0
LINE
  8
CSLAYER1
  6
CONTINUOUS
 62
     6
 10
180.899001
 20
72.840618
 11
181.267005
 21
72.806844
  0
LINE
  8
CSLAYER1
  6
CONTINUOUS
 62
     6
 10
181.267005
 20
72.806844
 11
181.629347
 21
72.765023
  0
LINE
  8
CSLAYER1
  6
CONTINUOUS
 62
     6
 10
181.629347
 20
72.765023
 11
181.984293
 21
72.716458
  0
LINE
  8
CSLAYER1
  6
CONTINUOUS
 62
     6
 10
181.984293
 20
72.716458
 11
182.330106
 21
72.662450
  0
LINE
  8
CSLAYER1
  6
CONTINUOUS
 62
     6
 10
182.330106
 20
72.662450
 11
182.587268
 21
72.622196
  0
LINE
  8
CSLAYER1
  6
CONTINUOUS
 62
     6
 10
182.587268
 20
72.622196
 11
182.851966
 21
72.584771
  0
LINE
  8
CSLAYER1
  6
CONTINUOUS
 62
     6
 10
182.851966
 20
72.584771
 11
183.122509
 21
72.549844
  0
LINE
  8
CSLAYER1
  6
CONTINUOUS
 62
     6
 10
183.122509
 20
72.549844
 11
183.397207
 21
72.517081
  0
LINE
  8
CSLAYER1
  6
CONTINUOUS
 62
     6
 10
183.397207
 20
72.517081
 11
183.674371
 21
72.486150
  0
LINE
  8
CSLAYER1
  6
CONTINUOUS
 62
     6
 10
183.674371
 20
72.486150
 11
183.952310
 21
72.456720
  0
LINE
  8
CSLAYER1
  6
CONTINUOUS
 62
     6
 10
183.952310
 20
72.456720
 11
184.229334
 21
72.428456
  0
LINE
  8
CSLAYER1
  6
CONTINUOUS
 62
     6
 10
184.229334
 20
72.428456
 11
184.503752
 21
72.401027
  0
LINE
  8
CSLAYER1
  6
CONTINUOUS
 62
     6
 10
184.503752
 20
72.401027
 11
184.773876
 21
72.374100
  0
LINE
  8
CSLAYER1
  6
CONTINUOUS
 62
     6
 10
184.773876
 20
72.374100
 11
185.038013
 21
72.347343
  0
LINE
  8
CSLAYER1
  6
CONTINUOUS
 62
     6
 10
185.038013
 20
72.347343
 11
185.294475
 21
72.320423
  0
LINE
  8
CSLAYER1
  6
CONTINUOUS
 62
     6
 10
185.294475
 20
72.320423
 11
185.547824
 21
72.294996
  0
LINE
  8
CSLAYER1
  6
CONTINUOUS
 62
     6
 10
185.547824
 20
72.294996
 11
185.811839
 21
72.271797
  0
LINE
  8
CSLAYER1
  6
CONTINUOUS
 62
     6
 10
185.811839
 20
72.271797
 11
186.083772
 21
72.250716
  0
LINE
  8
CSLAYER1
  6
CONTINUOUS
 62
     6
 10
186.083772
 20
72.250716
 11
186.360875
 21
72.231645
  0
LINE
  8
CSLAYER1
  6
CONTINUOUS
 62
     6
 10
186.360875
 20
72.231645
 11
186.640400
 21
72.214474
  0
LINE
  8
CSLAYER1
  6
CONTINUOUS
 62
     6
 10
186.640400
 20
72.214474
 11
186.919599
 21
72.199093
  0
LINE
  8
CSLAYER1
  6
CONTINUOUS
 62
     6
 10
186.919599
 20
72.199093
 11
187.195725
 21
72.185392
  0
LINE
  8
CSLAYER1
  6
CONTINUOUS
 62
     6
 10
187.195725
 20
72.185392
 11
187.466028
 21
72.173263
  0
LINE
  8
CSLAYER1
  6
CONTINUOUS
 62
     6
 10
187.466028
 20
72.173263
 11
187.727763
 21
72.162595
  0
LINE
  8
CSLAYER1
  6
CONTINUOUS
 62
     6
 10
187.727763
 20
72.162595
 11
187.978179
 21
72.153278
  0
LINE
  8
CSLAYER1
  6
CONTINUOUS
 62
     6
 10
187.978179
 20
72.153278
 11
188.214530
 21
72.145204
  0
LINE
  8
CSLAYER1
  6
CONTINUOUS
 62
     6
 10
188.143360
 20
72.143542
 11
188.009271
 21
72.129823
  0
LINE
  8
CSLAYER1
  6
CONTINUOUS
 62
     6
 10
188.009271
 20
72.129823
 11
187.867194
 21
72.117177
  0
LINE
  8
CSLAYER1
  6
CONTINUOUS
 62
     6
 10
187.867194
 20
72.117177
 11
187.718685
 21
72.105684
  0
LINE
  8
CSLAYER1
  6
CONTINUOUS
 62
     6
 10
187.718685
 20
72.105684
 11
187.565297
 21
72.095423
  0
LINE
  8
CSLAYER1
  6
CONTINUOUS
 62
     6
 10
187.565297
 20
72.095423
 11
187.408588
 21
72.086474
  0
LINE
  8
CSLAYER1
  6
CONTINUOUS
 62
     6
 10
187.408588
 20
72.086474
 11
187.250113
 21
72.078917
  0
LINE
  8
CSLAYER1
  6
CONTINUOUS
 62
     6
 10
187.250113
 20
72.078917
 11
187.091427
 21
72.072830
  0
LINE
  8
CSLAYER1
  6
CONTINUOUS
 62
     6
 10
187.091427
 20
72.072830
 11
186.934086
 21
72.068294
  0
LINE
  8
CSLAYER1
  6
CONTINUOUS
 62
     6
 10
186.934086
 20
72.068294
 11
186.779645
 21
72.065388
  0
LINE
  8
CSLAYER1
  6
CONTINUOUS
 62
     6
 10
186.779645
 20
72.065388
 11
186.629659
 21
72.064192
  0
LINE
  8
CSLAYER1
  6
CONTINUOUS
 62
     6
 10
186.629659
 20
72.064192
 11
186.485685
 21
72.064784
  0
LINE
  8
CSLAYER1
  6
CONTINUOUS
 62
     6
 10
186.485685
 20
72.064784
 11
186.338445
 21
72.067563
  0
LINE
  8
CSLAYER1
  6
CONTINUOUS
 62
     6
 10
186.338445
 20
72.067563
 11
186.186831
 21
72.072681
  0
LINE
  8
CSLAYER1
  6
CONTINUOUS
 62
     6
 10
186.186831
 20
72.072681
 11
186.031785
 21
72.079994
  0
LINE
  8
CSLAYER1
  6
CONTINUOUS
 62
     6
 10
186.031785
 20
72.079994
 11
185.874249
 21
72.089357
  0
LINE
  8
CSLAYER1
  6
CONTINUOUS
 62
     6
 10
185.874249
 20
72.089357
 11
185.715163
 21
72.100625
  0
LINE
  8
CSLAYER1
  6
CONTINUOUS
 62
     6
 10
185.715163
 20
72.100625
 11
185.555468
 21
72.113652
  0
LINE
  8
CSLAYER1
  6
CONTINUOUS
 62
     6
 10
185.555468
 20
72.113652
 11
185.396106
 21
72.128295
  0
LINE
  8
CSLAYER1
  6
CONTINUOUS
 62
     6
 10
185.396106
 20
72.128295
 11
185.238018
 21
72.144407
  0
LINE
  8
CSLAYER1
  6
CONTINUOUS
 62
     6
 10
185.238018
 20
72.144407
 11
185.082144
 21
72.161843
  0
LINE
  8
CSLAYER1
  6
CONTINUOUS
 62
     6
 10
185.082144
 20
72.161843
 11
184.929427
 21
72.180460
  0
LINE
  8
CSLAYER1
  6
CONTINUOUS
 62
     6
 10
184.929427
 20
72.180460
 11
184.780806
 21
72.200111
  0
LINE
  8
CSLAYER1
  6
CONTINUOUS
 62
     6
 10
184.780806
 20
72.200111
 11
184.592257
 21
72.224965
  0
LINE
  8
CSLAYER1
  6
CONTINUOUS
 62
     6
 10
184.592257
 20
72.224965
 11
184.398994
 21
72.248456
  0
LINE
  8
CSLAYER1
  6
CONTINUOUS
 62
     6
 10
184.398994
 20
72.248456
 11
184.202049
 21
72.270673
  0
LINE
  8
CSLAYER1
  6
CONTINUOUS
 62
     6
 10
184.202049
 20
72.270673
 11
184.002459
 21
72.291706
  0
LINE
  8
CSLAYER1
  6
CONTINUOUS
 62
     6
 10
184.002459
 20
72.291706
 11
183.801257
 21
72.311646
  0
LINE
  8
CSLAYER1
  6
CONTINUOUS
 62
     6
 10
183.801257
 20
72.311646
 11
183.599479
 21
72.330583
  0
LINE
  8
CSLAYER1
  6
CONTINUOUS
 62
     6
 10
183.599479
 20
72.330583
 11
183.398158
 21
72.348606
  0
LINE
  8
CSLAYER1
  6
CONTINUOUS
 62
     6
 10
183.398158
 20
72.348606
 11
183.198329
 21
72.365807
  0
LINE
  8
CSLAYER1
  6
CONTINUOUS
 62
     6
 10
183.198329
 20
72.365807
 11
183.001027
 21
72.382275
  0
LINE
  8
CSLAYER1
  6
CONTINUOUS
 62
     6
 10
183.001027
 20
72.382275
 11
182.807287
 21
72.398100
  0
LINE
  8
CSLAYER1
  6
CONTINUOUS
 62
     6
 10
182.807287
 20
72.398100
 11
182.618142
 21
72.413373
  0
LINE
  8
CSLAYER1
  6
CONTINUOUS
 62
     6
 10
182.618142
 20
72.413373
 11
182.366314
 21
72.428133
  0
LINE
  8
CSLAYER1
  6
CONTINUOUS
 62
     6
 10
182.366314
 20
72.428133
 11
182.107201
 21
72.433109
  0
LINE
  8
CSLAYER1
  6
CONTINUOUS
 62
     6
 10
182.107201
 20
72.433109
 11
181.842589
 21
72.429193
  0
LINE
  8
CSLAYER1
  6
CONTINUOUS
 62
     6
 10
181.842589
 20
72.429193
 11
181.574267
 21
72.417274
  0
LINE
  8
CSLAYER1
  6
CONTINUOUS
 62
     6
 10
181.574267
 20
72.417274
 11
181.304022
 21
72.398242
  0
LINE
  8
CSLAYER1
  6
CONTINUOUS
 62
     6
 10
181.304022
 20
72.398242
 11
181.033642
 21
72.372990
  0
LINE
  8
CSLAYER1
  6
CONTINUOUS
 62
     6
 10
181.033642
 20
72.372990
 11
180.764914
 21
72.342405
  0
LINE
  8
CSLAYER1
  6
CONTINUOUS
 62
     6
 10
180.764914
 20
72.342405
 11
180.499626
 21
72.307380
  0
LINE
  8
CSLAYER1
  6
CONTINUOUS
 62
     6
 10
180.499626
 20
72.307380
 11
180.239565
 21
72.268805
  0
LINE
  8
CSLAYER1
  6
CONTINUOUS
 62
     6
 10
180.239565
 20
72.268805
 11
179.986520
 21
72.227569
  0
LINE
  8
CSLAYER1
  6
CONTINUOUS
 62
     6
 10
179.986520
 20
72.227569
 11
179.742277
 21
72.184564
  0
LINE
  8
CSLAYER1
  6
CONTINUOUS
 62
     6
 10
179.742277
 20
72.184564
 11
179.517606
 21
72.138963
  0
LINE
  8
CSLAYER1
  6
CONTINUOUS
 62
     6
 10
179.517606
 20
72.138963
 11
179.289067
 21
72.083606
  0
LINE
  8
CSLAYER1
  6
CONTINUOUS
 62
     6
 10
179.289067
 20
72.083606
 11
179.057701
 21
72.019102
  0
LINE
  8
CSLAYER1
  6
CONTINUOUS
 62
     6
 10
179.057701
 20
72.019102
 11
178.824549
 21
71.946056
  0
LINE
  8
CSLAYER1
  6
CONTINUOUS
 62
     6
 10
178.824549
 20
71.946056
 11
178.590652
 21
71.865078
  0
LINE
  8
CSLAYER1
  6
CONTINUOUS
 62
     6
 10
178.590652
 20
71.865078
 11
178.357054
 21
71.776772
  0
LINE
  8
CSLAYER1
  6
CONTINUOUS
 62
     6
 10
178.357054
 20
71.776772
 11
178.124793
 21
71.681747
  0
LINE
  8
CSLAYER1
  6
CONTINUOUS
 62
     6
 10
178.124793
 20
71.681747
 11
177.894913
 21
71.580610
  0
LINE
  8
CSLAYER1
  6
CONTINUOUS
 62
     6
 10
177.894913
 20
71.580610
 11
177.668455
 21
71.473968
  0
LINE
  8
CSLAYER1
  6
CONTINUOUS
 62
     6
 10
177.668455
 20
71.473968
 11
177.446459
 21
71.362428
  0
LINE
  8
CSLAYER1
  6
CONTINUOUS
 62
     6
 10
177.446459
 20
71.362428
 11
177.229968
 21
71.246597
  0
LINE
  8
CSLAYER1
  6
CONTINUOUS
 62
     6
 10
177.229968
 20
71.246597
 11
177.075252
 21
71.159202
  0
LINE
  8
CSLAYER1
  6
CONTINUOUS
 62
     6
 10
177.075252
 20
71.159202
 11
176.922226
 21
71.068981
  0
LINE
  8
CSLAYER1
  6
CONTINUOUS
 62
     6
 10
176.922226
 20
71.068981
 11
176.770719
 21
70.976217
  0
LINE
  8
CSLAYER1
  6
CONTINUOUS
 62
     6
 10
176.770719
 20
70.976217
 11
176.620563
 21
70.881191
  0
LINE
  8
CSLAYER1
  6
CONTINUOUS
 62
     6
 10
176.620563
 20
70.881191
 11
176.471590
 21
70.784187
  0
LINE
  8
CSLAYER1
  6
CONTINUOUS
 62
     6
 10
176.471590
 20
70.784187
 11
176.323631
 21
70.685488
  0
LINE
  8
CSLAYER1
  6
CONTINUOUS
 62
     6
 10
176.323631
 20
70.685488
 11
176.176515
 21
70.585375
  0
LINE
  8
CSLAYER1
  6
CONTINUOUS
 62
     6
 10
176.176515
 20
70.585375
 11
176.030075
 21
70.484132
  0
LINE
  8
CSLAYER1
  6
CONTINUOUS
 62
     6
 10
176.030075
 20
70.484132
 11
175.884142
 21
70.382040
  0
LINE
  8
CSLAYER1
  6
CONTINUOUS
 62
     6
 10
175.884142
 20
70.382040
 11
175.738547
 21
70.279384
  0
LINE
  8
CSLAYER1
  6
CONTINUOUS
 62
     6
 10
175.738547
 20
70.279384
 11
175.593121
 21
70.176445
  0
ARC
  8
CSLAYER1
  6
CONTINUOUS
 62
     6
 10
177.090854
 20
70.259555
 40
1.500006
 50
183.178280
 51
243.178280
  0
ARC
  8
CSLAYER1
  6
CONTINUOUS
 62
     6
 10
177.911726
 20
69.004092
 40
1.500006
 50
183.178280
 51
243.178280
  0
ARC
  8
CSLAYER1
  6
CONTINUOUS
 62
     6
 10
175.737201
 20
67.582300
 40
1.500006
 50
3.178280
 51
63.178280
  0
LINE
  8
CSLAYER1
  6
CONTINUOUS
 62
     6
 10
177.234863
 20
67.665517
 11
177.355233
 21
67.751265
  0
LINE
  8
CSLAYER1
  6
CONTINUOUS
 62
     6
 10
177.355233
 20
67.751265
 11
177.475755
 21
67.836760
  0
LINE
  8
CSLAYER1
  6
CONTINUOUS
 62
     6
 10
177.475755
 20
67.836760
 11
177.596579
 21
67.921748
  0
LINE
  8
CSLAYER1
  6
CONTINUOUS
 62
     6
 10
177.596579
 20
67.921748
 11
177.717858
 21
68.005974
  0
LINE
  8
CSLAYER1
  6
CONTINUOUS
 62
     6
 10
177.717858
 20
68.005974
 11
177.839744
 21
68.089185
  0
LINE
  8
CSLAYER1
  6
CONTINUOUS
 62
     6
 10
177.839744
 20
68.089185
 11
177.962387
 21
68.171127
  0
LINE
  8
CSLAYER1
  6
CONTINUOUS
 62
     6
 10
177.962387
 20
68.171127
 11
178.085939
 21
68.251547
  0
LINE
  8
CSLAYER1
  6
CONTINUOUS
 62
     6
 10
178.085939
 20
68.251547
 11
178.210552
 21
68.330191
  0
LINE
  8
CSLAYER1
  6
CONTINUOUS
 62
     6
 10
178.210552
 20
68.330191
 11
178.336378
 21
68.406805
  0
LINE
  8
CSLAYER1
  6
CONTINUOUS
 62
     6
 10
178.336378
 20
68.406805
 11
178.463567
 21
68.481135
  0
LINE
  8
CSLAYER1
  6
CONTINUOUS
 62
     6
 10
178.463567
 20
68.481135
 11
178.592272
 21
68.552927
  0
LINE
  8
CSLAYER1
  6
CONTINUOUS
 62
     6
 10
178.592272
 20
68.552927
 11
178.748369
 21
68.635382
  0
LINE
  8
CSLAYER1
  6
CONTINUOUS
 62
     6
 10
178.748369
 20
68.635382
 11
178.908242
 21
68.714964
  0
LINE
  8
CSLAYER1
  6
CONTINUOUS
 62
     6
 10
178.908242
 20
68.714964
 11
179.071172
 21
68.791220
  0
LINE
  8
CSLAYER1
  6
CONTINUOUS
 62
     6
 10
179.071172
 20
68.791220
 11
179.236440
 21
68.863699
  0
LINE
  8
CSLAYER1
  6
CONTINUOUS
 62
     6
 10
179.236440
 20
68.863699
 11
179.403330
 21
68.931948
  0
LINE
  8
CSLAYER1
  6
CONTINUOUS
 62
     6
 10
179.403330
 20
68.931948
 11
179.571122
 21
68.995515
  0
LINE
  8
CSLAYER1
  6
CONTINUOUS
 62
     6
 10
179.571122
 20
68.995515
 11
179.739098
 21
69.053949
  0
LINE
  8
CSLAYER1
  6
CONTINUOUS
 62
     6
 10
179.739098
 20
69.053949
 11
179.906540
 21
69.106796
  0
LINE
  8
CSLAYER1
  6
CONTINUOUS
 62
     6
 10
179.906540
 20
69.106796
 11
180.072730
 21
69.153604
  0
ARC
  8
CSLAYER1
  6
CONTINUOUS
 62
     6
 10
187.072561
 20
72.276539
 40
6.750000
 50
-154.073524
 51
148.329015
  0
LINE
  8
CSLAYER1
  6
CONTINUOUS
 62
     6
 10
180.072582
 20
75.904936
 11
180.072582
 21
88.276577
  0
ARC
  8
CSLAYER1
  6
CONTINUOUS
 62
     6
 10
182.072582
 20
88.276577
 40
2.000000
 50
90.000000
 51
180.000000
  0
ARC
  8
CSLAYER1
  6
CONTINUOUS
 62
     6
 10
193.072579
 20
87.276589
 40
1.527778
 50
163.398416
 51
196.601577
  0
LINE
  8
CSLAYER1
  6
CONTINUOUS
 62
     6
 10
191.608494
 20
86.840076
 11
192.199552
 21
86.840076
  0
ARC
  8
CSLAYER1
  6
CONTINUOUS
 62
     6
 10
192.199552
 20
86.403585
 40
0.436508
 50
0.000005
 51
89.942654
  0
LINE
  8
CSLAYER1
  6
CONTINUOUS
 62
     6
 10
192.636066
 20
86.403585
 11
192.636066
 21
85.812481
  0
ARC
  8
CSLAYER1
  6
CONTINUOUS
 62
     6
 10
193.072579
 20
87.276589
 40
1.527778
 50
253.398422
 51
286.601583
  0
LINE
  8
CSLAYER1
  6
CONTINUOUS
 62
     6
 10
193.509092
 20
85.812481
 11
193.509092
 21
86.403585
  0
ARC
  8
CSLAYER1
  6
CONTINUOUS
 62
     6
 10
193.945606
 20
86.403585
 40
0.436508
 50
90.000001
 51
179.942691
  0
LINE
  8
CSLAYER1
  6
CONTINUOUS
 62
     6
 10
193.945606
 20
86.840076
 11
194.536664
 21
86.840076
  0
ARC
  8
CSLAYER1
  6
CONTINUOUS
 62
     6
 10
193.072579
 20
87.276589
 40
1.527778
 50
-16.601562
 51
16.601572
  0
LINE
  8
CSLAYER1
  6
CONTINUOUS
 62
     6
 10
194.536664
 20
87.713102
 11
193.945606
 21
87.713102
  0
ARC
  8
CSLAYER1
  6
CONTINUOUS
 62
     6
 10
193.945606
 20
88.149593
 40
0.436508
 50
180.000010
 51
270.000016
  0
LINE
  8
CSLAYER1
  6
CONTINUOUS
 62
     6
 10
193.509092
 20
88.149593
 11
193.509092
 21
88.740697
  0
ARC
  8
CSLAYER1
  6
CONTINUOUS
 62
     6
 10
193.072579
 20
87.276589
 40
1.527778
 50
73.398406
 51
106.601595
  0
LINE
  8
CSLAYER1
  6
CONTINUOUS
 62
     6
 10
192.636066
 20
88.740697
 11
192.636066
 21
88.149593
  0
ARC
  8
CSLAYER1
  6
CONTINUOUS
 62
     6
 10
192.199552
 20
88.149593
 40
0.436508
 50
-89.999984
 51
0.000005
  0
LINE
  8
CSLAYER1
  6
CONTINUOUS
 62
     6
 10
192.199552
 20
87.713102
 11
191.608494
 21
87.713102
  0
CIRCLE
  8
CSLAYER1
  6
CONTINUOUS
 62
     6
 10
193.072589
 20
87.276588
 40
2.750000
  0
ARC
  8
CSLAYER1
  6
CONTINUOUS
 62
     6
 10
187.072561
 20
72.276539
 40
4.000000
 50
-129.735526
 51
128.465835
  0
ARC
  8
CSLAYER1
  6
CONTINUOUS
 62
     6
 10
187.072561
 20
72.276539
 40
4.000000
 50
176.007555
 51
178.572301
  0
ARC
  8
CSLAYER1
  6
CONTINUOUS
 62
     6
 10
187.072561
 20
72.276539
 40
6.750000
 50
174.942367
 51
179.961149
  0
LINE
  8
CSLAYER1
  6
CONTINUOUS
 62
     6
 10
180.072554
 20
72.276519
 11
180.072611
 21
72.877871
  0
LINE
  8
CSLAYER1
  6
CONTINUOUS
 62
     6
 10
180.072582
 20
72.879206
 11
180.072582
 21
72.241594
  0
ARC
  8
CSLAYER1
  6
CONTINUOUS
 62
     6
 10
172.387256
 20
70.840881
 40
1.499998
 50
2.735346
 51
62.735346
  0
ARC
  8
CSLAYER1
  6
CONTINUOUS
 62
     6
 10
173.761558
 20
73.507578
 40
1.499998
 50
182.735346
 51
242.735346
  0
ARC
  8
CSLAYER1
  6
CONTINUOUS
 62
     6
 10
171.576118
 20
72.102646
 40
1.499998
 50
2.735346
 51
62.735346
  0
LINE
  8
CSLAYER1
  6
CONTINUOUS
 62
     6
 10
173.759360
 20
70.851148
 11
173.885495
 21
70.912414
  0
LINE
  8
CSLAYER1
  6
CONTINUOUS
 62
     6
 10
173.759360
 20
70.851148
 11
173.628404
 21
70.781869
  0
LINE
  8
CSLAYER1
  6
CONTINUOUS
 62
     6
 10
173.628404
 20
70.781869
 11
173.493873
 21
70.705693
  0
LINE
  8
CSLAYER1
  6
CONTINUOUS
 62
     6
 10
173.493873
 20
70.705693
 11
173.357014
 21
70.623741
  0
LINE
  8
CSLAYER1
  6
CONTINUOUS
 62
     6
 10
173.357014
 20
70.623741
 11
173.219073
 21
70.537131
  0
LINE
  8
CSLAYER1
  6
CONTINUOUS
 62
     6
 10
173.219073
 20
70.537131
 11
173.081297
 21
70.446981
  0
LINE
  8
CSLAYER1
  6
CONTINUOUS
 62
     6
 10
173.081297
 20
70.446981
 11
172.944934
 21
70.354411
  0
LINE
  8
CSLAYER1
  6
CONTINUOUS
 62
     6
 10
172.944934
 20
70.354411
 11
172.811229
 21
70.260538
  0
LINE
  8
CSLAYER1
  6
CONTINUOUS
 62
     6
 10
172.811229
 20
70.260538
 11
172.681429
 21
70.166482
  0
LINE
  8
CSLAYER1
  6
CONTINUOUS
 62
     6
 10
172.681429
 20
70.166482
 11
172.556782
 21
70.073361
  0
LINE
  8
CSLAYER1
  6
CONTINUOUS
 62
     6
 10
172.556782
 20
70.073361
 11
172.438533
 21
69.982294
  0
LINE
  8
CSLAYER1
  6
CONTINUOUS
 62
     6
 10
172.438533
 20
69.982294
 11
172.346351
 21
69.907141
  0
LINE
  8
CSLAYER1
  6
CONTINUOUS
 62
     6
 10
172.346351
 20
69.907141
 11
172.254941
 21
69.826743
  0
LINE
  8
CSLAYER1
  6
CONTINUOUS
 62
     6
 10
172.254941
 20
69.826743
 11
172.164526
 21
69.741639
  0
LINE
  8
CSLAYER1
  6
CONTINUOUS
 62
     6
 10
172.164526
 20
69.741639
 11
172.075329
 21
69.652371
  0
LINE
  8
CSLAYER1
  6
CONTINUOUS
 62
     6
 10
172.075329
 20
69.652371
 11
171.987573
 21
69.559481
  0
LINE
  8
CSLAYER1
  6
CONTINUOUS
 62
     6
 10
171.987573
 20
69.559481
 11
171.901481
 21
69.463509
  0
LINE
  8
CSLAYER1
  6
CONTINUOUS
 62
     6
 10
171.901481
 20
69.463509
 11
171.817277
 21
69.364997
  0
LINE
  8
CSLAYER1
  6
CONTINUOUS
 62
     6
 10
171.817277
 20
69.364997
 11
171.735184
 21
69.264485
  0
LINE
  8
CSLAYER1
  6
CONTINUOUS
 62
     6
 10
171.735184
 20
69.264485
 11
171.655425
 21
69.162516
  0
LINE
  8
CSLAYER1
  6
CONTINUOUS
 62
     6
 10
171.655425
 20
69.162516
 11
171.578223
 21
69.059629
  0
LINE
  8
CSLAYER1
  6
CONTINUOUS
 62
     6
 10
171.578223
 20
69.059629
 11
171.503802
 21
68.956368
  0
LINE
  8
CSLAYER1
  6
CONTINUOUS
 62
     6
 10
171.503802
 20
68.956368
 11
171.410135
 21
68.820022
  0
LINE
  8
CSLAYER1
  6
CONTINUOUS
 62
     6
 10
171.410135
 20
68.820022
 11
171.319959
 21
68.681565
  0
LINE
  8
CSLAYER1
  6
CONTINUOUS
 62
     6
 10
171.319959
 20
68.681565
 11
171.232924
 21
68.541208
  0
LINE
  8
CSLAYER1
  6
CONTINUOUS
 62
     6
 10
171.232924
 20
68.541208
 11
171.148681
 21
68.399162
  0
LINE
  8
CSLAYER1
  6
CONTINUOUS
 62
     6
 10
171.148681
 20
68.399162
 11
171.066882
 21
68.255638
  0
LINE
  8
CSLAYER1
  6
CONTINUOUS
 62
     6
 10
171.066882
 20
68.255638
 11
170.987177
 21
68.110847
  0
LINE
  8
CSLAYER1
  6
CONTINUOUS
 62
     6
 10
170.987177
 20
68.110847
 11
170.909217
 21
67.965001
  0
LINE
  8
CSLAYER1
  6
CONTINUOUS
 62
     6
 10
170.909217
 20
67.965001
 11
170.832654
 21
67.818311
  0
LINE
  8
CSLAYER1
  6
CONTINUOUS
 62
     6
 10
170.832654
 20
67.818311
 11
170.757137
 21
67.670987
  0
LINE
  8
CSLAYER1
  6
CONTINUOUS
 62
     6
 10
170.757137
 20
67.670987
 11
170.682319
 21
67.523240
  0
LINE
  8
CSLAYER1
  6
CONTINUOUS
 62
     6
 10
170.682319
 20
67.523240
 11
170.607849
 21
67.375283
  0
ARC
  8
CSLAYER1
  6
CONTINUOUS
 62
     6
 10
170.595779
 20
68.875278
 40
1.499998
 50
210.461270
 51
270.461270
  0
ARC
  8
CSLAYER1
  6
CONTINUOUS
 62
     6
 10
169.314898
 20
66.614896
 40
1.499998
 50
30.461270
 51
90.461270
  0
LINE
  8
CSLAYER1
  6
CONTINUOUS
 62
     6
 10
169.734643
 20
67.711747
 11
168.842179
 21
64.429678
  0
LINE
  8
CSLAYER1
  6
CONTINUOUS
 62
     6
 10
167.978490
 20
64.717564
 11
169.072509
 21
67.913315
  0
ARC
  8
CSLAYER1
  6
CONTINUOUS
 62
     6
 10
169.290746
 20
69.614795
 40
1.499998
 50
210.461270
 51
270.461270
  0
LINE
  8
CSLAYER1
  6
CONTINUOUS
 62
     6
 10
167.997766
 20
68.854357
 11
168.087070
 21
69.028931
  0
LINE
  8
CSLAYER1
  6
CONTINUOUS
 62
     6
 10
168.087070
 20
69.028931
 11
168.176736
 21
69.203293
  0
LINE
  8
CSLAYER1
  6
CONTINUOUS
 62
     6
 10
168.176736
 20
69.203293
 11
168.267125
 21
69.377232
  0
LINE
  8
CSLAYER1
  6
CONTINUOUS
 62
     6
 10
168.267125
 20
69.377232
 11
168.358597
 21
69.550535
  0
LINE
  8
CSLAYER1
  6
CONTINUOUS
 62
     6
 10
168.358597
 20
69.550535
 11
168.451515
 21
69.722991
  0
LINE
  8
CSLAYER1
  6
CONTINUOUS
 62
     6
 10
168.451515
 20
69.722991
 11
168.546240
 21
69.894389
  0
LINE
  8
CSLAYER1
  6
CONTINUOUS
 62
     6
 10
168.546240
 20
69.894389
 11
168.643134
 21
70.064516
  0
LINE
  8
CSLAYER1
  6
CONTINUOUS
 62
     6
 10
168.643134
 20
70.064516
 11
168.742557
 21
70.233161
  0
LINE
  8
CSLAYER1
  6
CONTINUOUS
 62
     6
 10
168.742557
 20
70.233161
 11
168.844871
 21
70.400111
  0
LINE
  8
CSLAYER1
  6
CONTINUOUS
 62
     6
 10
168.844871
 20
70.400111
 11
168.950437
 21
70.565156
  0
LINE
  8
CSLAYER1
  6
CONTINUOUS
 62
     6
 10
168.950437
 20
70.565156
 11
169.059617
 21
70.728084
  0
LINE
  8
CSLAYER1
  6
CONTINUOUS
 62
     6
 10
169.059617
 20
70.728084
 11
169.171317
 21
70.887071
  0
LINE
  8
CSLAYER1
  6
CONTINUOUS
 62
     6
 10
169.171317
 20
70.887071
 11
169.287707
 21
71.045320
  0
LINE
  8
CSLAYER1
  6
CONTINUOUS
 62
     6
 10
169.287707
 20
71.045320
 11
169.408420
 21
71.201963
  0
LINE
  8
CSLAYER1
  6
CONTINUOUS
 62
     6
 10
169.408420
 20
71.201963
 11
169.533088
 21
71.356133
  0
LINE
  8
CSLAYER1
  6
CONTINUOUS
 62
     6
 10
169.533088
 20
71.356133
 11
169.661343
 21
71.506963
  0
LINE
  8
CSLAYER1
  6
CONTINUOUS
 62
     6
 10
169.661343
 20
71.506963
 11
169.792817
 21
71.653586
  0
LINE
  8
CSLAYER1
  6
CONTINUOUS
 62
     6
 10
169.792817
 20
71.653586
 11
169.927141
 21
71.795135
  0
LINE
  8
CSLAYER1
  6
CONTINUOUS
 62
     6
 10
169.927141
 20
71.795135
 11
170.063949
 21
71.930743
  0
LINE
  8
CSLAYER1
  6
CONTINUOUS
 62
     6
 10
170.063949
 20
71.930743
 11
170.202873
 21
72.059542
  0
LINE
  8
CSLAYER1
  6
CONTINUOUS
 62
     6
 10
170.202873
 20
72.059542
 11
170.343543
 21
72.180665
  0
LINE
  8
CSLAYER1
  6
CONTINUOUS
 62
     6
 10
170.343543
 20
72.180665
 11
170.485593
 21
72.293246
  0
LINE
  8
CSLAYER1
  6
CONTINUOUS
 62
     6
 10
170.485593
 20
72.293246
 11
170.632044
 21
72.402952
  0
LINE
  8
CSLAYER1
  6
CONTINUOUS
 62
     6
 10
170.632044
 20
72.402952
 11
170.785768
 21
72.515547
  0
LINE
  8
CSLAYER1
  6
CONTINUOUS
 62
     6
 10
170.785768
 20
72.515547
 11
170.945352
 21
72.629680
  0
LINE
  8
CSLAYER1
  6
CONTINUOUS
 62
     6
 10
170.945352
 20
72.629680
 11
171.109380
 21
72.743999
  0
LINE
  8
CSLAYER1
  6
CONTINUOUS
 62
     6
 10
171.109380
 20
72.743999
 11
171.276438
 21
72.857156
  0
LINE
  8
CSLAYER1
  6
CONTINUOUS
 62
     6
 10
171.276438
 20
72.857156
 11
171.445111
 21
72.967800
  0
LINE
  8
CSLAYER1
  6
CONTINUOUS
 62
     6
 10
171.445111
 20
72.967800
 11
171.613985
 21
73.074580
  0
LINE
  8
CSLAYER1
  6
CONTINUOUS
 62
     6
 10
171.613985
 20
73.074580
 11
171.781645
 21
73.176146
  0
LINE
  8
CSLAYER1
  6
CONTINUOUS
 62
     6
 10
171.781645
 20
73.176146
 11
171.946675
 21
73.271147
  0
LINE
  8
CSLAYER1
  6
CONTINUOUS
 62
     6
 10
171.946675
 20
73.271147
 11
172.107663
 21
73.358233
  0
LINE
  8
CSLAYER1
  6
CONTINUOUS
 62
     6
 10
172.107663
 20
73.358233
 11
172.263192
 21
73.436054
  0
LINE
  8
CSLAYER1
  6
CONTINUOUS
 62
     6
 10
173.507898
 20
68.478012
 11
173.405696
 21
68.388772
  0
LINE
  8
CSLAYER1
  6
CONTINUOUS
 62
     6
 10
173.405696
 20
68.388772
 11
173.301521
 21
68.291680
  0
LINE
  8
CSLAYER1
  6
CONTINUOUS
 62
     6
 10
173.301521
 20
68.291680
 11
173.196297
 21
68.187934
  0
LINE
  8
CSLAYER1
  6
CONTINUOUS
 62
     6
 10
173.196297
 20
68.187934
 11
173.090947
 21
68.078737
  0
LINE
  8
CSLAYER1
  6
CONTINUOUS
 62
     6
 10
173.090947
 20
68.078737
 11
172.986395
 21
67.965289
  0
LINE
  8
CSLAYER1
  6
CONTINUOUS
 62
     6
 10
172.986395
 20
67.965289
 11
172.883566
 21
67.848792
  0
LINE
  8
CSLAYER1
  6
CONTINUOUS
 62
     6
 10
172.883566
 20
67.848792
 11
172.783383
 21
67.730446
  0
LINE
  8
CSLAYER1
  6
CONTINUOUS
 62
     6
 10
172.783383
 20
67.730446
 11
172.686771
 21
67.611453
  0
LINE
  8
CSLAYER1
  6
CONTINUOUS
 62
     6
 10
172.686771
 20
67.611453
 11
172.594653
 21
67.493014
  0
LINE
  8
CSLAYER1
  6
CONTINUOUS
 62
     6
 10
172.594653
 20
67.493014
 11
172.507953
 21
67.376329
  0
LINE
  8
CSLAYER1
  6
CONTINUOUS
 62
     6
 10
172.507953
 20
67.376329
 11
172.427596
 21
67.262600
  0
LINE
  8
CSLAYER1
  6
CONTINUOUS
 62
     6
 10
172.427596
 20
67.262600
 11
172.346279
 21
67.137113
  0
LINE
  8
CSLAYER1
  6
CONTINUOUS
 62
     6
 10
172.346279
 20
67.137113
 11
172.269250
 21
67.004414
  0
LINE
  8
CSLAYER1
  6
CONTINUOUS
 62
     6
 10
172.269250
 20
67.004414
 11
172.196229
 21
66.865449
  0
LINE
  8
CSLAYER1
  6
CONTINUOUS
 62
     6
 10
172.196229
 20
66.865449
 11
172.126938
 21
66.721166
  0
LINE
  8
CSLAYER1
  6
CONTINUOUS
 62
     6
 10
172.126938
 20
66.721166
 11
172.061098
 21
66.572512
  0
LINE
  8
CSLAYER1
  6
CONTINUOUS
 62
     6
 10
172.061098
 20
66.572512
 11
171.998429
 21
66.420434
  0
LINE
  8
CSLAYER1
  6
CONTINUOUS
 62
     6
 10
171.998429
 20
66.420434
 11
171.938653
 21
66.265879
  0
LINE
  8
CSLAYER1
  6
CONTINUOUS
 62
     6
 10
171.938653
 20
66.265879
 11
171.881491
 21
66.109795
  0
LINE
  8
CSLAYER1
  6
CONTINUOUS
 62
     6
 10
171.881491
 20
66.109795
 11
171.826663
 21
65.953129
  0
LINE
  8
CSLAYER1
  6
CONTINUOUS
 62
     6
 10
171.826663
 20
65.953129
 11
171.773891
 21
65.796828
  0
LINE
  8
CSLAYER1
  6
CONTINUOUS
 62
     6
 10
171.773891
 20
65.796828
 11
171.722895
 21
65.641840
  0
LINE
  8
CSLAYER1
  6
CONTINUOUS
 62
     6
 10
171.722895
 20
65.641840
 11
171.676388
 21
65.498092
  0
LINE
  8
CSLAYER1
  6
CONTINUOUS
 62
     6
 10
171.676388
 20
65.498092
 11
171.630564
 21
65.354450
  0
LINE
  8
CSLAYER1
  6
CONTINUOUS
 62
     6
 10
171.630564
 20
65.354450
 11
171.585356
 21
65.210902
  0
LINE
  8
CSLAYER1
  6
CONTINUOUS
 62
     6
 10
171.585356
 20
65.210902
 11
171.540694
 21
65.067438
  0
LINE
  8
CSLAYER1
  6
CONTINUOUS
 62
     6
 10
171.540694
 20
65.067438
 11
171.496511
 21
64.924047
  0
LINE
  8
CSLAYER1
  6
CONTINUOUS
 62
     6
 10
171.496511
 20
64.924047
 11
171.452739
 21
64.780720
  0
LINE
  8
CSLAYER1
  6
CONTINUOUS
 62
     6
 10
171.452739
 20
64.780720
 11
171.409308
 21
64.637445
  0
LINE
  8
CSLAYER1
  6
CONTINUOUS
 62
     6
 10
171.409308
 20
64.637445
 11
171.366150
 21
64.494212
  0
LINE
  8
CSLAYER1
  6
CONTINUOUS
 62
     6
 10
171.366150
 20
64.494212
 11
171.323197
 21
64.351011
  0
LINE
  8
CSLAYER1
  6
CONTINUOUS
 62
     6
 10
171.323197
 20
64.351011
 11
171.280382
 21
64.207831
  0
LINE
  8
CSLAYER1
  6
CONTINUOUS
 62
     6
 10
171.280382
 20
64.207831
 11
171.237634
 21
64.064661
  0
ARC
  8
CSLAYER1
  6
CONTINUOUS
 62
     6
 10
172.336495
 20
65.085722
 40
1.500000
 50
222.897147
 51
282.897147
  0
ARC
  8
CSLAYER1
  6
CONTINUOUS
 62
     6
 10
173.770163
 20
64.644590
 40
1.500000
 50
222.897147
 51
282.897147
  0
ARC
  8
CSLAYER1
  6
CONTINUOUS
 62
     6
 10
173.006100
 20
62.161405
 40
1.500000
 50
42.897147
 51
102.897147
  0
LINE
  8
CSLAYER1
  6
CONTINUOUS
 62
     6
 10
172.584928
 20
63.652352
 11
171.778803
 21
60.571762
  0
LINE
  8
CSLAYER1
  6
CONTINUOUS
 62
     6
 10
171.059037
 20
61.090042
 11
171.865142
 21
63.508423
  0
LINE
  8
CSLAYER1
  6
CONTINUOUS
 62
     6
 10
173.304673
 20
63.134148
 11
172.642494
 21
60.197508
  0
LINE
  8
CSLAYER1
  6
CONTINUOUS
 62
     6
 10
174.104932
 20
63.182415
 11
174.143000
 21
63.311104
  0
LINE
  8
CSLAYER1
  6
CONTINUOUS
 62
     6
 10
174.143000
 20
63.311104
 11
174.181146
 21
63.439799
  0
LINE
  8
CSLAYER1
  6
CONTINUOUS
 62
     6
 10
174.181146
 20
63.439799
 11
174.219449
 21
63.568507
  0
LINE
  8
CSLAYER1
  6
CONTINUOUS
 62
     6
 10
174.219449
 20
63.568507
 11
174.257987
 21
63.697234
  0
LINE
  8
CSLAYER1
  6
CONTINUOUS
 62
     6
 10
174.257987
 20
63.697234
 11
174.296838
 21
63.825988
  0
LINE
  8
CSLAYER1
  6
CONTINUOUS
 62
     6
 10
174.296838
 20
63.825988
 11
174.336082
 21
63.954773
  0
LINE
  8
CSLAYER1
  6
CONTINUOUS
 62
     6
 10
174.336082
 20
63.954773
 11
174.375797
 21
64.083597
  0
LINE
  8
CSLAYER1
  6
CONTINUOUS
 62
     6
 10
174.375797
 20
64.083597
 11
174.416060
 21
64.212467
  0
LINE
  8
CSLAYER1
  6
CONTINUOUS
 62
     6
 10
174.416060
 20
64.212467
 11
174.456950
 21
64.341388
  0
LINE
  8
CSLAYER1
  6
CONTINUOUS
 62
     6
 10
174.456950
 20
64.341388
 11
174.498546
 21
64.470367
  0
LINE
  8
CSLAYER1
  6
CONTINUOUS
 62
     6
 10
174.498546
 20
64.470367
 11
174.540927
 21
64.599410
  0
LINE
  8
CSLAYER1
  6
CONTINUOUS
 62
     6
 10
174.540927
 20
64.599410
 11
174.573739
 21
64.697532
  0
LINE
  8
CSLAYER1
  6
CONTINUOUS
 62
     6
 10
174.573739
 20
64.697532
 11
174.607578
 21
64.796348
  0
LINE
  8
CSLAYER1
  6
CONTINUOUS
 62
     6
 10
174.607578
 20
64.796348
 11
174.642622
 21
64.895316
  0
LINE
  8
CSLAYER1
  6
CONTINUOUS
 62
     6
 10
174.642622
 20
64.895316
 11
174.679051
 21
64.993893
  0
LINE
  8
CSLAYER1
  6
CONTINUOUS
 62
     6
 10
174.679051
 20
64.993893
 11
174.717044
 21
65.091537
  0
LINE
  8
CSLAYER1
  6
CONTINUOUS
 62
     6
 10
174.717044
 20
65.091537
 11
174.756781
 21
65.187703
  0
LINE
  8
CSLAYER1
  6
CONTINUOUS
 62
     6
 10
174.756781
 20
65.187703
 11
174.798439
 21
65.281849
  0
LINE
  8
CSLAYER1
  6
CONTINUOUS
 62
     6
 10
174.798439
 20
65.281849
 11
174.842200
 21
65.373432
  0
LINE
  8
CSLAYER1
  6
CONTINUOUS
 62
     6
 10
174.842200
 20
65.373432
 11
174.888241
 21
65.461908
  0
LINE
  8
CSLAYER1
  6
CONTINUOUS
 62
     6
 10
174.888241
 20
65.461908
 11
174.936742
 21
65.546736
  0
LINE
  8
CSLAYER1
  6
CONTINUOUS
 62
     6
 10
174.936742
 20
65.546736
 11
174.987883
 21
65.627372
  0
LINE
  8
CSLAYER1
  6
CONTINUOUS
 62
     6
 10
174.987883
 20
65.627372
 11
175.044174
 21
65.708752
  0
LINE
  8
CSLAYER1
  6
CONTINUOUS
 62
     6
 10
175.044174
 20
65.708752
 11
175.105083
 21
65.791925
  0
LINE
  8
CSLAYER1
  6
CONTINUOUS
 62
     6
 10
175.105083
 20
65.791925
 11
175.169937
 21
65.876066
  0
LINE
  8
CSLAYER1
  6
CONTINUOUS
 62
     6
 10
175.169937
 20
65.876066
 11
175.238064
 21
65.960348
  0
LINE
  8
CSLAYER1
  6
CONTINUOUS
 62
     6
 10
175.238064
 20
65.960348
 11
175.308794
 21
66.043946
  0
LINE
  8
CSLAYER1
  6
CONTINUOUS
 62
     6
 10
175.308794
 20
66.043946
 11
175.381453
 21
66.126034
  0
LINE
  8
CSLAYER1
  6
CONTINUOUS
 62
     6
 10
175.381453
 20
66.126034
 11
175.455371
 21
66.205784
  0
LINE
  8
CSLAYER1
  6
CONTINUOUS
 62
     6
 10
175.455371
 20
66.205784
 11
175.529876
 21
66.282372
  0
LINE
  8
CSLAYER1
  6
CONTINUOUS
 62
     6
 10
175.529876
 20
66.282372
 11
175.604295
 21
66.354972
  0
LINE
  8
CSLAYER1
  6
CONTINUOUS
 62
     6
 10
175.604295
 20
66.354972
 11
175.677958
 21
66.422756
  0
LINE
  8
CSLAYER1
  6
CONTINUOUS
 62
     6
 10
175.677958
 20
66.422756
 11
175.750192
 21
66.484900
  0
ARC
  8
CSLAYER1
  6
CONTINUOUS
 62
     6
 10
174.326532
 20
66.012222
 40
1.500000
 50
18.366208
 51
78.366208
  0
ARC
  8
CSLAYER1
  6
CONTINUOUS
 62
     6
 10
174.931499
 20
68.950591
 40
1.500000
 50
198.366208
 51
258.366208
  0
ARC
  8
CSLAYER1
  6
CONTINUOUS
 62
     6
 10
173.205422
 20
67.008773
 40
1.500000
 50
18.366208
 51
78.366208
  0
LINE
  8
CSLAYER1
  6
CONTINUOUS
 62
     6
 10
168.525451
 20
68.373969
 11
167.085957
 21
65.264583
  0
ARC
  8
CSLAYER1
  6
CONTINUOUS
 62
     6
 10
193.072579
 20
57.276564
 40
1.527778
 50
163.398423
 51
196.601584
  0
LINE
  8
CSLAYER1
  6
CONTINUOUS
 62
     6
 10
191.608494
 20
56.840051
 11
192.199552
 21
56.840051
  0
ARC
  8
CSLAYER1
  6
CONTINUOUS
 62
     6
 10
192.199552
 20
56.403560
 40
0.436508
 50
-0.000005
 51
89.999984
  0
LINE
  8
CSLAYER1
  6
CONTINUOUS
 62
     6
 10
192.636066
 20
56.403560
 11
192.636066
 21
55.812456
  0
ARC
  8
CSLAYER1
  6
CONTINUOUS
 62
     6
 10
193.072579
 20
57.276564
 40
1.527778
 50
253.398405
 51
286.601594
  0
LINE
  8
CSLAYER1
  6
CONTINUOUS
 62
     6
 10
193.509092
 20
55.812456
 11
193.509092
 21
56.403560
  0
ARC
  8
CSLAYER1
  6
CONTINUOUS
 62
     6
 10
193.945606
 20
56.403560
 40
0.436508
 50
89.999984
 51
179.999990
  0
LINE
  8
CSLAYER1
  6
CONTINUOUS
 62
     6
 10
193.945606
 20
56.840051
 11
194.536664
 21
56.840051
  0
ARC
  8
CSLAYER1
  6
CONTINUOUS
 62
     6
 10
193.072579
 20
57.276564
 40
1.527778
 50
-16.601572
 51
16.601562
  0
LINE
  8
CSLAYER1
  6
CONTINUOUS
 62
     6
 10
194.536664
 20
57.713078
 11
193.945606
 21
57.713078
  0
ARC
  8
CSLAYER1
  6
CONTINUOUS
 62
     6
 10
193.945606
 20
58.149568
 40
0.436508
 50
180.057309
 51
269.999999
  0
LINE
  8
CSLAYER1
  6
CONTINUOUS
 62
     6
 10
193.509092
 20
58.149568
 11
193.509092
 21
58.740672
  0
ARC
  8
CSLAYER1
  6
CONTINUOUS
 62
     6
 10
193.072579
 20
57.276564
 40
1.527778
 50
73.398417
 51
106.601578
  0
LINE
  8
CSLAYER1
  6
CONTINUOUS
 62
     6
 10
192.636066
 20
58.740672
 11
192.636066
 21
58.149568
  0
ARC
  8
CSLAYER1
  6
CONTINUOUS
 62
     6
 10
192.199552
 20
58.149568
 40
0.436508
 50
270.057346
 51
359.999995
  0
LINE
  8
CSLAYER1
  6
CONTINUOUS
 62
     6
 10
192.199552
 20
57.713078
 11
191.608494
 21
57.713078
  0
CIRCLE
  8
CSLAYER1
  6
CONTINUOUS
 62
     6
 10
193.072589
 20
57.276565
 40
2.750000
  0
LINE
  8
CSLAYER1
  6
CONTINUOUS
 62
     6
 10
181.758557
 20
35.883373
 11
213.715649
 21
35.883373
  0
ARC
  8
CSLAYER1
  6
CONTINUOUS
 62
     6
 10
218.858837
 20
34.704967
 40
1.000000
 50
90.000009
 51
173.999984
  0
LINE
  8
CSLAYER1
  6
CONTINUOUS
 62
     6
 10
217.864330
 20
34.809520
 11
217.166699
 21
28.172008
  0
ARC
  8
CSLAYER1
  6
CONTINUOUS
 62
     6
 10
216.172131
 20
28.276561
 40
1.000000
 50
270.000001
 51
354.000017
  0
LINE
  8
CSLAYER1
  6
CONTINUOUS
 62
     6
 10
216.172131
 20
27.276561
 11
179.972973
 21
27.276561
  0
ARC
  8
CSLAYER1
  6
CONTINUOUS
 62
     6
 10
179.972973
 20
28.276561
 40
1.000000
 50
186.000012
 51
270.000001
  0
LINE
  8
CSLAYER1
  6
CONTINUOUS
 62
     6
 10
178.978466
 20
28.172008
 11
178.280834
 21
34.809520
  0
ARC
  8
CSLAYER1
  6
CONTINUOUS
 62
     6
 10
177.286267
 20
34.704967
 40
1.000000
 50
6.000021
 51
90.000009
  0
ARC
  8
CSLAYER1
  6
CONTINUOUS
 62
     6
 10
177.335949
 20
30.232738
 40
1.000000
 50
6.000021
 51
90.000009
  0
LINE
  8
CSLAYER1
  6
CONTINUOUS
 62
     6
 10
178.330456
 20
30.337291
 11
178.978466
 21
24.172008
  0
ARC
  8
CSLAYER1
  6
CONTINUOUS
 62
     6
 10
179.972973
 20
24.276561
 40
1.000000
 50
186.000012
 51
270.000001
  0
LINE
  8
CSLAYER1
  6
CONTINUOUS
 62
     6
 10
179.972973
 20
23.276561
 11
216.172131
 21
23.276561
  0
ARC
  8
CSLAYER1
  6
CONTINUOUS
 62
     6
 10
216.172131
 20
24.276561
 40
1.000000
 50
270.000001
 51
354.000017
  0
LINE
  8
CSLAYER1
  6
CONTINUOUS
 62
     6
 10
217.166699
 20
24.172008
 11
217.814648
 21
30.337291
  0
ARC
  8
CSLAYER1
  6
CONTINUOUS
 62
     6
 10
218.809216
 20
30.232738
 40
1.000000
 50
90.000009
 51
173.999984
  0
LINE
  8
CSLAYER1
  6
CONTINUOUS
 62
     6
 10
219.072582
 20
28.276561
 11
217.597546
 21
28.276561
  0
LINE
  8
CSLAYER1
  6
CONTINUOUS
 62
     6
 10
178.547009
 20
28.276561
 11
167.072552
 21
28.276561
  0
LINE
  8
CSLAYER1
  6
CONTINUOUS
 62
     6
 10
167.072552
 20
28.276561
 11
166.072552
 21
29.276561
  0
ENDSEC
  0
EOF
