  0
SECTION
  2
HEADER
  9
$ACADVER
  1
AC1006
  9
$INSBASE
 10
0.000000
 20
0.000000
 30
0.0
  9
$EXTMIN
 10
0.000000
 20
0.000000
  9
$EXTMAX
 10
841.000000
 20
594.000000
  9
$LIMMIN
 10
0.000000
 20
0.000000
  9
$LIMMAX
 10
841.000000
 20
594.000000
  9
$VIEWCTR
 10
420.500000
 20
297.000000
  9
$VIEWSIZE
 40
594.000000
  9
$SNAPMODE
 70
     0
  9
$SNAPUNIT
 10
1.0
 20
1.0
  9
$SNAPBASE
 10
0.0
 20
0.0
  9
$SNAPANG
 50
0.0
  9
$SNAPSTYLE
 70
     0
  9
$SNAPISOPAIR
 70
     0
  9
$GRIDMODE
 70
     0
  9
$GRIDUNIT
 10
0.0
 20
0.0
  9
$ORTHOMODE
 70
     0
  9
$REGENMODE
 70
     1
  9
$FILLMODE
 70
     1
  9
$QTEXTMODE
 70
     0
  9
$DRAGMODE
 70
     2
  9
$LTSCALE
 40
15.000000
  9
$OSMODE
 70
     0
  9
$ATTMODE
 70
     1
  9
$TEXTSIZE
 40
0.2
  9
$TRACEWID
 40
0.05
  9
$TEXTSTYLE
  7
STANDARD
  9
$CLAYER
  8
CSLAYER1
  9
$CELTYPE
  6
BYLAYER
  9
$CECOLOR
 62
   256
  9
$DIMSCALE
 40
1.0
  9
$DIMASZ
 40
0.18
  9
$DIMEXO
 40
0.0625
  9
$DIMDLI
 40
0.38
  9
$DIMRND
 40
0.0
  9
$DIMDLE
 40
0.0
  9
$DIMEXE
 40
0.18
  9
$DIMTP
 40
0.0
  9
$DIMTM
 40
0.0
  9
$DIMTXT
 40
0.18
  9
$DIMCEN
 40
0.09
  9
$DIMTSZ
 40
0.0
  9
$DIMTOL
 70
     0
  9
$DIMLIM
 70
     0
  9
$DIMTIH
 70
     1
  9
$DIMTOH
 70
     1
  9
$DIMSE1
 70
     0
  9
$DIMSE2
 70
     0
  9
$DIMTAD
 70
     0
  9
$DIMZIN
 70
     0
  9
$DIMBLK
  1

  9
$LUNITS
 70
     2
  9
$LUPREC
 70
     4
  9
$AXISMODE
 70
     0
  9
$AXISUNIT
 10
0.0
 20
0.0
  9
$SKETCHINC
 40
0.1
  9
$FILLETRAD
 40
0.0
  9
$AUNITS
 70
     0
  9
$AUPREC
 70
     0
  9
$MENU
  1
ACAD
  9
$ELEVATION
 40
0.0
  9
$THICKNESS
 40
0.0
  9
$VIEWDIR
 10
0.0
 20
0.0
 30
1.0
  9
$LIMCHECK
 70
     0
  9
$BLIPMODE
 70
     1
  9
$CHAMFERA
 40
0.0
  9
$CHAMFERB
 40
0.0
  9
$FASTZOOM
 70
     1
  9
$SKPOLY
 70
     0
  9
$TDCREATE
 40
0.000000
  9
$TDUPDATE
 40
0.000000
  9
$TDINDWG
 40
0.0
  9
$TDUSRTIMER
 40
0.0
  9
$USRTIMER
 70
     1
  9
$ANGBASE
 50
0.0
  9
$ANGDIR
 70
     0
  9
$PDMODE
 70
     0
  9
$PDSIZE
 40
0.0
  9
$PLINEWID
 40
0.0
  9
$COORDS
 70
     0
  9
$USERI1
 70
     0
  9
$USERI2
 70
     0
  9
$USERI3
 70
     0
  9
$USERI4
 70
     0
  9
$USERI5
 70
     0
  9
$USERR1
 40
0.0
  9
$USERR2
 40
0.0
  9
$USERR3
 40
0.0
  9
$USERR4
 40
0.0
  9
$USERR5
 40
0.0
  0
ENDSEC
  0
SECTION
  2
TABLES
  0
TABLE
  2
LTYPE
 70
     9
  0
LTYPE
  2
CONTINUOUS
 70
    64
  3
Solid line
 72
    65
 73
     0
 40
0.0
  0
LTYPE
  2
DASHED
 70
    64
  3
__ __ __ __ __ __ __ __ __ __ __ __ __ __ __
 72
    65
 73
     2
 40
0.75
 49
0.5
 49
-0.25
  0
LTYPE
  2
HIDDEN
 70
    64
  3
_ _ _ _ _ _ _ _ _ _ _ _ _ _ _ _ _ _ _ _ _ _ _
 72
    65
 73
     2
 40
0.375
 49
0.25
 49
-0.125
  0
LTYPE
  2
DOT
 70
    64
  3
...............................................
 72
    65
 73
     2
 40
0.25
 49
0.0
 49
-0.25
  0
LTYPE
  2
DASHDOT
 70
    64
  3
__ . __ . __ . __ . __ . __ . __ . __ . __ . __
 72
    65
 73
     4
 40
1.0
 49
0.5
 49
-0.25
 49
0.0
 49
-0.25
  0
LTYPE
  2
DIVIDE
 70
    64
  3
__ . . __ . . __ . . __ . . __ . . __ . . __
 72
    65
 73
     6
 40
1.25
 49
0.5
 49
-0.25
 49
0.0
 49
-0.25
 49
0.0
 49
-0.25
  0
LTYPE
  2
CENTER
 70
    64
  3
____ _ ____ _ ____ _ ____ _ ____ _ ____ _ ____ 
 72
    65
 73
     4
 40
2.0
 49
1.25
 49
-0.25
 49
0.25
 49
-0.25
  0
LTYPE
  2
PHANTOM
 70
    64
  3
______  __  __  ______  __  __  ______  __  __ 
 72
    65
 73
     6
 40
2.5
 49
1.25
 49
-0.25
 49
0.25
 49
-0.25
 49
0.25
 49
-0.25
  0
LTYPE
  2
BORDER
 70
    64
  3
__ __ . __ __ . __ __ . __ __ . __ __ . __ __ .
 72
    65
 73
     6
 40
1.75
 49
0.5
 49
-0.25
 49
0.5
 49
-0.25
 49
0.0
 49
-0.25
  0
ENDTAB
  0
TABLE
  2
LAYER
 70
    16
  0
LAYER
  2
CSLAYER1
 70
    64
 62
     7
  6
CONTINUOUS
  0
LAYER
  2
CSLAYER2
 70
    64
 62
     7
  6
CONTINUOUS
  0
LAYER
  2
CSLAYER3
 70
    64
 62
     7
  6
CONTINUOUS
  0
LAYER
  2
CSLAYER4
 70
    64
 62
     7
  6
CONTINUOUS
  0
LAYER
  2
CSLAYER5
 70
    64
 62
     7
  6
CONTINUOUS
  0
LAYER
  2
CSLAYER6
 70
    64
 62
     7
  6
CONTINUOUS
  0
LAYER
  2
CSLAYER7
 70
    64
 62
     7
  6
CONTINUOUS
  0
LAYER
  2
CSLAYER8
 70
    64
 62
     7
  6
CONTINUOUS
  0
LAYER
  2
CSLAYER9
 70
    64
 62
     7
  6
CONTINUOUS
  0
LAYER
  2
CSLAYER10
 70
    64
 62
     7
  6
CONTINUOUS
  0
LAYER
  2
CSLAYER11
 70
    64
 62
     7
  6
CONTINUOUS
  0
LAYER
  2
CSLAYER12
 70
    64
 62
     7
  6
CONTINUOUS
  0
LAYER
  2
CSLAYER13
 70
    64
 62
     7
  6
CONTINUOUS
  0
LAYER
  2
CSLAYER14
 70
    64
 62
     7
  6
CONTINUOUS
  0
LAYER
  2
CSLAYER15
 70
    64
 62
     7
  6
CONTINUOUS
  0
LAYER
  2
CSLAYER16
 70
    64
 62
     7
  6
CONTINUOUS
  0
ENDTAB
  0
TABLE
  2
STYLE
 70
     1
  0
STYLE
  2
JX_FONT
 70
     0
 40
1.0
 41
1.0
 50
0.0
 71
     0
 42
1.0
  3
monotxt
  4
bigfont
  0
ENDTAB
  0
TABLE
  2
VIEW
 70
     0
  0
ENDTAB
  0
ENDSEC
  0
SECTION
  2
BLOCKS
  0
ENDSEC
  0
SECTION
  2
ENTITIES
  0
LINE
  8
CSLAYER1
  6
CENTER
 62
     3
 10
79.288462
 20
80.696154
 11
79.288462
 21
111.696154
  0
LINE
  8
CSLAYER1
  6
CENTER
 62
     3
 10
73.652409
 20
112.060101
 11
93.000633
 21
131.408325
  0
ARC
  8
CSLAYER1
  6
CENTER
 62
     3
 10
129.288462
 20
167.696154
 40
65.000000
 50
212.917958
 51
237.082042
  0
LINE
  8
CSLAYER1
  6
CENTER
 62
     3
 10
129.288462
 20
81.696154
 11
129.288462
 21
267.196154
  0
ARC
  8
CSLAYER1
  6
CENTER
 62
     3
 10
129.288462
 20
167.696154
 40
65.000000
 50
32.917958
 51
57.082042
  0
LINE
  8
CSLAYER1
  6
CENTER
 62
     3
 10
192.538599
 20
206.696154
 11
234.236462
 21
206.696154
  0
LINE
  8
CSLAYER1
  6
CENTER
 62
     3
 10
247.300462
 20
167.696154
 11
473.048462
 21
167.696154
  0
LINE
  8
CSLAYER1
  6
CENTER
 62
     3
 10
482.263922
 20
206.696154
 11
571.313001
 21
206.696154
  0
LINE
  8
CSLAYER1
  6
CENTER
 62
     3
 10
623.150324
 20
206.696154
 11
788.150324
 21
206.696154
  0
LINE
  8
CSLAYER1
  6
CENTER
 62
     3
 10
815.150324
 20
167.696154
 11
643.150324
 21
167.696154
  0
LINE
  8
CSLAYER1
  6
CENTER
 62
     3
 10
729.150324
 20
271.196154
 11
729.150324
 21
77.696154
  0
LINE
  8
CSLAYER1
  6
CENTER
 62
     3
 10
679.150324
 20
80.696154
 11
679.150324
 21
111.696154
  0
LINE
  8
CSLAYER1
  6
CENTER
 62
     3
 10
779.150324
 20
111.696154
 11
779.150324
 21
80.696154
  0
LINE
  8
CSLAYER1
  6
CENTER
 62
     3
 10
566.788462
 20
80.696154
 11
566.788462
 21
108.936154
  0
LINE
  8
CSLAYER1
  6
CENTER
 62
     3
 10
526.788462
 20
80.696154
 11
526.788462
 21
267.196154
  0
LINE
  8
CSLAYER1
  6
CENTER
 62
     3
 10
421.288462
 20
213.658095
 11
377.988462
 21
213.658095
  0
LINE
  8
CSLAYER1
  6
CONTINUOUS
 62
     3
 10
370.288431
 20
212.696154
 11
370.288431
 21
206.101888
  0
ARC
  8
CSLAYER1
  6
CONTINUOUS
 62
     3
 10
368.288431
 20
206.101888
 40
2.000000
 50
270.000001
 51
359.942691
  0
LINE
  8
CSLAYER1
  6
CONTINUOUS
 62
     3
 10
368.288431
 20
204.101888
 11
340.288431
 21
204.101919
  0
ARC
  8
CSLAYER1
  6
CONTINUOUS
 62
     3
 10
340.288431
 20
206.101919
 40
2.000000
 50
180.000005
 51
270.000001
  0
LINE
  8
CSLAYER1
  6
CONTINUOUS
 62
     3
 10
338.288431
 20
206.101919
 11
338.288431
 21
212.696154
  0
LINE
  8
CSLAYER1
  6
CENTER
 62
     3
 10
285.288462
 20
199.696154
 11
285.288462
 21
135.696154
  0
LINE
  8
CSLAYER1
  6
CENTER
 62
     3
 10
280.288462
 20
130.696154
 11
280.288462
 21
119.996142
  0
LINE
  8
CSLAYER1
  6
CENTER
 62
     3
 10
377.988462
 20
121.724214
 11
421.288462
 21
121.724214
  0
LINE
  8
CSLAYER1
  6
CENTER
 62
     3
 10
486.788462
 20
108.936154
 11
486.788462
 21
80.696154
  0
LINE
  8
CSLAYER1
  6
CENTER
 62
     3
 10
215.908462
 20
167.696154
 11
43.088462
 21
167.696154
  0
ARC
  8
CSLAYER1
  6
CENTER
 62
     3
 10
129.288462
 20
167.696154
 40
65.000000
 50
122.917958
 51
147.082042
  0
LINE
  8
CSLAYER1
  6
CENTER
 62
     3
 10
93.000633
 20
203.983983
 11
73.652409
 21
223.332207
  0
LINE
  8
CSLAYER1
  6
CENTER
 62
     3
 10
165.576290
 20
203.983983
 11
184.924514
 21
223.332207
  0
ARC
  8
CSLAYER1
  6
CENTER
 62
     3
 10
129.288462
 20
167.696154
 40
65.000000
 50
302.917958
 51
327.082042
  0
LINE
  8
CSLAYER1
  6
CENTER
 62
     3
 10
179.288462
 20
111.696154
 11
179.288462
 21
80.696154
  0
LINE
  8
CSLAYER1
  6
CENTER
 62
     3
 10
184.924514
 20
112.060101
 11
165.576290
 21
131.408325
  0
LINE
  8
CSLAYER1
  6
CENTER
 62
     3
 10
285.288462
 20
367.749969
 11
285.288462
 21
390.356781
  0
LINE
  8
CSLAYER1
  6
CENTER
 62
     3
 10
247.300462
 20
421.750000
 11
595.288462
 21
421.750000
  0
LINE
  8
CSLAYER1
  6
CENTER
 62
     3
 10
566.788462
 20
382.250000
 11
566.788462
 21
361.250000
  0
LINE
  8
CSLAYER1
  6
CENTER
 62
     3
 10
556.288462
 20
371.750000
 11
577.288462
 21
371.750000
  0
LINE
  8
CSLAYER1
  6
CENTER
 62
     3
 10
526.788462
 20
315.750000
 11
526.788462
 21
490.750000
  0
LINE
  8
CSLAYER1
  6
CENTER
 62
     3
 10
556.288462
 20
471.750000
 11
577.288462
 21
471.750000
  0
LINE
  8
CSLAYER1
  6
CENTER
 62
     3
 10
566.788462
 20
482.250000
 11
566.788462
 21
461.250000
  0
LINE
  8
CSLAYER1
  6
CENTER
 62
     3
 10
497.288462
 20
471.750000
 11
476.288462
 21
471.750000
  0
LINE
  8
CSLAYER1
  6
CENTER
 62
     3
 10
486.788462
 20
461.250000
 11
486.788462
 21
482.250000
  0
LINE
  8
CSLAYER1
  6
CENTER
 62
     3
 10
421.288462
 20
467.711941
 11
377.988462
 21
467.711941
  0
ARC
  8
CSLAYER1
  6
CONTINUOUS
 62
     3
 10
368.288462
 20
445.250000
 40
2.000000
 50
0.000000
 51
90.000000
  0
LINE
  8
CSLAYER1
  6
CONTINUOUS
 62
     3
 10
370.288462
 20
445.250000
 11
370.288462
 21
398.250000
  0
ARC
  8
CSLAYER1
  6
CONTINUOUS
 62
     3
 10
368.288462
 20
398.250000
 40
2.000000
 50
270.000000
 51
360.000000
  0
LINE
  8
CSLAYER1
  6
CONTINUOUS
 62
     3
 10
368.288462
 20
396.250000
 11
340.288462
 21
396.250000
  0
ARC
  8
CSLAYER1
  6
CONTINUOUS
 62
     3
 10
340.288462
 20
398.250000
 40
2.000000
 50
180.000000
 51
270.000000
  0
LINE
  8
CSLAYER1
  6
CONTINUOUS
 62
     3
 10
338.288462
 20
398.250000
 11
338.288462
 21
445.250000
  0
ARC
  8
CSLAYER1
  6
CONTINUOUS
 62
     3
 10
340.288462
 20
445.250000
 40
2.000000
 50
90.000000
 51
180.000000
  0
LINE
  8
CSLAYER1
  6
CONTINUOUS
 62
     3
 10
340.288462
 20
447.250000
 11
368.288462
 21
447.250000
  0
LINE
  8
CSLAYER1
  6
CENTER
 62
     3
 10
285.288462
 20
453.143158
 11
285.288462
 21
475.749969
  0
LINE
  8
CSLAYER1
  6
CENTER
 62
     3
 10
377.988462
 20
375.778060
 11
421.288462
 21
375.778060
  0
LINE
  8
CSLAYER1
  6
CENTER
 62
     3
 10
476.288462
 20
371.750000
 11
497.288462
 21
371.750000
  0
LINE
  8
CSLAYER1
  6
CENTER
 62
     3
 10
486.788462
 20
382.250000
 11
486.788462
 21
361.250000
  0
TEXT
  8
CSLAYER1
 62
     3
 10
352.345215
 20
427.000031
 40
3.500000
 41
1.125000
  1
N P
 50
-90.000000
 51
10.000000
  7
JX_FONT
 72
     5
 11
352.345215
 21
416.500031
  0
LINE
  8
CSLAYER1
  6
CONTINUOUS
 62
     6
 10
66.288462
 20
86.696154
 11
101.788462
 21
86.696154
  0
LINE
  8
CSLAYER1
  6
CONTINUOUS
 62
     6
 10
101.788462
 20
86.696154
 11
102.788462
 21
87.696154
  0
LINE
  8
CSLAYER1
  6
CONTINUOUS
 62
     6
 10
102.788462
 20
87.696154
 11
155.788462
 21
87.696154
  0
LINE
  8
CSLAYER1
  6
CONTINUOUS
 62
     6
 10
155.788462
 20
87.696154
 11
156.788462
 21
86.696154
  0
LINE
  8
CSLAYER1
  6
CONTINUOUS
 62
     6
 10
156.788462
 20
86.696154
 11
192.288462
 21
86.696154
  0
LINE
  8
CSLAYER1
  6
CONTINUOUS
 62
     6
 10
192.288462
 20
86.696154
 11
192.288462
 21
99.396154
  0
ARC
  8
CSLAYER1
  6
CONTINUOUS
 62
     6
 10
189.288462
 20
99.396154
 40
3.000000
 50
0.000000
 51
74.930000
  0
LINE
  8
CSLAYER1
  6
CONTINUOUS
 62
     6
 10
190.068462
 20
102.296154
 11
179.241672
 21
105.208741
  0
LINE
  8
CSLAYER1
  6
CONTINUOUS
 62
     6
 10
174.499080
 20
101.696154
 11
189.788462
 21
101.696154
  0
ARC
  8
CSLAYER1
  6
CONTINUOUS
 62
     6
 10
189.788462
 20
99.196154
 40
2.500000
 50
0.000000
 51
90.000000
  0
LINE
  8
CSLAYER1
  6
DASHED
 62
     6
 10
184.788462
 20
101.696154
 11
184.788462
 21
86.696154
  0
LINE
  8
CSLAYER1
  6
DASHED
 62
     6
 10
173.788462
 20
86.696154
 11
173.788462
 21
101.214953
  0
LINE
  8
CSLAYER1
  6
CONTINUOUS
 62
     6
 10
166.288462
 20
96.766611
 11
166.288462
 21
86.696154
  0
LINE
  8
CSLAYER1
  6
CONTINUOUS
 62
     6
 10
175.250402
 20
114.228660
 11
168.750402
 21
117.981436
  0
LINE
  8
CSLAYER1
  6
CONTINUOUS
 62
     6
 10
168.750402
 20
117.981436
 11
168.750402
 21
125.486990
  0
LINE
  8
CSLAYER1
  6
CONTINUOUS
 62
     6
 10
168.750402
 20
125.486990
 11
175.250402
 21
129.239767
  0
LINE
  8
CSLAYER1
  6
CONTINUOUS
 62
     6
 10
175.250402
 20
129.239767
 11
181.750402
 21
125.486990
  0
LINE
  8
CSLAYER1
  6
CONTINUOUS
 62
     6
 10
181.750402
 20
125.486990
 11
181.750402
 21
117.981436
  0
LINE
  8
CSLAYER1
  6
CONTINUOUS
 62
     6
 10
181.750402
 20
117.981436
 11
175.250402
 21
114.228660
  0
CIRCLE
  8
CSLAYER1
  6
CONTINUOUS
 62
     6
 10
175.250402
 20
121.734213
 40
7.700000
  0
CIRCLE
  8
CSLAYER1
  6
CONTINUOUS
 62
     6
 10
175.250402
 20
121.734213
 40
6.305000
  0
ARC
  8
CSLAYER1
  6
CONTINUOUS
 62
     6
 10
173.288462
 20
142.696154
 40
1.000000
 50
270.000001
 51
359.942687
  0
LINE
  8
CSLAYER1
  6
CONTINUOUS
 62
     6
 10
174.288462
 20
142.696154
 11
174.288462
 21
143.696154
  0
ARC
  8
CSLAYER1
  6
CONTINUOUS
 62
     6
 10
173.303507
 20
143.696154
 40
1.000000
 50
0.000000
 51
89.999981
  0
LINE
  8
CSLAYER1
  6
CONTINUOUS
 62
     6
 10
173.303507
 20
144.696154
 11
168.627314
 21
144.941271
  0
ARC
  8
CSLAYER1
  6
CONTINUOUS
 62
     6
 10
168.679667
 20
145.939898
 40
1.000000
 50
151.088398
 51
266.999020
  0
ARC
  8
CSLAYER1
  6
CONTINUOUS
 62
     6
 10
170.004633
 20
146.290667
 40
2.000000
 50
92.999645
 51
152.268175
  0
LINE
  8
CSLAYER1
  6
CONTINUOUS
 62
     6
 10
169.899973
 20
148.287951
 11
177.308878
 21
148.676196
  0
ARC
  8
CSLAYER1
  6
CONTINUOUS
 62
     6
 10
177.288462
 20
149.675951
 40
1.000000
 50
271.169236
 51
359.942687
  0
LINE
  8
CSLAYER1
  6
CONTINUOUS
 62
     6
 10
178.288462
 20
149.675951
 11
178.288462
 21
185.716357
  0
ARC
  8
CSLAYER1
  6
CONTINUOUS
 62
     6
 10
177.288462
 20
185.716357
 40
1.000000
 50
0.000000
 51
88.830746
  0
LINE
  8
CSLAYER1
  6
CONTINUOUS
 62
     6
 10
177.308878
 20
186.716113
 11
169.899973
 21
187.104357
  0
ARC
  8
CSLAYER1
  6
CONTINUOUS
 62
     6
 10
170.004633
 20
189.101641
 40
2.000000
 50
207.731807
 51
267.000395
  0
ARC
  8
CSLAYER1
  6
CONTINUOUS
 62
     6
 10
168.679667
 20
189.452410
 40
1.000000
 50
93.000962
 51
208.911585
  0
LINE
  8
CSLAYER1
  6
CONTINUOUS
 62
     6
 10
168.627314
 20
190.451037
 11
173.303507
 21
190.696154
  0
ARC
  8
CSLAYER1
  6
CONTINUOUS
 62
     6
 10
173.303507
 20
191.696154
 40
1.000000
 50
270.000001
 51
359.942687
  0
LINE
  8
CSLAYER1
  6
CONTINUOUS
 62
     6
 10
174.288462
 20
191.696154
 11
174.288462
 21
192.696154
  0
ARC
  8
CSLAYER1
  6
CONTINUOUS
 62
     6
 10
173.288462
 20
192.696154
 40
1.000000
 50
0.000000
 51
89.999981
  0
LINE
  8
CSLAYER1
  6
CONTINUOUS
 62
     6
 10
173.288462
 20
193.696154
 11
165.359980
 21
194.111651
  0
ARC
  8
CSLAYER1
  6
CONTINUOUS
 62
     6
 10
165.464655
 20
196.108904
 40
2.000000
 50
218.145716
 51
266.999937
  0
ARC
  8
CSLAYER1
  6
CONTINUOUS
 62
     6
 10
129.288462
 20
167.696185
 40
45.000000
 50
35.914342
 51
144.085657
  0
ARC
  8
CSLAYER1
  6
CONTINUOUS
 62
     6
 10
93.112253
 20
196.108904
 40
2.000000
 50
273.000065
 51
321.854286
  0
LINE
  8
CSLAYER1
  6
CONTINUOUS
 62
     6
 10
93.216929
 20
194.111651
 11
85.288462
 21
193.696154
  0
ARC
  8
CSLAYER1
  6
CONTINUOUS
 62
     6
 10
85.288462
 20
192.696154
 40
1.000000
 50
90.000039
 51
180.000020
  0
LINE
  8
CSLAYER1
  6
CONTINUOUS
 62
     6
 10
84.288462
 20
192.696154
 11
84.288462
 21
191.696154
  0
ARC
  8
CSLAYER1
  6
CONTINUOUS
 62
     6
 10
85.273417
 20
191.696154
 40
1.000000
 50
180.000020
 51
270.000001
  0
LINE
  8
CSLAYER1
  6
CONTINUOUS
 62
     6
 10
85.273417
 20
190.696154
 11
89.949595
 21
190.451037
  0
ARC
  8
CSLAYER1
  6
CONTINUOUS
 62
     6
 10
89.897257
 20
189.452410
 40
1.000000
 50
-28.911583
 51
86.999040
  0
ARC
  8
CSLAYER1
  6
CONTINUOUS
 62
     6
 10
88.572275
 20
189.101641
 40
2.000000
 50
272.999664
 51
332.268195
  0
LINE
  8
CSLAYER1
  6
CONTINUOUS
 62
     6
 10
88.676951
 20
187.104357
 11
81.268046
 21
186.716113
  0
ARC
  8
CSLAYER1
  6
CONTINUOUS
 62
     6
 10
81.288462
 20
185.716357
 40
1.000000
 50
91.169216
 51
180.000020
  0
LINE
  8
CSLAYER1
  6
CONTINUOUS
 62
     6
 10
80.288462
 20
185.716357
 11
80.288462
 21
149.675951
  0
ARC
  8
CSLAYER1
  6
CONTINUOUS
 62
     6
 10
81.288462
 20
149.675951
 40
1.000000
 50
180.000020
 51
268.830766
  0
LINE
  8
CSLAYER1
  6
CONTINUOUS
 62
     6
 10
81.268046
 20
148.676196
 11
88.676951
 21
148.287951
  0
ARC
  8
CSLAYER1
  6
CONTINUOUS
 62
     6
 10
88.572275
 20
146.290667
 40
2.000000
 50
27.731845
 51
87.000375
  0
ARC
  8
CSLAYER1
  6
CONTINUOUS
 62
     6
 10
89.897257
 20
145.939898
 40
1.000000
 50
-86.999018
 51
28.911605
  0
LINE
  8
CSLAYER1
  6
CONTINUOUS
 62
     6
 10
89.949595
 20
144.941271
 11
85.273417
 21
144.696154
  0
ARC
  8
CSLAYER1
  6
CONTINUOUS
 62
     6
 10
85.273417
 20
143.696154
 40
1.000000
 50
90.000039
 51
180.000020
  0
LINE
  8
CSLAYER1
  6
CONTINUOUS
 62
     6
 10
84.288462
 20
143.696154
 11
84.288462
 21
142.696154
  0
ARC
  8
CSLAYER1
  6
CONTINUOUS
 62
     6
 10
85.288462
 20
142.696154
 40
1.000000
 50
180.000020
 51
270.000001
  0
LINE
  8
CSLAYER1
  6
CONTINUOUS
 62
     6
 10
85.288462
 20
141.696154
 11
93.216929
 21
141.280657
  0
ARC
  8
CSLAYER1
  6
CONTINUOUS
 62
     6
 10
93.112253
 20
139.283404
 40
2.000000
 50
38.145754
 51
86.999917
  0
ARC
  8
CSLAYER1
  6
CONTINUOUS
 62
     6
 10
129.288462
 20
167.696124
 40
45.000000
 50
215.914344
 51
324.085657
  0
LINE
  8
CSLAYER1
  6
CONTINUOUS
 62
     6
 10
165.359980
 20
141.280657
 11
173.288462
 21
141.696154
  0
ARC
  8
CSLAYER1
  6
CONTINUOUS
 62
     6
 10
129.288462
 20
167.696124
 40
45.000000
 50
329.814347
 51
334.449464
  0
ARC
  8
CSLAYER1
  6
CONTINUOUS
 62
     6
 10
165.464655
 20
139.283404
 40
2.000000
 50
93.000103
 51
141.854266
  0
ARC
  8
CSLAYER1
  6
CONTINUOUS
 62
     6
 10
152.288462
 20
141.314288
 40
2.000000
 50
180.000020
 51
311.082221
  0
LINE
  8
CSLAYER1
  6
CONTINUOUS
 62
     6
 10
150.288462
 20
141.314288
 11
150.288447
 21
154.696154
  0
ARC
  8
CSLAYER1
  6
CONTINUOUS
 62
     6
 10
153.288447
 20
154.696154
 40
3.000000
 50
89.999981
 51
180.000020
  0
LINE
  8
CSLAYER1
  6
CONTINUOUS
 62
     6
 10
153.288447
 20
157.696154
 11
159.288447
 21
157.696154
  0
ARC
  8
CSLAYER1
  6
CONTINUOUS
 62
     6
 10
159.288447
 20
155.696154
 40
2.000000
 50
0.000115
 51
89.999981
  0
LINE
  8
CSLAYER1
  6
CONTINUOUS
 62
     6
 10
161.288447
 20
155.696154
 11
161.288462
 21
149.668353
  0
ARC
  8
CSLAYER1
  6
CONTINUOUS
 62
     6
 10
159.288462
 20
149.668353
 40
2.000000
 50
328.997351
 51
359.942687
  0
ARC
  8
CSLAYER1
  6
CONTINUOUS
 62
     6
 10
129.288462
 20
167.696124
 40
37.000008
 50
311.082278
 51
328.997236
  0
LINE
  8
CSLAYER1
  6
CONTINUOUS
 62
     6
 10
143.288462
 20
137.696154
 11
143.288462
 21
148.074725
  0
ARC
  8
CSLAYER1
  6
CONTINUOUS
 62
     6
 10
141.288462
 20
148.074725
 40
2.000000
 50
0.000000
 51
121.448890
  0
ARC
  8
CSLAYER1
  6
CONTINUOUS
 62
     6
 10
129.288462
 20
167.696124
 40
20.999992
 50
287.718950
 51
301.449024
  0
ARC
  8
CSLAYER1
  6
CONTINUOUS
 62
     6
 10
136.288462
 20
145.787219
 40
2.000000
 50
107.718758
 51
180.000020
  0
LINE
  8
CSLAYER1
  6
CONTINUOUS
 62
     6
 10
134.288462
 20
145.787219
 11
134.288462
 21
137.696154
  0
ARC
  8
CSLAYER1
  6
CONTINUOUS
 62
     6
 10
136.288462
 20
137.696154
 40
2.000000
 50
180.000020
 51
270.000001
  0
LINE
  8
CSLAYER1
  6
CONTINUOUS
 62
     6
 10
136.288462
 20
135.696154
 11
141.288462
 21
135.696154
  0
ARC
  8
CSLAYER1
  6
CONTINUOUS
 62
     6
 10
141.288462
 20
137.696154
 40
2.000000
 50
270.000001
 51
359.942687
  0
LINE
  8
CSLAYER1
  6
CONTINUOUS
 62
     6
 10
124.288462
 20
137.696154
 11
124.288462
 21
145.787219
  0
ARC
  8
CSLAYER1
  6
CONTINUOUS
 62
     6
 10
122.288462
 20
145.787219
 40
2.000000
 50
0.000000
 51
72.281261
  0
ARC
  8
CSLAYER1
  6
CONTINUOUS
 62
     6
 10
129.288462
 20
167.696124
 40
20.999992
 50
238.550978
 51
252.281052
  0
ARC
  8
CSLAYER1
  6
CONTINUOUS
 62
     6
 10
117.288462
 20
148.074725
 40
2.000000
 50
58.551130
 51
180.000020
  0
LINE
  8
CSLAYER1
  6
CONTINUOUS
 62
     6
 10
115.288462
 20
148.074725
 11
115.288462
 21
137.696154
  0
ARC
  8
CSLAYER1
  6
CONTINUOUS
 62
     6
 10
117.288462
 20
137.696154
 40
2.000000
 50
180.000020
 51
270.000001
  0
LINE
  8
CSLAYER1
  6
CONTINUOUS
 62
     6
 10
117.288462
 20
135.696154
 11
122.288462
 21
135.696154
  0
ARC
  8
CSLAYER1
  6
CONTINUOUS
 62
     6
 10
122.288462
 20
137.696154
 40
2.000000
 50
270.000001
 51
359.942687
  0
LINE
  8
CSLAYER1
  6
CONTINUOUS
 62
     6
 10
127.286463
 20
122.740679
 11
127.286471
 21
116.140107
  0
ARC
  8
CSLAYER1
  6
CONTINUOUS
 62
     6
 10
127.786975
 20
117.007004
 40
1.001006
 50
239.999981
 51
299.999981
  0
ARC
  8
CSLAYER1
  6
CONTINUOUS
 62
     6
 10
128.787981
 20
117.007003
 40
1.001006
 50
239.999981
 51
299.999981
  0
LINE
  8
CSLAYER1
  6
CONTINUOUS
 62
     6
 10
129.288484
 20
116.140106
 11
129.288462
 21
122.696154
  0
LINE
  8
CSLAYER1
  6
CONTINUOUS
 62
     6
 10
131.290461
 20
122.740679
 11
131.290469
 21
116.140107
  0
ARC
  8
CSLAYER1
  6
CONTINUOUS
 62
     6
 10
130.789995
 20
117.007003
 40
1.001006
 50
239.999981
 51
299.999981
  0
ARC
  8
CSLAYER1
  6
CONTINUOUS
 62
     6
 10
129.788989
 20
117.007004
 40
1.001006
 50
239.999981
 51
299.999981
  0
ARC
  8
CSLAYER1
  6
CONTINUOUS
 62
     6
 10
128.787980
 20
115.273210
 40
1.001006
 50
59.999981
 51
119.999981
  0
ARC
  8
CSLAYER1
  6
CONTINUOUS
 62
     6
 10
127.786953
 20
113.781743
 40
1.000999
 50
60.000345
 51
120.000345
  0
ARC
  8
CSLAYER1
  6
CONTINUOUS
 62
     6
 10
127.786943
 20
115.515524
 40
1.000999
 50
240.000345
 51
300.000345
  0
ARC
  8
CSLAYER1
  6
CONTINUOUS
 62
     6
 10
128.787952
 20
113.781749
 40
1.000999
 50
60.000345
 51
120.000345
  0
ARC
  8
CSLAYER1
  6
CONTINUOUS
 62
     6
 10
129.788957
 20
115.515524
 40
1.000999
 50
240.000345
 51
300.000345
  0
ARC
  8
CSLAYER1
  6
CONTINUOUS
 62
     6
 10
129.788967
 20
113.781743
 40
1.000999
 50
60.000345
 51
120.000345
  0
LINE
  8
CSLAYER1
  6
CONTINUOUS
 62
     6
 10
129.288463
 20
114.648631
 11
129.288438
 21
113.475646
  0
ARC
  8
CSLAYER1
  6
CONTINUOUS
 62
     6
 10
114.947924
 20
113.489991
 40
14.340522
 50
332.536225
 51
359.942687
  0
LINE
  8
CSLAYER1
  6
CONTINUOUS
 62
     6
 10
127.672305
 20
106.876328
 11
125.895922
 21
107.799638
  0
ARC
  8
CSLAYER1
  6
CONTINUOUS
 62
     6
 10
114.947924
 20
113.489991
 40
12.338538
 50
332.536225
 51
359.942687
  0
LINE
  8
CSLAYER1
  6
CONTINUOUS
 62
     6
 10
127.286456
 20
113.490037
 11
127.286456
 21
114.648637
  0
ARC
  8
CSLAYER1
  6
CONTINUOUS
 62
     6
 10
143.629000
 20
113.490037
 40
14.340522
 50
180.000020
 51
207.463892
  0
LINE
  8
CSLAYER1
  6
CONTINUOUS
 62
     6
 10
130.904635
 20
106.876328
 11
132.681018
 21
107.799607
  0
ARC
  8
CSLAYER1
  6
CONTINUOUS
 62
     6
 10
143.629000
 20
113.489991
 40
12.338538
 50
179.999963
 51
207.463892
  0
LINE
  8
CSLAYER1
  6
CONTINUOUS
 62
     6
 10
131.290469
 20
113.490037
 11
131.290469
 21
114.648637
  0
ARC
  8
CSLAYER1
  6
CONTINUOUS
 62
     6
 10
130.789966
 20
113.781749
 40
1.000999
 50
60.000345
 51
120.000345
  0
ARC
  8
CSLAYER1
  6
CONTINUOUS
 62
     6
 10
130.789994
 20
115.273210
 40
1.001006
 50
59.999981
 51
119.999981
  0
LINE
  8
CSLAYER1
  6
CONTINUOUS
 62
     6
 10
132.251180
 20
107.576198
 11
133.703978
 21
105.180056
  0
LINE
  8
CSLAYER1
  6
CONTINUOUS
 62
     6
 10
133.113978
 20
104.770056
 11
131.792826
 21
107.337967
  0
LINE
  8
CSLAYER1
  6
CONTINUOUS
 62
     6
 10
131.332508
 20
107.103555
 11
132.437365
 21
104.528403
  0
LINE
  8
CSLAYER1
  6
CONTINUOUS
 62
     6
 10
127.258652
 20
107.091332
 11
126.003978
 21
104.360056
  0
LINE
  8
CSLAYER1
  6
CONTINUOUS
 62
     6
 10
125.373978
 20
104.590056
 11
126.784113
 21
107.337983
  0
LINE
  8
CSLAYER1
  6
CONTINUOUS
 62
     6
 10
126.307027
 20
107.579671
 11
124.819768
 21
104.967749
  0
LINE
  8
CSLAYER1
  6
CONTINUOUS
 62
     6
 10
92.288462
 20
96.766611
 11
92.288462
 21
86.696154
  0
LINE
  8
CSLAYER1
  6
DASHED
 62
     6
 10
84.788462
 20
86.696154
 11
84.788462
 21
101.214953
  0
LINE
  8
CSLAYER1
  6
CONTINUOUS
 62
     6
 10
84.077843
 20
101.696154
 11
68.788462
 21
101.696154
  0
ARC
  8
CSLAYER1
  6
CONTINUOUS
 62
     6
 10
68.788462
 20
99.196154
 40
2.500000
 50
90.000000
 51
180.000000
  0
LINE
  8
CSLAYER1
  6
CONTINUOUS
 62
     6
 10
66.288462
 20
99.396154
 11
66.288462
 21
86.696154
  0
LINE
  8
CSLAYER1
  6
DASHED
 62
     6
 10
73.788462
 20
86.696154
 11
73.788462
 21
101.696154
  0
ARC
  8
CSLAYER1
  6
CONTINUOUS
 62
     6
 10
69.288462
 20
99.396154
 40
3.000000
 50
105.060000
 51
180.000000
  0
LINE
  8
CSLAYER1
  6
CONTINUOUS
 62
     6
 10
68.508462
 20
102.296154
 11
79.335251
 21
105.208741
  0
LINE
  8
CSLAYER1
  6
CONTINUOUS
 62
     6
 10
83.326521
 20
114.228660
 11
76.826521
 21
117.981436
  0
LINE
  8
CSLAYER1
  6
CONTINUOUS
 62
     6
 10
76.826521
 20
117.981436
 11
76.826521
 21
125.486990
  0
LINE
  8
CSLAYER1
  6
CONTINUOUS
 62
     6
 10
76.826521
 20
125.486990
 11
83.326521
 21
129.239767
  0
LINE
  8
CSLAYER1
  6
CONTINUOUS
 62
     6
 10
83.326521
 20
129.239767
 11
89.826521
 21
125.486990
  0
LINE
  8
CSLAYER1
  6
CONTINUOUS
 62
     6
 10
89.826521
 20
125.486990
 11
89.826521
 21
117.981436
  0
LINE
  8
CSLAYER1
  6
CONTINUOUS
 62
     6
 10
89.826521
 20
117.981436
 11
83.326521
 21
114.228660
  0
CIRCLE
  8
CSLAYER1
  6
CONTINUOUS
 62
     6
 10
83.326521
 20
121.734213
 40
7.700000
  0
CIRCLE
  8
CSLAYER1
  6
CONTINUOUS
 62
     6
 10
83.326521
 20
121.734213
 40
6.305000
  0
ARC
  8
CSLAYER1
  6
CONTINUOUS
 62
     6
 10
129.288462
 20
167.696124
 40
45.000000
 50
205.550536
 51
210.185653
  0
ARC
  8
CSLAYER1
  6
CONTINUOUS
 62
     6
 10
106.288462
 20
141.314288
 40
2.000000
 50
228.917781
 51
359.942687
  0
LINE
  8
CSLAYER1
  6
CONTINUOUS
 62
     6
 10
108.288462
 20
141.314288
 11
108.288477
 21
154.696154
  0
ARC
  8
CSLAYER1
  6
CONTINUOUS
 62
     6
 10
105.288477
 20
154.696154
 40
3.000000
 50
-0.000018
 51
90.000021
  0
LINE
  8
CSLAYER1
  6
CONTINUOUS
 62
     6
 10
105.288477
 20
157.696154
 11
99.288477
 21
157.696154
  0
ARC
  8
CSLAYER1
  6
CONTINUOUS
 62
     6
 10
99.288477
 20
155.696154
 40
2.000000
 50
89.999981
 51
179.999905
  0
LINE
  8
CSLAYER1
  6
CONTINUOUS
 62
     6
 10
97.288477
 20
155.696154
 11
97.288462
 21
149.668353
  0
ARC
  8
CSLAYER1
  6
CONTINUOUS
 62
     6
 10
99.288462
 20
149.668353
 40
2.000000
 50
180.000020
 51
211.002709
  0
ARC
  8
CSLAYER1
  6
CONTINUOUS
 62
     6
 10
129.288462
 20
167.696124
 40
37.000008
 50
211.002766
 51
228.917724
  0
ARC
  8
CSLAYER1
  6
CONTINUOUS
 62
     6
 10
129.288462
 20
166.903032
 40
13.065822
 50
-37.903067
 51
217.903051
  0
ARC
  8
CSLAYER1
  6
CONTINUOUS
 62
     6
 10
138.522081
 20
159.714081
 40
1.363635
 50
230.236329
 51
322.096590
  0
ARC
  8
CSLAYER1
  6
CONTINUOUS
 62
     6
 10
135.780582
 20
156.419418
 40
2.922462
 50
50.235851
 51
203.481549
  0
LINE
  8
CSLAYER1
  6
CONTINUOUS
 62
     6
 10
133.100133
 20
155.254959
 11
133.682478
 21
153.354189
  0
CIRCLE
  8
CSLAYER1
  6
CONTINUOUS
 62
     6
 10
135.780582
 20
156.419418
 40
1.363635
  0
ARC
  8
CSLAYER1
  6
CONTINUOUS
 62
     6
 10
122.796333
 20
156.419418
 40
2.922462
 50
-23.481547
 51
129.764151
  0
ARC
  8
CSLAYER1
  6
CONTINUOUS
 62
     6
 10
120.054831
 20
159.714081
 40
1.363635
 50
217.903413
 51
309.763730
  0
CIRCLE
  8
CSLAYER1
  6
CONTINUOUS
 62
     6
 10
122.796333
 20
156.419418
 40
1.363635
  0
LINE
  8
CSLAYER1
  6
CONTINUOUS
 62
     6
 10
125.476779
 20
155.254959
 11
124.894434
 21
153.354189
  0
CIRCLE
  8
CSLAYER1
  6
CONTINUOUS
 62
     6
 10
129.288462
 20
167.696154
 40
80.000000
  0
CIRCLE
  8
CSLAYER1
  6
CONTINUOUS
 62
     6
 10
129.288462
 20
167.696185
 40
15.000000
  0
CIRCLE
  8
CSLAYER1
  6
CONTINUOUS
 62
     6
 10
129.288462
 20
167.696185
 40
44.000000
  0
ARC
  8
CSLAYER1
  6
CONTINUOUS
 62
     6
 10
117.288462
 20
187.317584
 40
2.000000
 50
180.000020
 51
301.448852
  0
LINE
  8
CSLAYER1
  6
CONTINUOUS
 62
     6
 10
115.288462
 20
187.317584
 11
115.288462
 21
197.696154
  0
ARC
  8
CSLAYER1
  6
CONTINUOUS
 62
     6
 10
117.288462
 20
197.696154
 40
2.000000
 50
90.000039
 51
180.000020
  0
LINE
  8
CSLAYER1
  6
CONTINUOUS
 62
     6
 10
117.288462
 20
199.696154
 11
122.288462
 21
199.696154
  0
ARC
  8
CSLAYER1
  6
CONTINUOUS
 62
     6
 10
122.288462
 20
197.696154
 40
2.000000
 50
0.000000
 51
90.000039
  0
LINE
  8
CSLAYER1
  6
CONTINUOUS
 62
     6
 10
124.288462
 20
197.696154
 11
124.288462
 21
189.605090
  0
ARC
  8
CSLAYER1
  6
CONTINUOUS
 62
     6
 10
122.288462
 20
189.605090
 40
2.000000
 50
287.718778
 51
359.942687
  0
ARC
  8
CSLAYER1
  6
CONTINUOUS
 62
     6
 10
129.288462
 20
167.696185
 40
20.999992
 50
107.718930
 51
121.449062
  0
LINE
  8
CSLAYER1
  6
CONTINUOUS
 62
     6
 10
108.288477
 20
180.696154
 11
108.288462
 21
194.078021
  0
ARC
  8
CSLAYER1
  6
CONTINUOUS
 62
     6
 10
106.288462
 20
194.078021
 40
2.000000
 50
0.000000
 51
131.082258
  0
ARC
  8
CSLAYER1
  6
CONTINUOUS
 62
     6
 10
129.288462
 20
167.696185
 40
37.000008
 50
131.082316
 51
148.997274
  0
ARC
  8
CSLAYER1
  6
CONTINUOUS
 62
     6
 10
99.288462
 20
185.723956
 40
2.000000
 50
148.997331
 51
180.000020
  0
LINE
  8
CSLAYER1
  6
CONTINUOUS
 62
     6
 10
97.288462
 20
185.723956
 11
97.288477
 21
179.696154
  0
ARC
  8
CSLAYER1
  6
CONTINUOUS
 62
     6
 10
99.288477
 20
179.696154
 40
2.000000
 50
180.000134
 51
270.000001
  0
LINE
  8
CSLAYER1
  6
CONTINUOUS
 62
     6
 10
99.288477
 20
177.696154
 11
105.288477
 21
177.696154
  0
ARC
  8
CSLAYER1
  6
CONTINUOUS
 62
     6
 10
105.288477
 20
180.696154
 40
3.000000
 50
270.000001
 51
359.942687
  0
ARC
  8
CSLAYER1
  6
CONTINUOUS
 62
     6
 10
129.288462
 20
167.696185
 40
45.000000
 50
149.814348
 51
154.449374
  0
LINE
  8
CSLAYER1
  6
CONTINUOUS
 62
     6
 10
83.326521
 20
206.152541
 11
89.826521
 21
209.905318
  0
LINE
  8
CSLAYER1
  6
CONTINUOUS
 62
     6
 10
89.826521
 20
209.905318
 11
89.826521
 21
217.410871
  0
LINE
  8
CSLAYER1
  6
CONTINUOUS
 62
     6
 10
89.826521
 20
217.410871
 11
83.326521
 21
221.163648
  0
LINE
  8
CSLAYER1
  6
CONTINUOUS
 62
     6
 10
83.326521
 20
221.163648
 11
76.826521
 21
217.410871
  0
LINE
  8
CSLAYER1
  6
CONTINUOUS
 62
     6
 10
76.826521
 20
217.410871
 11
76.826521
 21
209.905318
  0
LINE
  8
CSLAYER1
  6
CONTINUOUS
 62
     6
 10
76.826521
 20
209.905318
 11
83.326521
 21
206.152541
  0
CIRCLE
  8
CSLAYER1
  6
CONTINUOUS
 62
     6
 10
83.326521
 20
213.658095
 40
7.700000
  0
CIRCLE
  8
CSLAYER1
  6
CONTINUOUS
 62
     6
 10
83.326521
 20
213.658095
 40
6.305000
  0
LINE
  8
CSLAYER1
  6
CONTINUOUS
 62
     6
 10
76.288462
 20
227.621107
 11
76.288462
 21
236.416154
  0
ARC
  8
CSLAYER1
  6
CONTINUOUS
 62
     6
 10
81.288462
 20
236.416154
 40
5.000000
 50
105.700000
 51
180.000000
  0
LINE
  8
CSLAYER1
  6
CONTINUOUS
 62
     6
 10
79.928462
 20
241.216154
 11
88.648462
 21
243.676154
  0
ARC
  8
CSLAYER1
  6
CONTINUOUS
 62
     6
 10
87.288462
 20
248.476154
 40
5.000000
 50
285.700000
 51
360.000000
  0
LINE
  8
CSLAYER1
  6
CONTINUOUS
 62
     6
 10
92.288462
 20
257.596154
 11
92.288462
 21
238.625696
  0
ARC
  8
CSLAYER1
  6
CONTINUOUS
 62
     6
 10
95.288462
 20
257.596154
 40
3.000000
 50
91.000000
 51
180.000000
  0
LINE
  8
CSLAYER1
  6
CONTINUOUS
 62
     6
 10
95.228462
 20
260.596154
 11
129.288462
 21
261.196154
  0
LINE
  8
CSLAYER1
  6
CONTINUOUS
 62
     6
 10
129.288462
 20
261.196154
 11
163.348462
 21
260.596154
  0
ARC
  8
CSLAYER1
  6
CONTINUOUS
 62
     6
 10
163.288462
 20
257.596154
 40
3.000000
 50
0.000000
 51
89.000000
  0
LINE
  8
CSLAYER1
  6
CONTINUOUS
 62
     6
 10
166.288462
 20
257.596154
 11
166.288462
 21
238.625696
  0
ARC
  8
CSLAYER1
  6
CONTINUOUS
 62
     6
 10
171.288462
 20
248.476154
 40
5.000000
 50
180.000000
 51
254.290000
  0
LINE
  8
CSLAYER1
  6
CONTINUOUS
 62
     6
 10
169.928462
 20
243.676154
 11
178.648462
 21
241.216154
  0
ARC
  8
CSLAYER1
  6
CONTINUOUS
 62
     6
 10
177.288462
 20
236.416154
 40
5.000000
 50
0.000000
 51
74.290000
  0
LINE
  8
CSLAYER1
  6
CONTINUOUS
 62
     6
 10
182.288462
 20
236.416154
 11
182.288462
 21
227.621107
  0
LINE
  8
CSLAYER1
  6
CONTINUOUS
 62
     6
 10
175.250402
 20
221.163648
 11
168.750402
 21
217.410871
  0
LINE
  8
CSLAYER1
  6
CONTINUOUS
 62
     6
 10
168.750402
 20
217.410871
 11
168.750402
 21
209.905318
  0
LINE
  8
CSLAYER1
  6
CONTINUOUS
 62
     6
 10
168.750402
 20
209.905318
 11
175.250402
 21
206.152541
  0
LINE
  8
CSLAYER1
  6
CONTINUOUS
 62
     6
 10
175.250402
 20
206.152541
 11
181.750402
 21
209.905318
  0
LINE
  8
CSLAYER1
  6
CONTINUOUS
 62
     6
 10
181.750402
 20
209.905318
 11
181.750402
 21
217.410871
  0
LINE
  8
CSLAYER1
  6
CONTINUOUS
 62
     6
 10
181.750402
 20
217.410871
 11
175.250402
 21
221.163648
  0
CIRCLE
  8
CSLAYER1
  6
CONTINUOUS
 62
     6
 10
175.250402
 20
213.658095
 40
7.700000
  0
CIRCLE
  8
CSLAYER1
  6
CONTINUOUS
 62
     6
 10
175.250402
 20
213.658095
 40
6.305000
  0
LINE
  8
CSLAYER1
  6
CONTINUOUS
 62
     6
 10
189.213415
 20
220.696154
 11
229.288462
 21
220.696154
  0
LINE
  8
CSLAYER1
  6
CONTINUOUS
 62
     6
 10
229.288462
 20
220.696154
 11
229.288462
 21
192.696154
  0
LINE
  8
CSLAYER1
  6
CONTINUOUS
 62
     6
 10
229.288462
 20
192.696154
 11
205.281882
 21
192.696154
  0
ARC
  8
CSLAYER1
  6
CONTINUOUS
 62
     6
 10
129.288462
 20
167.696185
 40
45.000000
 50
25.550535
 51
30.185652
  0
ARC
  8
CSLAYER1
  6
CONTINUOUS
 62
     6
 10
159.288462
 20
185.723956
 40
2.000000
 50
0.000000
 51
31.002689
  0
LINE
  8
CSLAYER1
  6
CONTINUOUS
 62
     6
 10
161.288462
 20
185.723956
 11
161.288447
 21
179.696154
  0
ARC
  8
CSLAYER1
  6
CONTINUOUS
 62
     6
 10
159.288447
 20
179.696154
 40
2.000000
 50
270.000001
 51
359.942687
  0
LINE
  8
CSLAYER1
  6
CONTINUOUS
 62
     6
 10
159.288447
 20
177.696154
 11
153.288447
 21
177.696154
  0
ARC
  8
CSLAYER1
  6
CONTINUOUS
 62
     6
 10
153.288447
 20
180.696154
 40
3.000000
 50
179.999963
 51
270.000001
  0
LINE
  8
CSLAYER1
  6
CONTINUOUS
 62
     6
 10
150.288447
 20
180.696154
 11
150.288462
 21
194.078021
  0
ARC
  8
CSLAYER1
  6
CONTINUOUS
 62
     6
 10
152.288462
 20
194.078021
 40
2.000000
 50
48.917761
 51
180.000020
  0
ARC
  8
CSLAYER1
  6
CONTINUOUS
 62
     6
 10
129.288462
 20
167.696185
 40
37.000008
 50
31.002746
 51
48.917704
  0
ARC
  8
CSLAYER1
  6
CONTINUOUS
 62
     6
 10
141.288462
 20
187.317584
 40
2.000000
 50
238.551150
 51
359.942687
  0
ARC
  8
CSLAYER1
  6
CONTINUOUS
 62
     6
 10
129.288462
 20
167.696185
 40
20.999992
 50
58.550958
 51
72.281032
  0
ARC
  8
CSLAYER1
  6
CONTINUOUS
 62
     6
 10
136.288462
 20
189.605090
 40
2.000000
 50
180.000020
 51
252.281281
  0
LINE
  8
CSLAYER1
  6
CONTINUOUS
 62
     6
 10
134.288462
 20
189.605090
 11
134.288462
 21
197.696154
  0
ARC
  8
CSLAYER1
  6
CONTINUOUS
 62
     6
 10
136.288462
 20
197.696154
 40
2.000000
 50
89.999981
 51
180.000020
  0
LINE
  8
CSLAYER1
  6
CONTINUOUS
 62
     6
 10
136.288462
 20
199.696154
 11
141.288462
 21
199.696154
  0
ARC
  8
CSLAYER1
  6
CONTINUOUS
 62
     6
 10
141.288462
 20
197.696154
 40
2.000000
 50
0.000000
 51
89.999981
  0
LINE
  8
CSLAYER1
  6
CONTINUOUS
 62
     6
 10
143.288462
 20
197.696154
 11
143.288462
 21
187.317584
  0
LINE
  8
CSLAYER1
  6
CONTINUOUS
 62
     6
 10
253.288462
 20
210.584612
 11
253.288462
 21
124.696154
  0
LINE
  8
CSLAYER1
  6
CONTINUOUS
 62
     6
 10
253.288462
 20
124.696154
 11
254.288462
 21
123.696154
  0
LINE
  8
CSLAYER1
  6
CONTINUOUS
 62
     6
 10
254.288462
 20
123.696154
 11
254.288462
 21
211.584612
  0
LINE
  8
CSLAYER1
  6
CONTINUOUS
 62
     6
 10
254.288462
 20
211.584612
 11
253.288462
 21
210.584612
  0
LINE
  8
CSLAYER1
  6
CONTINUOUS
 62
     6
 10
254.288462
 20
211.584612
 11
306.288462
 21
211.584612
  0
LINE
  8
CSLAYER1
  6
CONTINUOUS
 62
     6
 10
306.288462
 20
212.696154
 11
383.988462
 21
212.696154
  0
ARC
  8
CSLAYER1
  6
CONTINUOUS
 62
     6
 10
387.741238
 20
208.028929
 40
3.752777
 50
150.000000
 51
195.446648
  0
LINE
  8
CSLAYER1
  6
CONTINUOUS
 62
     6
 10
383.988462
 20
207.353095
 11
383.988462
 21
219.963095
  0
LINE
  8
CSLAYER1
  6
CONTINUOUS
 62
     6
 10
383.988462
 20
219.963095
 11
384.491238
 21
221.163648
  0
LINE
  8
CSLAYER1
  6
CONTINUOUS
 62
     6
 10
384.491238
 20
221.163648
 11
389.288462
 21
221.163648
  0
LINE
  8
CSLAYER1
  6
CONTINUOUS
 62
     6
 10
389.288462
 20
221.358095
 11
389.288462
 21
205.958095
  0
LINE
  8
CSLAYER1
  6
CONTINUOUS
 62
     6
 10
389.288462
 20
205.958095
 11
391.288462
 21
205.958095
  0
LINE
  8
CSLAYER1
  6
CONTINUOUS
 62
     6
 10
389.288462
 20
206.152541
 11
384.491238
 21
206.152541
  0
LINE
  8
CSLAYER1
  6
CONTINUOUS
 62
     6
 10
384.491238
 20
206.152541
 11
383.988462
 21
207.353095
  0
LINE
  8
CSLAYER1
  6
CONTINUOUS
 62
     6
 10
384.491238
 20
209.905318
 11
389.288462
 21
209.905318
  0
LINE
  8
CSLAYER1
  6
CONTINUOUS
 62
     6
 10
389.288462
 20
212.426095
 11
391.288462
 21
213.042095
  0
LINE
  8
CSLAYER1
  6
CONTINUOUS
 62
     6
 10
391.288462
 20
214.890095
 11
389.288462
 21
214.274095
  0
LINE
  8
CSLAYER1
  6
CONTINUOUS
 62
     6
 10
389.288462
 20
217.410871
 11
384.491238
 21
217.410871
  0
ARC
  8
CSLAYER1
  6
CONTINUOUS
 62
     6
 10
387.741238
 20
219.287260
 40
3.752777
 50
164.553352
 51
210.000000
  0
ARC
  8
CSLAYER1
  6
CONTINUOUS
 62
     6
 10
398.245403
 20
213.658095
 40
14.256942
 50
164.738520
 51
195.261480
  0
LINE
  8
CSLAYER1
  6
CONTINUOUS
 62
     6
 10
389.288462
 20
221.358095
 11
391.288462
 21
221.358095
  0
LINE
  8
CSLAYER1
  6
CONTINUOUS
 62
     6
 10
412.288462
 20
222.996154
 11
419.868462
 21
222.996154
  0
ARC
  8
CSLAYER1
  6
CONTINUOUS
 62
     6
 10
419.868462
 20
228.996154
 40
6.000000
 50
270.000000
 51
292.330000
  0
ARC
  8
CSLAYER1
  6
CONTINUOUS
 62
     6
 10
424.428462
 20
217.896154
 40
6.000000
 50
90.000000
 51
112.330000
  0
LINE
  8
CSLAYER1
  6
CONTINUOUS
 62
     6
 10
424.428462
 20
223.896154
 11
449.288462
 21
223.896154
  0
ARC
  8
CSLAYER1
  6
CONTINUOUS
 62
     6
 10
449.368462
 20
231.916154
 40
8.000000
 50
269.500000
 51
304.720000
  0
ARC
  8
CSLAYER1
  6
CONTINUOUS
 62
     6
 10
454.728462
 20
228.196154
 40
3.000000
 50
188.840000
 51
253.090000
  0
ARC
  8
CSLAYER1
  6
CONTINUOUS
 62
     6
 10
448.788462
 20
227.276154
 40
3.000000
 50
8.840000
 51
88.500000
  0
LINE
  8
CSLAYER1
  6
CONTINUOUS
 62
     6
 10
448.868462
 20
230.276154
 11
424.828462
 21
230.896154
  0
ARC
  8
CSLAYER1
  6
CONTINUOUS
 62
     6
 10
424.908462
 20
233.896154
 40
3.000000
 50
211.410000
 51
268.500000
  0
ARC
  8
CSLAYER1
  6
CONTINUOUS
 62
     6
 10
419.788462
 20
230.776154
 40
3.000000
 50
31.400000
 51
88.500000
  0
LINE
  8
CSLAYER1
  6
CONTINUOUS
 62
     6
 10
419.868462
 20
233.776154
 11
417.168462
 21
233.836154
  0
ARC
  8
CSLAYER1
  6
CONTINUOUS
 62
     6
 10
417.288462
 20
238.836154
 40
5.000000
 50
180.000000
 51
268.500000
  0
LINE
  8
CSLAYER1
  6
CONTINUOUS
 62
     6
 10
412.288462
 20
244.556154
 11
412.288462
 21
90.836154
  0
ARC
  8
CSLAYER1
  6
CONTINUOUS
 62
     6
 10
409.288462
 20
90.836154
 40
3.000000
 50
271.500000
 51
360.000000
  0
LINE
  8
CSLAYER1
  6
CONTINUOUS
 62
     6
 10
409.368462
 20
87.836154
 11
404.288462
 21
87.696154
  0
LINE
  8
CSLAYER1
  6
CONTINUOUS
 62
     6
 10
404.288462
 20
87.696154
 11
404.288462
 21
247.696154
  0
LINE
  8
CSLAYER1
  6
CONTINUOUS
 62
     6
 10
404.288462
 20
247.696154
 11
391.288462
 21
247.696154
  0
LINE
  8
CSLAYER1
  6
CONTINUOUS
 62
     6
 10
391.288462
 20
247.696154
 11
391.288462
 21
87.696154
  0
LINE
  8
CSLAYER1
  6
CONTINUOUS
 62
     6
 10
391.288462
 20
87.696154
 11
404.288462
 21
87.696154
  0
ARC
  8
CSLAYER1
  6
CONTINUOUS
 62
     6
 10
417.288462
 20
104.116154
 40
5.000000
 50
91.500000
 51
180.000000
  0
LINE
  8
CSLAYER1
  6
CONTINUOUS
 62
     6
 10
417.168462
 20
109.096154
 11
458.788462
 21
110.196154
  0
LINE
  8
CSLAYER1
  6
CONTINUOUS
 62
     6
 10
458.788462
 20
110.196154
 11
458.788462
 21
225.196154
  0
LINE
  8
CSLAYER1
  6
CONTINUOUS
 62
     6
 10
458.788462
 20
225.196154
 11
453.848462
 21
225.316154
  0
LINE
  8
CSLAYER1
  6
CONTINUOUS
 62
     6
 10
458.788462
 20
224.936154
 11
461.288462
 21
224.936154
  0
ARC
  8
CSLAYER1
  6
CONTINUOUS
 62
     6
 10
461.288462
 20
227.936154
 40
3.000000
 50
270.000000
 51
360.000000
  0
LINE
  8
CSLAYER1
  6
CONTINUOUS
 62
     6
 10
464.288462
 20
232.076154
 11
464.288462
 21
217.196154
  0
ARC
  8
CSLAYER1
  6
CONTINUOUS
 62
     6
 10
462.288462
 20
217.196154
 40
2.000000
 50
270.000000
 51
360.000000
  0
LINE
  8
CSLAYER1
  6
CONTINUOUS
 62
     6
 10
462.788462
 20
215.196154
 11
458.788462
 21
215.196154
  0
ARC
  8
CSLAYER1
  6
CONTINUOUS
 62
     6
 10
462.788462
 20
213.196154
 40
2.000000
 50
0.000000
 51
90.000000
  0
LINE
  8
CSLAYER1
  6
CONTINUOUS
 62
     6
 10
464.788462
 20
213.196154
 11
464.788462
 21
122.196154
  0
ARC
  8
CSLAYER1
  6
CONTINUOUS
 62
     6
 10
462.788462
 20
122.196154
 40
2.000000
 50
270.000000
 51
360.000000
  0
LINE
  8
CSLAYER1
  6
CONTINUOUS
 62
     6
 10
462.788462
 20
120.196154
 11
458.788462
 21
120.196154
  0
ARC
  8
CSLAYER1
  6
CONTINUOUS
 62
     6
 10
462.288462
 20
118.196154
 40
2.000000
 50
0.000000
 51
90.000000
  0
LINE
  8
CSLAYER1
  6
CONTINUOUS
 62
     6
 10
464.288462
 20
118.196154
 11
464.288462
 21
86.696154
  0
LINE
  8
CSLAYER1
  6
CONTINUOUS
 62
     6
 10
464.288462
 20
86.696154
 11
589.288462
 21
86.696154
  0
LINE
  8
CSLAYER1
  6
CONTINUOUS
 62
     6
 10
589.288462
 20
86.696154
 11
589.288462
 21
232.076154
  0
ARC
  8
CSLAYER1
  6
CONTINUOUS
 62
     6
 10
584.288462
 20
232.076154
 40
5.000000
 50
0.000000
 51
55.460000
  0
LINE
  8
CSLAYER1
  6
CONTINUOUS
 62
     6
 10
587.128462
 20
236.176154
 11
552.068462
 21
260.316154
  0
ARC
  8
CSLAYER1
  6
CONTINUOUS
 62
     6
 10
549.228462
 20
256.196154
 40
5.000000
 50
55.460000
 51
90.000000
  0
LINE
  8
CSLAYER1
  6
CONTINUOUS
 62
     6
 10
549.228462
 20
261.196154
 11
504.348462
 21
261.196154
  0
ARC
  8
CSLAYER1
  6
CONTINUOUS
 62
     6
 10
504.348462
 20
256.196154
 40
5.000000
 50
90.000000
 51
124.540000
  0
LINE
  8
CSLAYER1
  6
CONTINUOUS
 62
     6
 10
501.508462
 20
260.316154
 11
466.448462
 21
236.176154
  0
ARC
  8
CSLAYER1
  6
CONTINUOUS
 62
     6
 10
469.288462
 20
232.076154
 40
5.000000
 50
124.540000
 51
180.000000
  0
LINE
  8
CSLAYER1
  6
CONTINUOUS
 62
     6
 10
489.308462
 20
212.956154
 11
480.648462
 21
161.056154
  0
ARC
  8
CSLAYER1
  6
CONTINUOUS
 62
     6
 10
506.788462
 20
156.696154
 40
26.500000
 50
170.520000
 51
270.000000
  0
LINE
  8
CSLAYER1
  6
CONTINUOUS
 62
     6
 10
506.788462
 20
130.196154
 11
546.788462
 21
130.196154
  0
ARC
  8
CSLAYER1
  6
CONTINUOUS
 62
     6
 10
546.788462
 20
156.696154
 40
26.500000
 50
-90.000000
 51
9.470000
  0
LINE
  8
CSLAYER1
  6
CONTINUOUS
 62
     6
 10
572.928462
 20
161.056154
 11
564.268462
 21
212.956154
  0
ARC
  8
CSLAYER1
  6
CONTINUOUS
 62
     6
 10
526.788462
 20
206.696154
 40
38.000000
 50
9.470000
 51
170.648467
  0
LINE
  8
CSLAYER1
  6
CONTINUOUS
 62
     6
 10
491.768462
 20
212.536154
 11
483.108462
 21
160.636154
  0
ARC
  8
CSLAYER1
  6
CONTINUOUS
 62
     6
 10
506.788462
 20
156.696154
 40
24.000000
 50
169.570000
 51
273.140000
  0
LINE
  8
CSLAYER1
  6
CONTINUOUS
 62
     6
 10
506.788462
 20
132.696154
 11
546.788462
 21
132.696154
  0
ARC
  8
CSLAYER1
  6
CONTINUOUS
 62
     6
 10
546.788462
 20
156.696154
 40
24.000000
 50
-91.540000
 51
8.660000
  0
LINE
  8
CSLAYER1
  6
CONTINUOUS
 62
     6
 10
570.468462
 20
160.636154
 11
561.808462
 21
212.536154
  0
ARC
  8
CSLAYER1
  6
CONTINUOUS
 62
     6
 10
526.788462
 20
206.696154
 40
35.500000
 50
-187.620000
 51
9.590000
  0
LINE
  8
CSLAYER1
  6
CONTINUOUS
 62
     6
 10
464.068462
 20
199.656154
 11
458.788462
 21
199.656154
  0
LINE
  8
CSLAYER1
  6
CONTINUOUS
 62
     6
 10
422.388462
 20
224.616154
 11
422.388462
 21
230.936154
  0
ARC
  8
CSLAYER1
  6
CONTINUOUS
 62
     6
 10
425.148462
 20
155.896154
 40
3.000000
 50
196.430000
 51
268.500000
  0
LINE
  8
CSLAYER1
  6
CONTINUOUS
 62
     6
 10
425.068462
 20
152.896154
 11
448.868462
 21
152.276154
  0
ARC
  8
CSLAYER1
  6
CONTINUOUS
 62
     6
 10
448.788462
 20
149.276154
 40
3.000000
 50
0.000000
 51
88.500000
  0
LINE
  8
CSLAYER1
  6
CONTINUOUS
 62
     6
 10
451.788462
 20
149.276154
 11
451.788462
 21
135.116154
  0
ARC
  8
CSLAYER1
  6
CONTINUOUS
 62
     6
 10
448.788462
 20
135.116154
 40
3.000000
 50
271.500000
 51
360.000000
  0
LINE
  8
CSLAYER1
  6
CONTINUOUS
 62
     6
 10
448.868462
 20
132.116154
 11
425.068462
 21
131.496154
  0
ARC
  8
CSLAYER1
  6
CONTINUOUS
 62
     6
 10
425.148462
 20
128.496154
 40
3.000000
 50
91.500000
 51
163.560000
  0
LINE
  8
CSLAYER1
  6
CONTINUOUS
 62
     6
 10
422.388462
 20
130.196154
 11
422.388462
 21
154.196154
  0
ARC
  8
CSLAYER1
  6
CONTINUOUS
 62
     6
 10
419.388462
 20
154.196154
 40
3.000000
 50
0.000000
 51
90.000000
  0
LINE
  8
CSLAYER1
  6
CONTINUOUS
 62
     6
 10
419.388462
 20
157.196154
 11
417.288462
 21
157.196154
  0
ARC
  8
CSLAYER1
  6
CONTINUOUS
 62
     6
 10
417.288462
 20
162.196154
 40
5.000000
 50
180.000000
 51
270.000000
  0
ARC
  8
CSLAYER1
  6
CONTINUOUS
 62
     6
 10
414.288462
 20
204.156154
 40
2.000000
 50
104.470000
 51
180.000000
  0
ARC
  8
CSLAYER1
  6
CONTINUOUS
 62
     6
 10
413.288462
 20
208.036154
 40
2.000000
 50
284.470000
 51
360.000000
  0
LINE
  8
CSLAYER1
  6
CONTINUOUS
 62
     6
 10
415.288462
 20
208.036154
 11
415.288462
 21
219.276154
  0
ARC
  8
CSLAYER1
  6
CONTINUOUS
 62
     6
 10
413.288462
 20
219.276154
 40
2.000000
 50
0.000000
 51
75.520000
  0
ARC
  8
CSLAYER1
  6
CONTINUOUS
 62
     6
 10
414.288462
 20
223.156154
 40
2.000000
 50
180.000000
 51
255.520000
  0
ARC
  8
CSLAYER1
  6
CONTINUOUS
 62
     6
 10
409.288462
 20
244.556154
 40
3.000000
 50
0.000000
 51
88.500000
  0
LINE
  8
CSLAYER1
  6
CONTINUOUS
 62
     6
 10
409.368462
 20
247.556154
 11
404.288462
 21
247.696154
  0
LINE
  8
CSLAYER1
  6
CONTINUOUS
 62
     6
 10
306.288462
 20
212.696154
 11
306.288462
 21
122.696154
  0
LINE
  8
CSLAYER1
  6
CONTINUOUS
 62
     6
 10
306.288462
 20
122.696154
 11
383.988462
 21
122.696154
  0
LINE
  8
CSLAYER1
  6
CONTINUOUS
 62
     6
 10
384.491238
 20
125.476991
 11
389.288462
 21
125.476991
  0
LINE
  8
CSLAYER1
  6
CONTINUOUS
 62
     6
 10
389.288462
 20
122.340214
 11
391.288462
 21
122.956214
  0
LINE
  8
CSLAYER1
  6
CONTINUOUS
 62
     6
 10
391.288462
 20
121.108214
 11
389.288462
 21
120.492214
  0
LINE
  8
CSLAYER1
  6
CONTINUOUS
 62
     6
 10
389.288462
 20
117.971437
 11
384.491238
 21
117.971437
  0
ARC
  8
CSLAYER1
  6
CONTINUOUS
 62
     6
 10
398.245403
 20
121.724214
 40
14.256942
 50
164.738520
 51
195.261480
  0
ARC
  8
CSLAYER1
  6
CONTINUOUS
 62
     6
 10
387.741238
 20
127.353379
 40
3.752777
 50
164.553352
 51
210.000000
  0
LINE
  8
CSLAYER1
  6
CONTINUOUS
 62
     6
 10
383.988462
 20
128.029214
 11
384.491238
 21
129.229768
  0
LINE
  8
CSLAYER1
  6
CONTINUOUS
 62
     6
 10
384.491238
 20
129.229768
 11
389.288462
 21
129.229768
  0
LINE
  8
CSLAYER1
  6
CONTINUOUS
 62
     6
 10
389.288462
 20
129.424214
 11
389.288462
 21
114.024214
  0
LINE
  8
CSLAYER1
  6
CONTINUOUS
 62
     6
 10
389.288462
 20
114.024214
 11
391.288462
 21
114.024214
  0
LINE
  8
CSLAYER1
  6
CONTINUOUS
 62
     6
 10
389.288462
 20
114.218661
 11
384.491238
 21
114.218661
  0
LINE
  8
CSLAYER1
  6
CONTINUOUS
 62
     6
 10
384.491238
 20
114.218661
 11
383.988462
 21
115.419214
  0
LINE
  8
CSLAYER1
  6
CONTINUOUS
 62
     6
 10
383.988462
 20
115.419214
 11
383.988462
 21
128.029214
  0
LINE
  8
CSLAYER1
  6
CONTINUOUS
 62
     6
 10
389.288462
 20
129.424214
 11
391.288462
 21
129.424214
  0
ARC
  8
CSLAYER1
  6
CONTINUOUS
 62
     6
 10
387.741238
 20
116.095049
 40
3.752777
 50
150.000000
 51
195.446648
  0
ARC
  8
CSLAYER1
  6
CONTINUOUS
 62
     6
 10
414.288462
 20
112.236154
 40
2.000000
 50
104.470000
 51
180.000000
  0
ARC
  8
CSLAYER1
  6
CONTINUOUS
 62
     6
 10
413.288462
 20
116.116154
 40
2.000000
 50
284.470000
 51
360.000000
  0
LINE
  8
CSLAYER1
  6
CONTINUOUS
 62
     6
 10
415.288462
 20
116.116154
 11
415.288462
 21
127.356154
  0
ARC
  8
CSLAYER1
  6
CONTINUOUS
 62
     6
 10
413.288462
 20
127.356154
 40
2.000000
 50
0.000000
 51
75.520000
  0
ARC
  8
CSLAYER1
  6
CONTINUOUS
 62
     6
 10
414.288462
 20
131.236154
 40
2.000000
 50
180.000000
 51
255.520000
  0
ARC
  8
CSLAYER1
  6
CONTINUOUS
 62
     6
 10
418.288462
 20
124.196154
 40
3.000000
 50
90.000000
 51
180.000000
  0
LINE
  8
CSLAYER1
  6
CONTINUOUS
 62
     6
 10
418.288462
 20
127.196154
 11
419.388462
 21
127.196154
  0
ARC
  8
CSLAYER1
  6
CONTINUOUS
 62
     6
 10
419.388462
 20
130.196154
 40
3.000000
 50
270.000000
 51
360.000000
  0
LINE
  8
CSLAYER1
  6
CONTINUOUS
 62
     6
 10
458.788462
 20
135.736154
 11
464.068462
 21
135.736154
  0
ARC
  8
CSLAYER1
  6
CONTINUOUS
 62
     6
 10
461.288462
 20
107.436154
 40
3.000000
 50
0.000000
 51
90.000000
  0
LINE
  8
CSLAYER1
  6
CONTINUOUS
 62
     6
 10
461.288462
 20
110.436154
 11
458.788462
 21
110.436154
  0
LINE
  8
CSLAYER1
  6
CONTINUOUS
 62
     6
 10
467.288462
 20
101.696154
 11
586.288462
 21
101.696154
  0
ARC
  8
CSLAYER1
  6
CONTINUOUS
 62
     6
 10
586.288462
 20
98.696154
 40
3.000000
 50
0.000000
 51
90.000000
  0
LINE
  8
CSLAYER1
  6
CONTINUOUS
 62
     6
 10
579.288462
 20
100.256154
 11
579.288462
 21
86.696154
  0
LINE
  8
CSLAYER1
  6
DASHED
 62
     6
 10
572.288462
 20
86.696154
 11
572.288462
 21
101.696154
  0
LINE
  8
CSLAYER1
  6
DASHED
 62
     6
 10
561.288462
 20
101.696154
 11
561.288462
 21
86.696154
  0
ARC
  8
CSLAYER1
  6
CONTINUOUS
 62
     6
 10
552.528462
 20
104.696154
 40
3.000000
 50
209.740000
 51
270.000000
  0
LINE
  8
CSLAYER1
  6
CONTINUOUS
 62
     6
 10
549.928462
 20
103.216154
 11
547.648462
 21
107.176154
  0
ARC
  8
CSLAYER1
  6
CONTINUOUS
 62
     6
 10
545.048462
 20
105.696154
 40
3.000000
 50
29.740000
 51
90.000000
  0
LINE
  8
CSLAYER1
  6
CONTINUOUS
 62
     6
 10
545.048462
 20
108.696154
 11
508.528462
 21
108.696154
  0
ARC
  8
CSLAYER1
  6
CONTINUOUS
 62
     6
 10
508.528462
 20
105.696154
 40
3.000000
 50
90.000000
 51
150.250000
  0
LINE
  8
CSLAYER1
  6
CONTINUOUS
 62
     6
 10
505.928462
 20
107.176154
 11
503.648462
 21
103.216154
  0
ARC
  8
CSLAYER1
  6
CONTINUOUS
 62
     6
 10
501.048462
 20
104.696154
 40
3.000000
 50
270.000000
 51
330.250000
  0
LINE
  8
CSLAYER1
  6
CONTINUOUS
 62
     6
 10
506.788462
 20
102.236154
 11
506.788462
 21
108.136154
  0
LINE
  8
CSLAYER1
  6
DASHED
 62
     6
 10
492.288462
 20
101.696154
 11
492.288462
 21
86.696154
  0
LINE
  8
CSLAYER1
  6
DASHED
 62
     6
 10
481.288462
 20
86.696154
 11
481.288462
 21
101.696154
  0
LINE
  8
CSLAYER1
  6
CONTINUOUS
 62
     6
 10
475.288462
 20
100.256154
 11
475.288462
 21
86.696154
  0
ARC
  8
CSLAYER1
  6
CONTINUOUS
 62
     6
 10
467.288462
 20
98.696154
 40
3.000000
 50
90.000000
 51
180.000000
  0
LINE
  8
CSLAYER1
  6
CONTINUOUS
 62
     6
 10
546.788462
 20
102.236154
 11
546.788462
 21
108.136154
  0
LINE
  8
CSLAYER1
  6
CONTINUOUS
 62
     6
 10
483.288462
 20
161.536154
 11
483.428462
 21
162.196154
  0
CIRCLE
  8
CSLAYER1
  6
CONTINUOUS
 62
     6
 10
526.788462
 20
206.696154
 40
33.500000
  0
LINE
  8
CSLAYER1
  6
CONTINUOUS
 62
     6
 10
536.788462
 20
202.696154
 11
536.788462
 21
210.696154
  0
LINE
  8
CSLAYER1
  6
CONTINUOUS
 62
     6
 10
536.788462
 20
210.696154
 11
543.788462
 21
210.696154
  0
LINE
  8
CSLAYER1
  6
CONTINUOUS
 62
     6
 10
543.788462
 20
210.696154
 11
543.788462
 21
202.696154
  0
LINE
  8
CSLAYER1
  6
CONTINUOUS
 62
     6
 10
543.788462
 20
202.696154
 11
536.788462
 21
202.696154
  0
ARC
  8
CSLAYER1
  6
CONTINUOUS
 62
     6
 10
526.788462
 20
206.696154
 40
14.000000
 50
16.600000
 51
343.390000
  0
ARC
  8
CSLAYER1
  6
CONTINUOUS
 62
     6
 10
504.388462
 20
256.196154
 40
5.000000
 50
90.000000
 51
91.030000
  0
LINE
  8
CSLAYER1
  6
CONTINUOUS
 62
     6
 10
629.150324
 20
220.696154
 11
629.150324
 21
192.696154
  0
LINE
  8
CSLAYER1
  6
CONTINUOUS
 62
     6
 10
629.150324
 20
192.696154
 11
674.150324
 21
192.696154
  0
LINE
  8
CSLAYER1
  6
CONTINUOUS
 62
     6
 10
674.150324
 20
191.696154
 11
674.150324
 21
221.696154
  0
LINE
  8
CSLAYER1
  6
CONTINUOUS
 62
     6
 10
674.150324
 20
221.696154
 11
676.150324
 21
221.696154
  0
LINE
  8
CSLAYER1
  6
CONTINUOUS
 62
     6
 10
674.150324
 20
220.696154
 11
629.150324
 21
220.696154
  0
LINE
  8
CSLAYER1
  6
CONTINUOUS
 62
     6
 10
629.150324
 20
210.696154
 11
665.150324
 21
210.696154
  0
ARC
  8
CSLAYER1
  6
CONTINUOUS
 62
     6
 10
665.150324
 20
206.696154
 40
4.000000
 50
-90.000000
 51
90.000000
  0
LINE
  8
CSLAYER1
  6
CONTINUOUS
 62
     6
 10
665.150324
 20
202.696154
 11
629.150324
 21
202.696154
  0
ARC
  8
CSLAYER1
  6
CONTINUOUS
 62
     6
 10
729.150324
 20
167.696154
 40
80.000000
 50
161.790043
 51
231.360000
  0
LINE
  8
CSLAYER1
  6
DASHED
 62
     6
 10
684.650324
 20
101.696154
 11
684.650324
 21
86.696154
  0
LINE
  8
CSLAYER1
  6
CONTINUOUS
 62
     6
 10
692.150324
 20
86.696154
 11
692.150324
 21
257.596154
  0
ARC
  8
CSLAYER1
  6
CONTINUOUS
 62
     6
 10
695.150324
 20
257.596154
 40
3.000000
 50
91.000000
 51
180.000000
  0
LINE
  8
CSLAYER1
  6
CONTINUOUS
 62
     6
 10
695.090324
 20
260.596154
 11
729.150324
 21
261.196154
  0
LINE
  8
CSLAYER1
  6
CONTINUOUS
 62
     6
 10
729.150324
 20
261.196154
 11
763.210324
 21
260.596154
  0
ARC
  8
CSLAYER1
  6
CONTINUOUS
 62
     6
 10
763.150324
 20
257.596154
 40
3.000000
 50
0.000000
 51
89.000000
  0
LINE
  8
CSLAYER1
  6
CONTINUOUS
 62
     6
 10
766.150324
 20
257.596154
 11
766.150324
 21
86.696154
  0
LINE
  8
CSLAYER1
  6
DASHED
 62
     6
 10
773.650324
 20
86.696154
 11
773.650324
 21
101.696154
  0
LINE
  8
CSLAYER1
  6
CONTINUOUS
 62
     6
 10
769.150324
 20
101.696154
 11
789.650324
 21
101.696154
  0
ARC
  8
CSLAYER1
  6
CONTINUOUS
 62
     6
 10
789.650324
 20
99.196154
 40
2.500000
 50
0.000000
 51
90.000000
  0
LINE
  8
CSLAYER1
  6
CONTINUOUS
 62
     6
 10
792.150324
 20
99.396154
 11
792.150324
 21
86.696154
  0
LINE
  8
CSLAYER1
  6
CONTINUOUS
 62
     6
 10
792.150324
 20
86.696154
 11
756.650324
 21
86.696154
  0
LINE
  8
CSLAYER1
  6
CONTINUOUS
 62
     6
 10
756.650324
 20
86.696154
 11
755.650324
 21
87.696154
  0
LINE
  8
CSLAYER1
  6
CONTINUOUS
 62
     6
 10
755.650324
 20
87.696154
 11
702.650324
 21
87.696154
  0
LINE
  8
CSLAYER1
  6
CONTINUOUS
 62
     6
 10
702.650324
 20
87.696154
 11
701.650324
 21
86.696154
  0
LINE
  8
CSLAYER1
  6
CONTINUOUS
 62
     6
 10
701.650324
 20
86.696154
 11
666.150324
 21
86.696154
  0
LINE
  8
CSLAYER1
  6
CONTINUOUS
 62
     6
 10
666.150324
 20
86.696154
 11
666.150324
 21
99.396154
  0
ARC
  8
CSLAYER1
  6
CONTINUOUS
 62
     6
 10
669.150324
 20
99.396154
 40
3.000000
 50
105.060000
 51
180.000000
  0
LINE
  8
CSLAYER1
  6
CONTINUOUS
 62
     6
 10
668.370324
 20
102.296154
 11
689.930324
 21
108.096154
  0
ARC
  8
CSLAYER1
  6
CONTINUOUS
 62
     6
 10
689.150324
 20
110.996154
 40
3.000000
 50
285.060000
 51
360.000000
  0
ARC
  8
CSLAYER1
  6
CONTINUOUS
 62
     6
 10
683.190324
 20
121.736154
 40
10.000000
 50
161.120000
 51
316.510000
  0
ARC
  8
CSLAYER1
  6
CONTINUOUS
 62
     6
 10
664.270324
 20
128.196154
 40
10.000000
 50
-18.880000
 51
34.030000
  0
ARC
  8
CSLAYER1
  6
CONTINUOUS
 62
     6
 10
676.650324
 20
133.784504
 40
5.000000
 50
0.000000
 51
32.859880
  0
LINE
  8
CSLAYER1
  6
CONTINUOUS
 62
     6
 10
681.650324
 20
133.784504
 11
681.650324
 21
125.196154
  0
ARC
  8
CSLAYER1
  6
CONTINUOUS
 62
     6
 10
686.650324
 20
125.196154
 40
5.000000
 50
180.000000
 51
270.000000
  0
LINE
  8
CSLAYER1
  6
CONTINUOUS
 62
     6
 10
686.650324
 20
120.196154
 11
691.150324
 21
120.196154
  0
ARC
  8
CSLAYER1
  6
CONTINUOUS
 62
     6
 10
691.150324
 20
119.196154
 40
1.000000
 50
0.000000
 51
90.000000
  0
ARC
  8
CSLAYER1
  6
CONTINUOUS
 62
     6
 10
697.710324
 20
107.976154
 40
10.000000
 50
123.700000
 51
136.510000
  0
ARC
  8
CSLAYER1
  6
CONTINUOUS
 62
     6
 10
683.190324
 20
121.736154
 40
4.000000
 50
112.610000
 51
337.356260
  0
ARC
  8
CSLAYER1
  6
CONTINUOUS
 62
     6
 10
683.190324
 20
121.736154
 40
3.500000
 50
115.880000
 51
334.073891
  0
ARC
  8
CSLAYER1
  6
CONTINUOUS
 62
     6
 10
687.150324
 20
126.396154
 40
5.000000
 50
0.000000
 51
74.470000
  0
LINE
  8
CSLAYER1
  6
CONTINUOUS
 62
     6
 10
688.490324
 20
131.216154
 11
686.810324
 21
131.676154
  0
ARC
  8
CSLAYER1
  6
CONTINUOUS
 62
     6
 10
688.150324
 20
136.496154
 40
5.000000
 50
180.000000
 51
254.470000
  0
LINE
  8
CSLAYER1
  6
CONTINUOUS
 62
     6
 10
683.150324
 20
136.496154
 11
683.150324
 21
209.196154
  0
ARC
  8
CSLAYER1
  6
CONTINUOUS
 62
     6
 10
729.150324
 20
167.696154
 40
80.000000
 50
131.490817
 51
138.509183
  0
LINE
  8
CSLAYER1
  6
CONTINUOUS
 62
     6
 10
676.150324
 20
236.416154
 11
676.150324
 21
176.976154
  0
ARC
  8
CSLAYER1
  6
CONTINUOUS
 62
     6
 10
681.150324
 20
176.976154
 40
5.000000
 50
180.000000
 51
254.290000
  0
LINE
  8
CSLAYER1
  6
CONTINUOUS
 62
     6
 10
679.790324
 20
172.176154
 11
680.970324
 21
171.836154
  0
ARC
  8
CSLAYER1
  6
CONTINUOUS
 62
     6
 10
680.150324
 20
168.956154
 40
3.000000
 50
0.000000
 51
74.290000
  0
ARC
  8
CSLAYER1
  6
CONTINUOUS
 62
     6
 10
670.490324
 20
152.876154
 40
3.000000
 50
-36.400000
 51
14.170000
  0
ARC
  8
CSLAYER1
  6
CONTINUOUS
 62
     6
 10
684.990324
 20
142.196154
 40
15.000000
 50
143.600000
 51
257.160000
  0
ARC
  8
CSLAYER1
  6
CONTINUOUS
 62
     6
 10
684.990324
 20
142.196154
 40
11.500000
 50
157.860000
 51
253.150000
  0
ARC
  8
CSLAYER1
  6
CONTINUOUS
 62
     6
 10
669.710324
 20
148.416154
 40
5.000000
 50
-22.140000
 51
14.268117
  0
ARC
  8
CSLAYER1
  6
CONTINUOUS
 62
     6
 10
729.150324
 20
167.696154
 40
57.500000
 50
157.180000
 51
212.859880
  0
ARC
  8
CSLAYER1
  6
CONTINUOUS
 62
     6
 10
689.150324
 20
104.696154
 40
3.000000
 50
270.000000
 51
360.000000
  0
LINE
  8
CSLAYER1
  6
CONTINUOUS
 62
     6
 10
689.150324
 20
101.696154
 11
668.650324
 21
101.696154
  0
ARC
  8
CSLAYER1
  6
CONTINUOUS
 62
     6
 10
668.650324
 20
99.196154
 40
2.500000
 50
90.000000
 51
180.000000
  0
LINE
  8
CSLAYER1
  6
DASHED
 62
     6
 10
673.650324
 20
101.696154
 11
673.650324
 21
86.696154
  0
ARC
  8
CSLAYER1
  6
CONTINUOUS
 62
     6
 10
769.150324
 20
104.696154
 40
3.000000
 50
180.000000
 51
270.000000
  0
LINE
  8
CSLAYER1
  6
CONTINUOUS
 62
     6
 10
768.370324
 20
108.096154
 11
789.930324
 21
102.296154
  0
ARC
  8
CSLAYER1
  6
CONTINUOUS
 62
     6
 10
789.150324
 20
99.396154
 40
3.000000
 50
0.000000
 51
74.930000
  0
LINE
  8
CSLAYER1
  6
DASHED
 62
     6
 10
784.650324
 20
101.696154
 11
784.650324
 21
86.696154
  0
ARC
  8
CSLAYER1
  6
CONTINUOUS
 62
     6
 10
729.150324
 20
167.696154
 40
80.000000
 50
-51.350000
 51
48.509183
  0
ARC
  8
CSLAYER1
  6
CONTINUOUS
 62
     6
 10
777.150324
 20
236.416154
 40
5.000000
 50
0.000000
 51
74.290000
  0
LINE
  8
CSLAYER1
  6
CONTINUOUS
 62
     6
 10
778.510324
 20
241.216154
 11
769.790324
 21
243.676154
  0
ARC
  8
CSLAYER1
  6
CONTINUOUS
 62
     6
 10
771.150324
 20
248.476154
 40
5.000000
 50
180.000000
 51
254.290000
  0
LINE
  8
CSLAYER1
  6
CONTINUOUS
 62
     6
 10
764.410324
 20
234.696154
 11
693.650324
 21
234.696154
  0
ARC
  8
CSLAYER1
  6
CONTINUOUS
 62
     6
 10
687.150324
 20
248.476154
 40
5.000000
 50
285.700000
 51
360.000000
  0
LINE
  8
CSLAYER1
  6
CONTINUOUS
 62
     6
 10
688.510324
 20
243.676154
 11
679.790324
 21
241.216154
  0
ARC
  8
CSLAYER1
  6
CONTINUOUS
 62
     6
 10
681.150324
 20
236.416154
 40
5.000000
 50
105.700000
 51
180.000000
  0
LINE
  8
CSLAYER1
  6
CONTINUOUS
 62
     6
 10
676.150324
 20
191.696154
 11
674.150324
 21
191.696154
  0
LINE
  8
CSLAYER1
  6
CONTINUOUS
 62
     6
 10
775.150324
 20
209.196154
 11
775.150324
 21
136.496154
  0
ARC
  8
CSLAYER1
  6
CONTINUOUS
 62
     6
 10
770.150324
 20
136.496154
 40
5.000000
 50
285.520000
 51
360.000000
  0
LINE
  8
CSLAYER1
  6
CONTINUOUS
 62
     6
 10
771.490324
 20
131.676154
 11
769.810324
 21
131.216154
  0
ARC
  8
CSLAYER1
  6
CONTINUOUS
 62
     6
 10
771.150324
 20
126.396154
 40
5.000000
 50
105.520000
 51
180.000000
  0
LINE
  8
CSLAYER1
  6
CONTINUOUS
 62
     6
 10
767.150324
 20
120.196154
 11
771.650324
 21
120.196154
  0
ARC
  8
CSLAYER1
  6
CONTINUOUS
 62
     6
 10
771.650324
 20
125.196154
 40
5.000000
 50
270.000000
 51
360.000000
  0
LINE
  8
CSLAYER1
  6
CONTINUOUS
 62
     6
 10
776.650324
 20
125.196154
 11
776.650324
 21
133.784504
  0
ARC
  8
CSLAYER1
  6
CONTINUOUS
 62
     6
 10
781.650324
 20
133.784504
 40
5.000000
 50
147.140120
 51
180.000000
  0
ARC
  8
CSLAYER1
  6
CONTINUOUS
 62
     6
 10
729.150324
 20
167.696154
 40
57.500000
 50
-32.859880
 51
22.810000
  0
LINE
  8
CSLAYER1
  6
CONTINUOUS
 62
     6
 10
782.150324
 20
176.976154
 11
782.150324
 21
236.416154
  0
ARC
  8
CSLAYER1
  6
CONTINUOUS
 62
     6
 10
777.150324
 20
176.976154
 40
5.000000
 50
285.700000
 51
360.000000
  0
LINE
  8
CSLAYER1
  6
CONTINUOUS
 62
     6
 10
778.510324
 20
172.176154
 11
777.330324
 21
171.836154
  0
ARC
  8
CSLAYER1
  6
CONTINUOUS
 62
     6
 10
778.150324
 20
168.956154
 40
3.000000
 50
105.700000
 51
180.000000
  0
ARC
  8
CSLAYER1
  6
CONTINUOUS
 62
     6
 10
787.810324
 20
152.876154
 40
3.000000
 50
165.820000
 51
216.390000
  0
ARC
  8
CSLAYER1
  6
CONTINUOUS
 62
     6
 10
773.310324
 20
142.196154
 40
15.000000
 50
-77.170000
 51
36.390000
  0
ARC
  8
CSLAYER1
  6
CONTINUOUS
 62
     6
 10
775.110324
 20
121.736154
 40
4.000000
 50
-157.356260
 51
67.380000
  0
ARC
  8
CSLAYER1
  6
CONTINUOUS
 62
     6
 10
775.110324
 20
121.736154
 40
3.500000
 50
-154.073891
 51
64.110000
  0
ARC
  8
CSLAYER1
  6
CONTINUOUS
 62
     6
 10
773.310324
 20
142.196154
 40
11.500000
 50
-73.160000
 51
22.130000
  0
ARC
  8
CSLAYER1
  6
CONTINUOUS
 62
     6
 10
788.610324
 20
148.416154
 40
5.000000
 50
162.030000
 51
202.130000
  0
ARC
  8
CSLAYER1
  6
CONTINUOUS
 62
     6
 10
794.030324
 20
128.196154
 40
10.000000
 50
145.960000
 51
198.870000
  0
ARC
  8
CSLAYER1
  6
CONTINUOUS
 62
     6
 10
775.110324
 20
121.736154
 40
10.000000
 50
-136.520000
 51
18.870000
  0
ARC
  8
CSLAYER1
  6
CONTINUOUS
 62
     6
 10
760.610324
 20
107.976154
 40
10.000000
 50
43.480000
 51
56.290000
  0
ARC
  8
CSLAYER1
  6
CONTINUOUS
 62
     6
 10
767.150324
 20
119.196154
 40
1.000000
 50
90.000000
 51
180.000000
  0
ARC
  8
CSLAYER1
  6
CONTINUOUS
 62
     6
 10
769.150324
 20
110.996154
 40
3.000000
 50
180.000000
 51
254.930000
  0
LINE
  8
CSLAYER1
  6
CONTINUOUS
 62
     6
 10
543.788462
 20
321.750000
 11
543.788462
 21
361.750000
  0
LINE
  8
CSLAYER1
  6
CONTINUOUS
 62
     6
 10
543.788462
 20
361.750000
 11
540.788462
 21
361.750000
  0
LINE
  8
CSLAYER1
  6
DOT
 62
     6
 10
540.788462
 20
361.750000
 11
536.788462
 21
361.750000
  0
LINE
  8
CSLAYER1
  6
DOT
 62
     6
 10
536.788462
 20
361.750000
 11
536.788462
 21
321.750000
  0
LINE
  8
CSLAYER1
  6
CONTINUOUS
 62
     6
 10
540.788462
 20
321.750000
 11
540.788462
 21
366.750000
  0
LINE
  8
CSLAYER1
  6
CONTINUOUS
 62
     6
 10
541.788462
 20
366.750000
 11
511.788462
 21
366.750000
  0
LINE
  8
CSLAYER1
  6
CONTINUOUS
 62
     6
 10
511.788462
 20
366.750000
 11
511.788462
 21
368.750000
  0
LINE
  8
CSLAYER1
  6
CONTINUOUS
 62
     6
 10
512.788462
 20
366.750000
 11
512.788462
 21
321.750000
  0
LINE
  8
CSLAYER1
  6
CONTINUOUS
 62
     6
 10
512.788462
 20
321.750000
 11
543.788462
 21
321.750000
  0
LINE
  8
CSLAYER1
  6
CONTINUOUS
 62
     6
 10
543.788462
 20
358.750000
 11
578.303659
 21
358.750000
  0
ARC
  8
CSLAYER1
  6
CONTINUOUS
 62
     6
 10
578.196568
 20
360.750000
 40
2.000000
 50
270.000000
 51
340.725869
  0
LINE
  8
CSLAYER1
  6
CONTINUOUS
 62
     6
 10
580.084468
 20
360.089824
 11
589.176362
 21
386.089824
  0
ARC
  8
CSLAYER1
  6
CONTINUOUS
 62
     6
 10
587.288462
 20
386.750000
 40
2.000000
 50
270.000000
 51
360.000000
  0
LINE
  8
CSLAYER1
  6
CONTINUOUS
 62
     6
 10
587.288462
 20
384.750000
 11
466.288462
 21
384.750000
  0
ARC
  8
CSLAYER1
  6
CONTINUOUS
 62
     6
 10
466.288462
 20
386.750000
 40
2.000000
 50
180.000000
 51
270.000000
  0
ARC
  8
CSLAYER1
  6
CONTINUOUS
 62
     6
 10
462.288462
 20
386.250000
 40
2.000000
 50
270.000000
 51
360.000000
  0
LINE
  8
CSLAYER1
  6
CONTINUOUS
 62
     6
 10
462.288462
 20
384.250000
 11
458.788462
 21
384.250000
  0
LINE
  8
CSLAYER1
  6
CONTINUOUS
 62
     6
 10
465.026020
 20
384.301206
 11
473.492455
 21
360.089824
  0
ARC
  8
CSLAYER1
  6
CONTINUOUS
 62
     6
 10
475.380355
 20
360.750000
 40
2.000000
 50
199.274131
 51
270.000000
  0
LINE
  8
CSLAYER1
  6
CONTINUOUS
 62
     6
 10
475.380355
 20
358.750000
 11
512.788462
 21
358.750000
  0
LINE
  8
CSLAYER1
  6
CONTINUOUS
 62
     6
 10
506.788462
 20
360.750000
 11
506.788462
 21
368.750000
  0
LINE
  8
CSLAYER1
  6
CONTINUOUS
 62
     6
 10
497.068462
 20
368.750000
 11
556.508462
 21
368.750000
  0
ARC
  8
CSLAYER1
  6
CONTINUOUS
 62
     6
 10
556.508462
 20
373.750000
 40
5.000000
 50
270.000000
 51
344.300000
  0
LINE
  8
CSLAYER1
  6
CONTINUOUS
 62
     6
 10
561.308462
 20
372.390000
 11
563.768462
 21
381.110000
  0
ARC
  8
CSLAYER1
  6
CONTINUOUS
 62
     6
 10
568.568462
 20
379.750000
 40
5.000000
 50
90.000000
 51
164.300000
  0
LINE
  8
CSLAYER1
  6
CONTINUOUS
 62
     6
 10
571.493889
 20
381.090000
 11
571.033889
 21
379.410000
  0
ARC
  8
CSLAYER1
  6
CONTINUOUS
 62
     6
 10
566.213889
 20
380.750000
 40
5.000000
 50
270.000000
 51
344.470000
  0
LINE
  8
CSLAYER1
  6
CONTINUOUS
 62
     6
 10
566.788462
 20
375.750000
 11
562.256351
 21
375.750000
  0
ARC
  8
CSLAYER1
  6
CONTINUOUS
 62
     6
 10
566.788462
 20
371.750000
 40
5.500000
 50
133.341758
 51
156.353985
  0
ARC
  8
CSLAYER1
  6
CONTINUOUS
 62
     6
 10
566.788462
 20
371.750000
 40
5.500000
 50
-187.862575
 51
64.435030
  0
ARC
  8
CSLAYER1
  6
CONTINUOUS
 62
     6
 10
576.313889
 20
379.750000
 40
5.000000
 50
90.000000
 51
164.470000
  0
LINE
  8
CSLAYER1
  6
CONTINUOUS
 62
     6
 10
589.288462
 20
386.750000
 11
589.288462
 21
456.750000
  0
ARC
  8
CSLAYER1
  6
CONTINUOUS
 62
     6
 10
587.288462
 20
456.750000
 40
2.000000
 50
0.000000
 51
90.000000
  0
LINE
  8
CSLAYER1
  6
CONTINUOUS
 62
     6
 10
587.288462
 20
458.750000
 11
466.288462
 21
458.750000
  0
ARC
  8
CSLAYER1
  6
CONTINUOUS
 62
     6
 10
466.288462
 20
456.750000
 40
2.000000
 50
90.000000
 51
180.000000
  0
ARC
  8
CSLAYER1
  6
CONTINUOUS
 62
     6
 10
462.288462
 20
457.250000
 40
2.000000
 50
0.000000
 51
90.000000
  0
LINE
  8
CSLAYER1
  6
CONTINUOUS
 62
     6
 10
462.288462
 20
459.250000
 11
458.788462
 21
459.250000
  0
LINE
  8
CSLAYER1
  6
CONTINUOUS
 62
     6
 10
465.026020
 20
459.198794
 11
473.492455
 21
483.410176
  0
ARC
  8
CSLAYER1
  6
CONTINUOUS
 62
     6
 10
475.380355
 20
482.750000
 40
2.000000
 50
90.000000
 51
160.725869
  0
LINE
  8
CSLAYER1
  6
CONTINUOUS
 62
     6
 10
475.380355
 20
484.750000
 11
578.196568
 21
484.750000
  0
ARC
  8
CSLAYER1
  6
CONTINUOUS
 62
     6
 10
578.196568
 20
482.750000
 40
2.000000
 50
19.274131
 51
90.000000
  0
LINE
  8
CSLAYER1
  6
CONTINUOUS
 62
     6
 10
580.084468
 20
483.410176
 11
589.176362
 21
457.410176
  0
ARC
  8
CSLAYER1
  6
CONTINUOUS
 62
     6
 10
576.313889
 20
463.750000
 40
5.000000
 50
195.530000
 51
270.000000
  0
LINE
  8
CSLAYER1
  6
CONTINUOUS
 62
     6
 10
571.493889
 20
462.410000
 11
571.033889
 21
464.090000
  0
ARC
  8
CSLAYER1
  6
CONTINUOUS
 62
     6
 10
566.213889
 20
462.750000
 40
5.000000
 50
15.530000
 51
90.000000
  0
LINE
  8
CSLAYER1
  6
CONTINUOUS
 62
     6
 10
566.788462
 20
467.750000
 11
562.256351
 21
467.750000
  0
ARC
  8
CSLAYER1
  6
CONTINUOUS
 62
     6
 10
566.788462
 20
471.750000
 40
5.500000
 50
203.646015
 51
226.658242
  0
ARC
  8
CSLAYER1
  6
CONTINUOUS
 62
     6
 10
566.788462
 20
471.750000
 40
5.500000
 50
-64.435030
 51
187.862575
  0
LINE
  8
CSLAYER1
  6
CONTINUOUS
 62
     6
 10
563.768462
 20
462.390000
 11
561.308462
 21
471.110000
  0
ARC
  8
CSLAYER1
  6
CONTINUOUS
 62
     6
 10
556.508462
 20
469.750000
 40
5.000000
 50
15.700000
 51
90.000000
  0
LINE
  8
CSLAYER1
  6
CONTINUOUS
 62
     6
 10
556.508462
 20
474.750000
 11
497.068462
 21
474.750000
  0
ARC
  8
CSLAYER1
  6
CONTINUOUS
 62
     6
 10
497.068462
 20
469.750000
 40
5.000000
 50
90.000000
 51
164.300000
  0
ARC
  8
CSLAYER1
  6
CONTINUOUS
 62
     6
 10
486.788462
 20
471.750000
 40
5.500000
 50
-6.749896
 51
244.435030
  0
LINE
  8
CSLAYER1
  6
CONTINUOUS
 62
     6
 10
486.788462
 20
467.750000
 11
491.320572
 21
467.750000
  0
ARC
  8
CSLAYER1
  6
CONTINUOUS
 62
     6
 10
486.788462
 20
471.750000
 40
5.500000
 50
313.341758
 51
336.353985
  0
LINE
  8
CSLAYER1
  6
CONTINUOUS
 62
     6
 10
492.268462
 20
471.110000
 11
489.808462
 21
462.390000
  0
ARC
  8
CSLAYER1
  6
CONTINUOUS
 62
     6
 10
485.008462
 20
463.750000
 40
5.000000
 50
270.000000
 51
344.300000
  0
LINE
  8
CSLAYER1
  6
CONTINUOUS
 62
     6
 10
482.083034
 20
462.410000
 11
482.543034
 21
464.090000
  0
ARC
  8
CSLAYER1
  6
CONTINUOUS
 62
     6
 10
487.363034
 20
462.750000
 40
5.000000
 50
90.000000
 51
164.470000
  0
ARC
  8
CSLAYER1
  6
CONTINUOUS
 62
     6
 10
477.263034
 20
463.750000
 40
5.000000
 50
270.000000
 51
344.470000
  0
ARC
  8
CSLAYER1
  6
CONTINUOUS
 62
     6
 10
462.288462
 20
467.250000
 40
2.000000
 50
0.000000
 51
90.000000
  0
LINE
  8
CSLAYER1
  6
CONTINUOUS
 62
     6
 10
462.288462
 20
469.250000
 11
458.788462
 21
469.250000
  0
LINE
  8
CSLAYER1
  6
CONTINUOUS
 62
     6
 10
464.288462
 20
476.990000
 11
464.288462
 21
460.750000
  0
ARC
  8
CSLAYER1
  6
CONTINUOUS
 62
     6
 10
462.288462
 20
366.510000
 40
2.000000
 50
270.000000
 51
360.000000
  0
LINE
  8
CSLAYER1
  6
CONTINUOUS
 62
     6
 10
462.288462
 20
364.510000
 11
458.788462
 21
364.510000
  0
LINE
  8
CSLAYER1
  6
CONTINUOUS
 62
     6
 10
458.788462
 20
364.250000
 11
458.788462
 21
479.250000
  0
LINE
  8
CSLAYER1
  6
CONTINUOUS
 62
     6
 10
458.788462
 20
479.250000
 11
417.168462
 21
480.350000
  0
ARC
  8
CSLAYER1
  6
CONTINUOUS
 62
     6
 10
417.288462
 20
485.350000
 40
5.000000
 50
180.000000
 51
268.500000
  0
ARC
  8
CSLAYER1
  6
CONTINUOUS
 62
     6
 10
417.288462
 20
485.990000
 40
5.000000
 50
180.000000
 51
268.500000
  0
LINE
  8
CSLAYER1
  6
CONTINUOUS
 62
     6
 10
417.168462
 20
480.990000
 11
419.868462
 21
480.910000
  0
ARC
  8
CSLAYER1
  6
CONTINUOUS
 62
     6
 10
419.788462
 20
477.910000
 40
3.000000
 50
50.669281
 51
88.500000
  0
LINE
  8
CSLAYER1
  6
CONTINUOUS
 62
     6
 10
458.788462
 20
478.990000
 11
462.288462
 21
478.990000
  0
ARC
  8
CSLAYER1
  6
CONTINUOUS
 62
     6
 10
462.288462
 20
476.990000
 40
2.000000
 50
0.000000
 51
90.000000
  0
LINE
  8
CSLAYER1
  6
CONTINUOUS
 62
     6
 10
506.788462
 20
474.750000
 11
506.788462
 21
482.750000
  0
LINE
  8
CSLAYER1
  6
CONTINUOUS
 62
     6
 10
502.864087
 20
455.750000
 11
502.864087
 21
387.750000
  0
ARC
  8
CSLAYER1
  6
CONTINUOUS
 62
     6
 10
485.008462
 20
379.750000
 40
5.000000
 50
15.700000
 51
90.000000
  0
LINE
  8
CSLAYER1
  6
CONTINUOUS
 62
     6
 10
482.083034
 20
381.090000
 11
482.543034
 21
379.410000
  0
ARC
  8
CSLAYER1
  6
CONTINUOUS
 62
     6
 10
487.363034
 20
380.750000
 40
5.000000
 50
195.530000
 51
270.000000
  0
LINE
  8
CSLAYER1
  6
CONTINUOUS
 62
     6
 10
486.788462
 20
375.750000
 11
491.320572
 21
375.750000
  0
ARC
  8
CSLAYER1
  6
CONTINUOUS
 62
     6
 10
486.788462
 20
371.750000
 40
5.500000
 50
23.646015
 51
46.658242
  0
ARC
  8
CSLAYER1
  6
CONTINUOUS
 62
     6
 10
486.788462
 20
371.750000
 40
5.500000
 50
-244.435030
 51
6.749896
  0
ARC
  8
CSLAYER1
  6
CONTINUOUS
 62
     6
 10
477.263034
 20
379.750000
 40
5.000000
 50
15.530000
 51
90.000000
  0
LINE
  8
CSLAYER1
  6
CONTINUOUS
 62
     6
 10
489.808462
 20
381.110000
 11
492.268462
 21
372.390000
  0
ARC
  8
CSLAYER1
  6
CONTINUOUS
 62
     6
 10
497.068462
 20
373.750000
 40
5.000000
 50
195.700000
 51
270.000000
  0
ARC
  8
CSLAYER1
  6
CONTINUOUS
 62
     6
 10
462.288462
 20
376.250000
 40
2.000000
 50
270.000000
 51
360.000000
  0
LINE
  8
CSLAYER1
  6
CONTINUOUS
 62
     6
 10
462.288462
 20
374.250000
 11
458.788462
 21
374.250000
  0
LINE
  8
CSLAYER1
  6
CONTINUOUS
 62
     6
 10
458.788462
 20
364.250000
 11
417.168462
 21
363.150000
  0
ARC
  8
CSLAYER1
  6
CONTINUOUS
 62
     6
 10
417.288462
 20
358.150000
 40
5.000000
 50
91.500000
 51
180.000000
  0
ARC
  8
CSLAYER1
  6
CONTINUOUS
 62
     6
 10
417.288462
 20
357.510000
 40
5.000000
 50
91.500000
 51
180.000000
  0
LINE
  8
CSLAYER1
  6
CONTINUOUS
 62
     6
 10
417.168462
 20
362.510000
 11
419.868462
 21
362.590000
  0
ARC
  8
CSLAYER1
  6
CONTINUOUS
 62
     6
 10
419.788462
 20
365.590000
 40
3.000000
 50
271.500000
 51
309.330719
  0
ARC
  8
CSLAYER1
  6
CONTINUOUS
 62
     6
 10
425.148462
 20
408.060000
 40
3.000000
 50
91.500000
 51
163.570000
  0
LINE
  8
CSLAYER1
  6
CONTINUOUS
 62
     6
 10
425.068462
 20
411.060000
 11
448.868462
 21
411.680000
  0
ARC
  8
CSLAYER1
  6
CONTINUOUS
 62
     6
 10
448.788462
 20
414.680000
 40
3.000000
 50
271.500000
 51
360.000000
  0
LINE
  8
CSLAYER1
  6
CONTINUOUS
 62
     6
 10
451.788462
 20
414.680000
 11
451.788462
 21
428.820000
  0
ARC
  8
CSLAYER1
  6
CONTINUOUS
 62
     6
 10
448.788462
 20
428.820000
 40
3.000000
 50
0.000000
 51
88.500000
  0
LINE
  8
CSLAYER1
  6
CONTINUOUS
 62
     6
 10
448.868462
 20
431.820000
 11
425.068462
 21
432.440000
  0
ARC
  8
CSLAYER1
  6
CONTINUOUS
 62
     6
 10
425.148462
 20
435.440000
 40
3.000000
 50
196.430000
 51
268.500000
  0
LINE
  8
CSLAYER1
  6
CONTINUOUS
 62
     6
 10
422.388462
 20
433.740000
 11
422.388462
 21
409.760000
  0
ARC
  8
CSLAYER1
  6
CONTINUOUS
 62
     6
 10
419.388462
 20
409.760000
 40
3.000000
 50
270.000000
 51
360.000000
  0
LINE
  8
CSLAYER1
  6
CONTINUOUS
 62
     6
 10
419.388462
 20
406.740000
 11
417.288462
 21
406.740000
  0
ARC
  8
CSLAYER1
  6
CONTINUOUS
 62
     6
 10
417.288462
 20
401.760000
 40
5.000000
 50
90.000000
 51
180.000000
  0
ARC
  8
CSLAYER1
  6
CONTINUOUS
 62
     6
 10
414.288462
 20
385.310000
 40
2.000000
 50
180.000000
 51
255.530000
  0
ARC
  8
CSLAYER1
  6
CONTINUOUS
 62
     6
 10
413.288462
 20
381.430000
 40
2.000000
 50
0.000000
 51
75.530000
  0
LINE
  8
CSLAYER1
  6
CONTINUOUS
 62
     6
 10
415.288462
 20
381.430000
 11
415.288462
 21
370.170000
  0
ARC
  8
CSLAYER1
  6
CONTINUOUS
 62
     6
 10
413.288462
 20
370.170000
 40
2.000000
 50
284.480000
 51
360.000000
  0
ARC
  8
CSLAYER1
  6
CONTINUOUS
 62
     6
 10
414.288462
 20
366.310000
 40
2.000000
 50
104.480000
 51
180.000000
  0
LINE
  8
CSLAYER1
  6
CONTINUOUS
 62
     6
 10
391.288462
 20
368.078060
 11
389.288462
 21
368.078060
  0
LINE
  8
CSLAYER1
  6
CONTINUOUS
 62
     6
 10
389.288462
 20
368.078060
 11
389.288462
 21
383.478060
  0
LINE
  8
CSLAYER1
  6
CONTINUOUS
 62
     6
 10
389.288462
 20
383.478060
 11
391.288462
 21
383.478060
  0
LINE
  8
CSLAYER1
  6
CONTINUOUS
 62
     6
 10
389.288462
 20
382.278060
 11
383.988462
 21
382.278060
  0
LINE
  8
CSLAYER1
  6
CONTINUOUS
 62
     6
 10
383.988462
 20
382.278060
 11
383.988462
 21
369.278060
  0
LINE
  8
CSLAYER1
  6
CONTINUOUS
 62
     6
 10
383.988462
 20
369.278060
 11
389.288462
 21
369.278060
  0
ARC
  8
CSLAYER1
  6
CONTINUOUS
 62
     6
 10
394.744015
 20
372.528060
 40
10.755553
 50
162.412046
 51
197.587954
  0
ARC
  8
CSLAYER1
  6
CONTINUOUS
 62
     6
 10
394.744015
 20
379.028060
 40
10.755553
 50
162.412046
 51
197.587954
  0
LINE
  8
CSLAYER1
  6
CONTINUOUS
 62
     6
 10
383.988462
 20
376.750000
 11
306.288462
 21
376.750000
  0
LINE
  8
CSLAYER1
  6
CONTINUOUS
 62
     6
 10
306.288462
 20
376.750000
 11
306.288462
 21
466.750000
  0
LINE
  8
CSLAYER1
  6
CONTINUOUS
 62
     6
 10
306.288462
 20
466.750000
 11
383.988462
 21
466.750000
  0
ARC
  8
CSLAYER1
  6
CONTINUOUS
 62
     6
 10
394.744015
 20
470.961941
 40
10.755553
 50
162.412046
 51
197.587954
  0
LINE
  8
CSLAYER1
  6
CONTINUOUS
 62
     6
 10
383.988462
 20
474.211941
 11
383.988462
 21
461.211941
  0
LINE
  8
CSLAYER1
  6
CONTINUOUS
 62
     6
 10
383.988462
 20
461.211941
 11
389.288462
 21
461.211941
  0
LINE
  8
CSLAYER1
  6
CONTINUOUS
 62
     6
 10
389.288462
 20
460.011941
 11
389.288462
 21
475.411941
  0
LINE
  8
CSLAYER1
  6
CONTINUOUS
 62
     6
 10
389.288462
 20
475.411941
 11
391.288462
 21
475.411941
  0
LINE
  8
CSLAYER1
  6
CONTINUOUS
 62
     6
 10
389.288462
 20
474.211941
 11
383.988462
 21
474.211941
  0
ARC
  8
CSLAYER1
  6
CONTINUOUS
 62
     6
 10
394.744015
 20
464.461941
 40
10.755553
 50
162.412046
 51
197.587954
  0
LINE
  8
CSLAYER1
  6
CONTINUOUS
 62
     6
 10
389.288462
 20
460.011941
 11
391.288462
 21
460.011941
  0
LINE
  8
CSLAYER1
  6
CONTINUOUS
 62
     6
 10
389.288462
 20
466.479941
 11
391.288462
 21
467.095941
  0
LINE
  8
CSLAYER1
  6
CONTINUOUS
 62
     6
 10
391.288462
 20
468.943941
 11
389.288462
 21
468.327941
  0
LINE
  8
CSLAYER1
  6
CONTINUOUS
 62
     6
 10
389.288462
 20
467.711941
 11
384.491238
 21
467.711941
  0
ARC
  8
CSLAYER1
  6
CONTINUOUS
 62
     6
 10
414.288462
 20
477.190000
 40
2.000000
 50
180.000000
 51
255.520000
  0
ARC
  8
CSLAYER1
  6
CONTINUOUS
 62
     6
 10
413.288462
 20
473.330000
 40
2.000000
 50
0.000000
 51
75.520000
  0
LINE
  8
CSLAYER1
  6
CONTINUOUS
 62
     6
 10
415.288462
 20
473.330000
 11
415.288462
 21
462.070000
  0
ARC
  8
CSLAYER1
  6
CONTINUOUS
 62
     6
 10
413.288462
 20
462.070000
 40
2.000000
 50
284.470000
 51
360.000000
  0
ARC
  8
CSLAYER1
  6
CONTINUOUS
 62
     6
 10
414.288462
 20
458.190000
 40
2.000000
 50
104.470000
 51
180.000000
  0
LINE
  8
CSLAYER1
  6
CONTINUOUS
 62
     6
 10
412.288462
 20
498.610000
 11
412.288462
 21
344.890000
  0
ARC
  8
CSLAYER1
  6
CONTINUOUS
 62
     6
 10
409.288462
 20
344.890000
 40
3.000000
 50
271.500000
 51
360.000000
  0
LINE
  8
CSLAYER1
  6
CONTINUOUS
 62
     6
 10
409.368462
 20
341.890000
 11
404.288462
 21
341.750000
  0
LINE
  8
CSLAYER1
  6
CONTINUOUS
 62
     6
 10
404.288462
 20
341.750000
 11
404.288462
 21
501.750000
  0
LINE
  8
CSLAYER1
  6
CONTINUOUS
 62
     6
 10
404.288462
 20
501.750000
 11
391.288462
 21
501.750000
  0
LINE
  8
CSLAYER1
  6
CONTINUOUS
 62
     6
 10
391.288462
 20
501.750000
 11
391.288462
 21
341.750000
  0
LINE
  8
CSLAYER1
  6
CONTINUOUS
 62
     6
 10
391.288462
 20
341.750000
 11
404.288462
 21
341.750000
  0
LINE
  8
CSLAYER1
  6
CONTINUOUS
 62
     6
 10
391.288462
 20
375.162060
 11
389.288462
 21
374.546060
  0
LINE
  8
CSLAYER1
  6
CONTINUOUS
 62
     6
 10
389.288462
 20
375.778060
 11
384.491238
 21
375.778060
  0
LINE
  8
CSLAYER1
  6
CONTINUOUS
 62
     6
 10
389.288462
 20
376.394060
 11
391.288462
 21
377.010060
  0
ARC
  8
CSLAYER1
  6
CONTINUOUS
 62
     6
 10
417.288462
 20
441.740000
 40
5.000000
 50
180.000000
 51
270.000000
  0
LINE
  8
CSLAYER1
  6
CONTINUOUS
 62
     6
 10
417.288462
 20
436.760000
 11
419.388462
 21
436.760000
  0
ARC
  8
CSLAYER1
  6
CONTINUOUS
 62
     6
 10
419.388462
 20
433.740000
 40
3.000000
 50
0.000000
 51
90.000000
  0
LINE
  8
CSLAYER1
  6
CONTINUOUS
 62
     6
 10
541.788462
 20
368.750000
 11
541.788462
 21
366.750000
  0
LINE
  8
CSLAYER1
  6
CONTINUOUS
 62
     6
 10
546.788462
 20
368.750000
 11
546.788462
 21
360.750000
  0
LINE
  8
CSLAYER1
  6
CONTINUOUS
 62
     6
 10
550.712836
 20
387.750000
 11
550.712836
 21
455.750000
  0
ARC
  8
CSLAYER1
  6
CONTINUOUS
 62
     6
 10
568.568462
 20
463.750000
 40
5.000000
 50
195.700000
 51
270.000000
  0
LINE
  8
CSLAYER1
  6
CONTINUOUS
 62
     6
 10
546.788462
 20
474.750000
 11
546.788462
 21
482.750000
  0
ARC
  8
CSLAYER1
  6
CONTINUOUS
 62
     6
 10
409.288462
 20
498.610000
 40
3.000000
 50
0.000000
 51
88.500000
  0
LINE
  8
CSLAYER1
  6
CONTINUOUS
 62
     6
 10
409.368462
 20
501.610000
 11
404.288462
 21
501.750000
  0
LINE
  8
CSLAYER1
  6
CONTINUOUS
 62
     6
 10
306.288462
 20
465.749969
 11
304.813425
 21
465.749969
  0
LINE
  8
CSLAYER1
  6
CONTINUOUS
 62
     6
 10
304.382578
 20
465.854462
 11
305.080210
 21
459.217010
  0
ARC
  8
CSLAYER1
  6
CONTINUOUS
 62
     6
 10
306.074716
 20
459.321503
 40
1.000000
 50
186.000026
 51
270.000001
  0
ARC
  8
CSLAYER1
  6
CONTINUOUS
 62
     6
 10
306.025095
 20
463.793793
 40
1.000000
 50
186.000026
 51
270.000001
  0
LINE
  8
CSLAYER1
  6
CONTINUOUS
 62
     6
 10
305.030527
 20
463.689240
 11
304.382578
 21
469.854462
  0
ARC
  8
CSLAYER1
  6
CONTINUOUS
 62
     6
 10
303.388010
 20
469.749969
 40
1.000000
 50
6.000003
 51
90.000016
  0
LINE
  8
CSLAYER1
  6
CONTINUOUS
 62
     6
 10
303.388010
 20
470.749969
 11
267.188852
 21
470.749969
  0
ARC
  8
CSLAYER1
  6
CONTINUOUS
 62
     6
 10
267.188852
 20
469.749969
 40
1.000000
 50
90.000003
 51
173.999998
  0
LINE
  8
CSLAYER1
  6
CONTINUOUS
 62
     6
 10
266.194345
 20
469.854462
 11
265.546335
 21
463.689240
  0
ARC
  8
CSLAYER1
  6
CONTINUOUS
 62
     6
 10
264.551828
 20
463.793793
 40
1.000000
 50
270.000001
 51
353.999989
  0
LINE
  8
CSLAYER1
  6
CONTINUOUS
 62
     6
 10
265.762888
 20
465.749969
 11
254.288462
 21
465.749969
  0
LINE
  8
CSLAYER1
  6
CONTINUOUS
 62
     6
 10
254.288462
 20
465.749969
 11
253.288462
 21
464.749969
  0
LINE
  8
CSLAYER1
  6
CONTINUOUS
 62
     6
 10
253.288462
 20
464.749969
 11
253.288462
 21
378.749969
  0
LINE
  8
CSLAYER1
  6
CONTINUOUS
 62
     6
 10
253.288462
 20
378.749969
 11
254.288462
 21
377.749969
  0
LINE
  8
CSLAYER1
  6
CONTINUOUS
 62
     6
 10
254.288462
 20
377.749969
 11
265.762888
 21
377.749969
  0
ARC
  8
CSLAYER1
  6
CONTINUOUS
 62
     6
 10
267.188852
 20
377.749969
 40
1.000000
 50
186.000012
 51
270.000001
  0
LINE
  8
CSLAYER1
  6
CONTINUOUS
 62
     6
 10
267.188852
 20
376.749969
 11
303.388010
 21
376.749969
  0
ARC
  8
CSLAYER1
  6
CONTINUOUS
 62
     6
 10
303.388010
 20
377.749969
 40
1.000000
 50
270.000001
 51
354.000017
  0
LINE
  8
CSLAYER1
  6
CONTINUOUS
 62
     6
 10
304.382578
 20
377.645416
 11
305.080210
 21
384.282928
  0
ARC
  8
CSLAYER1
  6
CONTINUOUS
 62
     6
 10
306.074716
 20
384.178375
 40
1.000000
 50
90.000009
 51
173.999984
  0
ARC
  8
CSLAYER1
  6
CONTINUOUS
 62
     6
 10
306.025095
 20
379.706146
 40
1.000000
 50
90.000009
 51
173.999984
  0
LINE
  8
CSLAYER1
  6
CONTINUOUS
 62
     6
 10
305.030527
 20
379.810699
 11
304.382578
 21
373.645416
  0
ARC
  8
CSLAYER1
  6
CONTINUOUS
 62
     6
 10
303.388010
 20
373.749969
 40
1.000000
 50
270.000001
 51
354.000017
  0
LINE
  8
CSLAYER1
  6
CONTINUOUS
 62
     6
 10
303.388010
 20
372.749969
 11
267.188852
 21
372.749969
  0
ARC
  8
CSLAYER1
  6
CONTINUOUS
 62
     6
 10
267.188852
 20
373.749969
 40
1.000000
 50
186.000012
 51
270.000001
  0
LINE
  8
CSLAYER1
  6
CONTINUOUS
 62
     6
 10
266.194345
 20
373.645416
 11
265.546335
 21
379.810699
  0
ARC
  8
CSLAYER1
  6
CONTINUOUS
 62
     6
 10
264.551828
 20
379.706146
 40
1.000000
 50
6.000021
 51
90.000009
  0
LINE
  8
CSLAYER1
  6
CONTINUOUS
 62
     6
 10
266.194345
 20
377.645416
 11
265.496713
 21
384.282928
  0
ARC
  8
CSLAYER1
  6
CONTINUOUS
 62
     6
 10
264.502146
 20
384.178375
 40
1.000000
 50
6.000021
 51
90.000009
  0
LINE
  8
CSLAYER1
  6
CONTINUOUS
 62
     6
 10
268.974436
 20
385.356781
 11
300.931528
 21
385.356781
  0
LINE
  8
CSLAYER1
  6
CONTINUOUS
 62
     6
 10
304.813425
 20
377.749969
 11
306.288462
 21
377.749969
  0
LINE
  8
CSLAYER1
  6
CONTINUOUS
 62
     6
 10
254.288462
 20
377.749969
 11
254.288462
 21
465.749969
  0
ARC
  8
CSLAYER1
  6
CONTINUOUS
 62
     6
 10
267.188852
 20
465.749969
 40
1.000000
 50
90.000003
 51
173.999998
  0
LINE
  8
CSLAYER1
  6
CONTINUOUS
 62
     6
 10
267.188852
 20
466.749969
 11
303.388010
 21
466.749969
  0
ARC
  8
CSLAYER1
  6
CONTINUOUS
 62
     6
 10
303.388010
 20
465.749969
 40
1.000000
 50
6.000003
 51
90.000016
  0
LINE
  8
CSLAYER1
  6
CONTINUOUS
 62
     6
 10
300.931528
 20
458.143158
 11
268.974436
 21
458.143158
  0
LINE
  8
CSLAYER1
  6
CONTINUOUS
 62
     6
 10
265.496713
 20
459.217010
 11
266.194345
 21
465.854462
  0
ARC
  8
CSLAYER1
  6
CONTINUOUS
 62
     6
 10
264.502146
 20
459.321503
 40
1.000000
 50
270.000001
 51
353.999989
  0
ARC
  8
CSLAYER1
  6
CONTINUOUS
 62
     6
 10
267.288462
 20
192.696154
 40
1.000000
 50
90.000016
 51
180.000005
  0
LINE
  8
CSLAYER1
  6
CONTINUOUS
 62
     6
 10
266.288462
 20
192.696154
 11
266.288462
 21
191.696154
  0
ARC
  8
CSLAYER1
  6
CONTINUOUS
 62
     6
 10
267.288462
 20
191.696154
 40
1.000000
 50
180.000019
 51
270.000001
  0
LINE
  8
CSLAYER1
  6
CONTINUOUS
 62
     6
 10
267.288462
 20
190.696154
 11
303.288462
 21
190.696154
  0
ARC
  8
CSLAYER1
  6
CONTINUOUS
 62
     6
 10
303.288462
 20
191.696154
 40
1.000000
 50
270.000001
 51
359.942691
  0
LINE
  8
CSLAYER1
  6
CONTINUOUS
 62
     6
 10
304.288462
 20
191.696154
 11
304.288462
 21
192.696154
  0
ARC
  8
CSLAYER1
  6
CONTINUOUS
 62
     6
 10
303.288462
 20
192.696154
 40
1.000000
 50
0.000000
 51
90.000003
  0
LINE
  8
CSLAYER1
  6
CONTINUOUS
 62
     6
 10
303.288462
 20
193.696154
 11
267.288462
 21
193.696154
  0
LINE
  8
CSLAYER1
  6
CONTINUOUS
 62
     6
 10
267.288462
 20
186.696154
 11
303.288462
 21
186.696154
  0
ARC
  8
CSLAYER1
  6
CONTINUOUS
 62
     6
 10
303.288462
 20
185.696154
 40
1.000000
 50
0.000000
 51
90.000003
  0
LINE
  8
CSLAYER1
  6
CONTINUOUS
 62
     6
 10
304.288462
 20
185.696154
 11
304.288462
 21
184.696154
  0
ARC
  8
CSLAYER1
  6
CONTINUOUS
 62
     6
 10
303.288462
 20
184.696154
 40
1.000000
 50
270.000001
 51
359.942691
  0
LINE
  8
CSLAYER1
  6
CONTINUOUS
 62
     6
 10
303.288462
 20
183.696154
 11
298.517221
 21
183.696154
  0
ARC
  8
CSLAYER1
  6
CONTINUOUS
 62
     6
 10
298.517221
 20
182.696154
 40
1.000000
 50
90.000003
 51
228.590367
  0
ARC
  8
CSLAYER1
  6
CONTINUOUS
 62
     6
 10
285.288462
 20
167.696154
 40
19.000000
 50
-48.590366
 51
48.590386
  0
ARC
  8
CSLAYER1
  6
CONTINUOUS
 62
     6
 10
298.517221
 20
152.696154
 40
1.000000
 50
131.409643
 51
270.000001
  0
LINE
  8
CSLAYER1
  6
CONTINUOUS
 62
     6
 10
298.517221
 20
151.696154
 11
303.288462
 21
151.696154
  0
ARC
  8
CSLAYER1
  6
CONTINUOUS
 62
     6
 10
303.288462
 20
150.696154
 40
1.000000
 50
0.057309
 51
89.999999
  0
LINE
  8
CSLAYER1
  6
CONTINUOUS
 62
     6
 10
304.288462
 20
150.696154
 11
304.288462
 21
149.696154
  0
ARC
  8
CSLAYER1
  6
CONTINUOUS
 62
     6
 10
303.288462
 20
149.696154
 40
1.000000
 50
269.999997
 51
360.000000
  0
LINE
  8
CSLAYER1
  6
CONTINUOUS
 62
     6
 10
303.288462
 20
148.696154
 11
267.288462
 21
148.696154
  0
ARC
  8
CSLAYER1
  6
CONTINUOUS
 62
     6
 10
267.288462
 20
149.696154
 40
1.000000
 50
179.999995
 51
269.999984
  0
LINE
  8
CSLAYER1
  6
CONTINUOUS
 62
     6
 10
266.288462
 20
149.696154
 11
266.288462
 21
150.696154
  0
ARC
  8
CSLAYER1
  6
CONTINUOUS
 62
     6
 10
267.288462
 20
150.696154
 40
1.000000
 50
89.999999
 51
179.999981
  0
LINE
  8
CSLAYER1
  6
CONTINUOUS
 62
     6
 10
267.288462
 20
151.696154
 11
272.059702
 21
151.696154
  0
ARC
  8
CSLAYER1
  6
CONTINUOUS
 62
     6
 10
272.059702
 20
152.696154
 40
1.000000
 50
-89.999999
 51
48.590386
  0
ARC
  8
CSLAYER1
  6
CONTINUOUS
 62
     6
 10
285.288462
 20
167.696154
 40
19.000000
 50
131.409657
 51
228.590367
  0
ARC
  8
CSLAYER1
  6
CONTINUOUS
 62
     6
 10
272.059702
 20
182.696154
 40
1.000000
 50
-48.590366
 51
90.000019
  0
LINE
  8
CSLAYER1
  6
CONTINUOUS
 62
     6
 10
272.059702
 20
183.696154
 11
267.288462
 21
183.696154
  0
ARC
  8
CSLAYER1
  6
CONTINUOUS
 62
     6
 10
267.288462
 20
184.696154
 40
1.000000
 50
180.000019
 51
270.000001
  0
LINE
  8
CSLAYER1
  6
CONTINUOUS
 62
     6
 10
266.288462
 20
184.696154
 11
266.288462
 21
185.696154
  0
ARC
  8
CSLAYER1
  6
CONTINUOUS
 62
     6
 10
267.288462
 20
185.696154
 40
1.000000
 50
90.000016
 51
180.000005
  0
LINE
  8
CSLAYER1
  6
CONTINUOUS
 62
     6
 10
279.288462
 20
168.596148
 11
291.288462
 21
168.596148
  0
LINE
  8
CSLAYER1
  6
CONTINUOUS
 62
     6
 10
291.288462
 20
168.596148
 11
291.288462
 21
166.796160
  0
LINE
  8
CSLAYER1
  6
CONTINUOUS
 62
     6
 10
291.288462
 20
166.796160
 11
279.288462
 21
166.796160
  0
LINE
  8
CSLAYER1
  6
CONTINUOUS
 62
     6
 10
279.288462
 20
166.796160
 11
279.288462
 21
168.596148
  0
CIRCLE
  8
CSLAYER1
  6
CONTINUOUS
 62
     6
 10
285.288462
 20
167.696154
 40
12.000000
  0
CIRCLE
  8
CSLAYER1
  6
CONTINUOUS
 62
     6
 10
285.288462
 20
167.696154
 40
15.000000
  0
CIRCLE
  8
CSLAYER1
  6
CONTINUOUS
 62
     6
 10
285.288462
 20
167.696154
 40
16.000000
  0
ARC
  8
CSLAYER1
  6
CONTINUOUS
 62
     6
 10
267.288462
 20
143.696154
 40
1.000000
 50
89.999999
 51
179.999981
  0
LINE
  8
CSLAYER1
  6
CONTINUOUS
 62
     6
 10
266.288462
 20
143.696154
 11
266.288462
 21
142.696154
  0
ARC
  8
CSLAYER1
  6
CONTINUOUS
 62
     6
 10
267.288462
 20
142.696154
 40
1.000000
 50
179.999995
 51
269.999984
  0
LINE
  8
CSLAYER1
  6
CONTINUOUS
 62
     6
 10
267.288462
 20
141.696154
 11
303.288462
 21
141.696154
  0
ARC
  8
CSLAYER1
  6
CONTINUOUS
 62
     6
 10
303.288462
 20
142.696154
 40
1.000000
 50
269.999997
 51
360.000000
  0
LINE
  8
CSLAYER1
  6
CONTINUOUS
 62
     6
 10
304.288462
 20
142.696154
 11
304.288462
 21
143.696154
  0
ARC
  8
CSLAYER1
  6
CONTINUOUS
 62
     6
 10
303.288462
 20
143.696154
 40
1.000000
 50
0.057309
 51
89.999999
  0
LINE
  8
CSLAYER1
  6
CONTINUOUS
 62
     6
 10
303.288462
 20
144.696154
 11
267.288462
 21
144.696154
  0
LINE
  8
CSLAYER1
  6
CONTINUOUS
 62
     6
 10
267.288462
 20
127.696154
 11
267.288462
 21
123.696154
  0
LINE
  8
CSLAYER1
  6
CONTINUOUS
 62
     6
 10
267.288462
 20
123.696154
 11
254.288462
 21
123.696154
  0
LINE
  8
CSLAYER1
  6
CONTINUOUS
 62
     6
 10
263.172300
 20
114.692337
 11
263.001405
 21
114.525326
  0
LINE
  8
CSLAYER1
  6
CONTINUOUS
 62
     6
 10
263.001405
 20
114.525326
 11
262.828402
 21
114.357210
  0
LINE
  8
CSLAYER1
  6
CONTINUOUS
 62
     6
 10
262.828402
 20
114.357210
 11
262.655067
 21
114.190315
  0
LINE
  8
CSLAYER1
  6
CONTINUOUS
 62
     6
 10
262.655067
 20
114.190315
 11
262.483175
 21
114.026966
  0
LINE
  8
CSLAYER1
  6
CONTINUOUS
 62
     6
 10
262.483175
 20
114.026966
 11
262.314503
 21
113.869487
  0
LINE
  8
CSLAYER1
  6
CONTINUOUS
 62
     6
 10
262.314503
 20
113.869487
 11
262.150826
 21
113.720202
  0
LINE
  8
CSLAYER1
  6
CONTINUOUS
 62
     6
 10
262.150826
 20
113.720202
 11
261.993920
 21
113.581438
  0
LINE
  8
CSLAYER1
  6
CONTINUOUS
 62
     6
 10
261.993920
 20
113.581438
 11
261.852689
 21
113.458640
  0
LINE
  8
CSLAYER1
  6
CONTINUOUS
 62
     6
 10
261.852689
 20
113.458640
 11
261.706505
 21
113.330755
  0
LINE
  8
CSLAYER1
  6
CONTINUOUS
 62
     6
 10
261.706505
 20
113.330755
 11
261.556512
 21
113.198248
  0
LINE
  8
CSLAYER1
  6
CONTINUOUS
 62
     6
 10
261.556512
 20
113.198248
 11
261.403851
 21
113.061589
  0
LINE
  8
CSLAYER1
  6
CONTINUOUS
 62
     6
 10
261.403851
 20
113.061589
 11
261.249664
 21
112.921244
  0
LINE
  8
CSLAYER1
  6
CONTINUOUS
 62
     6
 10
261.249664
 20
112.921244
 11
261.095093
 21
112.777681
  0
LINE
  8
CSLAYER1
  6
CONTINUOUS
 62
     6
 10
261.095093
 20
112.777681
 11
260.941282
 21
112.631369
  0
LINE
  8
CSLAYER1
  6
CONTINUOUS
 62
     6
 10
260.941282
 20
112.631369
 11
260.789371
 21
112.482774
  0
LINE
  8
CSLAYER1
  6
CONTINUOUS
 62
     6
 10
260.789371
 20
112.482774
 11
260.640504
 21
112.332364
  0
LINE
  8
CSLAYER1
  6
CONTINUOUS
 62
     6
 10
260.640504
 20
112.332364
 11
260.495822
 21
112.180608
  0
LINE
  8
CSLAYER1
  6
CONTINUOUS
 62
     6
 10
260.495822
 20
112.180608
 11
260.356469
 21
112.027972
  0
LINE
  8
CSLAYER1
  6
CONTINUOUS
 62
     6
 10
260.356469
 20
112.027972
 11
260.300944
 21
111.965028
  0
LINE
  8
CSLAYER1
  6
CONTINUOUS
 62
     6
 10
260.300944
 20
111.965028
 11
260.246017
 21
111.901528
  0
LINE
  8
CSLAYER1
  6
CONTINUOUS
 62
     6
 10
260.246017
 20
111.901528
 11
260.191626
 21
111.837526
  0
LINE
  8
CSLAYER1
  6
CONTINUOUS
 62
     6
 10
260.191626
 20
111.837526
 11
260.137712
 21
111.773080
  0
LINE
  8
CSLAYER1
  6
CONTINUOUS
 62
     6
 10
260.137712
 20
111.773080
 11
260.084216
 21
111.708244
  0
LINE
  8
CSLAYER1
  6
CONTINUOUS
 62
     6
 10
260.084216
 20
111.708244
 11
260.031078
 21
111.643074
  0
LINE
  8
CSLAYER1
  6
CONTINUOUS
 62
     6
 10
260.031078
 20
111.643074
 11
259.978239
 21
111.577626
  0
LINE
  8
CSLAYER1
  6
CONTINUOUS
 62
     6
 10
259.978239
 20
111.577626
 11
259.925638
 21
111.511956
  0
LINE
  8
CSLAYER1
  6
CONTINUOUS
 62
     6
 10
259.925638
 20
111.511956
 11
259.873215
 21
111.446118
  0
LINE
  8
CSLAYER1
  6
CONTINUOUS
 62
     6
 10
259.873215
 20
111.446118
 11
259.820913
 21
111.380169
  0
LINE
  8
CSLAYER1
  6
CONTINUOUS
 62
     6
 10
259.820913
 20
111.380169
 11
259.692358
 21
111.217752
  0
LINE
  8
CSLAYER1
  6
CONTINUOUS
 62
     6
 10
259.692358
 20
111.217752
 11
259.721095
 21
111.170897
  0
LINE
  8
CSLAYER1
  6
CONTINUOUS
 62
     6
 10
259.721095
 20
111.170897
 11
259.761687
 21
111.111016
  0
LINE
  8
CSLAYER1
  6
CONTINUOUS
 62
     6
 10
259.761687
 20
111.111016
 11
259.805969
 21
111.051148
  0
LINE
  8
CSLAYER1
  6
CONTINUOUS
 62
     6
 10
259.805969
 20
111.051148
 11
259.853421
 21
110.991875
  0
LINE
  8
CSLAYER1
  6
CONTINUOUS
 62
     6
 10
259.853421
 20
110.991875
 11
259.903519
 21
110.933777
  0
LINE
  8
CSLAYER1
  6
CONTINUOUS
 62
     6
 10
259.903519
 20
110.933777
 11
259.955744
 21
110.877436
  0
LINE
  8
CSLAYER1
  6
CONTINUOUS
 62
     6
 10
259.955744
 20
110.877436
 11
260.009572
 21
110.823433
  0
LINE
  8
CSLAYER1
  6
CONTINUOUS
 62
     6
 10
260.009572
 20
110.823433
 11
260.064483
 21
110.772348
  0
LINE
  8
CSLAYER1
  6
CONTINUOUS
 62
     6
 10
260.064483
 20
110.772348
 11
260.119954
 21
110.724762
  0
LINE
  8
CSLAYER1
  6
CONTINUOUS
 62
     6
 10
260.119954
 20
110.724762
 11
260.175464
 21
110.681257
  0
LINE
  8
CSLAYER1
  6
CONTINUOUS
 62
     6
 10
260.175464
 20
110.681257
 11
260.230492
 21
110.642412
  0
LINE
  8
CSLAYER1
  6
CONTINUOUS
 62
     6
 10
260.230492
 20
110.642412
 11
260.286978
 21
110.608118
  0
LINE
  8
CSLAYER1
  6
CONTINUOUS
 62
     6
 10
260.286978
 20
110.608118
 11
260.347579
 21
110.577151
  0
LINE
  8
CSLAYER1
  6
CONTINUOUS
 62
     6
 10
260.347579
 20
110.577151
 11
260.411740
 21
110.549162
  0
LINE
  8
CSLAYER1
  6
CONTINUOUS
 62
     6
 10
260.411740
 20
110.549162
 11
260.478902
 21
110.523801
  0
LINE
  8
CSLAYER1
  6
CONTINUOUS
 62
     6
 10
260.478902
 20
110.523801
 11
260.548509
 21
110.500719
  0
LINE
  8
CSLAYER1
  6
CONTINUOUS
 62
     6
 10
260.548509
 20
110.500719
 11
260.620003
 21
110.479565
  0
LINE
  8
CSLAYER1
  6
CONTINUOUS
 62
     6
 10
260.620003
 20
110.479565
 11
260.692827
 21
110.459991
  0
LINE
  8
CSLAYER1
  6
CONTINUOUS
 62
     6
 10
260.692827
 20
110.459991
 11
260.766426
 21
110.441646
  0
LINE
  8
CSLAYER1
  6
CONTINUOUS
 62
     6
 10
260.766426
 20
110.441646
 11
260.840240
 21
110.424180
  0
LINE
  8
CSLAYER1
  6
CONTINUOUS
 62
     6
 10
260.840240
 20
110.424180
 11
260.913714
 21
110.407245
  0
LINE
  8
CSLAYER1
  6
CONTINUOUS
 62
     6
 10
260.913714
 20
110.407245
 11
260.986291
 21
110.390490
  0
LINE
  8
CSLAYER1
  6
CONTINUOUS
 62
     6
 10
260.986291
 20
110.390490
 11
261.060514
 21
110.372890
  0
LINE
  8
CSLAYER1
  6
CONTINUOUS
 62
     6
 10
261.060514
 20
110.372890
 11
261.134250
 21
110.354865
  0
LINE
  8
CSLAYER1
  6
CONTINUOUS
 62
     6
 10
261.134250
 20
110.354865
 11
261.207546
 21
110.336459
  0
LINE
  8
CSLAYER1
  6
CONTINUOUS
 62
     6
 10
261.207546
 20
110.336459
 11
261.280452
 21
110.317713
  0
LINE
  8
CSLAYER1
  6
CONTINUOUS
 62
     6
 10
261.280452
 20
110.317713
 11
261.353016
 21
110.298671
  0
LINE
  8
CSLAYER1
  6
CONTINUOUS
 62
     6
 10
261.353016
 20
110.298671
 11
261.425287
 21
110.279375
  0
LINE
  8
CSLAYER1
  6
CONTINUOUS
 62
     6
 10
261.425287
 20
110.279375
 11
261.497314
 21
110.259866
  0
LINE
  8
CSLAYER1
  6
CONTINUOUS
 62
     6
 10
261.497314
 20
110.259866
 11
261.569146
 21
110.240188
  0
LINE
  8
CSLAYER1
  6
CONTINUOUS
 62
     6
 10
261.569146
 20
110.240188
 11
261.640832
 21
110.220382
  0
LINE
  8
CSLAYER1
  6
CONTINUOUS
 62
     6
 10
261.640832
 20
110.220382
 11
261.712420
 21
110.200492
  0
LINE
  8
CSLAYER1
  6
CONTINUOUS
 62
     6
 10
261.712420
 20
110.200492
 11
261.793039
 21
110.178029
  0
LINE
  8
CSLAYER1
  6
CONTINUOUS
 62
     6
 10
261.793039
 20
110.178029
 11
261.920294
 21
110.350179
  0
LINE
  8
CSLAYER1
  6
CONTINUOUS
 62
     6
 10
261.920294
 20
110.350179
 11
262.015074
 21
110.477341
  0
LINE
  8
CSLAYER1
  6
CONTINUOUS
 62
     6
 10
262.015074
 20
110.477341
 11
262.110725
 21
110.603573
  0
LINE
  8
CSLAYER1
  6
CONTINUOUS
 62
     6
 10
262.110725
 20
110.603573
 11
262.207684
 21
110.728409
  0
LINE
  8
CSLAYER1
  6
CONTINUOUS
 62
     6
 10
262.207684
 20
110.728409
 11
262.306386
 21
110.851384
  0
LINE
  8
CSLAYER1
  6
CONTINUOUS
 62
     6
 10
262.306386
 20
110.851384
 11
262.407268
 21
110.972032
  0
LINE
  8
CSLAYER1
  6
CONTINUOUS
 62
     6
 10
262.407268
 20
110.972032
 11
262.510764
 21
111.089889
  0
LINE
  8
CSLAYER1
  6
CONTINUOUS
 62
     6
 10
262.510764
 20
111.089889
 11
262.617311
 21
111.204489
  0
LINE
  8
CSLAYER1
  6
CONTINUOUS
 62
     6
 10
262.617311
 20
111.204489
 11
262.727346
 21
111.315367
  0
LINE
  8
CSLAYER1
  6
CONTINUOUS
 62
     6
 10
262.727346
 20
111.315367
 11
262.841302
 21
111.422058
  0
LINE
  8
CSLAYER1
  6
CONTINUOUS
 62
     6
 10
262.841302
 20
111.422058
 11
262.959618
 21
111.524096
  0
LINE
  8
CSLAYER1
  6
CONTINUOUS
 62
     6
 10
262.959618
 20
111.524096
 11
263.111042
 21
111.643134
  0
LINE
  8
CSLAYER1
  6
CONTINUOUS
 62
     6
 10
263.111042
 20
111.643134
 11
263.269282
 21
111.757646
  0
LINE
  8
CSLAYER1
  6
CONTINUOUS
 62
     6
 10
263.269282
 20
111.757646
 11
263.432403
 21
111.868586
  0
LINE
  8
CSLAYER1
  6
CONTINUOUS
 62
     6
 10
263.432403
 20
111.868586
 11
263.598471
 21
111.976904
  0
LINE
  8
CSLAYER1
  6
CONTINUOUS
 62
     6
 10
263.598471
 20
111.976904
 11
263.765553
 21
112.083554
  0
LINE
  8
CSLAYER1
  6
CONTINUOUS
 62
     6
 10
263.765553
 20
112.083554
 11
263.931714
 21
112.189487
  0
LINE
  8
CSLAYER1
  6
CONTINUOUS
 62
     6
 10
263.931714
 20
112.189487
 11
264.095020
 21
112.295654
  0
LINE
  8
CSLAYER1
  6
CONTINUOUS
 62
     6
 10
264.095020
 20
112.295654
 11
264.253538
 21
112.403009
  0
LINE
  8
CSLAYER1
  6
CONTINUOUS
 62
     6
 10
264.253538
 20
112.403009
 11
264.405334
 21
112.512503
  0
LINE
  8
CSLAYER1
  6
CONTINUOUS
 62
     6
 10
264.405334
 20
112.512503
 11
264.548473
 21
112.625089
  0
LINE
  8
CSLAYER1
  6
CONTINUOUS
 62
     6
 10
264.548473
 20
112.625089
 11
264.681023
 21
112.741717
  0
LINE
  8
CSLAYER1
  6
CONTINUOUS
 62
     6
 10
264.681023
 20
112.741717
 11
264.784028
 21
112.844732
  0
LINE
  8
CSLAYER1
  6
CONTINUOUS
 62
     6
 10
264.784028
 20
112.844732
 11
264.885691
 21
112.958167
  0
LINE
  8
CSLAYER1
  6
CONTINUOUS
 62
     6
 10
264.885691
 20
112.958167
 11
264.985446
 21
113.080335
  0
LINE
  8
CSLAYER1
  6
CONTINUOUS
 62
     6
 10
264.985446
 20
113.080335
 11
265.082724
 21
113.209544
  0
LINE
  8
CSLAYER1
  6
CONTINUOUS
 62
     6
 10
265.082724
 20
113.209544
 11
265.176959
 21
113.344104
  0
LINE
  8
CSLAYER1
  6
CONTINUOUS
 62
     6
 10
265.176959
 20
113.344104
 11
265.267583
 21
113.482325
  0
LINE
  8
CSLAYER1
  6
CONTINUOUS
 62
     6
 10
265.267583
 20
113.482325
 11
265.354029
 21
113.622519
  0
LINE
  8
CSLAYER1
  6
CONTINUOUS
 62
     6
 10
265.354029
 20
113.622519
 11
265.435730
 21
113.762993
  0
LINE
  8
CSLAYER1
  6
CONTINUOUS
 62
     6
 10
265.435730
 20
113.762993
 11
265.512119
 21
113.902060
  0
LINE
  8
CSLAYER1
  6
CONTINUOUS
 62
     6
 10
265.512119
 20
113.902060
 11
265.582628
 21
114.038028
  0
LINE
  8
CSLAYER1
  6
CONTINUOUS
 62
     6
 10
265.582628
 20
114.038028
 11
265.687889
 21
114.253568
  0
ARC
  8
CSLAYER1
  6
CONTINUOUS
 62
     6
 10
264.761778
 20
113.697490
 40
1.080690
 50
30.945197
 51
90.945197
  0
ARC
  8
CSLAYER1
  6
CONTINUOUS
 62
     6
 10
263.817087
 20
114.222323
 40
1.080690
 50
30.945197
 51
90.945197
  0
ARC
  8
CSLAYER1
  6
CONTINUOUS
 62
     6
 10
264.726123
 20
115.858576
 40
1.080690
 50
210.945197
 51
270.945197
  0
LINE
  8
CSLAYER1
  6
CONTINUOUS
 62
     6
 10
263.799279
 20
115.302843
 11
263.654576
 21
115.163497
  0
LINE
  8
CSLAYER1
  6
CONTINUOUS
 62
     6
 10
263.654576
 20
115.163497
 11
263.500661
 21
115.013747
  0
LINE
  8
CSLAYER1
  6
CONTINUOUS
 62
     6
 10
263.500661
 20
115.013747
 11
263.339311
 21
114.855919
  0
LINE
  8
CSLAYER1
  6
CONTINUOUS
 62
     6
 10
263.339311
 20
114.855919
 11
263.172300
 21
114.692337
  0
ARC
  8
CSLAYER1
  6
CONTINUOUS
 62
     6
 10
266.273219
 20
116.706691
 40
1.095863
 50
203.568976
 51
263.568976
  0
ARC
  8
CSLAYER1
  6
CONTINUOUS
 62
     6
 10
267.154920
 20
116.055908
 40
1.095863
 50
203.568976
 51
263.568976
  0
ARC
  8
CSLAYER1
  6
CONTINUOUS
 62
     6
 10
266.027730
 20
114.528757
 40
1.095863
 50
23.568976
 51
83.568976
  0
LINE
  8
CSLAYER1
  6
CONTINUOUS
 62
     6
 10
265.521903
 20
116.448478
 11
265.268792
 21
116.268511
  0
LINE
  8
CSLAYER1
  6
CONTINUOUS
 62
     6
 10
265.521903
 20
116.448478
 11
265.774764
 21
116.628798
  0
LINE
  8
CSLAYER1
  6
CONTINUOUS
 62
     6
 10
265.774764
 20
116.628798
 11
266.027124
 21
116.809824
  0
LINE
  8
CSLAYER1
  6
CONTINUOUS
 62
     6
 10
266.027124
 20
116.809824
 11
266.278732
 21
116.991908
  0
LINE
  8
CSLAYER1
  6
CONTINUOUS
 62
     6
 10
266.278732
 20
116.991908
 11
266.529338
 21
117.175403
  0
LINE
  8
CSLAYER1
  6
CONTINUOUS
 62
     6
 10
266.529338
 20
117.175403
 11
266.778690
 21
117.360662
  0
LINE
  8
CSLAYER1
  6
CONTINUOUS
 62
     6
 10
266.778690
 20
117.360662
 11
267.026539
 21
117.548037
  0
LINE
  8
CSLAYER1
  6
CONTINUOUS
 62
     6
 10
267.026539
 20
117.548037
 11
267.272634
 21
117.737882
  0
LINE
  8
CSLAYER1
  6
CONTINUOUS
 62
     6
 10
267.272634
 20
117.737882
 11
267.516724
 21
117.930550
  0
LINE
  8
CSLAYER1
  6
CONTINUOUS
 62
     6
 10
267.516724
 20
117.930550
 11
267.758558
 21
118.126392
  0
LINE
  8
CSLAYER1
  6
CONTINUOUS
 62
     6
 10
267.758558
 20
118.126392
 11
267.997887
 21
118.325762
  0
LINE
  8
CSLAYER1
  6
CONTINUOUS
 62
     6
 10
267.997887
 20
118.325762
 11
268.155151
 21
118.460059
  0
LINE
  8
CSLAYER1
  6
CONTINUOUS
 62
     6
 10
268.155151
 20
118.460059
 11
268.312201
 21
118.597083
  0
LINE
  8
CSLAYER1
  6
CONTINUOUS
 62
     6
 10
268.312201
 20
118.597083
 11
268.468292
 21
118.736643
  0
LINE
  8
CSLAYER1
  6
CONTINUOUS
 62
     6
 10
268.468292
 20
118.736643
 11
268.622681
 21
118.878545
  0
LINE
  8
CSLAYER1
  6
CONTINUOUS
 62
     6
 10
268.622681
 20
118.878545
 11
268.774626
 21
119.022598
  0
LINE
  8
CSLAYER1
  6
CONTINUOUS
 62
     6
 10
268.774626
 20
119.022598
 11
268.923382
 21
119.168608
  0
LINE
  8
CSLAYER1
  6
CONTINUOUS
 62
     6
 10
268.923382
 20
119.168608
 11
269.068209
 21
119.316383
  0
LINE
  8
CSLAYER1
  6
CONTINUOUS
 62
     6
 10
269.068209
 20
119.316383
 11
269.208361
 21
119.465730
  0
LINE
  8
CSLAYER1
  6
CONTINUOUS
 62
     6
 10
269.208361
 20
119.465730
 11
269.343097
 21
119.616458
  0
LINE
  8
CSLAYER1
  6
CONTINUOUS
 62
     6
 10
269.343097
 20
119.616458
 11
269.471673
 21
119.768372
  0
LINE
  8
CSLAYER1
  6
CONTINUOUS
 62
     6
 10
269.471673
 20
119.768372
 11
269.593346
 21
119.921282
  0
LINE
  8
CSLAYER1
  6
CONTINUOUS
 62
     6
 10
269.593346
 20
119.921282
 11
269.707800
 21
120.072608
  0
LINE
  8
CSLAYER1
  6
CONTINUOUS
 62
     6
 10
269.707800
 20
120.072608
 11
269.823101
 21
120.229862
  0
LINE
  8
CSLAYER1
  6
CONTINUOUS
 62
     6
 10
269.823101
 20
120.229862
 11
269.938714
 21
120.391920
  0
LINE
  8
CSLAYER1
  6
CONTINUOUS
 62
     6
 10
269.938714
 20
120.391920
 11
270.054107
 21
120.557660
  0
LINE
  8
CSLAYER1
  6
CONTINUOUS
 62
     6
 10
270.054107
 20
120.557660
 11
270.168747
 21
120.725959
  0
LINE
  8
CSLAYER1
  6
CONTINUOUS
 62
     6
 10
270.168747
 20
120.725959
 11
270.282101
 21
120.895695
  0
LINE
  8
CSLAYER1
  6
CONTINUOUS
 62
     6
 10
270.282101
 20
120.895695
 11
270.393637
 21
121.065746
  0
LINE
  8
CSLAYER1
  6
CONTINUOUS
 62
     6
 10
270.393637
 20
121.065746
 11
270.502821
 21
121.234988
  0
LINE
  8
CSLAYER1
  6
CONTINUOUS
 62
     6
 10
270.502821
 20
121.234988
 11
270.609121
 21
121.402300
  0
LINE
  8
CSLAYER1
  6
CONTINUOUS
 62
     6
 10
270.609121
 20
121.402300
 11
270.712004
 21
121.566558
  0
LINE
  8
CSLAYER1
  6
CONTINUOUS
 62
     6
 10
270.712004
 20
121.566558
 11
270.810937
 21
121.726641
  0
LINE
  8
CSLAYER1
  6
CONTINUOUS
 62
     6
 10
270.810937
 20
121.726641
 11
270.897410
 21
121.864867
  0
LINE
  8
CSLAYER1
  6
CONTINUOUS
 62
     6
 10
270.897410
 20
121.864867
 11
270.989362
 21
122.007325
  0
LINE
  8
CSLAYER1
  6
CONTINUOUS
 62
     6
 10
270.989362
 20
122.007325
 11
271.085562
 21
122.152805
  0
LINE
  8
CSLAYER1
  6
CONTINUOUS
 62
     6
 10
271.085562
 20
122.152805
 11
271.184781
 21
122.300095
  0
LINE
  8
CSLAYER1
  6
CONTINUOUS
 62
     6
 10
271.184781
 20
122.300095
 11
271.285789
 21
122.447985
  0
LINE
  8
CSLAYER1
  6
CONTINUOUS
 62
     6
 10
271.285789
 20
122.447985
 11
271.387357
 21
122.595264
  0
LINE
  8
CSLAYER1
  6
CONTINUOUS
 62
     6
 10
271.387357
 20
122.595264
 11
271.488255
 21
122.740720
  0
LINE
  8
CSLAYER1
  6
CONTINUOUS
 62
     6
 10
271.488255
 20
122.740720
 11
271.587254
 21
122.883144
  0
LINE
  8
CSLAYER1
  6
CONTINUOUS
 62
     6
 10
271.587254
 20
122.883144
 11
271.683124
 21
123.021324
  0
LINE
  8
CSLAYER1
  6
CONTINUOUS
 62
     6
 10
271.683124
 20
123.021324
 11
271.803665
 21
123.196154
  0
ARC
  8
CSLAYER1
  6
CONTINUOUS
 62
     6
 10
269.538462
 20
125.196154
 40
2.000000
 50
180.000000
 51
270.000000
  0
LINE
  8
CSLAYER1
  6
CONTINUOUS
 62
     6
 10
267.538462
 20
125.196154
 11
267.538462
 21
125.696154
  0
LINE
  8
CSLAYER1
  6
CONTINUOUS
 62
     6
 10
267.288462
 20
125.696154
 11
293.288462
 21
125.696154
  0
LINE
  8
CSLAYER1
  6
CONTINUOUS
 62
     6
 10
293.288462
 20
127.696154
 11
267.288462
 21
127.696154
  0
LINE
  8
CSLAYER1
  6
CONTINUOUS
 62
     6
 10
269.538462
 20
123.196154
 11
278.627087
 21
123.196154
  0
ARC
  8
CSLAYER1
  6
CONTINUOUS
 62
     6
 10
280.288462
 20
129.996142
 40
7.000000
 50
253.743003
 51
286.257026
  0
ARC
  8
CSLAYER1
  6
CONTINUOUS
 62
     6
 10
281.968119
 20
124.236071
 40
1.000000
 50
286.257408
 51
354.999902
  0
LINE
  8
CSLAYER1
  6
CONTINUOUS
 62
     6
 10
282.964304
 20
124.148913
 11
283.019419
 21
124.778734
  0
ARC
  8
CSLAYER1
  6
CONTINUOUS
 62
     6
 10
282.820200
 20
124.796160
 40
0.200000
 50
-5.000126
 51
90.000019
  0
LINE
  8
CSLAYER1
  6
CONTINUOUS
 62
     6
 10
283.088449
 20
124.996172
 11
280.288462
 21
124.996142
  0
LINE
  8
CSLAYER1
  6
CONTINUOUS
 62
     6
 10
280.288462
 20
124.996142
 11
277.488474
 21
124.996142
  0
ARC
  8
CSLAYER1
  6
CONTINUOUS
 62
     6
 10
277.488474
 20
125.096148
 40
0.100000
 50
180.000005
 51
270.000001
  0
LINE
  8
CSLAYER1
  6
CONTINUOUS
 62
     6
 10
277.388437
 20
125.096148
 11
277.388437
 21
125.596148
  0
ARC
  8
CSLAYER1
  6
CONTINUOUS
 62
     6
 10
277.488474
 20
125.596148
 40
0.100000
 50
90.000003
 51
180.000005
  0
ARC
  8
CSLAYER1
  6
CONTINUOUS
 62
     6
 10
277.756723
 20
124.796160
 40
0.200000
 50
90.000003
 51
185.000154
  0
LINE
  8
CSLAYER1
  6
CONTINUOUS
 62
     6
 10
277.557474
 20
124.778734
 11
277.612558
 21
124.148913
  0
ARC
  8
CSLAYER1
  6
CONTINUOUS
 62
     6
 10
278.608774
 20
124.236071
 40
1.000000
 50
185.000113
 51
253.742620
  0
LINE
  8
CSLAYER1
  6
CONTINUOUS
 62
     6
 10
276.717084
 20
123.196154
 11
276.551966
 21
122.178110
  0
LINE
  8
CSLAYER1
  6
CONTINUOUS
 62
     6
 10
276.551966
 20
122.178110
 11
276.493831
 21
121.855683
  0
LINE
  8
CSLAYER1
  6
CONTINUOUS
 62
     6
 10
276.493831
 20
121.855683
 11
276.428978
 21
121.523873
  0
LINE
  8
CSLAYER1
  6
CONTINUOUS
 62
     6
 10
276.428978
 20
121.523873
 11
276.358603
 21
121.186077
  0
LINE
  8
CSLAYER1
  6
CONTINUOUS
 62
     6
 10
276.358603
 20
121.186077
 11
276.283900
 21
120.845689
  0
LINE
  8
CSLAYER1
  6
CONTINUOUS
 62
     6
 10
276.283900
 20
120.845689
 11
276.206063
 21
120.506105
  0
LINE
  8
CSLAYER1
  6
CONTINUOUS
 62
     6
 10
276.206063
 20
120.506105
 11
276.126290
 21
120.170720
  0
LINE
  8
CSLAYER1
  6
CONTINUOUS
 62
     6
 10
276.126290
 20
120.170720
 11
276.045773
 21
119.842929
  0
LINE
  8
CSLAYER1
  6
CONTINUOUS
 62
     6
 10
276.045773
 20
119.842929
 11
275.965709
 21
119.526128
  0
LINE
  8
CSLAYER1
  6
CONTINUOUS
 62
     6
 10
275.965709
 20
119.526128
 11
275.887292
 21
119.223711
  0
LINE
  8
CSLAYER1
  6
CONTINUOUS
 62
     6
 10
275.887292
 20
119.223711
 11
275.803919
 21
118.923961
  0
LINE
  8
CSLAYER1
  6
CONTINUOUS
 62
     6
 10
275.803919
 20
118.923961
 11
275.710006
 21
118.618437
  0
LINE
  8
CSLAYER1
  6
CONTINUOUS
 62
     6
 10
275.710006
 20
118.618437
 11
275.606421
 21
118.308397
  0
LINE
  8
CSLAYER1
  6
CONTINUOUS
 62
     6
 10
275.606421
 20
118.308397
 11
275.494032
 21
117.995102
  0
LINE
  8
CSLAYER1
  6
CONTINUOUS
 62
     6
 10
275.494032
 20
117.995102
 11
275.373710
 21
117.679811
  0
LINE
  8
CSLAYER1
  6
CONTINUOUS
 62
     6
 10
275.373710
 20
117.679811
 11
275.246324
 21
117.363782
  0
LINE
  8
CSLAYER1
  6
CONTINUOUS
 62
     6
 10
275.246324
 20
117.363782
 11
275.112741
 21
117.048277
  0
LINE
  8
CSLAYER1
  6
CONTINUOUS
 62
     6
 10
275.112741
 20
117.048277
 11
274.973832
 21
116.734553
  0
LINE
  8
CSLAYER1
  6
CONTINUOUS
 62
     6
 10
274.973832
 20
116.734553
 11
274.830466
 21
116.423871
  0
LINE
  8
CSLAYER1
  6
CONTINUOUS
 62
     6
 10
274.830466
 20
116.423871
 11
274.683511
 21
116.117489
  0
LINE
  8
CSLAYER1
  6
CONTINUOUS
 62
     6
 10
274.683511
 20
116.117489
 11
274.533837
 21
115.816668
  0
LINE
  8
CSLAYER1
  6
CONTINUOUS
 62
     6
 10
274.533837
 20
115.816668
 11
274.406492
 21
115.569048
  0
LINE
  8
CSLAYER1
  6
CONTINUOUS
 62
     6
 10
274.406492
 20
115.569048
 11
274.276340
 21
115.323014
  0
LINE
  8
CSLAYER1
  6
CONTINUOUS
 62
     6
 10
274.276340
 20
115.323014
 11
274.143661
 21
115.078408
  0
LINE
  8
CSLAYER1
  6
CONTINUOUS
 62
     6
 10
274.143661
 20
115.078408
 11
274.008736
 21
114.835071
  0
LINE
  8
CSLAYER1
  6
CONTINUOUS
 62
     6
 10
274.008736
 20
114.835071
 11
273.871846
 21
114.592844
  0
LINE
  8
CSLAYER1
  6
CONTINUOUS
 62
     6
 10
273.871846
 20
114.592844
 11
273.733271
 21
114.351569
  0
LINE
  8
CSLAYER1
  6
CONTINUOUS
 62
     6
 10
273.733271
 20
114.351569
 11
273.593293
 21
114.111087
  0
LINE
  8
CSLAYER1
  6
CONTINUOUS
 62
     6
 10
273.593293
 20
114.111087
 11
273.452191
 21
113.871240
  0
LINE
  8
CSLAYER1
  6
CONTINUOUS
 62
     6
 10
273.452191
 20
113.871240
 11
273.310248
 21
113.631868
  0
LINE
  8
CSLAYER1
  6
CONTINUOUS
 62
     6
 10
273.310248
 20
113.631868
 11
273.167743
 21
113.392814
  0
LINE
  8
CSLAYER1
  6
CONTINUOUS
 62
     6
 10
273.167743
 20
113.392814
 11
273.024957
 21
113.153918
  0
ARC
  8
CSLAYER1
  6
CONTINUOUS
 62
     6
 10
273.015291
 20
114.353886
 40
1.200008
 50
210.461486
 51
270.461486
  0
ARC
  8
CSLAYER1
  6
CONTINUOUS
 62
     6
 10
271.971254
 20
114.945500
 40
1.200008
 50
210.461486
 51
270.461486
  0
LINE
  8
CSLAYER1
  6
CONTINUOUS
 62
     6
 10
270.936852
 20
114.337145
 11
271.072133
 21
114.563067
  0
LINE
  8
CSLAYER1
  6
CONTINUOUS
 62
     6
 10
271.072133
 20
114.563067
 11
271.207140
 21
114.789143
  0
LINE
  8
CSLAYER1
  6
CONTINUOUS
 62
     6
 10
271.207140
 20
114.789143
 11
271.341596
 21
115.015529
  0
LINE
  8
CSLAYER1
  6
CONTINUOUS
 62
     6
 10
271.341596
 20
115.015529
 11
271.475226
 21
115.242379
  0
LINE
  8
CSLAYER1
  6
CONTINUOUS
 62
     6
 10
271.475226
 20
115.242379
 11
271.607756
 21
115.469847
  0
LINE
  8
CSLAYER1
  6
CONTINUOUS
 62
     6
 10
271.607756
 20
115.469847
 11
271.738909
 21
115.698089
  0
LINE
  8
CSLAYER1
  6
CONTINUOUS
 62
     6
 10
271.738909
 20
115.698089
 11
271.868412
 21
115.927259
  0
LINE
  8
CSLAYER1
  6
CONTINUOUS
 62
     6
 10
271.868412
 20
115.927259
 11
271.995987
 21
116.157511
  0
LINE
  8
CSLAYER1
  6
CONTINUOUS
 62
     6
 10
271.995987
 20
116.157511
 11
272.121361
 21
116.389000
  0
LINE
  8
CSLAYER1
  6
CONTINUOUS
 62
     6
 10
272.121361
 20
116.389000
 11
272.244259
 21
116.621882
  0
LINE
  8
CSLAYER1
  6
CONTINUOUS
 62
     6
 10
272.244259
 20
116.621882
 11
272.364404
 21
116.856310
  0
LINE
  8
CSLAYER1
  6
CONTINUOUS
 62
     6
 10
272.364404
 20
116.856310
 11
272.498645
 21
117.127115
  0
LINE
  8
CSLAYER1
  6
CONTINUOUS
 62
     6
 10
272.498645
 20
117.127115
 11
272.630508
 21
117.402880
  0
LINE
  8
CSLAYER1
  6
CONTINUOUS
 62
     6
 10
272.630508
 20
117.402880
 11
272.759215
 21
117.682474
  0
LINE
  8
CSLAYER1
  6
CONTINUOUS
 62
     6
 10
272.759215
 20
117.682474
 11
272.883989
 21
117.964764
  0
LINE
  8
CSLAYER1
  6
CONTINUOUS
 62
     6
 10
272.883989
 20
117.964764
 11
273.004052
 21
118.248620
  0
LINE
  8
CSLAYER1
  6
CONTINUOUS
 62
     6
 10
273.004052
 20
118.248620
 11
273.118627
 21
118.532910
  0
LINE
  8
CSLAYER1
  6
CONTINUOUS
 62
     6
 10
273.118627
 20
118.532910
 11
273.226936
 21
118.816503
  0
LINE
  8
CSLAYER1
  6
CONTINUOUS
 62
     6
 10
273.226936
 20
118.816503
 11
273.328202
 21
119.098268
  0
LINE
  8
CSLAYER1
  6
CONTINUOUS
 62
     6
 10
273.328202
 20
119.098268
 11
273.421646
 21
119.377074
  0
LINE
  8
CSLAYER1
  6
CONTINUOUS
 62
     6
 10
273.421646
 20
119.377074
 11
273.506493
 21
119.651789
  0
LINE
  8
CSLAYER1
  6
CONTINUOUS
 62
     6
 10
273.506493
 20
119.651789
 11
273.581963
 21
119.921282
  0
LINE
  8
CSLAYER1
  6
CONTINUOUS
 62
     6
 10
273.581963
 20
119.921282
 11
273.656503
 21
120.206721
  0
LINE
  8
CSLAYER1
  6
CONTINUOUS
 62
     6
 10
273.656503
 20
120.206721
 11
273.732511
 21
120.505900
  0
LINE
  8
CSLAYER1
  6
CONTINUOUS
 62
     6
 10
273.732511
 20
120.505900
 11
273.808854
 21
120.815565
  0
LINE
  8
CSLAYER1
  6
CONTINUOUS
 62
     6
 10
273.808854
 20
120.815565
 11
273.884400
 21
121.132465
  0
LINE
  8
CSLAYER1
  6
CONTINUOUS
 62
     6
 10
273.884400
 20
121.132465
 11
273.958016
 21
121.453347
  0
LINE
  8
CSLAYER1
  6
CONTINUOUS
 62
     6
 10
273.958016
 20
121.453347
 11
274.028569
 21
121.774958
  0
LINE
  8
CSLAYER1
  6
CONTINUOUS
 62
     6
 10
274.028569
 20
121.774958
 11
274.094926
 21
122.094046
  0
LINE
  8
CSLAYER1
  6
CONTINUOUS
 62
     6
 10
274.094926
 20
122.094046
 11
274.155954
 21
122.407357
  0
LINE
  8
CSLAYER1
  6
CONTINUOUS
 62
     6
 10
274.155954
 20
122.407357
 11
274.210521
 21
122.711640
  0
LINE
  8
CSLAYER1
  6
CONTINUOUS
 62
     6
 10
274.210521
 20
122.711640
 11
274.288462
 21
123.196154
  0
LINE
  8
CSLAYER1
  6
CONTINUOUS
 62
     6
 10
274.160061
 20
122.430260
 11
274.111815
 21
122.342426
  0
LINE
  8
CSLAYER1
  6
CONTINUOUS
 62
     6
 10
274.111815
 20
122.342426
 11
274.001927
 21
122.150617
  0
LINE
  8
CSLAYER1
  6
CONTINUOUS
 62
     6
 10
274.001927
 20
122.150617
 11
273.883673
 21
121.951130
  0
LINE
  8
CSLAYER1
  6
CONTINUOUS
 62
     6
 10
273.883673
 20
121.951130
 11
273.758635
 21
121.746150
  0
LINE
  8
CSLAYER1
  6
CONTINUOUS
 62
     6
 10
273.758635
 20
121.746150
 11
273.628394
 21
121.537864
  0
LINE
  8
CSLAYER1
  6
CONTINUOUS
 62
     6
 10
273.628394
 20
121.537864
 11
273.494531
 21
121.328459
  0
LINE
  8
CSLAYER1
  6
CONTINUOUS
 62
     6
 10
273.494531
 20
121.328459
 11
273.358629
 21
121.120119
  0
LINE
  8
CSLAYER1
  6
CONTINUOUS
 62
     6
 10
273.358629
 20
121.120119
 11
273.222269
 21
120.915032
  0
LINE
  8
CSLAYER1
  6
CONTINUOUS
 62
     6
 10
273.222269
 20
120.915032
 11
273.087032
 21
120.715382
  0
LINE
  8
CSLAYER1
  6
CONTINUOUS
 62
     6
 10
273.087032
 20
120.715382
 11
272.954501
 21
120.523357
  0
LINE
  8
CSLAYER1
  6
CONTINUOUS
 62
     6
 10
272.954501
 20
120.523357
 11
272.826257
 21
120.341143
  0
LINE
  8
CSLAYER1
  6
CONTINUOUS
 62
     6
 10
272.826257
 20
120.341143
 11
272.721176
 21
120.196964
  0
LINE
  8
CSLAYER1
  6
CONTINUOUS
 62
     6
 10
272.721176
 20
120.196964
 11
272.609285
 21
120.049914
  0
LINE
  8
CSLAYER1
  6
CONTINUOUS
 62
     6
 10
272.609285
 20
120.049914
 11
272.491717
 21
119.900892
  0
LINE
  8
CSLAYER1
  6
CONTINUOUS
 62
     6
 10
272.491717
 20
119.900892
 11
272.369604
 21
119.750798
  0
LINE
  8
CSLAYER1
  6
CONTINUOUS
 62
     6
 10
272.369604
 20
119.750798
 11
272.244078
 21
119.600530
  0
LINE
  8
CSLAYER1
  6
CONTINUOUS
 62
     6
 10
272.244078
 20
119.600530
 11
272.116272
 21
119.450987
  0
LINE
  8
CSLAYER1
  6
CONTINUOUS
 62
     6
 10
272.116272
 20
119.450987
 11
271.987319
 21
119.303069
  0
LINE
  8
CSLAYER1
  6
CONTINUOUS
 62
     6
 10
271.987319
 20
119.303069
 11
271.858352
 21
119.157674
  0
LINE
  8
CSLAYER1
  6
CONTINUOUS
 62
     6
 10
271.858352
 20
119.157674
 11
271.730503
 21
119.015702
  0
LINE
  8
CSLAYER1
  6
CONTINUOUS
 62
     6
 10
271.730503
 20
119.015702
 11
271.604905
 21
118.878052
  0
LINE
  8
CSLAYER1
  6
CONTINUOUS
 62
     6
 10
271.604905
 20
118.878052
 11
271.482690
 21
118.745623
  0
LINE
  8
CSLAYER1
  6
CONTINUOUS
 62
     6
 10
271.482690
 20
118.745623
 11
271.337713
 21
118.593463
  0
LINE
  8
CSLAYER1
  6
CONTINUOUS
 62
     6
 10
271.337713
 20
118.593463
 11
271.184538
 21
118.439512
  0
LINE
  8
CSLAYER1
  6
CONTINUOUS
 62
     6
 10
271.184538
 20
118.439512
 11
271.025129
 21
118.284079
  0
LINE
  8
CSLAYER1
  6
CONTINUOUS
 62
     6
 10
271.025129
 20
118.284079
 11
270.861453
 21
118.127471
  0
LINE
  8
CSLAYER1
  6
CONTINUOUS
 62
     6
 10
270.861453
 20
118.127471
 11
270.695473
 21
117.969997
  0
LINE
  8
CSLAYER1
  6
CONTINUOUS
 62
     6
 10
270.695473
 20
117.969997
 11
270.529155
 21
117.811966
  0
LINE
  8
CSLAYER1
  6
CONTINUOUS
 62
     6
 10
270.529155
 20
117.811966
 11
270.364465
 21
117.653686
  0
LINE
  8
CSLAYER1
  6
CONTINUOUS
 62
     6
 10
270.364465
 20
117.653686
 11
270.203367
 21
117.495466
  0
LINE
  8
CSLAYER1
  6
CONTINUOUS
 62
     6
 10
270.203367
 20
117.495466
 11
270.047828
 21
117.337614
  0
LINE
  8
CSLAYER1
  6
CONTINUOUS
 62
     6
 10
270.047828
 20
117.337614
 11
269.899812
 21
117.180438
  0
LINE
  8
CSLAYER1
  6
CONTINUOUS
 62
     6
 10
269.899812
 20
117.180438
 11
269.761285
 21
117.024248
  0
LINE
  8
CSLAYER1
  6
CONTINUOUS
 62
     6
 10
269.761285
 20
117.024248
 11
269.635370
 21
116.877666
  0
LINE
  8
CSLAYER1
  6
CONTINUOUS
 62
     6
 10
269.635370
 20
116.877666
 11
269.504560
 21
116.727487
  0
LINE
  8
CSLAYER1
  6
CONTINUOUS
 62
     6
 10
269.504560
 20
116.727487
 11
269.368958
 21
116.575268
  0
LINE
  8
CSLAYER1
  6
CONTINUOUS
 62
     6
 10
269.368958
 20
116.575268
 11
269.228664
 21
116.422563
  0
LINE
  8
CSLAYER1
  6
CONTINUOUS
 62
     6
 10
269.228664
 20
116.422563
 11
269.083781
 21
116.270930
  0
LINE
  8
CSLAYER1
  6
CONTINUOUS
 62
     6
 10
269.083781
 20
116.270930
 11
268.934410
 21
116.121923
  0
LINE
  8
CSLAYER1
  6
CONTINUOUS
 62
     6
 10
268.934410
 20
116.121923
 11
268.780654
 21
115.977099
  0
LINE
  8
CSLAYER1
  6
CONTINUOUS
 62
     6
 10
268.780654
 20
115.977099
 11
268.622613
 21
115.838014
  0
LINE
  8
CSLAYER1
  6
CONTINUOUS
 62
     6
 10
268.622613
 20
115.838014
 11
268.460390
 21
115.706224
  0
LINE
  8
CSLAYER1
  6
CONTINUOUS
 62
     6
 10
268.460390
 20
115.706224
 11
268.294086
 21
115.583284
  0
LINE
  8
CSLAYER1
  6
CONTINUOUS
 62
     6
 10
268.294086
 20
115.583284
 11
268.123803
 21
115.470751
  0
LINE
  8
CSLAYER1
  6
CONTINUOUS
 62
     6
 10
268.123803
 20
115.470751
 11
268.031069
 21
115.415325
  0
LINE
  8
CSLAYER1
  6
CONTINUOUS
 62
     6
 10
268.031069
 20
115.415325
 11
267.936476
 21
115.362648
  0
LINE
  8
CSLAYER1
  6
CONTINUOUS
 62
     6
 10
267.936476
 20
115.362648
 11
267.840212
 21
115.312447
  0
LINE
  8
CSLAYER1
  6
CONTINUOUS
 62
     6
 10
267.840212
 20
115.312447
 11
267.742461
 21
115.264446
  0
LINE
  8
CSLAYER1
  6
CONTINUOUS
 62
     6
 10
267.742461
 20
115.264446
 11
267.643409
 21
115.218369
  0
LINE
  8
CSLAYER1
  6
CONTINUOUS
 62
     6
 10
267.643409
 20
115.218369
 11
267.543242
 21
115.173943
  0
LINE
  8
CSLAYER1
  6
CONTINUOUS
 62
     6
 10
267.543242
 20
115.173943
 11
267.442146
 21
115.130891
  0
LINE
  8
CSLAYER1
  6
CONTINUOUS
 62
     6
 10
267.442146
 20
115.130891
 11
267.340307
 21
115.088940
  0
LINE
  8
CSLAYER1
  6
CONTINUOUS
 62
     6
 10
267.340307
 20
115.088940
 11
267.237911
 21
115.047814
  0
LINE
  8
CSLAYER1
  6
CONTINUOUS
 62
     6
 10
267.237911
 20
115.047814
 11
267.135143
 21
115.007237
  0
LINE
  8
CSLAYER1
  6
CONTINUOUS
 62
     6
 10
267.135143
 20
115.007237
 11
267.032189
 21
114.966936
  0
LINE
  8
CSLAYER1
  6
CONTINUOUS
 62
     6
 10
269.930953
 20
112.646304
 11
269.796152
 21
112.480992
  0
LINE
  8
CSLAYER1
  6
CONTINUOUS
 62
     6
 10
269.796152
 20
112.480992
 11
269.657595
 21
112.309339
  0
LINE
  8
CSLAYER1
  6
CONTINUOUS
 62
     6
 10
269.657595
 20
112.309339
 11
269.517319
 21
112.132918
  0
LINE
  8
CSLAYER1
  6
CONTINUOUS
 62
     6
 10
269.517319
 20
112.132918
 11
269.377361
 21
111.953300
  0
LINE
  8
CSLAYER1
  6
CONTINUOUS
 62
     6
 10
269.377361
 20
111.953300
 11
269.239758
 21
111.772056
  0
LINE
  8
CSLAYER1
  6
CONTINUOUS
 62
     6
 10
269.239758
 20
111.772056
 11
269.106546
 21
111.590760
  0
LINE
  8
CSLAYER1
  6
CONTINUOUS
 62
     6
 10
269.106546
 20
111.590760
 11
268.979762
 21
111.410983
  0
LINE
  8
CSLAYER1
  6
CONTINUOUS
 62
     6
 10
268.979762
 20
111.410983
 11
268.861443
 21
111.234297
  0
LINE
  8
CSLAYER1
  6
CONTINUOUS
 62
     6
 10
268.861443
 20
111.234297
 11
268.753625
 21
111.062273
  0
LINE
  8
CSLAYER1
  6
CONTINUOUS
 62
     6
 10
268.753625
 20
111.062273
 11
268.655986
 21
110.898512
  0
LINE
  8
CSLAYER1
  6
CONTINUOUS
 62
     6
 10
268.655986
 20
110.898512
 11
268.556356
 21
110.729245
  0
LINE
  8
CSLAYER1
  6
CONTINUOUS
 62
     6
 10
268.556356
 20
110.729245
 11
268.454530
 21
110.555774
  0
LINE
  8
CSLAYER1
  6
CONTINUOUS
 62
     6
 10
268.454530
 20
110.555774
 11
268.350300
 21
110.379401
  0
LINE
  8
CSLAYER1
  6
CONTINUOUS
 62
     6
 10
268.350300
 20
110.379401
 11
268.243460
 21
110.201428
  0
LINE
  8
CSLAYER1
  6
CONTINUOUS
 62
     6
 10
268.243460
 20
110.201428
 11
268.133803
 21
110.023159
  0
LINE
  8
CSLAYER1
  6
CONTINUOUS
 62
     6
 10
268.133803
 20
110.023159
 11
268.021122
 21
109.845894
  0
LINE
  8
CSLAYER1
  6
CONTINUOUS
 62
     6
 10
268.021122
 20
109.845894
 11
267.905212
 21
109.670936
  0
LINE
  8
CSLAYER1
  6
CONTINUOUS
 62
     6
 10
267.905212
 20
109.670936
 11
267.785864
 21
109.499588
  0
LINE
  8
CSLAYER1
  6
CONTINUOUS
 62
     6
 10
267.785864
 20
109.499588
 11
267.662874
 21
109.333152
  0
LINE
  8
CSLAYER1
  6
CONTINUOUS
 62
     6
 10
267.662874
 20
109.333152
 11
267.536034
 21
109.172930
  0
LINE
  8
CSLAYER1
  6
CONTINUOUS
 62
     6
 10
267.536034
 20
109.172930
 11
267.437213
 21
109.056417
  0
LINE
  8
CSLAYER1
  6
CONTINUOUS
 62
     6
 10
267.437213
 20
109.056417
 11
267.335000
 21
108.942658
  0
LINE
  8
CSLAYER1
  6
CONTINUOUS
 62
     6
 10
267.335000
 20
108.942658
 11
267.229736
 21
108.831377
  0
LINE
  8
CSLAYER1
  6
CONTINUOUS
 62
     6
 10
267.229736
 20
108.831377
 11
267.121759
 21
108.722299
  0
LINE
  8
CSLAYER1
  6
CONTINUOUS
 62
     6
 10
267.121759
 20
108.722299
 11
267.011408
 21
108.615148
  0
LINE
  8
CSLAYER1
  6
CONTINUOUS
 62
     6
 10
267.011408
 20
108.615148
 11
266.899023
 21
108.509650
  0
LINE
  8
CSLAYER1
  6
CONTINUOUS
 62
     6
 10
266.899023
 20
108.509650
 11
266.784942
 21
108.405528
  0
LINE
  8
CSLAYER1
  6
CONTINUOUS
 62
     6
 10
266.784942
 20
108.405528
 11
266.669504
 21
108.302507
  0
LINE
  8
CSLAYER1
  6
CONTINUOUS
 62
     6
 10
266.669504
 20
108.302507
 11
266.553049
 21
108.200313
  0
LINE
  8
CSLAYER1
  6
CONTINUOUS
 62
     6
 10
266.553049
 20
108.200313
 11
266.457023
 21
108.116985
  0
LINE
  8
CSLAYER1
  6
CONTINUOUS
 62
     6
 10
266.457023
 20
108.116985
 11
266.526170
 21
108.082456
  0
LINE
  8
CSLAYER1
  6
CONTINUOUS
 62
     6
 10
266.526170
 20
108.082456
 11
266.610646
 21
108.034840
  0
LINE
  8
CSLAYER1
  6
CONTINUOUS
 62
     6
 10
266.610646
 20
108.034840
 11
266.696579
 21
107.981090
  0
LINE
  8
CSLAYER1
  6
CONTINUOUS
 62
     6
 10
266.696579
 20
107.981090
 11
266.782698
 21
107.921865
  0
LINE
  8
CSLAYER1
  6
CONTINUOUS
 62
     6
 10
266.782698
 20
107.921865
 11
266.867734
 21
107.857828
  0
LINE
  8
CSLAYER1
  6
CONTINUOUS
 62
     6
 10
266.867734
 20
107.857828
 11
266.950416
 21
107.789637
  0
LINE
  8
CSLAYER1
  6
CONTINUOUS
 62
     6
 10
266.950416
 20
107.789637
 11
267.029476
 21
107.717954
  0
LINE
  8
CSLAYER1
  6
CONTINUOUS
 62
     6
 10
267.029476
 20
107.717954
 11
267.103642
 21
107.643438
  0
LINE
  8
CSLAYER1
  6
CONTINUOUS
 62
     6
 10
267.103642
 20
107.643438
 11
267.171644
 21
107.566751
  0
LINE
  8
CSLAYER1
  6
CONTINUOUS
 62
     6
 10
267.171644
 20
107.566751
 11
267.232214
 21
107.488552
  0
LINE
  8
CSLAYER1
  6
CONTINUOUS
 62
     6
 10
267.232214
 20
107.488552
 11
267.284081
 21
107.409502
  0
LINE
  8
CSLAYER1
  6
CONTINUOUS
 62
     6
 10
267.284081
 20
107.409502
 11
267.299987
 21
107.381896
  0
LINE
  8
CSLAYER1
  6
CONTINUOUS
 62
     6
 10
267.299987
 20
107.381896
 11
267.315640
 21
107.353202
  0
LINE
  8
CSLAYER1
  6
CONTINUOUS
 62
     6
 10
267.315640
 20
107.353202
 11
267.331083
 21
107.323589
  0
LINE
  8
CSLAYER1
  6
CONTINUOUS
 62
     6
 10
267.331083
 20
107.323589
 11
267.346356
 21
107.293222
  0
LINE
  8
CSLAYER1
  6
CONTINUOUS
 62
     6
 10
267.346356
 20
107.293222
 11
267.361501
 21
107.262271
  0
LINE
  8
CSLAYER1
  6
CONTINUOUS
 62
     6
 10
267.361501
 20
107.262271
 11
267.376561
 21
107.230901
  0
LINE
  8
CSLAYER1
  6
CONTINUOUS
 62
     6
 10
267.376561
 20
107.230901
 11
267.391578
 21
107.199279
  0
LINE
  8
CSLAYER1
  6
CONTINUOUS
 62
     6
 10
267.391578
 20
107.199279
 11
267.406594
 21
107.167574
  0
LINE
  8
CSLAYER1
  6
CONTINUOUS
 62
     6
 10
267.406594
 20
107.167574
 11
267.421649
 21
107.135952
  0
LINE
  8
CSLAYER1
  6
CONTINUOUS
 62
     6
 10
267.421649
 20
107.135952
 11
267.436787
 21
107.104580
  0
LINE
  8
CSLAYER1
  6
CONTINUOUS
 62
     6
 10
267.436787
 20
107.104580
 11
267.452050
 21
107.073626
  0
LINE
  8
CSLAYER1
  6
CONTINUOUS
 62
     6
 10
267.452050
 20
107.073626
 11
267.492871
 21
106.995489
  0
LINE
  8
CSLAYER1
  6
CONTINUOUS
 62
     6
 10
267.492871
 20
106.995489
 11
267.536206
 21
106.918956
  0
LINE
  8
CSLAYER1
  6
CONTINUOUS
 62
     6
 10
267.536206
 20
106.918956
 11
267.581805
 21
106.843868
  0
LINE
  8
CSLAYER1
  6
CONTINUOUS
 62
     6
 10
267.581805
 20
106.843868
 11
267.629415
 21
106.770063
  0
LINE
  8
CSLAYER1
  6
CONTINUOUS
 62
     6
 10
267.629415
 20
106.770063
 11
267.678785
 21
106.697382
  0
LINE
  8
CSLAYER1
  6
CONTINUOUS
 62
     6
 10
267.678785
 20
106.697382
 11
267.729663
 21
106.625664
  0
LINE
  8
CSLAYER1
  6
CONTINUOUS
 62
     6
 10
267.729663
 20
106.625664
 11
267.781799
 21
106.554747
  0
LINE
  8
CSLAYER1
  6
CONTINUOUS
 62
     6
 10
267.781799
 20
106.554747
 11
267.834941
 21
106.484473
  0
LINE
  8
CSLAYER1
  6
CONTINUOUS
 62
     6
 10
267.834941
 20
106.484473
 11
267.888837
 21
106.414680
  0
LINE
  8
CSLAYER1
  6
CONTINUOUS
 62
     6
 10
267.888837
 20
106.414680
 11
267.943236
 21
106.345208
  0
LINE
  8
CSLAYER1
  6
CONTINUOUS
 62
     6
 10
267.943236
 20
106.345208
 11
267.995309
 21
106.279165
  0
LINE
  8
CSLAYER1
  6
CONTINUOUS
 62
     6
 10
267.995309
 20
106.279165
 11
268.122656
 21
106.388466
  0
LINE
  8
CSLAYER1
  6
CONTINUOUS
 62
     6
 10
268.122656
 20
106.388466
 11
268.259372
 21
106.506499
  0
LINE
  8
CSLAYER1
  6
CONTINUOUS
 62
     6
 10
268.259372
 20
106.506499
 11
268.395259
 21
106.625203
  0
LINE
  8
CSLAYER1
  6
CONTINUOUS
 62
     6
 10
268.395259
 20
106.625203
 11
268.529905
 21
106.744914
  0
LINE
  8
CSLAYER1
  6
CONTINUOUS
 62
     6
 10
268.529905
 20
106.744914
 11
268.662897
 21
106.865969
  0
LINE
  8
CSLAYER1
  6
CONTINUOUS
 62
     6
 10
268.662897
 20
106.865969
 11
268.793819
 21
106.988702
  0
LINE
  8
CSLAYER1
  6
CONTINUOUS
 62
     6
 10
268.793819
 20
106.988702
 11
268.922259
 21
107.113450
  0
LINE
  8
CSLAYER1
  6
CONTINUOUS
 62
     6
 10
268.922259
 20
107.113450
 11
269.047802
 21
107.240547
  0
LINE
  8
CSLAYER1
  6
CONTINUOUS
 62
     6
 10
269.047802
 20
107.240547
 11
269.170036
 21
107.370331
  0
LINE
  8
CSLAYER1
  6
CONTINUOUS
 62
     6
 10
269.170036
 20
107.370331
 11
269.288545
 21
107.503137
  0
LINE
  8
CSLAYER1
  6
CONTINUOUS
 62
     6
 10
269.288545
 20
107.503137
 11
269.402917
 21
107.639300
  0
LINE
  8
CSLAYER1
  6
CONTINUOUS
 62
     6
 10
269.402917
 20
107.639300
 11
269.539413
 21
107.813526
  0
LINE
  8
CSLAYER1
  6
CONTINUOUS
 62
     6
 10
269.539413
 20
107.813526
 11
269.671756
 21
107.994202
  0
LINE
  8
CSLAYER1
  6
CONTINUOUS
 62
     6
 10
269.671756
 20
107.994202
 11
269.800227
 21
108.179972
  0
LINE
  8
CSLAYER1
  6
CONTINUOUS
 62
     6
 10
269.800227
 20
108.179972
 11
269.925109
 21
108.369480
  0
LINE
  8
CSLAYER1
  6
CONTINUOUS
 62
     6
 10
269.925109
 20
108.369480
 11
270.046681
 21
108.561368
  0
LINE
  8
CSLAYER1
  6
CONTINUOUS
 62
     6
 10
270.046681
 20
108.561368
 11
270.165225
 21
108.754281
  0
LINE
  8
CSLAYER1
  6
CONTINUOUS
 62
     6
 10
270.165225
 20
108.754281
 11
270.281023
 21
108.946861
  0
LINE
  8
CSLAYER1
  6
CONTINUOUS
 62
     6
 10
270.281023
 20
108.946861
 11
270.394356
 21
109.137752
  0
LINE
  8
CSLAYER1
  6
CONTINUOUS
 62
     6
 10
270.394356
 20
109.137752
 11
270.505504
 21
109.325597
  0
LINE
  8
CSLAYER1
  6
CONTINUOUS
 62
     6
 10
270.505504
 20
109.325597
 11
270.614750
 21
109.509040
  0
LINE
  8
CSLAYER1
  6
CONTINUOUS
 62
     6
 10
270.614750
 20
109.509040
 11
270.722375
 21
109.686724
  0
LINE
  8
CSLAYER1
  6
CONTINUOUS
 62
     6
 10
270.722375
 20
109.686724
 11
270.827700
 21
109.852411
  0
LINE
  8
CSLAYER1
  6
CONTINUOUS
 62
     6
 10
270.827700
 20
109.852411
 11
270.942429
 21
110.022300
  0
LINE
  8
CSLAYER1
  6
CONTINUOUS
 62
     6
 10
270.942429
 20
110.022300
 11
271.064730
 21
110.194963
  0
LINE
  8
CSLAYER1
  6
CONTINUOUS
 62
     6
 10
271.064730
 20
110.194963
 11
271.192771
 21
110.368973
  0
LINE
  8
CSLAYER1
  6
CONTINUOUS
 62
     6
 10
271.192771
 20
110.368973
 11
271.324724
 21
110.542903
  0
LINE
  8
CSLAYER1
  6
CONTINUOUS
 62
     6
 10
271.324724
 20
110.542903
 11
271.458755
 21
110.715324
  0
LINE
  8
CSLAYER1
  6
CONTINUOUS
 62
     6
 10
271.458755
 20
110.715324
 11
271.593036
 21
110.884809
  0
LINE
  8
CSLAYER1
  6
CONTINUOUS
 62
     6
 10
271.593036
 20
110.884809
 11
271.725735
 21
111.049930
  0
LINE
  8
CSLAYER1
  6
CONTINUOUS
 62
     6
 10
271.725735
 20
111.049930
 11
271.855021
 21
111.209261
  0
LINE
  8
CSLAYER1
  6
CONTINUOUS
 62
     6
 10
271.855021
 20
111.209261
 11
271.979063
 21
111.361373
  0
LINE
  8
CSLAYER1
  6
CONTINUOUS
 62
     6
 10
271.979063
 20
111.361373
 11
272.148321
 21
111.568974
  0
ARC
  8
CSLAYER1
  6
CONTINUOUS
 62
     6
 10
271.066071
 20
111.139202
 40
1.164461
 50
21.658505
 51
86.024005
  0
ARC
  8
CSLAYER1
  6
CONTINUOUS
 62
     6
 10
270.100416
 20
111.789955
 40
1.164461
 50
26.024005
 51
86.024005
  0
ARC
  8
CSLAYER1
  6
CONTINUOUS
 62
     6
 10
271.227555
 20
113.462518
 40
1.164461
 50
206.024005
 51
266.024005
  0
LINE
  8
CSLAYER1
  6
CONTINUOUS
 62
     6
 10
270.181145
 20
112.951617
 11
270.059963
 21
112.803703
  0
LINE
  8
CSLAYER1
  6
CONTINUOUS
 62
     6
 10
270.059963
 20
112.803703
 11
269.930953
 21
112.646304
  0
ARC
  8
CSLAYER1
  6
CONTINUOUS
 62
     6
 10
271.990585
 20
112.545562
 40
1.200008
 50
30.461486
 51
90.461486
  0
LINE
  8
CSLAYER1
  6
CONTINUOUS
 62
     6
 10
267.222071
 20
107.501647
 11
264.779076
 21
105.107012
  0
LINE
  8
CSLAYER1
  6
CONTINUOUS
 62
     6
 10
264.164727
 20
105.319659
 11
266.910574
 21
107.822497
  0
LINE
  8
CSLAYER1
  6
CONTINUOUS
 62
     6
 10
267.502541
 20
106.978410
 11
265.251611
 21
104.539904
  0
LINE
  8
CSLAYER1
  6
CONTINUOUS
 62
     6
 10
258.824731
 20
107.398943
 11
261.050853
 21
110.375181
  0
LINE
  8
CSLAYER1
  6
CONTINUOUS
 62
     6
 10
260.485019
 20
110.521773
 11
258.139489
 21
107.847887
  0
LINE
  8
CSLAYER1
  6
CONTINUOUS
 62
     6
 10
257.596032
 20
108.367693
 11
260.067801
 21
110.769501
  0
LINE
  8
CSLAYER1
  6
CONTINUOUS
 62
     6
 10
280.384378
 20
124.996172
 11
279.940500
 21
125.696154
  0
LINE
  8
CSLAYER1
  6
CONTINUOUS
 62
     6
 10
280.440500
 20
125.696154
 11
280.884378
 21
124.996172
  0
ARC
  8
CSLAYER1
  6
CONTINUOUS
 62
     6
 10
283.088449
 20
125.096148
 40
0.100000
 50
270.000001
 51
359.942691
  0
LINE
  8
CSLAYER1
  6
CONTINUOUS
 62
     6
 10
283.188425
 20
125.096148
 11
283.188425
 21
125.596148
  0
ARC
  8
CSLAYER1
  6
CONTINUOUS
 62
     6
 10
283.088449
 20
125.596148
 40
0.100000
 50
0.000010
 51
90.000016
  0
LINE
  8
CSLAYER1
  6
CONTINUOUS
 62
     6
 10
293.288462
 20
123.696154
 11
293.288462
 21
127.696154
  0
LINE
  8
CSLAYER1
  6
CONTINUOUS
 62
     6
 10
293.288462
 20
123.696154
 11
306.288462
 21
123.696154
  0
ARC
  8
CSLAYER1
  6
CONTINUOUS
 62
     6
 10
466.288462
 20
460.750000
 40
2.000000
 50
180.000000
 51
270.000000
  0
ARC
  8
CSLAYER1
  6
CONTINUOUS
 62
     6
 10
466.288462
 20
382.750000
 40
2.000000
 50
90.000000
 51
180.000000
  0
LINE
  8
CSLAYER1
  6
CONTINUOUS
 62
     6
 10
464.288462
 20
457.250000
 11
464.288462
 21
386.250000
  0
LINE
  8
CSLAYER1
  6
CONTINUOUS
 62
     6
 10
464.288462
 20
382.750000
 11
464.288462
 21
366.510000
  0
ENDSEC
  0
EOF
