  0
SECTION
  2
HEADER
  9
$ACADVER
  1
AC1006
  9
$INSBASE
 10
0.000000
 20
0.000000
 30
0.0
  9
$EXTMIN
 10
0.000000
 20
0.000000
  9
$EXTMAX
 10
841.000000
 20
594.000000
  9
$LIMMIN
 10
0.000000
 20
0.000000
  9
$LIMMAX
 10
841.000000
 20
594.000000
  9
$VIEWCTR
 10
420.500000
 20
297.000000
  9
$VIEWSIZE
 40
594.000000
  9
$SNAPMODE
 70
     0
  9
$SNAPUNIT
 10
1.0
 20
1.0
  9
$SNAPBASE
 10
0.0
 20
0.0
  9
$SNAPANG
 50
0.0
  9
$SNAPSTYLE
 70
     0
  9
$SNAPISOPAIR
 70
     0
  9
$GRIDMODE
 70
     0
  9
$GRIDUNIT
 10
0.0
 20
0.0
  9
$ORTHOMODE
 70
     0
  9
$REGENMODE
 70
     1
  9
$FILLMODE
 70
     1
  9
$QTEXTMODE
 70
     0
  9
$DRAGMODE
 70
     2
  9
$LTSCALE
 40
15.000000
  9
$OSMODE
 70
     0
  9
$ATTMODE
 70
     1
  9
$TEXTSIZE
 40
0.2
  9
$TRACEWID
 40
0.05
  9
$TEXTSTYLE
  7
STANDARD
  9
$CLAYER
  8
CSLAYER1
  9
$CELTYPE
  6
BYLAYER
  9
$CECOLOR
 62
   256
  9
$DIMSCALE
 40
1.0
  9
$DIMASZ
 40
0.18
  9
$DIMEXO
 40
0.0625
  9
$DIMDLI
 40
0.38
  9
$DIMRND
 40
0.0
  9
$DIMDLE
 40
0.0
  9
$DIMEXE
 40
0.18
  9
$DIMTP
 40
0.0
  9
$DIMTM
 40
0.0
  9
$DIMTXT
 40
0.18
  9
$DIMCEN
 40
0.09
  9
$DIMTSZ
 40
0.0
  9
$DIMTOL
 70
     0
  9
$DIMLIM
 70
     0
  9
$DIMTIH
 70
     1
  9
$DIMTOH
 70
     1
  9
$DIMSE1
 70
     0
  9
$DIMSE2
 70
     0
  9
$DIMTAD
 70
     0
  9
$DIMZIN
 70
     0
  9
$DIMBLK
  1

  9
$LUNITS
 70
     2
  9
$LUPREC
 70
     4
  9
$AXISMODE
 70
     0
  9
$AXISUNIT
 10
0.0
 20
0.0
  9
$SKETCHINC
 40
0.1
  9
$FILLETRAD
 40
0.0
  9
$AUNITS
 70
     0
  9
$AUPREC
 70
     0
  9
$MENU
  1
ACAD
  9
$ELEVATION
 40
0.0
  9
$THICKNESS
 40
0.0
  9
$VIEWDIR
 10
0.0
 20
0.0
 30
1.0
  9
$LIMCHECK
 70
     0
  9
$BLIPMODE
 70
     1
  9
$CHAMFERA
 40
0.0
  9
$CHAMFERB
 40
0.0
  9
$FASTZOOM
 70
     1
  9
$SKPOLY
 70
     0
  9
$TDCREATE
 40
0.000000
  9
$TDUPDATE
 40
0.000000
  9
$TDINDWG
 40
0.0
  9
$TDUSRTIMER
 40
0.0
  9
$USRTIMER
 70
     1
  9
$ANGBASE
 50
0.0
  9
$ANGDIR
 70
     0
  9
$PDMODE
 70
     0
  9
$PDSIZE
 40
0.0
  9
$PLINEWID
 40
0.0
  9
$COORDS
 70
     0
  9
$USERI1
 70
     0
  9
$USERI2
 70
     0
  9
$USERI3
 70
     0
  9
$USERI4
 70
     0
  9
$USERI5
 70
     0
  9
$USERR1
 40
0.0
  9
$USERR2
 40
0.0
  9
$USERR3
 40
0.0
  9
$USERR4
 40
0.0
  9
$USERR5
 40
0.0
  0
ENDSEC
  0
SECTION
  2
TABLES
  0
TABLE
  2
LTYPE
 70
     9
  0
LTYPE
  2
CONTINUOUS
 70
    64
  3
Solid line
 72
    65
 73
     0
 40
0.0
  0
LTYPE
  2
DASHED
 70
    64
  3
__ __ __ __ __ __ __ __ __ __ __ __ __ __ __
 72
    65
 73
     2
 40
0.75
 49
0.5
 49
-0.25
  0
LTYPE
  2
HIDDEN
 70
    64
  3
_ _ _ _ _ _ _ _ _ _ _ _ _ _ _ _ _ _ _ _ _ _ _
 72
    65
 73
     2
 40
0.375
 49
0.25
 49
-0.125
  0
LTYPE
  2
DOT
 70
    64
  3
...............................................
 72
    65
 73
     2
 40
0.25
 49
0.0
 49
-0.25
  0
LTYPE
  2
DASHDOT
 70
    64
  3
__ . __ . __ . __ . __ . __ . __ . __ . __ . __
 72
    65
 73
     4
 40
1.0
 49
0.5
 49
-0.25
 49
0.0
 49
-0.25
  0
LTYPE
  2
DIVIDE
 70
    64
  3
__ . . __ . . __ . . __ . . __ . . __ . . __
 72
    65
 73
     6
 40
1.25
 49
0.5
 49
-0.25
 49
0.0
 49
-0.25
 49
0.0
 49
-0.25
  0
LTYPE
  2
CENTER
 70
    64
  3
____ _ ____ _ ____ _ ____ _ ____ _ ____ _ ____ 
 72
    65
 73
     4
 40
2.0
 49
1.25
 49
-0.25
 49
0.25
 49
-0.25
  0
LTYPE
  2
PHANTOM
 70
    64
  3
______  __  __  ______  __  __  ______  __  __ 
 72
    65
 73
     6
 40
2.5
 49
1.25
 49
-0.25
 49
0.25
 49
-0.25
 49
0.25
 49
-0.25
  0
LTYPE
  2
BORDER
 70
    64
  3
__ __ . __ __ . __ __ . __ __ . __ __ . __ __ .
 72
    65
 73
     6
 40
1.75
 49
0.5
 49
-0.25
 49
0.5
 49
-0.25
 49
0.0
 49
-0.25
  0
ENDTAB
  0
TABLE
  2
LAYER
 70
    16
  0
LAYER
  2
CSLAYER1
 70
    64
 62
     7
  6
CONTINUOUS
  0
LAYER
  2
CSLAYER2
 70
    64
 62
     7
  6
CONTINUOUS
  0
LAYER
  2
CSLAYER3
 70
    64
 62
     7
  6
CONTINUOUS
  0
LAYER
  2
CSLAYER4
 70
    64
 62
     7
  6
CONTINUOUS
  0
LAYER
  2
CSLAYER5
 70
    64
 62
     7
  6
CONTINUOUS
  0
LAYER
  2
CSLAYER6
 70
    64
 62
     7
  6
CONTINUOUS
  0
LAYER
  2
CSLAYER7
 70
    64
 62
     7
  6
CONTINUOUS
  0
LAYER
  2
CSLAYER8
 70
    64
 62
     7
  6
CONTINUOUS
  0
LAYER
  2
CSLAYER9
 70
    64
 62
     7
  6
CONTINUOUS
  0
LAYER
  2
CSLAYER10
 70
    64
 62
     7
  6
CONTINUOUS
  0
LAYER
  2
CSLAYER11
 70
    64
 62
     7
  6
CONTINUOUS
  0
LAYER
  2
CSLAYER12
 70
    64
 62
     7
  6
CONTINUOUS
  0
LAYER
  2
CSLAYER13
 70
    64
 62
     7
  6
CONTINUOUS
  0
LAYER
  2
CSLAYER14
 70
    64
 62
     7
  6
CONTINUOUS
  0
LAYER
  2
CSLAYER15
 70
    64
 62
     7
  6
CONTINUOUS
  0
LAYER
  2
CSLAYER16
 70
    64
 62
     7
  6
CONTINUOUS
  0
ENDTAB
  0
TABLE
  2
STYLE
 70
     1
  0
STYLE
  2
JX_FONT
 70
     0
 40
1.0
 41
1.0
 50
0.0
 71
     0
 42
1.0
  3
monotxt
  4
bigfont
  0
ENDTAB
  0
TABLE
  2
VIEW
 70
     0
  0
ENDTAB
  0
ENDSEC
  0
SECTION
  2
BLOCKS
  0
ENDSEC
  0
SECTION
  2
ENTITIES
  0
LINE
  8
CSLAYER1
  6
CENTER
 62
     3
 10
61.849676
 20
80.696154
 11
61.849676
 21
111.696154
  0
LINE
  8
CSLAYER1
  6
CENTER
 62
     3
 10
111.849676
 20
77.696154
 11
111.849676
 21
271.196154
  0
LINE
  8
CSLAYER1
  6
CENTER
 62
     3
 10
52.849676
 20
206.696154
 11
217.849676
 21
206.696154
  0
LINE
  8
CSLAYER1
  6
CENTER
 62
     3
 10
269.686999
 20
206.696154
 11
358.736078
 21
206.696154
  0
LINE
  8
CSLAYER1
  6
CENTER
 62
     3
 10
367.951538
 20
167.696154
 11
593.699538
 21
167.696154
  0
LINE
  8
CSLAYER1
  6
CENTER
 62
     3
 10
625.091538
 20
167.696154
 11
797.911538
 21
167.696154
  0
ARC
  8
CSLAYER1
  6
CENTER
 62
     3
 10
711.711538
 20
167.696154
 40
65.000000
 50
32.917958
 51
57.082042
  0
LINE
  8
CSLAYER1
  6
CENTER
 62
     3
 10
747.999367
 20
203.983983
 11
767.347591
 21
223.332207
  0
LINE
  8
CSLAYER1
  6
CENTER
 62
     3
 10
711.711538
 20
267.196154
 11
711.711538
 21
81.696154
  0
ARC
  8
CSLAYER1
  6
CENTER
 62
     3
 10
711.711538
 20
167.696154
 40
65.000000
 50
302.917958
 51
327.082042
  0
LINE
  8
CSLAYER1
  6
CENTER
 62
     3
 10
747.999367
 20
131.408325
 11
767.347591
 21
112.060101
  0
LINE
  8
CSLAYER1
  6
CENTER
 62
     3
 10
761.711538
 20
111.696154
 11
761.711538
 21
80.696154
  0
ARC
  8
CSLAYER1
  6
CENTER
 62
     3
 10
711.711538
 20
167.696154
 40
65.000000
 50
212.917958
 51
237.082042
  0
LINE
  8
CSLAYER1
  6
CENTER
 62
     3
 10
675.423710
 20
131.408325
 11
656.075486
 21
112.060101
  0
LINE
  8
CSLAYER1
  6
CENTER
 62
     3
 10
661.711538
 20
111.696154
 11
661.711538
 21
80.696154
  0
LINE
  8
CSLAYER1
  6
CENTER
 62
     3
 10
560.711538
 20
119.996142
 11
560.711538
 21
130.696154
  0
LINE
  8
CSLAYER1
  6
CENTER
 62
     3
 10
555.711538
 20
135.696154
 11
555.711538
 21
199.696154
  0
LINE
  8
CSLAYER1
  6
CENTER
 62
     3
 10
606.763538
 20
206.696154
 11
648.461401
 21
206.696154
  0
ARC
  8
CSLAYER1
  6
CENTER
 62
     3
 10
711.711538
 20
167.696154
 40
65.000000
 50
122.917958
 51
147.082042
  0
LINE
  8
CSLAYER1
  6
CENTER
 62
     3
 10
675.423710
 20
203.983983
 11
656.075486
 21
223.332207
  0
LINE
  8
CSLAYER1
  6
CONTINUOUS
 62
     3
 10
502.711569
 20
212.696154
 11
502.711569
 21
206.101919
  0
ARC
  8
CSLAYER1
  6
CONTINUOUS
 62
     3
 10
500.711569
 20
206.101919
 40
2.000000
 50
269.999999
 51
359.999995
  0
LINE
  8
CSLAYER1
  6
CONTINUOUS
 62
     3
 10
500.711569
 20
204.101919
 11
472.711569
 21
204.101888
  0
ARC
  8
CSLAYER1
  6
CONTINUOUS
 62
     3
 10
472.711569
 20
206.101888
 40
2.000000
 50
180.057309
 51
269.999999
  0
LINE
  8
CSLAYER1
  6
CONTINUOUS
 62
     3
 10
470.711569
 20
206.101888
 11
470.711569
 21
212.696154
  0
LINE
  8
CSLAYER1
  6
CENTER
 62
     3
 10
463.011538
 20
213.658095
 11
419.711538
 21
213.658095
  0
LINE
  8
CSLAYER1
  6
CENTER
 62
     3
 10
314.211538
 20
267.196154
 11
314.211538
 21
80.696154
  0
LINE
  8
CSLAYER1
  6
CENTER
 62
     3
 10
274.211538
 20
80.696154
 11
274.211538
 21
108.936154
  0
LINE
  8
CSLAYER1
  6
CENTER
 62
     3
 10
354.211538
 20
108.936154
 11
354.211538
 21
80.696154
  0
LINE
  8
CSLAYER1
  6
CENTER
 62
     3
 10
419.711538
 20
121.724214
 11
463.011538
 21
121.724214
  0
LINE
  8
CSLAYER1
  6
CENTER
 62
     3
 10
314.211538
 20
315.750000
 11
314.211538
 21
490.750000
  0
LINE
  8
CSLAYER1
  6
CENTER
 62
     3
 10
284.711538
 20
471.750000
 11
263.711538
 21
471.750000
  0
LINE
  8
CSLAYER1
  6
CENTER
 62
     3
 10
274.211538
 20
482.250000
 11
274.211538
 21
461.250000
  0
LINE
  8
CSLAYER1
  6
CENTER
 62
     3
 10
343.711538
 20
471.750000
 11
364.711538
 21
471.750000
  0
LINE
  8
CSLAYER1
  6
CENTER
 62
     3
 10
354.211538
 20
461.250000
 11
354.211538
 21
482.250000
  0
LINE
  8
CSLAYER1
  6
CENTER
 62
     3
 10
419.711538
 20
467.711941
 11
463.011538
 21
467.711941
  0
ARC
  8
CSLAYER1
  6
CONTINUOUS
 62
     3
 10
472.711538
 20
445.250000
 40
2.000000
 50
90.000000
 51
180.000000
  0
LINE
  8
CSLAYER1
  6
CONTINUOUS
 62
     3
 10
470.711538
 20
445.250000
 11
470.711538
 21
398.250000
  0
ARC
  8
CSLAYER1
  6
CONTINUOUS
 62
     3
 10
472.711538
 20
398.250000
 40
2.000000
 50
180.000000
 51
270.000000
  0
LINE
  8
CSLAYER1
  6
CONTINUOUS
 62
     3
 10
472.711538
 20
396.250000
 11
500.711538
 21
396.250000
  0
ARC
  8
CSLAYER1
  6
CONTINUOUS
 62
     3
 10
500.711538
 20
398.250000
 40
2.000000
 50
270.000000
 51
360.000000
  0
LINE
  8
CSLAYER1
  6
CONTINUOUS
 62
     3
 10
502.711538
 20
398.250000
 11
502.711538
 21
445.250000
  0
ARC
  8
CSLAYER1
  6
CONTINUOUS
 62
     3
 10
500.711538
 20
445.250000
 40
2.000000
 50
0.000000
 51
90.000000
  0
LINE
  8
CSLAYER1
  6
CONTINUOUS
 62
     3
 10
500.711538
 20
447.250000
 11
472.711538
 21
447.250000
  0
LINE
  8
CSLAYER1
  6
CENTER
 62
     3
 10
555.711538
 20
453.143158
 11
555.711538
 21
475.749969
  0
LINE
  8
CSLAYER1
  6
CENTER
 62
     3
 10
593.699538
 20
421.750000
 11
245.711538
 21
421.750000
  0
LINE
  8
CSLAYER1
  6
CENTER
 62
     3
 10
274.211538
 20
382.250000
 11
274.211538
 21
361.250000
  0
LINE
  8
CSLAYER1
  6
CENTER
 62
     3
 10
284.711538
 20
371.750000
 11
263.711538
 21
371.750000
  0
LINE
  8
CSLAYER1
  6
CENTER
 62
     3
 10
343.711538
 20
371.750000
 11
364.711538
 21
371.750000
  0
LINE
  8
CSLAYER1
  6
CENTER
 62
     3
 10
354.211538
 20
382.250000
 11
354.211538
 21
361.250000
  0
LINE
  8
CSLAYER1
  6
CENTER
 62
     3
 10
419.711538
 20
375.778060
 11
463.011538
 21
375.778060
  0
LINE
  8
CSLAYER1
  6
CENTER
 62
     3
 10
555.711538
 20
367.749969
 11
555.711538
 21
390.356781
  0
LINE
  8
CSLAYER1
  6
CENTER
 62
     3
 10
197.849676
 20
167.696154
 11
25.849676
 21
167.696154
  0
LINE
  8
CSLAYER1
  6
CENTER
 62
     3
 10
161.849676
 20
111.696154
 11
161.849676
 21
80.696154
  0
TEXT
  8
CSLAYER1
 62
     3
 10
488.654785
 20
416.500031
 40
3.500000
 41
1.125000
  1
N P
 50
90.000000
 51
10.000000
  7
JX_FONT
 72
     5
 11
488.654785
 21
427.000031
  0
LINE
  8
CSLAYER1
  6
CONTINUOUS
 62
     6
 10
48.849676
 20
86.696154
 11
48.849676
 21
99.396154
  0
ARC
  8
CSLAYER1
  6
CONTINUOUS
 62
     6
 10
51.849676
 20
99.396154
 40
3.000000
 50
105.070000
 51
180.000000
  0
LINE
  8
CSLAYER1
  6
CONTINUOUS
 62
     6
 10
51.069676
 20
102.296154
 11
72.629676
 21
108.096154
  0
ARC
  8
CSLAYER1
  6
CONTINUOUS
 62
     6
 10
71.849676
 20
110.996154
 40
3.000000
 50
285.070000
 51
360.000000
  0
ARC
  8
CSLAYER1
  6
CONTINUOUS
 62
     6
 10
65.889676
 20
121.736154
 40
10.000000
 50
161.130000
 51
316.520000
  0
ARC
  8
CSLAYER1
  6
CONTINUOUS
 62
     6
 10
46.969676
 20
128.196154
 40
10.000000
 50
-18.870000
 51
34.040000
  0
ARC
  8
CSLAYER1
  6
CONTINUOUS
 62
     6
 10
59.349676
 20
133.784504
 40
5.000000
 50
0.000000
 51
32.859880
  0
LINE
  8
CSLAYER1
  6
CONTINUOUS
 62
     6
 10
64.349676
 20
133.784504
 11
64.349676
 21
125.196154
  0
ARC
  8
CSLAYER1
  6
CONTINUOUS
 62
     6
 10
69.349676
 20
125.196154
 40
5.000000
 50
180.000000
 51
270.000000
  0
LINE
  8
CSLAYER1
  6
CONTINUOUS
 62
     6
 10
69.349676
 20
120.196154
 11
73.849676
 21
120.196154
  0
ARC
  8
CSLAYER1
  6
CONTINUOUS
 62
     6
 10
73.849676
 20
119.196154
 40
1.000000
 50
0.000000
 51
90.000000
  0
ARC
  8
CSLAYER1
  6
CONTINUOUS
 62
     6
 10
80.389676
 20
107.976154
 40
10.000000
 50
123.710000
 51
136.520000
  0
ARC
  8
CSLAYER1
  6
CONTINUOUS
 62
     6
 10
65.889676
 20
121.736154
 40
4.000000
 50
112.620000
 51
337.356260
  0
ARC
  8
CSLAYER1
  6
CONTINUOUS
 62
     6
 10
65.889676
 20
121.736154
 40
3.500000
 50
115.890000
 51
334.073891
  0
ARC
  8
CSLAYER1
  6
CONTINUOUS
 62
     6
 10
69.849676
 20
126.396154
 40
5.000000
 50
0.000000
 51
74.480000
  0
LINE
  8
CSLAYER1
  6
CONTINUOUS
 62
     6
 10
71.189676
 20
131.216154
 11
69.509676
 21
131.676154
  0
ARC
  8
CSLAYER1
  6
CONTINUOUS
 62
     6
 10
70.849676
 20
136.496154
 40
5.000000
 50
180.000000
 51
254.480000
  0
LINE
  8
CSLAYER1
  6
CONTINUOUS
 62
     6
 10
65.849676
 20
136.496154
 11
65.849676
 21
209.196154
  0
ARC
  8
CSLAYER1
  6
CONTINUOUS
 62
     6
 10
111.849676
 20
167.696154
 40
80.000000
 50
131.490817
 51
231.350000
  0
LINE
  8
CSLAYER1
  6
DASHED
 62
     6
 10
67.349676
 20
101.696154
 11
67.349676
 21
86.696154
  0
LINE
  8
CSLAYER1
  6
CONTINUOUS
 62
     6
 10
74.849676
 20
86.696154
 11
74.849676
 21
257.596154
  0
ARC
  8
CSLAYER1
  6
CONTINUOUS
 62
     6
 10
77.849676
 20
257.596154
 40
3.000000
 50
91.000000
 51
180.000000
  0
LINE
  8
CSLAYER1
  6
CONTINUOUS
 62
     6
 10
77.789676
 20
260.596154
 11
111.849676
 21
261.196154
  0
LINE
  8
CSLAYER1
  6
CONTINUOUS
 62
     6
 10
111.849676
 20
261.196154
 11
145.909676
 21
260.596154
  0
ARC
  8
CSLAYER1
  6
CONTINUOUS
 62
     6
 10
145.849676
 20
257.596154
 40
3.000000
 50
0.000000
 51
89.000000
  0
LINE
  8
CSLAYER1
  6
CONTINUOUS
 62
     6
 10
148.849676
 20
257.596154
 11
148.849676
 21
86.696154
  0
LINE
  8
CSLAYER1
  6
DASHED
 62
     6
 10
156.349676
 20
86.696154
 11
156.349676
 21
101.696154
  0
ARC
  8
CSLAYER1
  6
CONTINUOUS
 62
     6
 10
151.849676
 20
104.696154
 40
3.000000
 50
180.000000
 51
270.000000
  0
LINE
  8
CSLAYER1
  6
CONTINUOUS
 62
     6
 10
151.069676
 20
108.096154
 11
172.629676
 21
102.296154
  0
ARC
  8
CSLAYER1
  6
CONTINUOUS
 62
     6
 10
171.849676
 20
99.396154
 40
3.000000
 50
0.000000
 51
74.940000
  0
LINE
  8
CSLAYER1
  6
CONTINUOUS
 62
     6
 10
174.849676
 20
99.396154
 11
174.849676
 21
86.696154
  0
LINE
  8
CSLAYER1
  6
CONTINUOUS
 62
     6
 10
174.849676
 20
86.696154
 11
139.349676
 21
86.696154
  0
LINE
  8
CSLAYER1
  6
CONTINUOUS
 62
     6
 10
139.349676
 20
86.696154
 11
138.349676
 21
87.696154
  0
LINE
  8
CSLAYER1
  6
CONTINUOUS
 62
     6
 10
138.349676
 20
87.696154
 11
85.349676
 21
87.696154
  0
LINE
  8
CSLAYER1
  6
CONTINUOUS
 62
     6
 10
85.349676
 20
87.696154
 11
84.349676
 21
86.696154
  0
LINE
  8
CSLAYER1
  6
CONTINUOUS
 62
     6
 10
84.349676
 20
86.696154
 11
48.849676
 21
86.696154
  0
LINE
  8
CSLAYER1
  6
DASHED
 62
     6
 10
56.349676
 20
86.696154
 11
56.349676
 21
101.696154
  0
LINE
  8
CSLAYER1
  6
CONTINUOUS
 62
     6
 10
51.349676
 20
101.696154
 11
71.849676
 21
101.696154
  0
ARC
  8
CSLAYER1
  6
CONTINUOUS
 62
     6
 10
71.849676
 20
104.696154
 40
3.000000
 50
270.000000
 51
360.000000
  0
ARC
  8
CSLAYER1
  6
CONTINUOUS
 62
     6
 10
51.349676
 20
99.196154
 40
2.500000
 50
90.000000
 51
180.000000
  0
ARC
  8
CSLAYER1
  6
CONTINUOUS
 62
     6
 10
67.689676
 20
142.196154
 40
15.000000
 50
143.610000
 51
257.170000
  0
ARC
  8
CSLAYER1
  6
CONTINUOUS
 62
     6
 10
53.189676
 20
152.876154
 40
3.000000
 50
-36.390000
 51
14.180000
  0
ARC
  8
CSLAYER1
  6
CONTINUOUS
 62
     6
 10
52.389676
 20
148.416154
 40
5.000000
 50
-22.130000
 51
17.970000
  0
ARC
  8
CSLAYER1
  6
CONTINUOUS
 62
     6
 10
67.689676
 20
142.196154
 40
11.500000
 50
157.870000
 51
253.160000
  0
ARC
  8
CSLAYER1
  6
CONTINUOUS
 62
     6
 10
111.849676
 20
167.696154
 40
57.500000
 50
157.190000
 51
212.859880
  0
LINE
  8
CSLAYER1
  6
CONTINUOUS
 62
     6
 10
58.849676
 20
176.976154
 11
58.849676
 21
236.416154
  0
ARC
  8
CSLAYER1
  6
CONTINUOUS
 62
     6
 10
63.849676
 20
236.416154
 40
5.000000
 50
105.710000
 51
180.000000
  0
LINE
  8
CSLAYER1
  6
CONTINUOUS
 62
     6
 10
62.489676
 20
241.216154
 11
71.209676
 21
243.676154
  0
ARC
  8
CSLAYER1
  6
CONTINUOUS
 62
     6
 10
69.849676
 20
248.476154
 40
5.000000
 50
285.710000
 51
360.000000
  0
LINE
  8
CSLAYER1
  6
CONTINUOUS
 62
     6
 10
76.589676
 20
234.696154
 11
147.349676
 21
234.696154
  0
ARC
  8
CSLAYER1
  6
CONTINUOUS
 62
     6
 10
153.849676
 20
248.476154
 40
5.000000
 50
180.000000
 51
254.300000
  0
LINE
  8
CSLAYER1
  6
CONTINUOUS
 62
     6
 10
152.489676
 20
243.676154
 11
161.209676
 21
241.216154
  0
ARC
  8
CSLAYER1
  6
CONTINUOUS
 62
     6
 10
159.849676
 20
236.416154
 40
5.000000
 50
0.000000
 51
74.300000
  0
LINE
  8
CSLAYER1
  6
CONTINUOUS
 62
     6
 10
164.849676
 20
236.416154
 11
164.849676
 21
176.976154
  0
ARC
  8
CSLAYER1
  6
CONTINUOUS
 62
     6
 10
159.849676
 20
176.976154
 40
5.000000
 50
285.710000
 51
360.000000
  0
LINE
  8
CSLAYER1
  6
CONTINUOUS
 62
     6
 10
161.209676
 20
172.176154
 11
160.029676
 21
171.836154
  0
ARC
  8
CSLAYER1
  6
CONTINUOUS
 62
     6
 10
160.849676
 20
168.956154
 40
3.000000
 50
105.710000
 51
180.000000
  0
ARC
  8
CSLAYER1
  6
CONTINUOUS
 62
     6
 10
170.509676
 20
152.876154
 40
3.000000
 50
165.830000
 51
216.400000
  0
ARC
  8
CSLAYER1
  6
CONTINUOUS
 62
     6
 10
156.009676
 20
142.196154
 40
15.000000
 50
-77.160000
 51
36.400000
  0
ARC
  8
CSLAYER1
  6
CONTINUOUS
 62
     6
 10
157.809676
 20
121.736154
 40
4.000000
 50
-157.356260
 51
67.390000
  0
ARC
  8
CSLAYER1
  6
CONTINUOUS
 62
     6
 10
154.349676
 20
125.196154
 40
5.000000
 50
270.000000
 51
360.000000
  0
LINE
  8
CSLAYER1
  6
CONTINUOUS
 62
     6
 10
159.349676
 20
125.196154
 11
159.349676
 21
133.784504
  0
ARC
  8
CSLAYER1
  6
CONTINUOUS
 62
     6
 10
164.349676
 20
133.784504
 40
5.000000
 50
147.140120
 51
180.000000
  0
ARC
  8
CSLAYER1
  6
CONTINUOUS
 62
     6
 10
111.849676
 20
167.696154
 40
57.500000
 50
-32.859880
 51
22.820000
  0
LINE
  8
CSLAYER1
  6
CONTINUOUS
 62
     6
 10
164.849676
 20
191.696154
 11
166.849676
 21
191.696154
  0
LINE
  8
CSLAYER1
  6
CONTINUOUS
 62
     6
 10
166.849676
 20
191.696154
 11
166.849676
 21
221.696154
  0
LINE
  8
CSLAYER1
  6
CONTINUOUS
 62
     6
 10
166.849676
 20
221.696154
 11
164.849676
 21
221.696154
  0
LINE
  8
CSLAYER1
  6
CONTINUOUS
 62
     6
 10
166.849676
 20
220.696154
 11
211.849676
 21
220.696154
  0
LINE
  8
CSLAYER1
  6
CONTINUOUS
 62
     6
 10
211.849676
 20
220.696154
 11
211.849676
 21
192.696154
  0
LINE
  8
CSLAYER1
  6
CONTINUOUS
 62
     6
 10
211.849676
 20
192.696154
 11
166.849676
 21
192.696154
  0
ARC
  8
CSLAYER1
  6
CONTINUOUS
 62
     6
 10
175.849676
 20
206.696154
 40
4.000000
 50
90.000000
 51
270.000000
  0
LINE
  8
CSLAYER1
  6
CONTINUOUS
 62
     6
 10
175.849676
 20
210.696154
 11
211.849676
 21
210.696154
  0
LINE
  8
CSLAYER1
  6
CONTINUOUS
 62
     6
 10
211.849676
 20
202.696154
 11
175.849676
 21
202.696154
  0
ARC
  8
CSLAYER1
  6
CONTINUOUS
 62
     6
 10
111.849676
 20
167.696154
 40
80.000000
 50
-51.360000
 51
18.209957
  0
LINE
  8
CSLAYER1
  6
DASHED
 62
     6
 10
167.349676
 20
101.696154
 11
167.349676
 21
86.696154
  0
ARC
  8
CSLAYER1
  6
CONTINUOUS
 62
     6
 10
172.349676
 20
99.196154
 40
2.500000
 50
0.000000
 51
90.000000
  0
LINE
  8
CSLAYER1
  6
CONTINUOUS
 62
     6
 10
172.349676
 20
101.696154
 11
151.849676
 21
101.696154
  0
ARC
  8
CSLAYER1
  6
CONTINUOUS
 62
     6
 10
151.849676
 20
110.996154
 40
3.000000
 50
180.000000
 51
254.940000
  0
ARC
  8
CSLAYER1
  6
CONTINUOUS
 62
     6
 10
157.809676
 20
121.736154
 40
10.000000
 50
-136.510000
 51
18.880000
  0
ARC
  8
CSLAYER1
  6
CONTINUOUS
 62
     6
 10
176.729676
 20
128.196154
 40
10.000000
 50
145.970000
 51
198.880000
  0
ARC
  8
CSLAYER1
  6
CONTINUOUS
 62
     6
 10
156.009676
 20
142.196154
 40
11.500000
 50
-73.150000
 51
22.140000
  0
ARC
  8
CSLAYER1
  6
CONTINUOUS
 62
     6
 10
171.289676
 20
148.416154
 40
5.000000
 50
165.731883
 51
202.140000
  0
LINE
  8
CSLAYER1
  6
CONTINUOUS
 62
     6
 10
157.849676
 20
209.196154
 11
157.849676
 21
136.496154
  0
ARC
  8
CSLAYER1
  6
CONTINUOUS
 62
     6
 10
152.849676
 20
136.496154
 40
5.000000
 50
285.530000
 51
360.000000
  0
LINE
  8
CSLAYER1
  6
CONTINUOUS
 62
     6
 10
154.189676
 20
131.676154
 11
152.509676
 21
131.216154
  0
ARC
  8
CSLAYER1
  6
CONTINUOUS
 62
     6
 10
153.849676
 20
126.396154
 40
5.000000
 50
105.530000
 51
180.000000
  0
LINE
  8
CSLAYER1
  6
CONTINUOUS
 62
     6
 10
149.849676
 20
120.196154
 11
154.349676
 21
120.196154
  0
ARC
  8
CSLAYER1
  6
CONTINUOUS
 62
     6
 10
157.809676
 20
121.736154
 40
3.500000
 50
-154.073891
 51
64.120000
  0
ARC
  8
CSLAYER1
  6
CONTINUOUS
 62
     6
 10
149.849676
 20
119.196154
 40
1.000000
 50
90.000000
 51
180.000000
  0
ARC
  8
CSLAYER1
  6
CONTINUOUS
 62
     6
 10
143.289676
 20
107.976154
 40
10.000000
 50
43.490000
 51
56.300000
  0
ARC
  8
CSLAYER1
  6
CONTINUOUS
 62
     6
 10
62.849676
 20
168.956154
 40
3.000000
 50
0.000000
 51
74.300000
  0
LINE
  8
CSLAYER1
  6
CONTINUOUS
 62
     6
 10
63.669676
 20
171.836154
 11
62.489676
 21
172.176154
  0
ARC
  8
CSLAYER1
  6
CONTINUOUS
 62
     6
 10
63.849676
 20
176.976154
 40
5.000000
 50
180.000000
 51
254.300000
  0
ARC
  8
CSLAYER1
  6
CONTINUOUS
 62
     6
 10
111.849676
 20
167.696154
 40
80.000000
 50
41.490817
 51
48.509183
  0
LINE
  8
CSLAYER1
  6
CONTINUOUS
 62
     6
 10
251.711538
 20
232.076154
 11
251.711538
 21
86.696154
  0
LINE
  8
CSLAYER1
  6
CONTINUOUS
 62
     6
 10
251.711538
 20
86.696154
 11
376.711538
 21
86.696154
  0
LINE
  8
CSLAYER1
  6
CONTINUOUS
 62
     6
 10
376.711538
 20
86.696154
 11
376.711538
 21
118.196154
  0
ARC
  8
CSLAYER1
  6
CONTINUOUS
 62
     6
 10
378.711538
 20
118.196154
 40
2.000000
 50
90.000000
 51
180.000000
  0
ARC
  8
CSLAYER1
  6
CONTINUOUS
 62
     6
 10
378.211538
 20
122.196154
 40
2.000000
 50
180.000000
 51
270.000000
  0
LINE
  8
CSLAYER1
  6
CONTINUOUS
 62
     6
 10
376.211538
 20
122.196154
 11
376.211538
 21
213.196154
  0
ARC
  8
CSLAYER1
  6
CONTINUOUS
 62
     6
 10
378.211538
 20
213.196154
 40
2.000000
 50
90.000000
 51
180.000000
  0
LINE
  8
CSLAYER1
  6
CONTINUOUS
 62
     6
 10
378.211538
 20
215.196154
 11
382.211538
 21
215.196154
  0
ARC
  8
CSLAYER1
  6
CONTINUOUS
 62
     6
 10
378.711538
 20
217.196154
 40
2.000000
 50
180.000000
 51
270.000000
  0
LINE
  8
CSLAYER1
  6
CONTINUOUS
 62
     6
 10
376.711538
 20
217.196154
 11
376.711538
 21
232.076154
  0
ARC
  8
CSLAYER1
  6
CONTINUOUS
 62
     6
 10
371.711538
 20
232.076154
 40
5.000000
 50
0.000000
 51
55.460000
  0
LINE
  8
CSLAYER1
  6
CONTINUOUS
 62
     6
 10
374.551538
 20
236.176154
 11
339.491538
 21
260.316154
  0
ARC
  8
CSLAYER1
  6
CONTINUOUS
 62
     6
 10
336.651538
 20
256.196154
 40
5.000000
 50
55.460000
 51
90.000000
  0
LINE
  8
CSLAYER1
  6
CONTINUOUS
 62
     6
 10
336.651538
 20
261.196154
 11
291.771538
 21
261.196154
  0
ARC
  8
CSLAYER1
  6
CONTINUOUS
 62
     6
 10
291.771538
 20
256.196154
 40
5.000000
 50
90.000000
 51
124.540000
  0
LINE
  8
CSLAYER1
  6
CONTINUOUS
 62
     6
 10
288.931538
 20
260.316154
 11
253.871538
 21
236.176154
  0
ARC
  8
CSLAYER1
  6
CONTINUOUS
 62
     6
 10
256.711538
 20
232.076154
 40
5.000000
 50
124.540000
 51
180.000000
  0
LINE
  8
CSLAYER1
  6
CONTINUOUS
 62
     6
 10
276.731538
 20
212.956154
 11
268.071538
 21
161.056154
  0
ARC
  8
CSLAYER1
  6
CONTINUOUS
 62
     6
 10
294.211538
 20
156.696154
 40
26.500000
 50
170.530000
 51
270.000000
  0
LINE
  8
CSLAYER1
  6
CONTINUOUS
 62
     6
 10
294.211538
 20
130.196154
 11
334.211538
 21
130.196154
  0
ARC
  8
CSLAYER1
  6
CONTINUOUS
 62
     6
 10
334.211538
 20
156.696154
 40
26.500000
 50
-90.000000
 51
9.480000
  0
LINE
  8
CSLAYER1
  6
CONTINUOUS
 62
     6
 10
360.351538
 20
161.056154
 11
351.691538
 21
212.956154
  0
ARC
  8
CSLAYER1
  6
CONTINUOUS
 62
     6
 10
314.211538
 20
206.696154
 40
38.000000
 50
9.351533
 51
170.530000
  0
LINE
  8
CSLAYER1
  6
CONTINUOUS
 62
     6
 10
279.191538
 20
212.536154
 11
270.531538
 21
160.636154
  0
ARC
  8
CSLAYER1
  6
CONTINUOUS
 62
     6
 10
294.211538
 20
156.696154
 40
24.000000
 50
171.340000
 51
271.540000
  0
LINE
  8
CSLAYER1
  6
CONTINUOUS
 62
     6
 10
294.211538
 20
132.696154
 11
334.211538
 21
132.696154
  0
ARC
  8
CSLAYER1
  6
CONTINUOUS
 62
     6
 10
334.211538
 20
156.696154
 40
24.000000
 50
-93.140000
 51
10.430000
  0
LINE
  8
CSLAYER1
  6
CONTINUOUS
 62
     6
 10
357.891538
 20
160.636154
 11
349.231538
 21
212.536154
  0
ARC
  8
CSLAYER1
  6
CONTINUOUS
 62
     6
 10
314.211538
 20
206.696154
 40
35.500000
 50
-189.590000
 51
7.620000
  0
LINE
  8
CSLAYER1
  6
CONTINUOUS
 62
     6
 10
297.211538
 20
210.696154
 11
297.211538
 21
202.696154
  0
LINE
  8
CSLAYER1
  6
CONTINUOUS
 62
     6
 10
297.211538
 20
202.696154
 11
304.211538
 21
202.696154
  0
LINE
  8
CSLAYER1
  6
CONTINUOUS
 62
     6
 10
304.211538
 20
202.696154
 11
304.211538
 21
210.696154
  0
LINE
  8
CSLAYER1
  6
CONTINUOUS
 62
     6
 10
304.211538
 20
210.696154
 11
297.211538
 21
210.696154
  0
ARC
  8
CSLAYER1
  6
CONTINUOUS
 62
     6
 10
314.211538
 20
206.696154
 40
14.000000
 50
-163.390000
 51
163.400000
  0
CIRCLE
  8
CSLAYER1
  6
CONTINUOUS
 62
     6
 10
314.211538
 20
206.696154
 40
33.500000
  0
ARC
  8
CSLAYER1
  6
CONTINUOUS
 62
     6
 10
336.611538
 20
256.196154
 40
5.000000
 50
88.970000
 51
90.000000
  0
ARC
  8
CSLAYER1
  6
CONTINUOUS
 62
     6
 10
379.711538
 20
227.936154
 40
3.000000
 50
180.000000
 51
270.000000
  0
LINE
  8
CSLAYER1
  6
CONTINUOUS
 62
     6
 10
379.711538
 20
224.936154
 11
382.211538
 21
224.936154
  0
LINE
  8
CSLAYER1
  6
CONTINUOUS
 62
     6
 10
382.211538
 20
225.196154
 11
382.211538
 21
110.196154
  0
LINE
  8
CSLAYER1
  6
CONTINUOUS
 62
     6
 10
382.211538
 20
110.196154
 11
423.831538
 21
109.096154
  0
ARC
  8
CSLAYER1
  6
CONTINUOUS
 62
     6
 10
423.711538
 20
104.116154
 40
5.000000
 50
0.000000
 51
88.500000
  0
ARC
  8
CSLAYER1
  6
CONTINUOUS
 62
     6
 10
426.711538
 20
112.236154
 40
2.000000
 50
0.000000
 51
75.530000
  0
ARC
  8
CSLAYER1
  6
CONTINUOUS
 62
     6
 10
427.711538
 20
116.116154
 40
2.000000
 50
180.000000
 51
255.530000
  0
LINE
  8
CSLAYER1
  6
CONTINUOUS
 62
     6
 10
425.711538
 20
116.116154
 11
425.711538
 21
127.356154
  0
ARC
  8
CSLAYER1
  6
CONTINUOUS
 62
     6
 10
427.711538
 20
127.356154
 40
2.000000
 50
104.480000
 51
180.000000
  0
ARC
  8
CSLAYER1
  6
CONTINUOUS
 62
     6
 10
426.711538
 20
131.236154
 40
2.000000
 50
284.480000
 51
360.000000
  0
ARC
  8
CSLAYER1
  6
CONTINUOUS
 62
     6
 10
422.711538
 20
124.196154
 40
3.000000
 50
0.000000
 51
90.000000
  0
LINE
  8
CSLAYER1
  6
CONTINUOUS
 62
     6
 10
422.711538
 20
127.196154
 11
421.611538
 21
127.196154
  0
ARC
  8
CSLAYER1
  6
CONTINUOUS
 62
     6
 10
421.611538
 20
130.196154
 40
3.000000
 50
180.000000
 51
270.000000
  0
LINE
  8
CSLAYER1
  6
CONTINUOUS
 62
     6
 10
418.611538
 20
130.196154
 11
418.611538
 21
154.196154
  0
ARC
  8
CSLAYER1
  6
CONTINUOUS
 62
     6
 10
421.611538
 20
154.196154
 40
3.000000
 50
90.000000
 51
180.000000
  0
LINE
  8
CSLAYER1
  6
CONTINUOUS
 62
     6
 10
421.611538
 20
157.196154
 11
423.711538
 21
157.196154
  0
ARC
  8
CSLAYER1
  6
CONTINUOUS
 62
     6
 10
423.711538
 20
162.196154
 40
5.000000
 50
270.000000
 51
360.000000
  0
ARC
  8
CSLAYER1
  6
CONTINUOUS
 62
     6
 10
426.711538
 20
204.156154
 40
2.000000
 50
0.000000
 51
75.530000
  0
ARC
  8
CSLAYER1
  6
CONTINUOUS
 62
     6
 10
427.711538
 20
208.036154
 40
2.000000
 50
180.000000
 51
255.530000
  0
LINE
  8
CSLAYER1
  6
CONTINUOUS
 62
     6
 10
425.711538
 20
208.036154
 11
425.711538
 21
219.276154
  0
ARC
  8
CSLAYER1
  6
CONTINUOUS
 62
     6
 10
427.711538
 20
219.276154
 40
2.000000
 50
104.480000
 51
180.000000
  0
ARC
  8
CSLAYER1
  6
CONTINUOUS
 62
     6
 10
426.711538
 20
223.156154
 40
2.000000
 50
284.480000
 51
360.000000
  0
LINE
  8
CSLAYER1
  6
CONTINUOUS
 62
     6
 10
428.711538
 20
222.996154
 11
421.131538
 21
222.996154
  0
ARC
  8
CSLAYER1
  6
CONTINUOUS
 62
     6
 10
421.131538
 20
228.996154
 40
6.000000
 50
247.670000
 51
270.000000
  0
ARC
  8
CSLAYER1
  6
CONTINUOUS
 62
     6
 10
416.571538
 20
217.896154
 40
6.000000
 50
67.670000
 51
90.000000
  0
LINE
  8
CSLAYER1
  6
CONTINUOUS
 62
     6
 10
416.571538
 20
223.896154
 11
391.711538
 21
223.896154
  0
ARC
  8
CSLAYER1
  6
CONTINUOUS
 62
     6
 10
391.631538
 20
231.916154
 40
8.000000
 50
235.280000
 51
270.500000
  0
ARC
  8
CSLAYER1
  6
CONTINUOUS
 62
     6
 10
386.271538
 20
228.196154
 40
3.000000
 50
286.910000
 51
351.160000
  0
ARC
  8
CSLAYER1
  6
CONTINUOUS
 62
     6
 10
392.211538
 20
227.276154
 40
3.000000
 50
91.500000
 51
171.160000
  0
LINE
  8
CSLAYER1
  6
CONTINUOUS
 62
     6
 10
392.131538
 20
230.276154
 11
416.171538
 21
230.896154
  0
ARC
  8
CSLAYER1
  6
CONTINUOUS
 62
     6
 10
416.091538
 20
233.896154
 40
3.000000
 50
271.500000
 51
328.590000
  0
ARC
  8
CSLAYER1
  6
CONTINUOUS
 62
     6
 10
421.211538
 20
230.776154
 40
3.000000
 50
91.500000
 51
148.600000
  0
LINE
  8
CSLAYER1
  6
CONTINUOUS
 62
     6
 10
421.131538
 20
233.776154
 11
423.831538
 21
233.836154
  0
ARC
  8
CSLAYER1
  6
CONTINUOUS
 62
     6
 10
423.711538
 20
238.836154
 40
5.000000
 50
271.500000
 51
360.000000
  0
LINE
  8
CSLAYER1
  6
CONTINUOUS
 62
     6
 10
428.711538
 20
244.556154
 11
428.711538
 21
90.836154
  0
ARC
  8
CSLAYER1
  6
CONTINUOUS
 62
     6
 10
431.711538
 20
90.836154
 40
3.000000
 50
180.000000
 51
268.500000
  0
LINE
  8
CSLAYER1
  6
CONTINUOUS
 62
     6
 10
431.631538
 20
87.836154
 11
436.711538
 21
87.696154
  0
LINE
  8
CSLAYER1
  6
CONTINUOUS
 62
     6
 10
436.711538
 20
87.696154
 11
436.711538
 21
247.696154
  0
LINE
  8
CSLAYER1
  6
CONTINUOUS
 62
     6
 10
436.711538
 20
247.696154
 11
449.711538
 21
247.696154
  0
LINE
  8
CSLAYER1
  6
CONTINUOUS
 62
     6
 10
449.711538
 20
247.696154
 11
449.711538
 21
87.696154
  0
LINE
  8
CSLAYER1
  6
CONTINUOUS
 62
     6
 10
449.711538
 20
87.696154
 11
436.711538
 21
87.696154
  0
LINE
  8
CSLAYER1
  6
CONTINUOUS
 62
     6
 10
449.711538
 20
114.024214
 11
451.711538
 21
114.024214
  0
LINE
  8
CSLAYER1
  6
CONTINUOUS
 62
     6
 10
451.711538
 20
114.024214
 11
451.711538
 21
129.424214
  0
LINE
  8
CSLAYER1
  6
CONTINUOUS
 62
     6
 10
451.711538
 20
129.424214
 11
449.711538
 21
129.424214
  0
LINE
  8
CSLAYER1
  6
CONTINUOUS
 62
     6
 10
451.711538
 20
129.229768
 11
456.508762
 21
129.229768
  0
LINE
  8
CSLAYER1
  6
CONTINUOUS
 62
     6
 10
456.508762
 20
129.229768
 11
457.011538
 21
128.029214
  0
LINE
  8
CSLAYER1
  6
CONTINUOUS
 62
     6
 10
457.011538
 20
128.029214
 11
457.011538
 21
115.419214
  0
LINE
  8
CSLAYER1
  6
CONTINUOUS
 62
     6
 10
457.011538
 20
115.419214
 11
456.508762
 21
114.218661
  0
LINE
  8
CSLAYER1
  6
CONTINUOUS
 62
     6
 10
456.508762
 20
114.218661
 11
451.711538
 21
114.218661
  0
LINE
  8
CSLAYER1
  6
CONTINUOUS
 62
     6
 10
451.711538
 20
117.971437
 11
456.508762
 21
117.971437
  0
ARC
  8
CSLAYER1
  6
CONTINUOUS
 62
     6
 10
453.258762
 20
116.095049
 40
3.752777
 50
-15.446648
 51
30.000000
  0
ARC
  8
CSLAYER1
  6
CONTINUOUS
 62
     6
 10
442.754597
 20
121.724214
 40
14.256942
 50
-15.261480
 51
15.261480
  0
ARC
  8
CSLAYER1
  6
CONTINUOUS
 62
     6
 10
453.258762
 20
127.353379
 40
3.752777
 50
-30.000000
 51
15.446648
  0
LINE
  8
CSLAYER1
  6
CONTINUOUS
 62
     6
 10
456.508762
 20
125.476991
 11
451.711538
 21
125.476991
  0
LINE
  8
CSLAYER1
  6
CONTINUOUS
 62
     6
 10
451.711538
 20
122.956214
 11
449.711538
 21
122.340214
  0
LINE
  8
CSLAYER1
  6
CONTINUOUS
 62
     6
 10
449.711538
 20
120.492214
 11
451.711538
 21
121.108214
  0
LINE
  8
CSLAYER1
  6
CONTINUOUS
 62
     6
 10
457.011538
 20
122.696154
 11
534.711538
 21
122.696154
  0
LINE
  8
CSLAYER1
  6
CONTINUOUS
 62
     6
 10
534.711538
 20
122.696154
 11
534.711538
 21
212.696154
  0
LINE
  8
CSLAYER1
  6
CONTINUOUS
 62
     6
 10
534.711538
 20
212.696154
 11
457.011538
 21
212.696154
  0
LINE
  8
CSLAYER1
  6
CONTINUOUS
 62
     6
 10
456.508762
 20
209.905318
 11
451.711538
 21
209.905318
  0
LINE
  8
CSLAYER1
  6
CONTINUOUS
 62
     6
 10
451.711538
 20
213.042095
 11
449.711538
 21
212.426095
  0
LINE
  8
CSLAYER1
  6
CONTINUOUS
 62
     6
 10
449.711538
 20
214.274095
 11
451.711538
 21
214.890095
  0
LINE
  8
CSLAYER1
  6
CONTINUOUS
 62
     6
 10
451.711538
 20
217.410871
 11
456.508762
 21
217.410871
  0
ARC
  8
CSLAYER1
  6
CONTINUOUS
 62
     6
 10
442.754597
 20
213.658095
 40
14.256942
 50
-15.261480
 51
15.261480
  0
ARC
  8
CSLAYER1
  6
CONTINUOUS
 62
     6
 10
453.258762
 20
208.028929
 40
3.752777
 50
-15.446648
 51
30.000000
  0
LINE
  8
CSLAYER1
  6
CONTINUOUS
 62
     6
 10
457.011538
 20
207.353095
 11
457.011538
 21
219.963095
  0
LINE
  8
CSLAYER1
  6
CONTINUOUS
 62
     6
 10
457.011538
 20
219.963095
 11
456.508762
 21
221.163648
  0
LINE
  8
CSLAYER1
  6
CONTINUOUS
 62
     6
 10
456.508762
 20
221.163648
 11
451.711538
 21
221.163648
  0
LINE
  8
CSLAYER1
  6
CONTINUOUS
 62
     6
 10
451.711538
 20
221.358095
 11
451.711538
 21
205.958095
  0
LINE
  8
CSLAYER1
  6
CONTINUOUS
 62
     6
 10
451.711538
 20
205.958095
 11
449.711538
 21
205.958095
  0
LINE
  8
CSLAYER1
  6
CONTINUOUS
 62
     6
 10
451.711538
 20
206.152541
 11
456.508762
 21
206.152541
  0
LINE
  8
CSLAYER1
  6
CONTINUOUS
 62
     6
 10
456.508762
 20
206.152541
 11
457.011538
 21
207.353095
  0
ARC
  8
CSLAYER1
  6
CONTINUOUS
 62
     6
 10
453.258762
 20
219.287260
 40
3.752777
 50
-30.000000
 51
15.446648
  0
LINE
  8
CSLAYER1
  6
CONTINUOUS
 62
     6
 10
451.711538
 20
221.358095
 11
449.711538
 21
221.358095
  0
LINE
  8
CSLAYER1
  6
CONTINUOUS
 62
     6
 10
436.711538
 20
247.696154
 11
431.631538
 21
247.556154
  0
ARC
  8
CSLAYER1
  6
CONTINUOUS
 62
     6
 10
431.711538
 20
244.556154
 40
3.000000
 50
91.500000
 51
180.000000
  0
LINE
  8
CSLAYER1
  6
CONTINUOUS
 62
     6
 10
534.711538
 20
211.584612
 11
586.711538
 21
211.584612
  0
LINE
  8
CSLAYER1
  6
CONTINUOUS
 62
     6
 10
586.711538
 20
211.584612
 11
586.711538
 21
123.696154
  0
LINE
  8
CSLAYER1
  6
CONTINUOUS
 62
     6
 10
586.711538
 20
123.696154
 11
587.711538
 21
124.696154
  0
LINE
  8
CSLAYER1
  6
CONTINUOUS
 62
     6
 10
587.711538
 20
124.696154
 11
587.711538
 21
210.584612
  0
LINE
  8
CSLAYER1
  6
CONTINUOUS
 62
     6
 10
587.711538
 20
210.584612
 11
586.711538
 21
211.584612
  0
ARC
  8
CSLAYER1
  6
CONTINUOUS
 62
     6
 10
573.711538
 20
192.696154
 40
1.000000
 50
-0.000005
 51
89.999984
  0
LINE
  8
CSLAYER1
  6
CONTINUOUS
 62
     6
 10
574.711538
 20
192.696154
 11
574.711538
 21
191.696154
  0
ARC
  8
CSLAYER1
  6
CONTINUOUS
 62
     6
 10
573.711538
 20
191.696154
 40
1.000000
 50
269.999999
 51
359.999981
  0
LINE
  8
CSLAYER1
  6
CONTINUOUS
 62
     6
 10
573.711538
 20
190.696154
 11
537.711538
 21
190.696154
  0
ARC
  8
CSLAYER1
  6
CONTINUOUS
 62
     6
 10
537.711538
 20
191.696154
 40
1.000000
 50
180.057309
 51
269.999999
  0
LINE
  8
CSLAYER1
  6
CONTINUOUS
 62
     6
 10
536.711538
 20
191.696154
 11
536.711538
 21
192.696154
  0
ARC
  8
CSLAYER1
  6
CONTINUOUS
 62
     6
 10
537.711538
 20
192.696154
 40
1.000000
 50
89.999997
 51
180.000000
  0
LINE
  8
CSLAYER1
  6
CONTINUOUS
 62
     6
 10
537.711538
 20
193.696154
 11
573.711538
 21
193.696154
  0
LINE
  8
CSLAYER1
  6
CONTINUOUS
 62
     6
 10
573.711538
 20
186.696154
 11
537.711538
 21
186.696154
  0
ARC
  8
CSLAYER1
  6
CONTINUOUS
 62
     6
 10
537.711538
 20
185.696154
 40
1.000000
 50
89.999997
 51
180.000000
  0
LINE
  8
CSLAYER1
  6
CONTINUOUS
 62
     6
 10
536.711538
 20
185.696154
 11
536.711538
 21
184.696154
  0
ARC
  8
CSLAYER1
  6
CONTINUOUS
 62
     6
 10
537.711538
 20
184.696154
 40
1.000000
 50
180.057309
 51
269.999999
  0
LINE
  8
CSLAYER1
  6
CONTINUOUS
 62
     6
 10
537.711538
 20
183.696154
 11
542.482779
 21
183.696154
  0
ARC
  8
CSLAYER1
  6
CONTINUOUS
 62
     6
 10
542.482779
 20
182.696154
 40
1.000000
 50
-48.590367
 51
89.999997
  0
ARC
  8
CSLAYER1
  6
CONTINUOUS
 62
     6
 10
555.711538
 20
167.696154
 40
19.000000
 50
131.409614
 51
228.590366
  0
ARC
  8
CSLAYER1
  6
CONTINUOUS
 62
     6
 10
542.482779
 20
152.696154
 40
1.000000
 50
-90.000001
 51
48.590357
  0
LINE
  8
CSLAYER1
  6
CONTINUOUS
 62
     6
 10
542.482779
 20
151.696154
 11
537.711538
 21
151.696154
  0
ARC
  8
CSLAYER1
  6
CONTINUOUS
 62
     6
 10
537.711538
 20
150.696154
 40
1.000000
 50
90.000001
 51
179.942691
  0
LINE
  8
CSLAYER1
  6
CONTINUOUS
 62
     6
 10
536.711538
 20
150.696154
 11
536.711538
 21
149.696154
  0
ARC
  8
CSLAYER1
  6
CONTINUOUS
 62
     6
 10
537.711538
 20
149.696154
 40
1.000000
 50
180.000000
 51
270.000003
  0
LINE
  8
CSLAYER1
  6
CONTINUOUS
 62
     6
 10
537.711538
 20
148.696154
 11
573.711538
 21
148.696154
  0
ARC
  8
CSLAYER1
  6
CONTINUOUS
 62
     6
 10
573.711538
 20
149.696154
 40
1.000000
 50
-89.999984
 51
0.000005
  0
LINE
  8
CSLAYER1
  6
CONTINUOUS
 62
     6
 10
574.711538
 20
149.696154
 11
574.711538
 21
150.696154
  0
ARC
  8
CSLAYER1
  6
CONTINUOUS
 62
     6
 10
573.711538
 20
150.696154
 40
1.000000
 50
0.000019
 51
90.000001
  0
LINE
  8
CSLAYER1
  6
CONTINUOUS
 62
     6
 10
573.711538
 20
151.696154
 11
568.940298
 21
151.696154
  0
ARC
  8
CSLAYER1
  6
CONTINUOUS
 62
     6
 10
568.940298
 20
152.696154
 40
1.000000
 50
131.409614
 51
269.999999
  0
ARC
  8
CSLAYER1
  6
CONTINUOUS
 62
     6
 10
555.711538
 20
167.696154
 40
19.000000
 50
-48.590367
 51
48.590343
  0
ARC
  8
CSLAYER1
  6
CONTINUOUS
 62
     6
 10
568.940298
 20
182.696154
 40
1.000000
 50
89.999981
 51
228.590366
  0
LINE
  8
CSLAYER1
  6
CONTINUOUS
 62
     6
 10
568.940298
 20
183.696154
 11
573.711538
 21
183.696154
  0
ARC
  8
CSLAYER1
  6
CONTINUOUS
 62
     6
 10
573.711538
 20
184.696154
 40
1.000000
 50
269.999999
 51
359.999981
  0
LINE
  8
CSLAYER1
  6
CONTINUOUS
 62
     6
 10
574.711538
 20
184.696154
 11
574.711538
 21
185.696154
  0
ARC
  8
CSLAYER1
  6
CONTINUOUS
 62
     6
 10
573.711538
 20
185.696154
 40
1.000000
 50
-0.000005
 51
89.999984
  0
LINE
  8
CSLAYER1
  6
CONTINUOUS
 62
     6
 10
561.711538
 20
168.596148
 11
549.711538
 21
168.596148
  0
LINE
  8
CSLAYER1
  6
CONTINUOUS
 62
     6
 10
549.711538
 20
168.596148
 11
549.711538
 21
166.796160
  0
LINE
  8
CSLAYER1
  6
CONTINUOUS
 62
     6
 10
549.711538
 20
166.796160
 11
561.711538
 21
166.796160
  0
LINE
  8
CSLAYER1
  6
CONTINUOUS
 62
     6
 10
561.711538
 20
166.796160
 11
561.711538
 21
168.596148
  0
CIRCLE
  8
CSLAYER1
  6
CONTINUOUS
 62
     6
 10
555.711538
 20
167.696154
 40
12.000000
  0
CIRCLE
  8
CSLAYER1
  6
CONTINUOUS
 62
     6
 10
555.711538
 20
167.696154
 40
15.000000
  0
CIRCLE
  8
CSLAYER1
  6
CONTINUOUS
 62
     6
 10
555.711538
 20
167.696154
 40
16.000000
  0
LINE
  8
CSLAYER1
  6
CONTINUOUS
 62
     6
 10
611.711538
 20
192.696154
 11
611.711538
 21
220.696154
  0
LINE
  8
CSLAYER1
  6
CONTINUOUS
 62
     6
 10
611.711538
 20
220.696154
 11
651.786585
 21
220.696154
  0
LINE
  8
CSLAYER1
  6
CONTINUOUS
 62
     6
 10
659.249598
 20
217.410871
 11
659.249598
 21
209.905318
  0
LINE
  8
CSLAYER1
  6
CONTINUOUS
 62
     6
 10
659.249598
 20
209.905318
 11
665.749598
 21
206.152541
  0
LINE
  8
CSLAYER1
  6
CONTINUOUS
 62
     6
 10
665.749598
 20
206.152541
 11
672.249598
 21
209.905318
  0
LINE
  8
CSLAYER1
  6
CONTINUOUS
 62
     6
 10
672.249598
 20
209.905318
 11
672.249598
 21
217.410871
  0
LINE
  8
CSLAYER1
  6
CONTINUOUS
 62
     6
 10
672.249598
 20
217.410871
 11
665.749598
 21
221.163648
  0
LINE
  8
CSLAYER1
  6
CONTINUOUS
 62
     6
 10
665.749598
 20
221.163648
 11
659.249598
 21
217.410871
  0
CIRCLE
  8
CSLAYER1
  6
CONTINUOUS
 62
     6
 10
665.749598
 20
213.658095
 40
7.700000
  0
CIRCLE
  8
CSLAYER1
  6
CONTINUOUS
 62
     6
 10
665.749598
 20
213.658095
 40
6.305000
  0
LINE
  8
CSLAYER1
  6
CONTINUOUS
 62
     6
 10
658.711538
 20
227.621107
 11
658.711538
 21
236.416154
  0
ARC
  8
CSLAYER1
  6
CONTINUOUS
 62
     6
 10
663.711538
 20
236.416154
 40
5.000000
 50
105.710000
 51
180.000000
  0
LINE
  8
CSLAYER1
  6
CONTINUOUS
 62
     6
 10
662.351538
 20
241.216154
 11
671.071538
 21
243.676154
  0
ARC
  8
CSLAYER1
  6
CONTINUOUS
 62
     6
 10
669.711538
 20
248.476154
 40
5.000000
 50
285.710000
 51
360.000000
  0
ARC
  8
CSLAYER1
  6
CONTINUOUS
 62
     6
 10
677.711538
 20
257.596154
 40
3.000000
 50
91.000000
 51
180.000000
  0
LINE
  8
CSLAYER1
  6
CONTINUOUS
 62
     6
 10
677.651538
 20
260.596154
 11
711.711538
 21
261.196154
  0
LINE
  8
CSLAYER1
  6
CONTINUOUS
 62
     6
 10
711.711538
 20
261.196154
 11
745.771538
 21
260.596154
  0
ARC
  8
CSLAYER1
  6
CONTINUOUS
 62
     6
 10
745.711538
 20
257.596154
 40
3.000000
 50
0.000000
 51
89.000000
  0
LINE
  8
CSLAYER1
  6
CONTINUOUS
 62
     6
 10
748.711538
 20
257.596154
 11
748.711538
 21
238.625696
  0
ARC
  8
CSLAYER1
  6
CONTINUOUS
 62
     6
 10
753.711538
 20
248.476154
 40
5.000000
 50
180.000000
 51
254.300000
  0
LINE
  8
CSLAYER1
  6
CONTINUOUS
 62
     6
 10
752.351538
 20
243.676154
 11
761.071538
 21
241.216154
  0
ARC
  8
CSLAYER1
  6
CONTINUOUS
 62
     6
 10
759.711538
 20
236.416154
 40
5.000000
 50
0.000000
 51
74.300000
  0
LINE
  8
CSLAYER1
  6
CONTINUOUS
 62
     6
 10
764.711538
 20
236.416154
 11
764.711538
 21
227.621107
  0
LINE
  8
CSLAYER1
  6
CONTINUOUS
 62
     6
 10
757.673479
 20
221.163648
 11
751.173479
 21
217.410871
  0
LINE
  8
CSLAYER1
  6
CONTINUOUS
 62
     6
 10
751.173479
 20
217.410871
 11
751.173479
 21
209.905318
  0
LINE
  8
CSLAYER1
  6
CONTINUOUS
 62
     6
 10
751.173479
 20
209.905318
 11
757.673479
 21
206.152541
  0
LINE
  8
CSLAYER1
  6
CONTINUOUS
 62
     6
 10
757.673479
 20
206.152541
 11
764.173479
 21
209.905318
  0
LINE
  8
CSLAYER1
  6
CONTINUOUS
 62
     6
 10
764.173479
 20
209.905318
 11
764.173479
 21
217.410871
  0
LINE
  8
CSLAYER1
  6
CONTINUOUS
 62
     6
 10
764.173479
 20
217.410871
 11
757.673479
 21
221.163648
  0
CIRCLE
  8
CSLAYER1
  6
CONTINUOUS
 62
     6
 10
757.673479
 20
213.658095
 40
7.700000
  0
CIRCLE
  8
CSLAYER1
  6
CONTINUOUS
 62
     6
 10
757.673479
 20
213.658095
 40
6.305000
  0
ARC
  8
CSLAYER1
  6
CONTINUOUS
 62
     6
 10
755.711538
 20
192.696154
 40
1.000000
 50
-0.000020
 51
89.999961
  0
LINE
  8
CSLAYER1
  6
CONTINUOUS
 62
     6
 10
756.711538
 20
192.696154
 11
756.711538
 21
191.696154
  0
ARC
  8
CSLAYER1
  6
CONTINUOUS
 62
     6
 10
755.726583
 20
191.696154
 40
1.000000
 50
269.999999
 51
359.999980
  0
LINE
  8
CSLAYER1
  6
CONTINUOUS
 62
     6
 10
755.726583
 20
190.696154
 11
751.050405
 21
190.451037
  0
ARC
  8
CSLAYER1
  6
CONTINUOUS
 62
     6
 10
751.102743
 20
189.452410
 40
1.000000
 50
93.000960
 51
208.911583
  0
ARC
  8
CSLAYER1
  6
CONTINUOUS
 62
     6
 10
752.427725
 20
189.101641
 40
2.000000
 50
207.731805
 51
267.000336
  0
LINE
  8
CSLAYER1
  6
CONTINUOUS
 62
     6
 10
752.323049
 20
187.104357
 11
759.731954
 21
186.716113
  0
ARC
  8
CSLAYER1
  6
CONTINUOUS
 62
     6
 10
759.711538
 20
185.716357
 40
1.000000
 50
-0.000020
 51
88.830784
  0
LINE
  8
CSLAYER1
  6
CONTINUOUS
 62
     6
 10
760.711538
 20
185.716357
 11
760.711538
 21
149.675951
  0
ARC
  8
CSLAYER1
  6
CONTINUOUS
 62
     6
 10
759.711538
 20
149.675951
 40
1.000000
 50
271.169234
 51
359.999980
  0
LINE
  8
CSLAYER1
  6
CONTINUOUS
 62
     6
 10
759.731954
 20
148.676196
 11
752.323049
 21
148.287951
  0
ARC
  8
CSLAYER1
  6
CONTINUOUS
 62
     6
 10
752.427725
 20
146.290667
 40
2.000000
 50
92.999625
 51
152.268155
  0
ARC
  8
CSLAYER1
  6
CONTINUOUS
 62
     6
 10
751.102743
 20
145.939898
 40
1.000000
 50
151.088395
 51
266.999018
  0
LINE
  8
CSLAYER1
  6
CONTINUOUS
 62
     6
 10
751.050405
 20
144.941271
 11
755.726583
 21
144.696154
  0
ARC
  8
CSLAYER1
  6
CONTINUOUS
 62
     6
 10
755.726583
 20
143.696154
 40
1.000000
 50
-0.000020
 51
89.999961
  0
LINE
  8
CSLAYER1
  6
CONTINUOUS
 62
     6
 10
756.711538
 20
143.696154
 11
756.711538
 21
142.696154
  0
ARC
  8
CSLAYER1
  6
CONTINUOUS
 62
     6
 10
755.711538
 20
142.696154
 40
1.000000
 50
269.999999
 51
359.999980
  0
LINE
  8
CSLAYER1
  6
CONTINUOUS
 62
     6
 10
755.711538
 20
141.696154
 11
747.783071
 21
141.280657
  0
ARC
  8
CSLAYER1
  6
CONTINUOUS
 62
     6
 10
747.887747
 20
139.283404
 40
2.000000
 50
93.000083
 51
141.854246
  0
ARC
  8
CSLAYER1
  6
CONTINUOUS
 62
     6
 10
711.711538
 20
167.696124
 40
45.000000
 50
215.914343
 51
324.085656
  0
LINE
  8
CSLAYER1
  6
CONTINUOUS
 62
     6
 10
675.640020
 20
141.280657
 11
667.711538
 21
141.696154
  0
ARC
  8
CSLAYER1
  6
CONTINUOUS
 62
     6
 10
667.711538
 20
142.696154
 40
1.000000
 50
180.057313
 51
269.999999
  0
LINE
  8
CSLAYER1
  6
CONTINUOUS
 62
     6
 10
666.711538
 20
142.696154
 11
666.711538
 21
143.696154
  0
ARC
  8
CSLAYER1
  6
CONTINUOUS
 62
     6
 10
667.696493
 20
143.696154
 40
1.000000
 50
90.000019
 51
180.000000
  0
LINE
  8
CSLAYER1
  6
CONTINUOUS
 62
     6
 10
667.696493
 20
144.696154
 11
672.372686
 21
144.941271
  0
ARC
  8
CSLAYER1
  6
CONTINUOUS
 62
     6
 10
672.320333
 20
145.939898
 40
1.000000
 50
-86.999020
 51
28.911602
  0
ARC
  8
CSLAYER1
  6
CONTINUOUS
 62
     6
 10
670.995367
 20
146.290667
 40
2.000000
 50
27.731825
 51
87.000355
  0
LINE
  8
CSLAYER1
  6
CONTINUOUS
 62
     6
 10
671.100027
 20
148.287951
 11
663.691122
 21
148.676196
  0
ARC
  8
CSLAYER1
  6
CONTINUOUS
 62
     6
 10
663.711538
 20
149.675951
 40
1.000000
 50
180.057313
 51
268.830764
  0
LINE
  8
CSLAYER1
  6
CONTINUOUS
 62
     6
 10
662.711538
 20
149.675951
 11
662.711538
 21
185.716357
  0
ARC
  8
CSLAYER1
  6
CONTINUOUS
 62
     6
 10
663.711538
 20
185.716357
 40
1.000000
 50
91.169254
 51
180.000000
  0
LINE
  8
CSLAYER1
  6
CONTINUOUS
 62
     6
 10
663.691122
 20
186.716113
 11
671.100027
 21
187.104357
  0
ARC
  8
CSLAYER1
  6
CONTINUOUS
 62
     6
 10
670.995367
 20
189.101641
 40
2.000000
 50
272.999605
 51
332.268193
  0
ARC
  8
CSLAYER1
  6
CONTINUOUS
 62
     6
 10
672.320333
 20
189.452410
 40
1.000000
 50
-28.911585
 51
86.999038
  0
LINE
  8
CSLAYER1
  6
CONTINUOUS
 62
     6
 10
672.372686
 20
190.451037
 11
667.696493
 21
190.696154
  0
ARC
  8
CSLAYER1
  6
CONTINUOUS
 62
     6
 10
667.696493
 20
191.696154
 40
1.000000
 50
180.057313
 51
269.999999
  0
LINE
  8
CSLAYER1
  6
CONTINUOUS
 62
     6
 10
666.711538
 20
191.696154
 11
666.711538
 21
192.696154
  0
ARC
  8
CSLAYER1
  6
CONTINUOUS
 62
     6
 10
667.711538
 20
192.696154
 40
1.000000
 50
90.000019
 51
180.000000
  0
LINE
  8
CSLAYER1
  6
CONTINUOUS
 62
     6
 10
667.711538
 20
193.696154
 11
675.640020
 21
194.111651
  0
ARC
  8
CSLAYER1
  6
CONTINUOUS
 62
     6
 10
675.535345
 20
196.108904
 40
2.000000
 50
273.000063
 51
321.854284
  0
ARC
  8
CSLAYER1
  6
CONTINUOUS
 62
     6
 10
711.711538
 20
167.696185
 40
45.000000
 50
35.914343
 51
144.085658
  0
ARC
  8
CSLAYER1
  6
CONTINUOUS
 62
     6
 10
747.887747
 20
196.108904
 40
2.000000
 50
218.145714
 51
266.999935
  0
LINE
  8
CSLAYER1
  6
CONTINUOUS
 62
     6
 10
747.783071
 20
194.111651
 11
755.711538
 21
193.696154
  0
ARC
  8
CSLAYER1
  6
CONTINUOUS
 62
     6
 10
711.711538
 20
167.696185
 40
45.000000
 50
25.550626
 51
30.185652
  0
LINE
  8
CSLAYER1
  6
CONTINUOUS
 62
     6
 10
743.711538
 20
185.723956
 11
743.711523
 21
179.696154
  0
ARC
  8
CSLAYER1
  6
CONTINUOUS
 62
     6
 10
741.711523
 20
179.696154
 40
2.000000
 50
269.999999
 51
359.999866
  0
LINE
  8
CSLAYER1
  6
CONTINUOUS
 62
     6
 10
741.711523
 20
177.696154
 11
735.711523
 21
177.696154
  0
ARC
  8
CSLAYER1
  6
CONTINUOUS
 62
     6
 10
735.711523
 20
180.696154
 40
3.000000
 50
180.057313
 51
269.999999
  0
LINE
  8
CSLAYER1
  6
CONTINUOUS
 62
     6
 10
732.711523
 20
180.696154
 11
732.711538
 21
194.078021
  0
ARC
  8
CSLAYER1
  6
CONTINUOUS
 62
     6
 10
734.711538
 20
194.078021
 40
2.000000
 50
48.917742
 51
180.000000
  0
ARC
  8
CSLAYER1
  6
CONTINUOUS
 62
     6
 10
711.711538
 20
167.696185
 40
37.000008
 50
31.002726
 51
48.917684
  0
ARC
  8
CSLAYER1
  6
CONTINUOUS
 62
     6
 10
741.711538
 20
185.723956
 40
2.000000
 50
-0.000020
 51
31.002669
  0
ARC
  8
CSLAYER1
  6
CONTINUOUS
 62
     6
 10
723.711538
 20
187.317584
 40
2.000000
 50
238.551148
 51
359.999980
  0
ARC
  8
CSLAYER1
  6
CONTINUOUS
 62
     6
 10
711.711538
 20
167.696185
 40
20.999992
 50
58.550938
 51
72.281070
  0
ARC
  8
CSLAYER1
  6
CONTINUOUS
 62
     6
 10
718.711538
 20
189.605090
 40
2.000000
 50
180.057313
 51
252.281222
  0
LINE
  8
CSLAYER1
  6
CONTINUOUS
 62
     6
 10
716.711538
 20
189.605090
 11
716.711538
 21
197.696154
  0
ARC
  8
CSLAYER1
  6
CONTINUOUS
 62
     6
 10
718.711538
 20
197.696154
 40
2.000000
 50
89.999961
 51
180.000000
  0
LINE
  8
CSLAYER1
  6
CONTINUOUS
 62
     6
 10
718.711538
 20
199.696154
 11
723.711538
 21
199.696154
  0
ARC
  8
CSLAYER1
  6
CONTINUOUS
 62
     6
 10
723.711538
 20
197.696154
 40
2.000000
 50
-0.000020
 51
89.999961
  0
LINE
  8
CSLAYER1
  6
CONTINUOUS
 62
     6
 10
725.711538
 20
197.696154
 11
725.711538
 21
187.317584
  0
ARC
  8
CSLAYER1
  6
CONTINUOUS
 62
     6
 10
704.711538
 20
189.605090
 40
2.000000
 50
287.718719
 51
359.999980
  0
ARC
  8
CSLAYER1
  6
CONTINUOUS
 62
     6
 10
711.711538
 20
167.696185
 40
20.999992
 50
107.718968
 51
121.449042
  0
ARC
  8
CSLAYER1
  6
CONTINUOUS
 62
     6
 10
699.711538
 20
187.317584
 40
2.000000
 50
180.057313
 51
301.448850
  0
LINE
  8
CSLAYER1
  6
CONTINUOUS
 62
     6
 10
697.711538
 20
187.317584
 11
697.711538
 21
197.696154
  0
ARC
  8
CSLAYER1
  6
CONTINUOUS
 62
     6
 10
699.711538
 20
197.696154
 40
2.000000
 50
90.000019
 51
180.000000
  0
LINE
  8
CSLAYER1
  6
CONTINUOUS
 62
     6
 10
699.711538
 20
199.696154
 11
704.711538
 21
199.696154
  0
ARC
  8
CSLAYER1
  6
CONTINUOUS
 62
     6
 10
704.711538
 20
197.696154
 40
2.000000
 50
-0.000020
 51
90.000019
  0
LINE
  8
CSLAYER1
  6
CONTINUOUS
 62
     6
 10
706.711538
 20
197.696154
 11
706.711538
 21
189.605090
  0
ARC
  8
CSLAYER1
  6
CONTINUOUS
 62
     6
 10
688.711538
 20
194.078021
 40
2.000000
 50
-0.000020
 51
131.082239
  0
ARC
  8
CSLAYER1
  6
CONTINUOUS
 62
     6
 10
711.711538
 20
167.696185
 40
37.000008
 50
131.082296
 51
148.997254
  0
ARC
  8
CSLAYER1
  6
CONTINUOUS
 62
     6
 10
681.711538
 20
185.723956
 40
2.000000
 50
148.997311
 51
180.000000
  0
LINE
  8
CSLAYER1
  6
CONTINUOUS
 62
     6
 10
679.711538
 20
185.723956
 11
679.711553
 21
179.696154
  0
ARC
  8
CSLAYER1
  6
CONTINUOUS
 62
     6
 10
681.711553
 20
179.696154
 40
2.000000
 50
180.057313
 51
269.999999
  0
LINE
  8
CSLAYER1
  6
CONTINUOUS
 62
     6
 10
681.711553
 20
177.696154
 11
687.711553
 21
177.696154
  0
ARC
  8
CSLAYER1
  6
CONTINUOUS
 62
     6
 10
687.711553
 20
180.696154
 40
3.000000
 50
-90.000001
 51
0.000037
  0
LINE
  8
CSLAYER1
  6
CONTINUOUS
 62
     6
 10
690.711553
 20
180.696154
 11
690.711538
 21
194.078021
  0
ARC
  8
CSLAYER1
  6
CONTINUOUS
 62
     6
 10
711.711538
 20
167.696185
 40
45.000000
 50
149.814348
 51
154.449465
  0
ARC
  8
CSLAYER1
  6
CONTINUOUS
 62
     6
 10
681.711553
 20
155.696154
 40
2.000000
 50
90.000019
 51
179.999885
  0
LINE
  8
CSLAYER1
  6
CONTINUOUS
 62
     6
 10
679.711553
 20
155.696154
 11
679.711538
 21
149.668353
  0
ARC
  8
CSLAYER1
  6
CONTINUOUS
 62
     6
 10
681.711538
 20
149.668353
 40
2.000000
 50
180.057313
 51
211.002649
  0
ARC
  8
CSLAYER1
  6
CONTINUOUS
 62
     6
 10
711.711538
 20
167.696124
 40
37.000008
 50
211.002764
 51
228.917722
  0
ARC
  8
CSLAYER1
  6
CONTINUOUS
 62
     6
 10
688.711538
 20
141.314288
 40
2.000000
 50
228.917779
 51
359.999980
  0
LINE
  8
CSLAYER1
  6
CONTINUOUS
 62
     6
 10
690.711538
 20
141.314288
 11
690.711553
 21
154.696154
  0
ARC
  8
CSLAYER1
  6
CONTINUOUS
 62
     6
 10
687.711553
 20
154.696154
 40
3.000000
 50
-0.000020
 51
90.000019
  0
LINE
  8
CSLAYER1
  6
CONTINUOUS
 62
     6
 10
687.711553
 20
157.696154
 11
681.711553
 21
157.696154
  0
ARC
  8
CSLAYER1
  6
CONTINUOUS
 62
     6
 10
711.711538
 20
166.903032
 40
13.065822
 50
-37.903051
 51
217.903067
  0
ARC
  8
CSLAYER1
  6
CONTINUOUS
 62
     6
 10
720.945169
 20
159.714081
 40
1.363635
 50
230.236270
 51
322.096587
  0
ARC
  8
CSLAYER1
  6
CONTINUOUS
 62
     6
 10
718.203667
 20
156.419418
 40
2.922462
 50
50.235849
 51
203.481547
  0
LINE
  8
CSLAYER1
  6
CONTINUOUS
 62
     6
 10
715.523221
 20
155.254959
 11
716.105566
 21
153.354189
  0
CIRCLE
  8
CSLAYER1
  6
CONTINUOUS
 62
     6
 10
718.203667
 20
156.419418
 40
1.363635
  0
ARC
  8
CSLAYER1
  6
CONTINUOUS
 62
     6
 10
723.711538
 20
148.074725
 40
2.000000
 50
-0.000020
 51
121.448870
  0
LINE
  8
CSLAYER1
  6
CONTINUOUS
 62
     6
 10
725.711538
 20
148.074725
 11
725.711538
 21
137.696154
  0
ARC
  8
CSLAYER1
  6
CONTINUOUS
 62
     6
 10
723.711538
 20
137.696154
 40
2.000000
 50
269.999999
 51
359.999980
  0
LINE
  8
CSLAYER1
  6
CONTINUOUS
 62
     6
 10
723.711538
 20
135.696154
 11
718.711538
 21
135.696154
  0
ARC
  8
CSLAYER1
  6
CONTINUOUS
 62
     6
 10
718.711538
 20
137.696154
 40
2.000000
 50
180.057313
 51
269.999999
  0
LINE
  8
CSLAYER1
  6
CONTINUOUS
 62
     6
 10
716.711538
 20
137.696154
 11
716.711538
 21
145.787219
  0
ARC
  8
CSLAYER1
  6
CONTINUOUS
 62
     6
 10
718.711538
 20
145.787219
 40
2.000000
 50
107.718739
 51
180.000000
  0
ARC
  8
CSLAYER1
  6
CONTINUOUS
 62
     6
 10
711.711538
 20
167.696124
 40
20.999992
 50
287.718948
 51
301.449022
  0
ARC
  8
CSLAYER1
  6
CONTINUOUS
 62
     6
 10
735.711523
 20
154.696154
 40
3.000000
 50
89.999979
 51
180.000018
  0
LINE
  8
CSLAYER1
  6
CONTINUOUS
 62
     6
 10
735.711523
 20
157.696154
 11
741.711523
 21
157.696154
  0
ARC
  8
CSLAYER1
  6
CONTINUOUS
 62
     6
 10
741.711523
 20
155.696154
 40
2.000000
 50
0.000095
 51
90.000019
  0
LINE
  8
CSLAYER1
  6
CONTINUOUS
 62
     6
 10
743.711523
 20
155.696154
 11
743.711538
 21
149.668353
  0
ARC
  8
CSLAYER1
  6
CONTINUOUS
 62
     6
 10
741.711538
 20
149.668353
 40
2.000000
 50
328.997291
 51
359.999980
  0
ARC
  8
CSLAYER1
  6
CONTINUOUS
 62
     6
 10
711.711538
 20
167.696124
 40
37.000008
 50
311.082276
 51
328.997234
  0
ARC
  8
CSLAYER1
  6
CONTINUOUS
 62
     6
 10
734.711538
 20
141.314288
 40
2.000000
 50
180.057313
 51
311.082219
  0
LINE
  8
CSLAYER1
  6
CONTINUOUS
 62
     6
 10
732.711538
 20
141.314288
 11
732.711523
 21
154.696154
  0
CIRCLE
  8
CSLAYER1
  6
CONTINUOUS
 62
     6
 10
711.711538
 20
167.696154
 40
80.000000
  0
CIRCLE
  8
CSLAYER1
  6
CONTINUOUS
 62
     6
 10
711.711538
 20
167.696185
 40
15.000000
  0
CIRCLE
  8
CSLAYER1
  6
CONTINUOUS
 62
     6
 10
711.711538
 20
167.696185
 40
44.000000
  0
ARC
  8
CSLAYER1
  6
CONTINUOUS
 62
     6
 10
702.477919
 20
159.714081
 40
1.363635
 50
217.903410
 51
309.763671
  0
ARC
  8
CSLAYER1
  6
CONTINUOUS
 62
     6
 10
705.219418
 20
156.419418
 40
2.922462
 50
-23.481549
 51
129.764149
  0
LINE
  8
CSLAYER1
  6
CONTINUOUS
 62
     6
 10
707.899867
 20
155.254959
 11
707.317522
 21
153.354189
  0
CIRCLE
  8
CSLAYER1
  6
CONTINUOUS
 62
     6
 10
705.219418
 20
156.419418
 40
1.363635
  0
ARC
  8
CSLAYER1
  6
CONTINUOUS
 62
     6
 10
699.711538
 20
148.074725
 40
2.000000
 50
58.551110
 51
180.000000
  0
LINE
  8
CSLAYER1
  6
CONTINUOUS
 62
     6
 10
697.711538
 20
148.074725
 11
697.711538
 21
137.696154
  0
ARC
  8
CSLAYER1
  6
CONTINUOUS
 62
     6
 10
699.711538
 20
137.696154
 40
2.000000
 50
180.057313
 51
269.999999
  0
LINE
  8
CSLAYER1
  6
CONTINUOUS
 62
     6
 10
699.711538
 20
135.696154
 11
704.711538
 21
135.696154
  0
ARC
  8
CSLAYER1
  6
CONTINUOUS
 62
     6
 10
704.711538
 20
137.696154
 40
2.000000
 50
269.999999
 51
359.999980
  0
LINE
  8
CSLAYER1
  6
CONTINUOUS
 62
     6
 10
706.711538
 20
137.696154
 11
706.711538
 21
145.787219
  0
ARC
  8
CSLAYER1
  6
CONTINUOUS
 62
     6
 10
704.711538
 20
145.787219
 40
2.000000
 50
-0.000020
 51
72.281242
  0
ARC
  8
CSLAYER1
  6
CONTINUOUS
 62
     6
 10
711.711538
 20
167.696124
 40
20.999992
 50
238.550976
 51
252.281050
  0
LINE
  8
CSLAYER1
  6
CONTINUOUS
 62
     6
 10
635.718118
 20
192.696154
 11
611.711538
 21
192.696154
  0
LINE
  8
CSLAYER1
  6
CONTINUOUS
 62
     6
 10
573.711538
 20
144.696154
 11
537.711538
 21
144.696154
  0
ARC
  8
CSLAYER1
  6
CONTINUOUS
 62
     6
 10
537.711538
 20
143.696154
 40
1.000000
 50
90.000001
 51
179.942691
  0
LINE
  8
CSLAYER1
  6
CONTINUOUS
 62
     6
 10
536.711538
 20
143.696154
 11
536.711538
 21
142.696154
  0
ARC
  8
CSLAYER1
  6
CONTINUOUS
 62
     6
 10
537.711538
 20
142.696154
 40
1.000000
 50
180.000000
 51
270.000003
  0
LINE
  8
CSLAYER1
  6
CONTINUOUS
 62
     6
 10
537.711538
 20
141.696154
 11
573.711538
 21
141.696154
  0
ARC
  8
CSLAYER1
  6
CONTINUOUS
 62
     6
 10
573.711538
 20
142.696154
 40
1.000000
 50
-89.999984
 51
0.000005
  0
LINE
  8
CSLAYER1
  6
CONTINUOUS
 62
     6
 10
574.711538
 20
142.696154
 11
574.711538
 21
143.696154
  0
ARC
  8
CSLAYER1
  6
CONTINUOUS
 62
     6
 10
573.711538
 20
143.696154
 40
1.000000
 50
0.000019
 51
90.000001
  0
LINE
  8
CSLAYER1
  6
CONTINUOUS
 62
     6
 10
573.711538
 20
127.696154
 11
573.711538
 21
123.696154
  0
LINE
  8
CSLAYER1
  6
CONTINUOUS
 62
     6
 10
573.711538
 20
123.696154
 11
586.711538
 21
123.696154
  0
LINE
  8
CSLAYER1
  6
CONTINUOUS
 62
     6
 10
577.827700
 20
114.692337
 11
577.998595
 21
114.525326
  0
LINE
  8
CSLAYER1
  6
CONTINUOUS
 62
     6
 10
577.998595
 20
114.525326
 11
578.171598
 21
114.357210
  0
LINE
  8
CSLAYER1
  6
CONTINUOUS
 62
     6
 10
578.171598
 20
114.357210
 11
578.344933
 21
114.190315
  0
LINE
  8
CSLAYER1
  6
CONTINUOUS
 62
     6
 10
578.344933
 20
114.190315
 11
578.516825
 21
114.026966
  0
LINE
  8
CSLAYER1
  6
CONTINUOUS
 62
     6
 10
578.516825
 20
114.026966
 11
578.685497
 21
113.869487
  0
LINE
  8
CSLAYER1
  6
CONTINUOUS
 62
     6
 10
578.685497
 20
113.869487
 11
578.849174
 21
113.720202
  0
LINE
  8
CSLAYER1
  6
CONTINUOUS
 62
     6
 10
578.849174
 20
113.720202
 11
579.006080
 21
113.581438
  0
LINE
  8
CSLAYER1
  6
CONTINUOUS
 62
     6
 10
579.006080
 20
113.581438
 11
579.147311
 21
113.458640
  0
LINE
  8
CSLAYER1
  6
CONTINUOUS
 62
     6
 10
579.147311
 20
113.458640
 11
579.293495
 21
113.330755
  0
LINE
  8
CSLAYER1
  6
CONTINUOUS
 62
     6
 10
579.293495
 20
113.330755
 11
579.443488
 21
113.198248
  0
LINE
  8
CSLAYER1
  6
CONTINUOUS
 62
     6
 10
579.443488
 20
113.198248
 11
579.596149
 21
113.061589
  0
LINE
  8
CSLAYER1
  6
CONTINUOUS
 62
     6
 10
579.596149
 20
113.061589
 11
579.750336
 21
112.921244
  0
LINE
  8
CSLAYER1
  6
CONTINUOUS
 62
     6
 10
579.750336
 20
112.921244
 11
579.904907
 21
112.777681
  0
LINE
  8
CSLAYER1
  6
CONTINUOUS
 62
     6
 10
579.904907
 20
112.777681
 11
580.058718
 21
112.631369
  0
LINE
  8
CSLAYER1
  6
CONTINUOUS
 62
     6
 10
580.058718
 20
112.631369
 11
580.210629
 21
112.482774
  0
LINE
  8
CSLAYER1
  6
CONTINUOUS
 62
     6
 10
580.210629
 20
112.482774
 11
580.359496
 21
112.332364
  0
LINE
  8
CSLAYER1
  6
CONTINUOUS
 62
     6
 10
580.359496
 20
112.332364
 11
580.504178
 21
112.180608
  0
LINE
  8
CSLAYER1
  6
CONTINUOUS
 62
     6
 10
580.504178
 20
112.180608
 11
580.643531
 21
112.027972
  0
LINE
  8
CSLAYER1
  6
CONTINUOUS
 62
     6
 10
580.643531
 20
112.027972
 11
580.699056
 21
111.965028
  0
LINE
  8
CSLAYER1
  6
CONTINUOUS
 62
     6
 10
580.699056
 20
111.965028
 11
580.753983
 21
111.901528
  0
LINE
  8
CSLAYER1
  6
CONTINUOUS
 62
     6
 10
580.753983
 20
111.901528
 11
580.808374
 21
111.837526
  0
LINE
  8
CSLAYER1
  6
CONTINUOUS
 62
     6
 10
580.808374
 20
111.837526
 11
580.862288
 21
111.773080
  0
LINE
  8
CSLAYER1
  6
CONTINUOUS
 62
     6
 10
580.862288
 20
111.773080
 11
580.915784
 21
111.708244
  0
LINE
  8
CSLAYER1
  6
CONTINUOUS
 62
     6
 10
580.915784
 20
111.708244
 11
580.968922
 21
111.643074
  0
LINE
  8
CSLAYER1
  6
CONTINUOUS
 62
     6
 10
580.968922
 20
111.643074
 11
581.021761
 21
111.577626
  0
LINE
  8
CSLAYER1
  6
CONTINUOUS
 62
     6
 10
581.021761
 20
111.577626
 11
581.074362
 21
111.511956
  0
LINE
  8
CSLAYER1
  6
CONTINUOUS
 62
     6
 10
581.074362
 20
111.511956
 11
581.126785
 21
111.446118
  0
LINE
  8
CSLAYER1
  6
CONTINUOUS
 62
     6
 10
581.126785
 20
111.446118
 11
581.179087
 21
111.380169
  0
LINE
  8
CSLAYER1
  6
CONTINUOUS
 62
     6
 10
581.179087
 20
111.380169
 11
581.307642
 21
111.217752
  0
LINE
  8
CSLAYER1
  6
CONTINUOUS
 62
     6
 10
581.307642
 20
111.217752
 11
581.278905
 21
111.170897
  0
LINE
  8
CSLAYER1
  6
CONTINUOUS
 62
     6
 10
581.278905
 20
111.170897
 11
581.238313
 21
111.111016
  0
LINE
  8
CSLAYER1
  6
CONTINUOUS
 62
     6
 10
581.238313
 20
111.111016
 11
581.194031
 21
111.051148
  0
LINE
  8
CSLAYER1
  6
CONTINUOUS
 62
     6
 10
581.194031
 20
111.051148
 11
581.146579
 21
110.991875
  0
LINE
  8
CSLAYER1
  6
CONTINUOUS
 62
     6
 10
581.146579
 20
110.991875
 11
581.096481
 21
110.933777
  0
LINE
  8
CSLAYER1
  6
CONTINUOUS
 62
     6
 10
581.096481
 20
110.933777
 11
581.044256
 21
110.877436
  0
LINE
  8
CSLAYER1
  6
CONTINUOUS
 62
     6
 10
581.044256
 20
110.877436
 11
580.990428
 21
110.823433
  0
LINE
  8
CSLAYER1
  6
CONTINUOUS
 62
     6
 10
580.990428
 20
110.823433
 11
580.935517
 21
110.772348
  0
LINE
  8
CSLAYER1
  6
CONTINUOUS
 62
     6
 10
580.935517
 20
110.772348
 11
580.880046
 21
110.724762
  0
LINE
  8
CSLAYER1
  6
CONTINUOUS
 62
     6
 10
580.880046
 20
110.724762
 11
580.824536
 21
110.681257
  0
LINE
  8
CSLAYER1
  6
CONTINUOUS
 62
     6
 10
580.824536
 20
110.681257
 11
580.769508
 21
110.642412
  0
LINE
  8
CSLAYER1
  6
CONTINUOUS
 62
     6
 10
580.769508
 20
110.642412
 11
580.713022
 21
110.608118
  0
LINE
  8
CSLAYER1
  6
CONTINUOUS
 62
     6
 10
580.713022
 20
110.608118
 11
580.652421
 21
110.577151
  0
LINE
  8
CSLAYER1
  6
CONTINUOUS
 62
     6
 10
580.652421
 20
110.577151
 11
580.588260
 21
110.549162
  0
LINE
  8
CSLAYER1
  6
CONTINUOUS
 62
     6
 10
580.588260
 20
110.549162
 11
580.521098
 21
110.523801
  0
LINE
  8
CSLAYER1
  6
CONTINUOUS
 62
     6
 10
580.521098
 20
110.523801
 11
580.451491
 21
110.500719
  0
LINE
  8
CSLAYER1
  6
CONTINUOUS
 62
     6
 10
580.451491
 20
110.500719
 11
580.379997
 21
110.479565
  0
LINE
  8
CSLAYER1
  6
CONTINUOUS
 62
     6
 10
580.379997
 20
110.479565
 11
580.307173
 21
110.459991
  0
LINE
  8
CSLAYER1
  6
CONTINUOUS
 62
     6
 10
580.307173
 20
110.459991
 11
580.233574
 21
110.441646
  0
LINE
  8
CSLAYER1
  6
CONTINUOUS
 62
     6
 10
580.233574
 20
110.441646
 11
580.159760
 21
110.424180
  0
LINE
  8
CSLAYER1
  6
CONTINUOUS
 62
     6
 10
580.159760
 20
110.424180
 11
580.086286
 21
110.407245
  0
LINE
  8
CSLAYER1
  6
CONTINUOUS
 62
     6
 10
580.086286
 20
110.407245
 11
580.013709
 21
110.390490
  0
LINE
  8
CSLAYER1
  6
CONTINUOUS
 62
     6
 10
580.013709
 20
110.390490
 11
579.939486
 21
110.372890
  0
LINE
  8
CSLAYER1
  6
CONTINUOUS
 62
     6
 10
579.939486
 20
110.372890
 11
579.865750
 21
110.354865
  0
LINE
  8
CSLAYER1
  6
CONTINUOUS
 62
     6
 10
579.865750
 20
110.354865
 11
579.792454
 21
110.336459
  0
LINE
  8
CSLAYER1
  6
CONTINUOUS
 62
     6
 10
579.792454
 20
110.336459
 11
579.719548
 21
110.317713
  0
LINE
  8
CSLAYER1
  6
CONTINUOUS
 62
     6
 10
579.719548
 20
110.317713
 11
579.646984
 21
110.298671
  0
LINE
  8
CSLAYER1
  6
CONTINUOUS
 62
     6
 10
579.646984
 20
110.298671
 11
579.574713
 21
110.279375
  0
LINE
  8
CSLAYER1
  6
CONTINUOUS
 62
     6
 10
579.574713
 20
110.279375
 11
579.502686
 21
110.259866
  0
LINE
  8
CSLAYER1
  6
CONTINUOUS
 62
     6
 10
579.502686
 20
110.259866
 11
579.430854
 21
110.240188
  0
LINE
  8
CSLAYER1
  6
CONTINUOUS
 62
     6
 10
579.430854
 20
110.240188
 11
579.359168
 21
110.220382
  0
LINE
  8
CSLAYER1
  6
CONTINUOUS
 62
     6
 10
579.359168
 20
110.220382
 11
579.287580
 21
110.200492
  0
LINE
  8
CSLAYER1
  6
CONTINUOUS
 62
     6
 10
579.287580
 20
110.200492
 11
579.206961
 21
110.178029
  0
LINE
  8
CSLAYER1
  6
CONTINUOUS
 62
     6
 10
579.206961
 20
110.178029
 11
579.079706
 21
110.350179
  0
LINE
  8
CSLAYER1
  6
CONTINUOUS
 62
     6
 10
579.079706
 20
110.350179
 11
578.984926
 21
110.477341
  0
LINE
  8
CSLAYER1
  6
CONTINUOUS
 62
     6
 10
578.984926
 20
110.477341
 11
578.889275
 21
110.603573
  0
LINE
  8
CSLAYER1
  6
CONTINUOUS
 62
     6
 10
578.889275
 20
110.603573
 11
578.792316
 21
110.728409
  0
LINE
  8
CSLAYER1
  6
CONTINUOUS
 62
     6
 10
578.792316
 20
110.728409
 11
578.693614
 21
110.851384
  0
LINE
  8
CSLAYER1
  6
CONTINUOUS
 62
     6
 10
578.693614
 20
110.851384
 11
578.592732
 21
110.972032
  0
LINE
  8
CSLAYER1
  6
CONTINUOUS
 62
     6
 10
578.592732
 20
110.972032
 11
578.489236
 21
111.089889
  0
LINE
  8
CSLAYER1
  6
CONTINUOUS
 62
     6
 10
578.489236
 20
111.089889
 11
578.382689
 21
111.204489
  0
LINE
  8
CSLAYER1
  6
CONTINUOUS
 62
     6
 10
578.382689
 20
111.204489
 11
578.272654
 21
111.315367
  0
LINE
  8
CSLAYER1
  6
CONTINUOUS
 62
     6
 10
578.272654
 20
111.315367
 11
578.158698
 21
111.422058
  0
LINE
  8
CSLAYER1
  6
CONTINUOUS
 62
     6
 10
578.158698
 20
111.422058
 11
578.040382
 21
111.524096
  0
LINE
  8
CSLAYER1
  6
CONTINUOUS
 62
     6
 10
578.040382
 20
111.524096
 11
577.888958
 21
111.643134
  0
LINE
  8
CSLAYER1
  6
CONTINUOUS
 62
     6
 10
577.888958
 20
111.643134
 11
577.730718
 21
111.757646
  0
LINE
  8
CSLAYER1
  6
CONTINUOUS
 62
     6
 10
577.730718
 20
111.757646
 11
577.567597
 21
111.868586
  0
LINE
  8
CSLAYER1
  6
CONTINUOUS
 62
     6
 10
577.567597
 20
111.868586
 11
577.401529
 21
111.976904
  0
LINE
  8
CSLAYER1
  6
CONTINUOUS
 62
     6
 10
577.401529
 20
111.976904
 11
577.234447
 21
112.083554
  0
LINE
  8
CSLAYER1
  6
CONTINUOUS
 62
     6
 10
577.234447
 20
112.083554
 11
577.068286
 21
112.189487
  0
LINE
  8
CSLAYER1
  6
CONTINUOUS
 62
     6
 10
577.068286
 20
112.189487
 11
576.904980
 21
112.295654
  0
LINE
  8
CSLAYER1
  6
CONTINUOUS
 62
     6
 10
576.904980
 20
112.295654
 11
576.746462
 21
112.403009
  0
LINE
  8
CSLAYER1
  6
CONTINUOUS
 62
     6
 10
576.746462
 20
112.403009
 11
576.594666
 21
112.512503
  0
LINE
  8
CSLAYER1
  6
CONTINUOUS
 62
     6
 10
576.594666
 20
112.512503
 11
576.451527
 21
112.625089
  0
LINE
  8
CSLAYER1
  6
CONTINUOUS
 62
     6
 10
576.451527
 20
112.625089
 11
576.318977
 21
112.741717
  0
LINE
  8
CSLAYER1
  6
CONTINUOUS
 62
     6
 10
576.318977
 20
112.741717
 11
576.215972
 21
112.844732
  0
LINE
  8
CSLAYER1
  6
CONTINUOUS
 62
     6
 10
576.215972
 20
112.844732
 11
576.114309
 21
112.958167
  0
LINE
  8
CSLAYER1
  6
CONTINUOUS
 62
     6
 10
576.114309
 20
112.958167
 11
576.014554
 21
113.080335
  0
LINE
  8
CSLAYER1
  6
CONTINUOUS
 62
     6
 10
576.014554
 20
113.080335
 11
575.917276
 21
113.209544
  0
LINE
  8
CSLAYER1
  6
CONTINUOUS
 62
     6
 10
575.917276
 20
113.209544
 11
575.823041
 21
113.344104
  0
LINE
  8
CSLAYER1
  6
CONTINUOUS
 62
     6
 10
575.823041
 20
113.344104
 11
575.732417
 21
113.482325
  0
LINE
  8
CSLAYER1
  6
CONTINUOUS
 62
     6
 10
575.732417
 20
113.482325
 11
575.645971
 21
113.622519
  0
LINE
  8
CSLAYER1
  6
CONTINUOUS
 62
     6
 10
575.645971
 20
113.622519
 11
575.564270
 21
113.762993
  0
LINE
  8
CSLAYER1
  6
CONTINUOUS
 62
     6
 10
575.564270
 20
113.762993
 11
575.487881
 21
113.902060
  0
LINE
  8
CSLAYER1
  6
CONTINUOUS
 62
     6
 10
575.487881
 20
113.902060
 11
575.417372
 21
114.038028
  0
LINE
  8
CSLAYER1
  6
CONTINUOUS
 62
     6
 10
575.417372
 20
114.038028
 11
575.312111
 21
114.253568
  0
ARC
  8
CSLAYER1
  6
CONTINUOUS
 62
     6
 10
576.238222
 20
113.697490
 40
1.080690
 50
89.054803
 51
149.054803
  0
ARC
  8
CSLAYER1
  6
CONTINUOUS
 62
     6
 10
577.182913
 20
114.222323
 40
1.080690
 50
89.054803
 51
149.054803
  0
ARC
  8
CSLAYER1
  6
CONTINUOUS
 62
     6
 10
576.273877
 20
115.858576
 40
1.080690
 50
269.054803
 51
329.054803
  0
LINE
  8
CSLAYER1
  6
CONTINUOUS
 62
     6
 10
577.200721
 20
115.302843
 11
577.345424
 21
115.163497
  0
LINE
  8
CSLAYER1
  6
CONTINUOUS
 62
     6
 10
577.345424
 20
115.163497
 11
577.499339
 21
115.013747
  0
LINE
  8
CSLAYER1
  6
CONTINUOUS
 62
     6
 10
577.499339
 20
115.013747
 11
577.660689
 21
114.855919
  0
LINE
  8
CSLAYER1
  6
CONTINUOUS
 62
     6
 10
577.660689
 20
114.855919
 11
577.827700
 21
114.692337
  0
ARC
  8
CSLAYER1
  6
CONTINUOUS
 62
     6
 10
574.726781
 20
116.706691
 40
1.095863
 50
276.431024
 51
336.431024
  0
ARC
  8
CSLAYER1
  6
CONTINUOUS
 62
     6
 10
573.845080
 20
116.055908
 40
1.095863
 50
276.431024
 51
336.431024
  0
ARC
  8
CSLAYER1
  6
CONTINUOUS
 62
     6
 10
574.972270
 20
114.528757
 40
1.095863
 50
96.431024
 51
156.431024
  0
LINE
  8
CSLAYER1
  6
CONTINUOUS
 62
     6
 10
575.478097
 20
116.448478
 11
575.731208
 21
116.268511
  0
LINE
  8
CSLAYER1
  6
CONTINUOUS
 62
     6
 10
575.478097
 20
116.448478
 11
575.225236
 21
116.628798
  0
LINE
  8
CSLAYER1
  6
CONTINUOUS
 62
     6
 10
575.225236
 20
116.628798
 11
574.972876
 21
116.809824
  0
LINE
  8
CSLAYER1
  6
CONTINUOUS
 62
     6
 10
574.972876
 20
116.809824
 11
574.721268
 21
116.991908
  0
LINE
  8
CSLAYER1
  6
CONTINUOUS
 62
     6
 10
574.721268
 20
116.991908
 11
574.470662
 21
117.175403
  0
LINE
  8
CSLAYER1
  6
CONTINUOUS
 62
     6
 10
574.470662
 20
117.175403
 11
574.221310
 21
117.360662
  0
LINE
  8
CSLAYER1
  6
CONTINUOUS
 62
     6
 10
574.221310
 20
117.360662
 11
573.973461
 21
117.548037
  0
LINE
  8
CSLAYER1
  6
CONTINUOUS
 62
     6
 10
573.973461
 20
117.548037
 11
573.727366
 21
117.737882
  0
LINE
  8
CSLAYER1
  6
CONTINUOUS
 62
     6
 10
573.727366
 20
117.737882
 11
573.483276
 21
117.930550
  0
LINE
  8
CSLAYER1
  6
CONTINUOUS
 62
     6
 10
573.483276
 20
117.930550
 11
573.241442
 21
118.126392
  0
LINE
  8
CSLAYER1
  6
CONTINUOUS
 62
     6
 10
573.241442
 20
118.126392
 11
573.002113
 21
118.325762
  0
LINE
  8
CSLAYER1
  6
CONTINUOUS
 62
     6
 10
573.002113
 20
118.325762
 11
572.844849
 21
118.460059
  0
LINE
  8
CSLAYER1
  6
CONTINUOUS
 62
     6
 10
572.844849
 20
118.460059
 11
572.687799
 21
118.597083
  0
LINE
  8
CSLAYER1
  6
CONTINUOUS
 62
     6
 10
572.687799
 20
118.597083
 11
572.531708
 21
118.736643
  0
LINE
  8
CSLAYER1
  6
CONTINUOUS
 62
     6
 10
572.531708
 20
118.736643
 11
572.377319
 21
118.878545
  0
LINE
  8
CSLAYER1
  6
CONTINUOUS
 62
     6
 10
572.377319
 20
118.878545
 11
572.225374
 21
119.022598
  0
LINE
  8
CSLAYER1
  6
CONTINUOUS
 62
     6
 10
572.225374
 20
119.022598
 11
572.076618
 21
119.168608
  0
LINE
  8
CSLAYER1
  6
CONTINUOUS
 62
     6
 10
572.076618
 20
119.168608
 11
571.931791
 21
119.316383
  0
LINE
  8
CSLAYER1
  6
CONTINUOUS
 62
     6
 10
571.931791
 20
119.316383
 11
571.791639
 21
119.465730
  0
LINE
  8
CSLAYER1
  6
CONTINUOUS
 62
     6
 10
571.791639
 20
119.465730
 11
571.656903
 21
119.616458
  0
LINE
  8
CSLAYER1
  6
CONTINUOUS
 62
     6
 10
571.656903
 20
119.616458
 11
571.528327
 21
119.768372
  0
LINE
  8
CSLAYER1
  6
CONTINUOUS
 62
     6
 10
571.528327
 20
119.768372
 11
571.406654
 21
119.921282
  0
LINE
  8
CSLAYER1
  6
CONTINUOUS
 62
     6
 10
571.406654
 20
119.921282
 11
571.292200
 21
120.072608
  0
LINE
  8
CSLAYER1
  6
CONTINUOUS
 62
     6
 10
571.292200
 20
120.072608
 11
571.176899
 21
120.229862
  0
LINE
  8
CSLAYER1
  6
CONTINUOUS
 62
     6
 10
571.176899
 20
120.229862
 11
571.061286
 21
120.391920
  0
LINE
  8
CSLAYER1
  6
CONTINUOUS
 62
     6
 10
571.061286
 20
120.391920
 11
570.945893
 21
120.557660
  0
LINE
  8
CSLAYER1
  6
CONTINUOUS
 62
     6
 10
570.945893
 20
120.557660
 11
570.831253
 21
120.725959
  0
LINE
  8
CSLAYER1
  6
CONTINUOUS
 62
     6
 10
570.831253
 20
120.725959
 11
570.717899
 21
120.895695
  0
LINE
  8
CSLAYER1
  6
CONTINUOUS
 62
     6
 10
570.717899
 20
120.895695
 11
570.606363
 21
121.065746
  0
LINE
  8
CSLAYER1
  6
CONTINUOUS
 62
     6
 10
570.606363
 20
121.065746
 11
570.497179
 21
121.234988
  0
LINE
  8
CSLAYER1
  6
CONTINUOUS
 62
     6
 10
570.497179
 20
121.234988
 11
570.390879
 21
121.402300
  0
LINE
  8
CSLAYER1
  6
CONTINUOUS
 62
     6
 10
570.390879
 20
121.402300
 11
570.287996
 21
121.566558
  0
LINE
  8
CSLAYER1
  6
CONTINUOUS
 62
     6
 10
570.287996
 20
121.566558
 11
570.189063
 21
121.726641
  0
LINE
  8
CSLAYER1
  6
CONTINUOUS
 62
     6
 10
570.189063
 20
121.726641
 11
570.102590
 21
121.864867
  0
LINE
  8
CSLAYER1
  6
CONTINUOUS
 62
     6
 10
570.102590
 20
121.864867
 11
570.010638
 21
122.007325
  0
LINE
  8
CSLAYER1
  6
CONTINUOUS
 62
     6
 10
570.010638
 20
122.007325
 11
569.914438
 21
122.152805
  0
LINE
  8
CSLAYER1
  6
CONTINUOUS
 62
     6
 10
569.914438
 20
122.152805
 11
569.815219
 21
122.300095
  0
LINE
  8
CSLAYER1
  6
CONTINUOUS
 62
     6
 10
569.815219
 20
122.300095
 11
569.714211
 21
122.447985
  0
LINE
  8
CSLAYER1
  6
CONTINUOUS
 62
     6
 10
569.714211
 20
122.447985
 11
569.612643
 21
122.595264
  0
LINE
  8
CSLAYER1
  6
CONTINUOUS
 62
     6
 10
569.612643
 20
122.595264
 11
569.511745
 21
122.740720
  0
LINE
  8
CSLAYER1
  6
CONTINUOUS
 62
     6
 10
569.511745
 20
122.740720
 11
569.412746
 21
122.883144
  0
LINE
  8
CSLAYER1
  6
CONTINUOUS
 62
     6
 10
569.412746
 20
122.883144
 11
569.316876
 21
123.021324
  0
LINE
  8
CSLAYER1
  6
CONTINUOUS
 62
     6
 10
569.316876
 20
123.021324
 11
569.196335
 21
123.196154
  0
ARC
  8
CSLAYER1
  6
CONTINUOUS
 62
     6
 10
571.461538
 20
125.196154
 40
2.000000
 50
270.000000
 51
360.000000
  0
LINE
  8
CSLAYER1
  6
CONTINUOUS
 62
     6
 10
573.461538
 20
125.196154
 11
573.461538
 21
125.696154
  0
LINE
  8
CSLAYER1
  6
CONTINUOUS
 62
     6
 10
573.711538
 20
125.696154
 11
547.711538
 21
125.696154
  0
LINE
  8
CSLAYER1
  6
CONTINUOUS
 62
     6
 10
547.711538
 20
127.696154
 11
573.711538
 21
127.696154
  0
LINE
  8
CSLAYER1
  6
CONTINUOUS
 62
     6
 10
571.461538
 20
123.196154
 11
562.372913
 21
123.196154
  0
ARC
  8
CSLAYER1
  6
CONTINUOUS
 62
     6
 10
560.711538
 20
129.996142
 40
7.000000
 50
253.742974
 51
286.256997
  0
ARC
  8
CSLAYER1
  6
CONTINUOUS
 62
     6
 10
559.031881
 20
124.236071
 40
1.000000
 50
185.000098
 51
253.742592
  0
LINE
  8
CSLAYER1
  6
CONTINUOUS
 62
     6
 10
558.035696
 20
124.148913
 11
557.980581
 21
124.778734
  0
ARC
  8
CSLAYER1
  6
CONTINUOUS
 62
     6
 10
558.179800
 20
124.796160
 40
0.200000
 50
89.999981
 51
185.000126
  0
LINE
  8
CSLAYER1
  6
CONTINUOUS
 62
     6
 10
557.911551
 20
124.996172
 11
560.711538
 21
124.996142
  0
LINE
  8
CSLAYER1
  6
CONTINUOUS
 62
     6
 10
560.711538
 20
124.996142
 11
563.511526
 21
124.996142
  0
ARC
  8
CSLAYER1
  6
CONTINUOUS
 62
     6
 10
563.511526
 20
125.096148
 40
0.100000
 50
269.999999
 51
359.999995
  0
LINE
  8
CSLAYER1
  6
CONTINUOUS
 62
     6
 10
563.611563
 20
125.096148
 11
563.611563
 21
125.596148
  0
ARC
  8
CSLAYER1
  6
CONTINUOUS
 62
     6
 10
563.511526
 20
125.596148
 40
0.100000
 50
-0.000005
 51
89.999997
  0
ARC
  8
CSLAYER1
  6
CONTINUOUS
 62
     6
 10
563.243277
 20
124.796160
 40
0.200000
 50
-5.000154
 51
89.999997
  0
LINE
  8
CSLAYER1
  6
CONTINUOUS
 62
     6
 10
563.442526
 20
124.778734
 11
563.387442
 21
124.148913
  0
ARC
  8
CSLAYER1
  6
CONTINUOUS
 62
     6
 10
562.391226
 20
124.236071
 40
1.000000
 50
286.257380
 51
354.999887
  0
LINE
  8
CSLAYER1
  6
CONTINUOUS
 62
     6
 10
564.282916
 20
123.196154
 11
564.448034
 21
122.178110
  0
LINE
  8
CSLAYER1
  6
CONTINUOUS
 62
     6
 10
564.448034
 20
122.178110
 11
564.506169
 21
121.855683
  0
LINE
  8
CSLAYER1
  6
CONTINUOUS
 62
     6
 10
564.506169
 20
121.855683
 11
564.571022
 21
121.523873
  0
LINE
  8
CSLAYER1
  6
CONTINUOUS
 62
     6
 10
564.571022
 20
121.523873
 11
564.641397
 21
121.186077
  0
LINE
  8
CSLAYER1
  6
CONTINUOUS
 62
     6
 10
564.641397
 20
121.186077
 11
564.716100
 21
120.845689
  0
LINE
  8
CSLAYER1
  6
CONTINUOUS
 62
     6
 10
564.716100
 20
120.845689
 11
564.793937
 21
120.506105
  0
LINE
  8
CSLAYER1
  6
CONTINUOUS
 62
     6
 10
564.793937
 20
120.506105
 11
564.873710
 21
120.170720
  0
LINE
  8
CSLAYER1
  6
CONTINUOUS
 62
     6
 10
564.873710
 20
120.170720
 11
564.954227
 21
119.842929
  0
LINE
  8
CSLAYER1
  6
CONTINUOUS
 62
     6
 10
564.954227
 20
119.842929
 11
565.034291
 21
119.526128
  0
LINE
  8
CSLAYER1
  6
CONTINUOUS
 62
     6
 10
565.034291
 20
119.526128
 11
565.112708
 21
119.223711
  0
LINE
  8
CSLAYER1
  6
CONTINUOUS
 62
     6
 10
565.112708
 20
119.223711
 11
565.196081
 21
118.923961
  0
LINE
  8
CSLAYER1
  6
CONTINUOUS
 62
     6
 10
565.196081
 20
118.923961
 11
565.289994
 21
118.618437
  0
LINE
  8
CSLAYER1
  6
CONTINUOUS
 62
     6
 10
565.289994
 20
118.618437
 11
565.393579
 21
118.308397
  0
LINE
  8
CSLAYER1
  6
CONTINUOUS
 62
     6
 10
565.393579
 20
118.308397
 11
565.505968
 21
117.995102
  0
LINE
  8
CSLAYER1
  6
CONTINUOUS
 62
     6
 10
565.505968
 20
117.995102
 11
565.626290
 21
117.679811
  0
LINE
  8
CSLAYER1
  6
CONTINUOUS
 62
     6
 10
565.626290
 20
117.679811
 11
565.753676
 21
117.363782
  0
LINE
  8
CSLAYER1
  6
CONTINUOUS
 62
     6
 10
565.753676
 20
117.363782
 11
565.887259
 21
117.048277
  0
LINE
  8
CSLAYER1
  6
CONTINUOUS
 62
     6
 10
565.887259
 20
117.048277
 11
566.026168
 21
116.734553
  0
LINE
  8
CSLAYER1
  6
CONTINUOUS
 62
     6
 10
566.026168
 20
116.734553
 11
566.169534
 21
116.423871
  0
LINE
  8
CSLAYER1
  6
CONTINUOUS
 62
     6
 10
566.169534
 20
116.423871
 11
566.316489
 21
116.117489
  0
LINE
  8
CSLAYER1
  6
CONTINUOUS
 62
     6
 10
566.316489
 20
116.117489
 11
566.466163
 21
115.816668
  0
LINE
  8
CSLAYER1
  6
CONTINUOUS
 62
     6
 10
566.466163
 20
115.816668
 11
566.593508
 21
115.569048
  0
LINE
  8
CSLAYER1
  6
CONTINUOUS
 62
     6
 10
566.593508
 20
115.569048
 11
566.723660
 21
115.323014
  0
LINE
  8
CSLAYER1
  6
CONTINUOUS
 62
     6
 10
566.723660
 20
115.323014
 11
566.856339
 21
115.078408
  0
LINE
  8
CSLAYER1
  6
CONTINUOUS
 62
     6
 10
566.856339
 20
115.078408
 11
566.991264
 21
114.835071
  0
LINE
  8
CSLAYER1
  6
CONTINUOUS
 62
     6
 10
566.991264
 20
114.835071
 11
567.128154
 21
114.592844
  0
LINE
  8
CSLAYER1
  6
CONTINUOUS
 62
     6
 10
567.128154
 20
114.592844
 11
567.266729
 21
114.351569
  0
LINE
  8
CSLAYER1
  6
CONTINUOUS
 62
     6
 10
567.266729
 20
114.351569
 11
567.406707
 21
114.111087
  0
LINE
  8
CSLAYER1
  6
CONTINUOUS
 62
     6
 10
567.406707
 20
114.111087
 11
567.547809
 21
113.871240
  0
LINE
  8
CSLAYER1
  6
CONTINUOUS
 62
     6
 10
567.547809
 20
113.871240
 11
567.689752
 21
113.631868
  0
LINE
  8
CSLAYER1
  6
CONTINUOUS
 62
     6
 10
567.689752
 20
113.631868
 11
567.832257
 21
113.392814
  0
LINE
  8
CSLAYER1
  6
CONTINUOUS
 62
     6
 10
567.832257
 20
113.392814
 11
567.975043
 21
113.153918
  0
ARC
  8
CSLAYER1
  6
CONTINUOUS
 62
     6
 10
567.984709
 20
114.353886
 40
1.200008
 50
269.538514
 51
329.538514
  0
ARC
  8
CSLAYER1
  6
CONTINUOUS
 62
     6
 10
569.028746
 20
114.945500
 40
1.200008
 50
269.538514
 51
329.538514
  0
LINE
  8
CSLAYER1
  6
CONTINUOUS
 62
     6
 10
570.063148
 20
114.337145
 11
569.927867
 21
114.563067
  0
LINE
  8
CSLAYER1
  6
CONTINUOUS
 62
     6
 10
569.927867
 20
114.563067
 11
569.792860
 21
114.789143
  0
LINE
  8
CSLAYER1
  6
CONTINUOUS
 62
     6
 10
569.792860
 20
114.789143
 11
569.658404
 21
115.015529
  0
LINE
  8
CSLAYER1
  6
CONTINUOUS
 62
     6
 10
569.658404
 20
115.015529
 11
569.524774
 21
115.242379
  0
LINE
  8
CSLAYER1
  6
CONTINUOUS
 62
     6
 10
569.524774
 20
115.242379
 11
569.392244
 21
115.469847
  0
LINE
  8
CSLAYER1
  6
CONTINUOUS
 62
     6
 10
569.392244
 20
115.469847
 11
569.261091
 21
115.698089
  0
LINE
  8
CSLAYER1
  6
CONTINUOUS
 62
     6
 10
569.261091
 20
115.698089
 11
569.131588
 21
115.927259
  0
LINE
  8
CSLAYER1
  6
CONTINUOUS
 62
     6
 10
569.131588
 20
115.927259
 11
569.004013
 21
116.157511
  0
LINE
  8
CSLAYER1
  6
CONTINUOUS
 62
     6
 10
569.004013
 20
116.157511
 11
568.878639
 21
116.389000
  0
LINE
  8
CSLAYER1
  6
CONTINUOUS
 62
     6
 10
568.878639
 20
116.389000
 11
568.755741
 21
116.621882
  0
LINE
  8
CSLAYER1
  6
CONTINUOUS
 62
     6
 10
568.755741
 20
116.621882
 11
568.635596
 21
116.856310
  0
LINE
  8
CSLAYER1
  6
CONTINUOUS
 62
     6
 10
568.635596
 20
116.856310
 11
568.501355
 21
117.127115
  0
LINE
  8
CSLAYER1
  6
CONTINUOUS
 62
     6
 10
568.501355
 20
117.127115
 11
568.369492
 21
117.402880
  0
LINE
  8
CSLAYER1
  6
CONTINUOUS
 62
     6
 10
568.369492
 20
117.402880
 11
568.240785
 21
117.682474
  0
LINE
  8
CSLAYER1
  6
CONTINUOUS
 62
     6
 10
568.240785
 20
117.682474
 11
568.116011
 21
117.964764
  0
LINE
  8
CSLAYER1
  6
CONTINUOUS
 62
     6
 10
568.116011
 20
117.964764
 11
567.995948
 21
118.248620
  0
LINE
  8
CSLAYER1
  6
CONTINUOUS
 62
     6
 10
567.995948
 20
118.248620
 11
567.881373
 21
118.532910
  0
LINE
  8
CSLAYER1
  6
CONTINUOUS
 62
     6
 10
567.881373
 20
118.532910
 11
567.773064
 21
118.816503
  0
LINE
  8
CSLAYER1
  6
CONTINUOUS
 62
     6
 10
567.773064
 20
118.816503
 11
567.671798
 21
119.098268
  0
LINE
  8
CSLAYER1
  6
CONTINUOUS
 62
     6
 10
567.671798
 20
119.098268
 11
567.578354
 21
119.377074
  0
LINE
  8
CSLAYER1
  6
CONTINUOUS
 62
     6
 10
567.578354
 20
119.377074
 11
567.493507
 21
119.651789
  0
LINE
  8
CSLAYER1
  6
CONTINUOUS
 62
     6
 10
567.493507
 20
119.651789
 11
567.418037
 21
119.921282
  0
LINE
  8
CSLAYER1
  6
CONTINUOUS
 62
     6
 10
567.418037
 20
119.921282
 11
567.343497
 21
120.206721
  0
LINE
  8
CSLAYER1
  6
CONTINUOUS
 62
     6
 10
567.343497
 20
120.206721
 11
567.267489
 21
120.505900
  0
LINE
  8
CSLAYER1
  6
CONTINUOUS
 62
     6
 10
567.267489
 20
120.505900
 11
567.191146
 21
120.815565
  0
LINE
  8
CSLAYER1
  6
CONTINUOUS
 62
     6
 10
567.191146
 20
120.815565
 11
567.115600
 21
121.132465
  0
LINE
  8
CSLAYER1
  6
CONTINUOUS
 62
     6
 10
567.115600
 20
121.132465
 11
567.041984
 21
121.453347
  0
LINE
  8
CSLAYER1
  6
CONTINUOUS
 62
     6
 10
567.041984
 20
121.453347
 11
566.971431
 21
121.774958
  0
LINE
  8
CSLAYER1
  6
CONTINUOUS
 62
     6
 10
566.971431
 20
121.774958
 11
566.905074
 21
122.094046
  0
LINE
  8
CSLAYER1
  6
CONTINUOUS
 62
     6
 10
566.905074
 20
122.094046
 11
566.844046
 21
122.407357
  0
LINE
  8
CSLAYER1
  6
CONTINUOUS
 62
     6
 10
566.844046
 20
122.407357
 11
566.789479
 21
122.711640
  0
LINE
  8
CSLAYER1
  6
CONTINUOUS
 62
     6
 10
566.789479
 20
122.711640
 11
566.711538
 21
123.196154
  0
LINE
  8
CSLAYER1
  6
CONTINUOUS
 62
     6
 10
566.839939
 20
122.430260
 11
566.888185
 21
122.342426
  0
LINE
  8
CSLAYER1
  6
CONTINUOUS
 62
     6
 10
566.888185
 20
122.342426
 11
566.998073
 21
122.150617
  0
LINE
  8
CSLAYER1
  6
CONTINUOUS
 62
     6
 10
566.998073
 20
122.150617
 11
567.116327
 21
121.951130
  0
LINE
  8
CSLAYER1
  6
CONTINUOUS
 62
     6
 10
567.116327
 20
121.951130
 11
567.241365
 21
121.746150
  0
LINE
  8
CSLAYER1
  6
CONTINUOUS
 62
     6
 10
567.241365
 20
121.746150
 11
567.371606
 21
121.537864
  0
LINE
  8
CSLAYER1
  6
CONTINUOUS
 62
     6
 10
567.371606
 20
121.537864
 11
567.505469
 21
121.328459
  0
LINE
  8
CSLAYER1
  6
CONTINUOUS
 62
     6
 10
567.505469
 20
121.328459
 11
567.641371
 21
121.120119
  0
LINE
  8
CSLAYER1
  6
CONTINUOUS
 62
     6
 10
567.641371
 20
121.120119
 11
567.777731
 21
120.915032
  0
LINE
  8
CSLAYER1
  6
CONTINUOUS
 62
     6
 10
567.777731
 20
120.915032
 11
567.912968
 21
120.715382
  0
LINE
  8
CSLAYER1
  6
CONTINUOUS
 62
     6
 10
567.912968
 20
120.715382
 11
568.045499
 21
120.523357
  0
LINE
  8
CSLAYER1
  6
CONTINUOUS
 62
     6
 10
568.045499
 20
120.523357
 11
568.173743
 21
120.341143
  0
LINE
  8
CSLAYER1
  6
CONTINUOUS
 62
     6
 10
568.173743
 20
120.341143
 11
568.278824
 21
120.196964
  0
LINE
  8
CSLAYER1
  6
CONTINUOUS
 62
     6
 10
568.278824
 20
120.196964
 11
568.390715
 21
120.049914
  0
LINE
  8
CSLAYER1
  6
CONTINUOUS
 62
     6
 10
568.390715
 20
120.049914
 11
568.508283
 21
119.900892
  0
LINE
  8
CSLAYER1
  6
CONTINUOUS
 62
     6
 10
568.508283
 20
119.900892
 11
568.630396
 21
119.750798
  0
LINE
  8
CSLAYER1
  6
CONTINUOUS
 62
     6
 10
568.630396
 20
119.750798
 11
568.755922
 21
119.600530
  0
LINE
  8
CSLAYER1
  6
CONTINUOUS
 62
     6
 10
568.755922
 20
119.600530
 11
568.883728
 21
119.450987
  0
LINE
  8
CSLAYER1
  6
CONTINUOUS
 62
     6
 10
568.883728
 20
119.450987
 11
569.012681
 21
119.303069
  0
LINE
  8
CSLAYER1
  6
CONTINUOUS
 62
     6
 10
569.012681
 20
119.303069
 11
569.141648
 21
119.157674
  0
LINE
  8
CSLAYER1
  6
CONTINUOUS
 62
     6
 10
569.141648
 20
119.157674
 11
569.269497
 21
119.015702
  0
LINE
  8
CSLAYER1
  6
CONTINUOUS
 62
     6
 10
569.269497
 20
119.015702
 11
569.395095
 21
118.878052
  0
LINE
  8
CSLAYER1
  6
CONTINUOUS
 62
     6
 10
569.395095
 20
118.878052
 11
569.517310
 21
118.745623
  0
LINE
  8
CSLAYER1
  6
CONTINUOUS
 62
     6
 10
569.517310
 20
118.745623
 11
569.662287
 21
118.593463
  0
LINE
  8
CSLAYER1
  6
CONTINUOUS
 62
     6
 10
569.662287
 20
118.593463
 11
569.815462
 21
118.439512
  0
LINE
  8
CSLAYER1
  6
CONTINUOUS
 62
     6
 10
569.815462
 20
118.439512
 11
569.974871
 21
118.284079
  0
LINE
  8
CSLAYER1
  6
CONTINUOUS
 62
     6
 10
569.974871
 20
118.284079
 11
570.138547
 21
118.127471
  0
LINE
  8
CSLAYER1
  6
CONTINUOUS
 62
     6
 10
570.138547
 20
118.127471
 11
570.304527
 21
117.969997
  0
LINE
  8
CSLAYER1
  6
CONTINUOUS
 62
     6
 10
570.304527
 20
117.969997
 11
570.470845
 21
117.811966
  0
LINE
  8
CSLAYER1
  6
CONTINUOUS
 62
     6
 10
570.470845
 20
117.811966
 11
570.635535
 21
117.653686
  0
LINE
  8
CSLAYER1
  6
CONTINUOUS
 62
     6
 10
570.635535
 20
117.653686
 11
570.796633
 21
117.495466
  0
LINE
  8
CSLAYER1
  6
CONTINUOUS
 62
     6
 10
570.796633
 20
117.495466
 11
570.952172
 21
117.337614
  0
LINE
  8
CSLAYER1
  6
CONTINUOUS
 62
     6
 10
570.952172
 20
117.337614
 11
571.100188
 21
117.180438
  0
LINE
  8
CSLAYER1
  6
CONTINUOUS
 62
     6
 10
571.100188
 20
117.180438
 11
571.238715
 21
117.024248
  0
LINE
  8
CSLAYER1
  6
CONTINUOUS
 62
     6
 10
571.238715
 20
117.024248
 11
571.364630
 21
116.877666
  0
LINE
  8
CSLAYER1
  6
CONTINUOUS
 62
     6
 10
571.364630
 20
116.877666
 11
571.495440
 21
116.727487
  0
LINE
  8
CSLAYER1
  6
CONTINUOUS
 62
     6
 10
571.495440
 20
116.727487
 11
571.631042
 21
116.575268
  0
LINE
  8
CSLAYER1
  6
CONTINUOUS
 62
     6
 10
571.631042
 20
116.575268
 11
571.771336
 21
116.422563
  0
LINE
  8
CSLAYER1
  6
CONTINUOUS
 62
     6
 10
571.771336
 20
116.422563
 11
571.916219
 21
116.270930
  0
LINE
  8
CSLAYER1
  6
CONTINUOUS
 62
     6
 10
571.916219
 20
116.270930
 11
572.065590
 21
116.121923
  0
LINE
  8
CSLAYER1
  6
CONTINUOUS
 62
     6
 10
572.065590
 20
116.121923
 11
572.219346
 21
115.977099
  0
LINE
  8
CSLAYER1
  6
CONTINUOUS
 62
     6
 10
572.219346
 20
115.977099
 11
572.377387
 21
115.838014
  0
LINE
  8
CSLAYER1
  6
CONTINUOUS
 62
     6
 10
572.377387
 20
115.838014
 11
572.539610
 21
115.706224
  0
LINE
  8
CSLAYER1
  6
CONTINUOUS
 62
     6
 10
572.539610
 20
115.706224
 11
572.705914
 21
115.583284
  0
LINE
  8
CSLAYER1
  6
CONTINUOUS
 62
     6
 10
572.705914
 20
115.583284
 11
572.876197
 21
115.470751
  0
LINE
  8
CSLAYER1
  6
CONTINUOUS
 62
     6
 10
572.876197
 20
115.470751
 11
572.968931
 21
115.415325
  0
LINE
  8
CSLAYER1
  6
CONTINUOUS
 62
     6
 10
572.968931
 20
115.415325
 11
573.063524
 21
115.362648
  0
LINE
  8
CSLAYER1
  6
CONTINUOUS
 62
     6
 10
573.063524
 20
115.362648
 11
573.159788
 21
115.312447
  0
LINE
  8
CSLAYER1
  6
CONTINUOUS
 62
     6
 10
573.159788
 20
115.312447
 11
573.257539
 21
115.264446
  0
LINE
  8
CSLAYER1
  6
CONTINUOUS
 62
     6
 10
573.257539
 20
115.264446
 11
573.356591
 21
115.218369
  0
LINE
  8
CSLAYER1
  6
CONTINUOUS
 62
     6
 10
573.356591
 20
115.218369
 11
573.456758
 21
115.173943
  0
LINE
  8
CSLAYER1
  6
CONTINUOUS
 62
     6
 10
573.456758
 20
115.173943
 11
573.557854
 21
115.130891
  0
LINE
  8
CSLAYER1
  6
CONTINUOUS
 62
     6
 10
573.557854
 20
115.130891
 11
573.659693
 21
115.088940
  0
LINE
  8
CSLAYER1
  6
CONTINUOUS
 62
     6
 10
573.659693
 20
115.088940
 11
573.762089
 21
115.047814
  0
LINE
  8
CSLAYER1
  6
CONTINUOUS
 62
     6
 10
573.762089
 20
115.047814
 11
573.864857
 21
115.007237
  0
LINE
  8
CSLAYER1
  6
CONTINUOUS
 62
     6
 10
573.864857
 20
115.007237
 11
573.967811
 21
114.966936
  0
LINE
  8
CSLAYER1
  6
CONTINUOUS
 62
     6
 10
571.069047
 20
112.646304
 11
571.203848
 21
112.480992
  0
LINE
  8
CSLAYER1
  6
CONTINUOUS
 62
     6
 10
571.203848
 20
112.480992
 11
571.342405
 21
112.309339
  0
LINE
  8
CSLAYER1
  6
CONTINUOUS
 62
     6
 10
571.342405
 20
112.309339
 11
571.482681
 21
112.132918
  0
LINE
  8
CSLAYER1
  6
CONTINUOUS
 62
     6
 10
571.482681
 20
112.132918
 11
571.622639
 21
111.953300
  0
LINE
  8
CSLAYER1
  6
CONTINUOUS
 62
     6
 10
571.622639
 20
111.953300
 11
571.760242
 21
111.772056
  0
LINE
  8
CSLAYER1
  6
CONTINUOUS
 62
     6
 10
571.760242
 20
111.772056
 11
571.893454
 21
111.590760
  0
LINE
  8
CSLAYER1
  6
CONTINUOUS
 62
     6
 10
571.893454
 20
111.590760
 11
572.020238
 21
111.410983
  0
LINE
  8
CSLAYER1
  6
CONTINUOUS
 62
     6
 10
572.020238
 20
111.410983
 11
572.138557
 21
111.234297
  0
LINE
  8
CSLAYER1
  6
CONTINUOUS
 62
     6
 10
572.138557
 20
111.234297
 11
572.246375
 21
111.062273
  0
LINE
  8
CSLAYER1
  6
CONTINUOUS
 62
     6
 10
572.246375
 20
111.062273
 11
572.344014
 21
110.898512
  0
LINE
  8
CSLAYER1
  6
CONTINUOUS
 62
     6
 10
572.344014
 20
110.898512
 11
572.443644
 21
110.729245
  0
LINE
  8
CSLAYER1
  6
CONTINUOUS
 62
     6
 10
572.443644
 20
110.729245
 11
572.545470
 21
110.555774
  0
LINE
  8
CSLAYER1
  6
CONTINUOUS
 62
     6
 10
572.545470
 20
110.555774
 11
572.649700
 21
110.379401
  0
LINE
  8
CSLAYER1
  6
CONTINUOUS
 62
     6
 10
572.649700
 20
110.379401
 11
572.756540
 21
110.201428
  0
LINE
  8
CSLAYER1
  6
CONTINUOUS
 62
     6
 10
572.756540
 20
110.201428
 11
572.866197
 21
110.023159
  0
LINE
  8
CSLAYER1
  6
CONTINUOUS
 62
     6
 10
572.866197
 20
110.023159
 11
572.978878
 21
109.845894
  0
LINE
  8
CSLAYER1
  6
CONTINUOUS
 62
     6
 10
572.978878
 20
109.845894
 11
573.094788
 21
109.670936
  0
LINE
  8
CSLAYER1
  6
CONTINUOUS
 62
     6
 10
573.094788
 20
109.670936
 11
573.214136
 21
109.499588
  0
LINE
  8
CSLAYER1
  6
CONTINUOUS
 62
     6
 10
573.214136
 20
109.499588
 11
573.337126
 21
109.333152
  0
LINE
  8
CSLAYER1
  6
CONTINUOUS
 62
     6
 10
573.337126
 20
109.333152
 11
573.463966
 21
109.172930
  0
LINE
  8
CSLAYER1
  6
CONTINUOUS
 62
     6
 10
573.463966
 20
109.172930
 11
573.562787
 21
109.056417
  0
LINE
  8
CSLAYER1
  6
CONTINUOUS
 62
     6
 10
573.562787
 20
109.056417
 11
573.665000
 21
108.942658
  0
LINE
  8
CSLAYER1
  6
CONTINUOUS
 62
     6
 10
573.665000
 20
108.942658
 11
573.770264
 21
108.831377
  0
LINE
  8
CSLAYER1
  6
CONTINUOUS
 62
     6
 10
573.770264
 20
108.831377
 11
573.878241
 21
108.722299
  0
LINE
  8
CSLAYER1
  6
CONTINUOUS
 62
     6
 10
573.878241
 20
108.722299
 11
573.988592
 21
108.615148
  0
LINE
  8
CSLAYER1
  6
CONTINUOUS
 62
     6
 10
573.988592
 20
108.615148
 11
574.100977
 21
108.509650
  0
LINE
  8
CSLAYER1
  6
CONTINUOUS
 62
     6
 10
574.100977
 20
108.509650
 11
574.215058
 21
108.405528
  0
LINE
  8
CSLAYER1
  6
CONTINUOUS
 62
     6
 10
574.215058
 20
108.405528
 11
574.330496
 21
108.302507
  0
LINE
  8
CSLAYER1
  6
CONTINUOUS
 62
     6
 10
574.330496
 20
108.302507
 11
574.446951
 21
108.200313
  0
LINE
  8
CSLAYER1
  6
CONTINUOUS
 62
     6
 10
574.446951
 20
108.200313
 11
574.542977
 21
108.116985
  0
LINE
  8
CSLAYER1
  6
CONTINUOUS
 62
     6
 10
574.542977
 20
108.116985
 11
574.473830
 21
108.082456
  0
LINE
  8
CSLAYER1
  6
CONTINUOUS
 62
     6
 10
574.473830
 20
108.082456
 11
574.389354
 21
108.034840
  0
LINE
  8
CSLAYER1
  6
CONTINUOUS
 62
     6
 10
574.389354
 20
108.034840
 11
574.303421
 21
107.981090
  0
LINE
  8
CSLAYER1
  6
CONTINUOUS
 62
     6
 10
574.303421
 20
107.981090
 11
574.217302
 21
107.921865
  0
LINE
  8
CSLAYER1
  6
CONTINUOUS
 62
     6
 10
574.217302
 20
107.921865
 11
574.132266
 21
107.857828
  0
LINE
  8
CSLAYER1
  6
CONTINUOUS
 62
     6
 10
574.132266
 20
107.857828
 11
574.049584
 21
107.789637
  0
LINE
  8
CSLAYER1
  6
CONTINUOUS
 62
     6
 10
574.049584
 20
107.789637
 11
573.970524
 21
107.717954
  0
LINE
  8
CSLAYER1
  6
CONTINUOUS
 62
     6
 10
573.970524
 20
107.717954
 11
573.896358
 21
107.643438
  0
LINE
  8
CSLAYER1
  6
CONTINUOUS
 62
     6
 10
573.896358
 20
107.643438
 11
573.828356
 21
107.566751
  0
LINE
  8
CSLAYER1
  6
CONTINUOUS
 62
     6
 10
573.828356
 20
107.566751
 11
573.767786
 21
107.488552
  0
LINE
  8
CSLAYER1
  6
CONTINUOUS
 62
     6
 10
573.767786
 20
107.488552
 11
573.715919
 21
107.409502
  0
LINE
  8
CSLAYER1
  6
CONTINUOUS
 62
     6
 10
573.715919
 20
107.409502
 11
573.700013
 21
107.381896
  0
LINE
  8
CSLAYER1
  6
CONTINUOUS
 62
     6
 10
573.700013
 20
107.381896
 11
573.684360
 21
107.353202
  0
LINE
  8
CSLAYER1
  6
CONTINUOUS
 62
     6
 10
573.684360
 20
107.353202
 11
573.668917
 21
107.323589
  0
LINE
  8
CSLAYER1
  6
CONTINUOUS
 62
     6
 10
573.668917
 20
107.323589
 11
573.653644
 21
107.293222
  0
LINE
  8
CSLAYER1
  6
CONTINUOUS
 62
     6
 10
573.653644
 20
107.293222
 11
573.638499
 21
107.262271
  0
LINE
  8
CSLAYER1
  6
CONTINUOUS
 62
     6
 10
573.638499
 20
107.262271
 11
573.623439
 21
107.230901
  0
LINE
  8
CSLAYER1
  6
CONTINUOUS
 62
     6
 10
573.623439
 20
107.230901
 11
573.608422
 21
107.199279
  0
LINE
  8
CSLAYER1
  6
CONTINUOUS
 62
     6
 10
573.608422
 20
107.199279
 11
573.593406
 21
107.167574
  0
LINE
  8
CSLAYER1
  6
CONTINUOUS
 62
     6
 10
573.593406
 20
107.167574
 11
573.578351
 21
107.135952
  0
LINE
  8
CSLAYER1
  6
CONTINUOUS
 62
     6
 10
573.578351
 20
107.135952
 11
573.563213
 21
107.104580
  0
LINE
  8
CSLAYER1
  6
CONTINUOUS
 62
     6
 10
573.563213
 20
107.104580
 11
573.547950
 21
107.073626
  0
LINE
  8
CSLAYER1
  6
CONTINUOUS
 62
     6
 10
573.547950
 20
107.073626
 11
573.507129
 21
106.995489
  0
LINE
  8
CSLAYER1
  6
CONTINUOUS
 62
     6
 10
573.507129
 20
106.995489
 11
573.463794
 21
106.918956
  0
LINE
  8
CSLAYER1
  6
CONTINUOUS
 62
     6
 10
573.463794
 20
106.918956
 11
573.418195
 21
106.843868
  0
LINE
  8
CSLAYER1
  6
CONTINUOUS
 62
     6
 10
573.418195
 20
106.843868
 11
573.370585
 21
106.770063
  0
LINE
  8
CSLAYER1
  6
CONTINUOUS
 62
     6
 10
573.370585
 20
106.770063
 11
573.321215
 21
106.697382
  0
LINE
  8
CSLAYER1
  6
CONTINUOUS
 62
     6
 10
573.321215
 20
106.697382
 11
573.270337
 21
106.625664
  0
LINE
  8
CSLAYER1
  6
CONTINUOUS
 62
     6
 10
573.270337
 20
106.625664
 11
573.218201
 21
106.554747
  0
LINE
  8
CSLAYER1
  6
CONTINUOUS
 62
     6
 10
573.218201
 20
106.554747
 11
573.165059
 21
106.484473
  0
LINE
  8
CSLAYER1
  6
CONTINUOUS
 62
     6
 10
573.165059
 20
106.484473
 11
573.111163
 21
106.414680
  0
LINE
  8
CSLAYER1
  6
CONTINUOUS
 62
     6
 10
573.111163
 20
106.414680
 11
573.056764
 21
106.345208
  0
LINE
  8
CSLAYER1
  6
CONTINUOUS
 62
     6
 10
573.056764
 20
106.345208
 11
573.004691
 21
106.279165
  0
LINE
  8
CSLAYER1
  6
CONTINUOUS
 62
     6
 10
573.004691
 20
106.279165
 11
572.877344
 21
106.388466
  0
LINE
  8
CSLAYER1
  6
CONTINUOUS
 62
     6
 10
572.877344
 20
106.388466
 11
572.740628
 21
106.506499
  0
LINE
  8
CSLAYER1
  6
CONTINUOUS
 62
     6
 10
572.740628
 20
106.506499
 11
572.604741
 21
106.625203
  0
LINE
  8
CSLAYER1
  6
CONTINUOUS
 62
     6
 10
572.604741
 20
106.625203
 11
572.470095
 21
106.744914
  0
LINE
  8
CSLAYER1
  6
CONTINUOUS
 62
     6
 10
572.470095
 20
106.744914
 11
572.337103
 21
106.865969
  0
LINE
  8
CSLAYER1
  6
CONTINUOUS
 62
     6
 10
572.337103
 20
106.865969
 11
572.206181
 21
106.988702
  0
LINE
  8
CSLAYER1
  6
CONTINUOUS
 62
     6
 10
572.206181
 20
106.988702
 11
572.077741
 21
107.113450
  0
LINE
  8
CSLAYER1
  6
CONTINUOUS
 62
     6
 10
572.077741
 20
107.113450
 11
571.952198
 21
107.240547
  0
LINE
  8
CSLAYER1
  6
CONTINUOUS
 62
     6
 10
571.952198
 20
107.240547
 11
571.829964
 21
107.370331
  0
LINE
  8
CSLAYER1
  6
CONTINUOUS
 62
     6
 10
571.829964
 20
107.370331
 11
571.711455
 21
107.503137
  0
LINE
  8
CSLAYER1
  6
CONTINUOUS
 62
     6
 10
571.711455
 20
107.503137
 11
571.597083
 21
107.639300
  0
LINE
  8
CSLAYER1
  6
CONTINUOUS
 62
     6
 10
571.597083
 20
107.639300
 11
571.460587
 21
107.813526
  0
LINE
  8
CSLAYER1
  6
CONTINUOUS
 62
     6
 10
571.460587
 20
107.813526
 11
571.328244
 21
107.994202
  0
LINE
  8
CSLAYER1
  6
CONTINUOUS
 62
     6
 10
571.328244
 20
107.994202
 11
571.199773
 21
108.179972
  0
LINE
  8
CSLAYER1
  6
CONTINUOUS
 62
     6
 10
571.199773
 20
108.179972
 11
571.074891
 21
108.369480
  0
LINE
  8
CSLAYER1
  6
CONTINUOUS
 62
     6
 10
571.074891
 20
108.369480
 11
570.953319
 21
108.561368
  0
LINE
  8
CSLAYER1
  6
CONTINUOUS
 62
     6
 10
570.953319
 20
108.561368
 11
570.834775
 21
108.754281
  0
LINE
  8
CSLAYER1
  6
CONTINUOUS
 62
     6
 10
570.834775
 20
108.754281
 11
570.718977
 21
108.946861
  0
LINE
  8
CSLAYER1
  6
CONTINUOUS
 62
     6
 10
570.718977
 20
108.946861
 11
570.605644
 21
109.137752
  0
LINE
  8
CSLAYER1
  6
CONTINUOUS
 62
     6
 10
570.605644
 20
109.137752
 11
570.494496
 21
109.325597
  0
LINE
  8
CSLAYER1
  6
CONTINUOUS
 62
     6
 10
570.494496
 20
109.325597
 11
570.385250
 21
109.509040
  0
LINE
  8
CSLAYER1
  6
CONTINUOUS
 62
     6
 10
570.385250
 20
109.509040
 11
570.277625
 21
109.686724
  0
LINE
  8
CSLAYER1
  6
CONTINUOUS
 62
     6
 10
570.277625
 20
109.686724
 11
570.172300
 21
109.852411
  0
LINE
  8
CSLAYER1
  6
CONTINUOUS
 62
     6
 10
570.172300
 20
109.852411
 11
570.057571
 21
110.022300
  0
LINE
  8
CSLAYER1
  6
CONTINUOUS
 62
     6
 10
570.057571
 20
110.022300
 11
569.935270
 21
110.194963
  0
LINE
  8
CSLAYER1
  6
CONTINUOUS
 62
     6
 10
569.935270
 20
110.194963
 11
569.807229
 21
110.368973
  0
LINE
  8
CSLAYER1
  6
CONTINUOUS
 62
     6
 10
569.807229
 20
110.368973
 11
569.675276
 21
110.542903
  0
LINE
  8
CSLAYER1
  6
CONTINUOUS
 62
     6
 10
569.675276
 20
110.542903
 11
569.541245
 21
110.715324
  0
LINE
  8
CSLAYER1
  6
CONTINUOUS
 62
     6
 10
569.541245
 20
110.715324
 11
569.406964
 21
110.884809
  0
LINE
  8
CSLAYER1
  6
CONTINUOUS
 62
     6
 10
569.406964
 20
110.884809
 11
569.274265
 21
111.049930
  0
LINE
  8
CSLAYER1
  6
CONTINUOUS
 62
     6
 10
569.274265
 20
111.049930
 11
569.144979
 21
111.209261
  0
LINE
  8
CSLAYER1
  6
CONTINUOUS
 62
     6
 10
569.144979
 20
111.209261
 11
569.020937
 21
111.361373
  0
LINE
  8
CSLAYER1
  6
CONTINUOUS
 62
     6
 10
569.020937
 20
111.361373
 11
568.851679
 21
111.568974
  0
ARC
  8
CSLAYER1
  6
CONTINUOUS
 62
     6
 10
569.933929
 20
111.139202
 40
1.164461
 50
93.975995
 51
158.341495
  0
ARC
  8
CSLAYER1
  6
CONTINUOUS
 62
     6
 10
570.899584
 20
111.789955
 40
1.164461
 50
93.975995
 51
153.975995
  0
ARC
  8
CSLAYER1
  6
CONTINUOUS
 62
     6
 10
569.772445
 20
113.462518
 40
1.164461
 50
273.975995
 51
333.975995
  0
LINE
  8
CSLAYER1
  6
CONTINUOUS
 62
     6
 10
570.818855
 20
112.951617
 11
570.940037
 21
112.803703
  0
LINE
  8
CSLAYER1
  6
CONTINUOUS
 62
     6
 10
570.940037
 20
112.803703
 11
571.069047
 21
112.646304
  0
ARC
  8
CSLAYER1
  6
CONTINUOUS
 62
     6
 10
569.009415
 20
112.545562
 40
1.200008
 50
89.538514
 51
149.538514
  0
LINE
  8
CSLAYER1
  6
CONTINUOUS
 62
     6
 10
573.777929
 20
107.501647
 11
576.220924
 21
105.107012
  0
LINE
  8
CSLAYER1
  6
CONTINUOUS
 62
     6
 10
576.835273
 20
105.319659
 11
574.089426
 21
107.822497
  0
LINE
  8
CSLAYER1
  6
CONTINUOUS
 62
     6
 10
573.497459
 20
106.978410
 11
575.748389
 21
104.539904
  0
LINE
  8
CSLAYER1
  6
CONTINUOUS
 62
     6
 10
582.175269
 20
107.398943
 11
579.949147
 21
110.375181
  0
LINE
  8
CSLAYER1
  6
CONTINUOUS
 62
     6
 10
580.514981
 20
110.521773
 11
582.860511
 21
107.847887
  0
LINE
  8
CSLAYER1
  6
CONTINUOUS
 62
     6
 10
583.403968
 20
108.367693
 11
580.932199
 21
110.769501
  0
LINE
  8
CSLAYER1
  6
CONTINUOUS
 62
     6
 10
560.615622
 20
124.996172
 11
561.059500
 21
125.696154
  0
LINE
  8
CSLAYER1
  6
CONTINUOUS
 62
     6
 10
560.559500
 20
125.696154
 11
560.115622
 21
124.996172
  0
ARC
  8
CSLAYER1
  6
CONTINUOUS
 62
     6
 10
557.911551
 20
125.096148
 40
0.100000
 50
180.057309
 51
269.999999
  0
LINE
  8
CSLAYER1
  6
CONTINUOUS
 62
     6
 10
557.811575
 20
125.096148
 11
557.811575
 21
125.596148
  0
ARC
  8
CSLAYER1
  6
CONTINUOUS
 62
     6
 10
557.911551
 20
125.596148
 40
0.100000
 50
89.999984
 51
179.999990
  0
LINE
  8
CSLAYER1
  6
CONTINUOUS
 62
     6
 10
547.711538
 20
123.696154
 11
547.711538
 21
127.696154
  0
LINE
  8
CSLAYER1
  6
CONTINUOUS
 62
     6
 10
547.711538
 20
123.696154
 11
534.711538
 21
123.696154
  0
ARC
  8
CSLAYER1
  6
CONTINUOUS
 62
     6
 10
415.851538
 20
128.496154
 40
3.000000
 50
16.440000
 51
88.500000
  0
LINE
  8
CSLAYER1
  6
CONTINUOUS
 62
     6
 10
415.931538
 20
131.496154
 11
392.131538
 21
132.116154
  0
ARC
  8
CSLAYER1
  6
CONTINUOUS
 62
     6
 10
392.211538
 20
135.116154
 40
3.000000
 50
180.000000
 51
268.500000
  0
LINE
  8
CSLAYER1
  6
CONTINUOUS
 62
     6
 10
389.211538
 20
135.116154
 11
389.211538
 21
149.276154
  0
ARC
  8
CSLAYER1
  6
CONTINUOUS
 62
     6
 10
392.211538
 20
149.276154
 40
3.000000
 50
91.500000
 51
180.000000
  0
LINE
  8
CSLAYER1
  6
CONTINUOUS
 62
     6
 10
392.131538
 20
152.276154
 11
415.931538
 21
152.896154
  0
ARC
  8
CSLAYER1
  6
CONTINUOUS
 62
     6
 10
415.851538
 20
155.896154
 40
3.000000
 50
271.500000
 51
343.570000
  0
LINE
  8
CSLAYER1
  6
CONTINUOUS
 62
     6
 10
382.211538
 20
199.656154
 11
376.931538
 21
199.656154
  0
LINE
  8
CSLAYER1
  6
CONTINUOUS
 62
     6
 10
382.211538
 20
225.196154
 11
387.151538
 21
225.316154
  0
LINE
  8
CSLAYER1
  6
CONTINUOUS
 62
     6
 10
418.611538
 20
224.616154
 11
418.611538
 21
230.936154
  0
LINE
  8
CSLAYER1
  6
CONTINUOUS
 62
     6
 10
357.571538
 20
162.196154
 11
357.711538
 21
161.536154
  0
LINE
  8
CSLAYER1
  6
CONTINUOUS
 62
     6
 10
376.931538
 20
135.736154
 11
382.211538
 21
135.736154
  0
LINE
  8
CSLAYER1
  6
CONTINUOUS
 62
     6
 10
382.211538
 20
120.196154
 11
378.211538
 21
120.196154
  0
ARC
  8
CSLAYER1
  6
CONTINUOUS
 62
     6
 10
379.711538
 20
107.436154
 40
3.000000
 50
90.000000
 51
180.000000
  0
LINE
  8
CSLAYER1
  6
CONTINUOUS
 62
     6
 10
379.711538
 20
110.436154
 11
382.211538
 21
110.436154
  0
LINE
  8
CSLAYER1
  6
CONTINUOUS
 62
     6
 10
373.711538
 20
101.696154
 11
254.711538
 21
101.696154
  0
ARC
  8
CSLAYER1
  6
CONTINUOUS
 62
     6
 10
254.711538
 20
98.696154
 40
3.000000
 50
90.000000
 51
180.000000
  0
LINE
  8
CSLAYER1
  6
CONTINUOUS
 62
     6
 10
261.711538
 20
100.256154
 11
261.711538
 21
86.696154
  0
LINE
  8
CSLAYER1
  6
DASHED
 62
     6
 10
268.711538
 20
86.696154
 11
268.711538
 21
101.696154
  0
LINE
  8
CSLAYER1
  6
DASHED
 62
     6
 10
279.711538
 20
101.696154
 11
279.711538
 21
86.696154
  0
ARC
  8
CSLAYER1
  6
CONTINUOUS
 62
     6
 10
288.471538
 20
104.696154
 40
3.000000
 50
270.000000
 51
330.260000
  0
LINE
  8
CSLAYER1
  6
CONTINUOUS
 62
     6
 10
291.071538
 20
103.216154
 11
293.351538
 21
107.176154
  0
ARC
  8
CSLAYER1
  6
CONTINUOUS
 62
     6
 10
295.951538
 20
105.696154
 40
3.000000
 50
90.000000
 51
150.260000
  0
LINE
  8
CSLAYER1
  6
CONTINUOUS
 62
     6
 10
295.951538
 20
108.696154
 11
332.471538
 21
108.696154
  0
ARC
  8
CSLAYER1
  6
CONTINUOUS
 62
     6
 10
332.471538
 20
105.696154
 40
3.000000
 50
29.750000
 51
90.000000
  0
LINE
  8
CSLAYER1
  6
CONTINUOUS
 62
     6
 10
335.071538
 20
107.176154
 11
337.351538
 21
103.216154
  0
ARC
  8
CSLAYER1
  6
CONTINUOUS
 62
     6
 10
339.951538
 20
104.696154
 40
3.000000
 50
209.750000
 51
270.000000
  0
LINE
  8
CSLAYER1
  6
CONTINUOUS
 62
     6
 10
334.211538
 20
102.236154
 11
334.211538
 21
108.136154
  0
LINE
  8
CSLAYER1
  6
DASHED
 62
     6
 10
348.711538
 20
101.696154
 11
348.711538
 21
86.696154
  0
LINE
  8
CSLAYER1
  6
DASHED
 62
     6
 10
359.711538
 20
86.696154
 11
359.711538
 21
101.696154
  0
LINE
  8
CSLAYER1
  6
CONTINUOUS
 62
     6
 10
365.711538
 20
100.256154
 11
365.711538
 21
86.696154
  0
ARC
  8
CSLAYER1
  6
CONTINUOUS
 62
     6
 10
373.711538
 20
98.696154
 40
3.000000
 50
0.000000
 51
90.000000
  0
LINE
  8
CSLAYER1
  6
CONTINUOUS
 62
     6
 10
294.211538
 20
102.236154
 11
294.211538
 21
108.136154
  0
LINE
  8
CSLAYER1
  6
CONTINUOUS
 62
     6
 10
297.211538
 20
321.750000
 11
297.211538
 21
361.750000
  0
LINE
  8
CSLAYER1
  6
CONTINUOUS
 62
     6
 10
297.211538
 20
361.750000
 11
300.211538
 21
361.750000
  0
LINE
  8
CSLAYER1
  6
DOT
 62
     6
 10
300.211538
 20
361.750000
 11
304.211538
 21
361.750000
  0
LINE
  8
CSLAYER1
  6
DOT
 62
     6
 10
304.211538
 20
361.750000
 11
304.211538
 21
321.750000
  0
LINE
  8
CSLAYER1
  6
CONTINUOUS
 62
     6
 10
300.211538
 20
321.750000
 11
300.211538
 21
366.750000
  0
LINE
  8
CSLAYER1
  6
CONTINUOUS
 62
     6
 10
299.211538
 20
366.750000
 11
329.211538
 21
366.750000
  0
LINE
  8
CSLAYER1
  6
CONTINUOUS
 62
     6
 10
329.211538
 20
366.750000
 11
329.211538
 21
368.750000
  0
LINE
  8
CSLAYER1
  6
CONTINUOUS
 62
     6
 10
328.211538
 20
366.750000
 11
328.211538
 21
321.750000
  0
LINE
  8
CSLAYER1
  6
CONTINUOUS
 62
     6
 10
328.211538
 20
321.750000
 11
297.211538
 21
321.750000
  0
LINE
  8
CSLAYER1
  6
CONTINUOUS
 62
     6
 10
297.211538
 20
358.750000
 11
262.696341
 21
358.750000
  0
ARC
  8
CSLAYER1
  6
CONTINUOUS
 62
     6
 10
262.803432
 20
360.750000
 40
2.000000
 50
199.274131
 51
270.000000
  0
LINE
  8
CSLAYER1
  6
CONTINUOUS
 62
     6
 10
260.915532
 20
360.089824
 11
251.823638
 21
386.089824
  0
ARC
  8
CSLAYER1
  6
CONTINUOUS
 62
     6
 10
253.711538
 20
386.750000
 40
2.000000
 50
180.000000
 51
270.000000
  0
LINE
  8
CSLAYER1
  6
CONTINUOUS
 62
     6
 10
253.711538
 20
384.750000
 11
374.711538
 21
384.750000
  0
ARC
  8
CSLAYER1
  6
CONTINUOUS
 62
     6
 10
374.711538
 20
382.750000
 40
2.000000
 50
0.000000
 51
90.000000
  0
LINE
  8
CSLAYER1
  6
CONTINUOUS
 62
     6
 10
376.711538
 20
382.750000
 11
376.711538
 21
366.510000
  0
ARC
  8
CSLAYER1
  6
CONTINUOUS
 62
     6
 10
378.711538
 20
366.510000
 40
2.000000
 50
180.000000
 51
270.000000
  0
LINE
  8
CSLAYER1
  6
CONTINUOUS
 62
     6
 10
378.711538
 20
364.510000
 11
382.211538
 21
364.510000
  0
LINE
  8
CSLAYER1
  6
CONTINUOUS
 62
     6
 10
382.211538
 20
364.250000
 11
382.211538
 21
479.250000
  0
LINE
  8
CSLAYER1
  6
CONTINUOUS
 62
     6
 10
382.211538
 20
479.250000
 11
423.831538
 21
480.350000
  0
ARC
  8
CSLAYER1
  6
CONTINUOUS
 62
     6
 10
423.711538
 20
485.350000
 40
5.000000
 50
271.500000
 51
360.000000
  0
ARC
  8
CSLAYER1
  6
CONTINUOUS
 62
     6
 10
423.711538
 20
485.990000
 40
5.000000
 50
271.500000
 51
360.000000
  0
LINE
  8
CSLAYER1
  6
CONTINUOUS
 62
     6
 10
423.831538
 20
480.990000
 11
421.131538
 21
480.910000
  0
ARC
  8
CSLAYER1
  6
CONTINUOUS
 62
     6
 10
421.211538
 20
477.910000
 40
3.000000
 50
91.500000
 51
129.330719
  0
LINE
  8
CSLAYER1
  6
CONTINUOUS
 62
     6
 10
382.211538
 20
478.990000
 11
378.711538
 21
478.990000
  0
ARC
  8
CSLAYER1
  6
CONTINUOUS
 62
     6
 10
378.711538
 20
476.990000
 40
2.000000
 50
90.000000
 51
180.000000
  0
LINE
  8
CSLAYER1
  6
CONTINUOUS
 62
     6
 10
376.711538
 20
476.990000
 11
376.711538
 21
460.750000
  0
ARC
  8
CSLAYER1
  6
CONTINUOUS
 62
     6
 10
374.711538
 20
460.750000
 40
2.000000
 50
270.000000
 51
360.000000
  0
LINE
  8
CSLAYER1
  6
CONTINUOUS
 62
     6
 10
374.711538
 20
458.750000
 11
253.711538
 21
458.750000
  0
ARC
  8
CSLAYER1
  6
CONTINUOUS
 62
     6
 10
253.711538
 20
456.750000
 40
2.000000
 50
90.000000
 51
180.000000
  0
LINE
  8
CSLAYER1
  6
CONTINUOUS
 62
     6
 10
251.711538
 20
456.750000
 11
251.711538
 21
386.750000
  0
ARC
  8
CSLAYER1
  6
CONTINUOUS
 62
     6
 10
264.686111
 20
379.750000
 40
5.000000
 50
15.530000
 51
90.000000
  0
LINE
  8
CSLAYER1
  6
CONTINUOUS
 62
     6
 10
269.506111
 20
381.090000
 11
269.966111
 21
379.410000
  0
ARC
  8
CSLAYER1
  6
CONTINUOUS
 62
     6
 10
274.786111
 20
380.750000
 40
5.000000
 50
195.530000
 51
270.000000
  0
LINE
  8
CSLAYER1
  6
CONTINUOUS
 62
     6
 10
274.211538
 20
375.750000
 11
278.743649
 21
375.750000
  0
ARC
  8
CSLAYER1
  6
CONTINUOUS
 62
     6
 10
274.211538
 20
371.750000
 40
5.500000
 50
23.646015
 51
46.658242
  0
ARC
  8
CSLAYER1
  6
CONTINUOUS
 62
     6
 10
274.211538
 20
371.750000
 40
5.500000
 50
-244.435030
 51
7.862575
  0
LINE
  8
CSLAYER1
  6
CONTINUOUS
 62
     6
 10
277.231538
 20
381.110000
 11
279.691538
 21
372.390000
  0
ARC
  8
CSLAYER1
  6
CONTINUOUS
 62
     6
 10
284.491538
 20
373.750000
 40
5.000000
 50
195.700000
 51
270.000000
  0
LINE
  8
CSLAYER1
  6
CONTINUOUS
 62
     6
 10
284.491538
 20
368.750000
 11
343.931538
 21
368.750000
  0
ARC
  8
CSLAYER1
  6
CONTINUOUS
 62
     6
 10
343.931538
 20
373.750000
 40
5.000000
 50
270.000000
 51
344.300000
  0
ARC
  8
CSLAYER1
  6
CONTINUOUS
 62
     6
 10
354.211538
 20
371.750000
 40
5.500000
 50
-186.749896
 51
64.435030
  0
LINE
  8
CSLAYER1
  6
CONTINUOUS
 62
     6
 10
354.211538
 20
375.750000
 11
349.679428
 21
375.750000
  0
ARC
  8
CSLAYER1
  6
CONTINUOUS
 62
     6
 10
354.211538
 20
371.750000
 40
5.500000
 50
133.341758
 51
156.353985
  0
LINE
  8
CSLAYER1
  6
CONTINUOUS
 62
     6
 10
348.731538
 20
372.390000
 11
351.191538
 21
381.110000
  0
ARC
  8
CSLAYER1
  6
CONTINUOUS
 62
     6
 10
355.991538
 20
379.750000
 40
5.000000
 50
90.000000
 51
164.300000
  0
LINE
  8
CSLAYER1
  6
CONTINUOUS
 62
     6
 10
358.916966
 20
381.090000
 11
358.456966
 21
379.410000
  0
ARC
  8
CSLAYER1
  6
CONTINUOUS
 62
     6
 10
353.636966
 20
380.750000
 40
5.000000
 50
270.000000
 51
344.470000
  0
ARC
  8
CSLAYER1
  6
CONTINUOUS
 62
     6
 10
363.736966
 20
379.750000
 40
5.000000
 50
90.000000
 51
164.470000
  0
ARC
  8
CSLAYER1
  6
CONTINUOUS
 62
     6
 10
374.711538
 20
386.750000
 40
2.000000
 50
270.000000
 51
360.000000
  0
ARC
  8
CSLAYER1
  6
CONTINUOUS
 62
     6
 10
378.711538
 20
386.250000
 40
2.000000
 50
180.000000
 51
270.000000
  0
LINE
  8
CSLAYER1
  6
CONTINUOUS
 62
     6
 10
378.711538
 20
384.250000
 11
382.211538
 21
384.250000
  0
LINE
  8
CSLAYER1
  6
CONTINUOUS
 62
     6
 10
376.711538
 20
386.250000
 11
376.711538
 21
457.250000
  0
ARC
  8
CSLAYER1
  6
CONTINUOUS
 62
     6
 10
378.711538
 20
457.250000
 40
2.000000
 50
90.000000
 51
180.000000
  0
LINE
  8
CSLAYER1
  6
CONTINUOUS
 62
     6
 10
378.711538
 20
459.250000
 11
382.211538
 21
459.250000
  0
ARC
  8
CSLAYER1
  6
CONTINUOUS
 62
     6
 10
374.711538
 20
456.750000
 40
2.000000
 50
0.000000
 51
90.000000
  0
LINE
  8
CSLAYER1
  6
CONTINUOUS
 62
     6
 10
375.973980
 20
459.198794
 11
367.507545
 21
483.410176
  0
ARC
  8
CSLAYER1
  6
CONTINUOUS
 62
     6
 10
365.619645
 20
482.750000
 40
2.000000
 50
19.274131
 51
90.000000
  0
LINE
  8
CSLAYER1
  6
CONTINUOUS
 62
     6
 10
365.619645
 20
484.750000
 11
262.803432
 21
484.750000
  0
ARC
  8
CSLAYER1
  6
CONTINUOUS
 62
     6
 10
262.803432
 20
482.750000
 40
2.000000
 50
90.000000
 51
160.725869
  0
LINE
  8
CSLAYER1
  6
CONTINUOUS
 62
     6
 10
260.915532
 20
483.410176
 11
251.823638
 21
457.410176
  0
ARC
  8
CSLAYER1
  6
CONTINUOUS
 62
     6
 10
264.686111
 20
463.750000
 40
5.000000
 50
270.000000
 51
344.470000
  0
LINE
  8
CSLAYER1
  6
CONTINUOUS
 62
     6
 10
269.506111
 20
462.410000
 11
269.966111
 21
464.090000
  0
ARC
  8
CSLAYER1
  6
CONTINUOUS
 62
     6
 10
274.786111
 20
462.750000
 40
5.000000
 50
90.000000
 51
164.470000
  0
LINE
  8
CSLAYER1
  6
CONTINUOUS
 62
     6
 10
274.211538
 20
467.750000
 11
278.743649
 21
467.750000
  0
ARC
  8
CSLAYER1
  6
CONTINUOUS
 62
     6
 10
274.211538
 20
471.750000
 40
5.500000
 50
313.341758
 51
336.353985
  0
ARC
  8
CSLAYER1
  6
CONTINUOUS
 62
     6
 10
274.211538
 20
471.750000
 40
5.500000
 50
-7.862575
 51
244.435030
  0
LINE
  8
CSLAYER1
  6
CONTINUOUS
 62
     6
 10
277.231538
 20
462.390000
 11
279.691538
 21
471.110000
  0
ARC
  8
CSLAYER1
  6
CONTINUOUS
 62
     6
 10
284.491538
 20
469.750000
 40
5.000000
 50
90.000000
 51
164.300000
  0
LINE
  8
CSLAYER1
  6
CONTINUOUS
 62
     6
 10
284.491538
 20
474.750000
 11
343.931538
 21
474.750000
  0
ARC
  8
CSLAYER1
  6
CONTINUOUS
 62
     6
 10
343.931538
 20
469.750000
 40
5.000000
 50
15.700000
 51
90.000000
  0
ARC
  8
CSLAYER1
  6
CONTINUOUS
 62
     6
 10
354.211538
 20
471.750000
 40
5.500000
 50
-64.435030
 51
186.749896
  0
LINE
  8
CSLAYER1
  6
CONTINUOUS
 62
     6
 10
354.211538
 20
467.750000
 11
349.679428
 21
467.750000
  0
ARC
  8
CSLAYER1
  6
CONTINUOUS
 62
     6
 10
354.211538
 20
471.750000
 40
5.500000
 50
203.646015
 51
226.658242
  0
LINE
  8
CSLAYER1
  6
CONTINUOUS
 62
     6
 10
348.731538
 20
471.110000
 11
351.191538
 21
462.390000
  0
ARC
  8
CSLAYER1
  6
CONTINUOUS
 62
     6
 10
355.991538
 20
463.750000
 40
5.000000
 50
195.700000
 51
270.000000
  0
LINE
  8
CSLAYER1
  6
CONTINUOUS
 62
     6
 10
358.916966
 20
462.410000
 11
358.456966
 21
464.090000
  0
ARC
  8
CSLAYER1
  6
CONTINUOUS
 62
     6
 10
353.636966
 20
462.750000
 40
5.000000
 50
15.530000
 51
90.000000
  0
ARC
  8
CSLAYER1
  6
CONTINUOUS
 62
     6
 10
363.736966
 20
463.750000
 40
5.000000
 50
195.530000
 51
270.000000
  0
ARC
  8
CSLAYER1
  6
CONTINUOUS
 62
     6
 10
378.711538
 20
467.250000
 40
2.000000
 50
90.000000
 51
180.000000
  0
LINE
  8
CSLAYER1
  6
CONTINUOUS
 62
     6
 10
378.711538
 20
469.250000
 11
382.211538
 21
469.250000
  0
LINE
  8
CSLAYER1
  6
CONTINUOUS
 62
     6
 10
338.135913
 20
455.750000
 11
338.135913
 21
387.750000
  0
LINE
  8
CSLAYER1
  6
CONTINUOUS
 62
     6
 10
334.211538
 20
368.750000
 11
334.211538
 21
360.750000
  0
LINE
  8
CSLAYER1
  6
CONTINUOUS
 62
     6
 10
328.211538
 20
358.750000
 11
365.619645
 21
358.750000
  0
ARC
  8
CSLAYER1
  6
CONTINUOUS
 62
     6
 10
365.619645
 20
360.750000
 40
2.000000
 50
270.000000
 51
340.725869
  0
LINE
  8
CSLAYER1
  6
CONTINUOUS
 62
     6
 10
367.507545
 20
360.089824
 11
375.973980
 21
384.301206
  0
ARC
  8
CSLAYER1
  6
CONTINUOUS
 62
     6
 10
378.711538
 20
376.250000
 40
2.000000
 50
180.000000
 51
270.000000
  0
LINE
  8
CSLAYER1
  6
CONTINUOUS
 62
     6
 10
378.711538
 20
374.250000
 11
382.211538
 21
374.250000
  0
LINE
  8
CSLAYER1
  6
CONTINUOUS
 62
     6
 10
382.211538
 20
364.250000
 11
423.831538
 21
363.150000
  0
ARC
  8
CSLAYER1
  6
CONTINUOUS
 62
     6
 10
423.711538
 20
358.150000
 40
5.000000
 50
0.000000
 51
88.500000
  0
ARC
  8
CSLAYER1
  6
CONTINUOUS
 62
     6
 10
423.711538
 20
357.510000
 40
5.000000
 50
0.000000
 51
88.500000
  0
LINE
  8
CSLAYER1
  6
CONTINUOUS
 62
     6
 10
423.831538
 20
362.510000
 11
421.131538
 21
362.590000
  0
ARC
  8
CSLAYER1
  6
CONTINUOUS
 62
     6
 10
421.211538
 20
365.590000
 40
3.000000
 50
230.669281
 51
268.500000
  0
ARC
  8
CSLAYER1
  6
CONTINUOUS
 62
     6
 10
415.851538
 20
408.060000
 40
3.000000
 50
16.430000
 51
88.500000
  0
LINE
  8
CSLAYER1
  6
CONTINUOUS
 62
     6
 10
415.931538
 20
411.060000
 11
392.131538
 21
411.680000
  0
ARC
  8
CSLAYER1
  6
CONTINUOUS
 62
     6
 10
392.211538
 20
414.680000
 40
3.000000
 50
180.000000
 51
268.500000
  0
LINE
  8
CSLAYER1
  6
CONTINUOUS
 62
     6
 10
389.211538
 20
414.680000
 11
389.211538
 21
428.820000
  0
ARC
  8
CSLAYER1
  6
CONTINUOUS
 62
     6
 10
392.211538
 20
428.820000
 40
3.000000
 50
91.500000
 51
180.000000
  0
LINE
  8
CSLAYER1
  6
CONTINUOUS
 62
     6
 10
392.131538
 20
431.820000
 11
415.931538
 21
432.440000
  0
ARC
  8
CSLAYER1
  6
CONTINUOUS
 62
     6
 10
415.851538
 20
435.440000
 40
3.000000
 50
271.500000
 51
343.570000
  0
LINE
  8
CSLAYER1
  6
CONTINUOUS
 62
     6
 10
418.611538
 20
433.740000
 11
418.611538
 21
409.760000
  0
ARC
  8
CSLAYER1
  6
CONTINUOUS
 62
     6
 10
421.611538
 20
409.760000
 40
3.000000
 50
180.000000
 51
270.000000
  0
LINE
  8
CSLAYER1
  6
CONTINUOUS
 62
     6
 10
421.611538
 20
406.740000
 11
423.711538
 21
406.740000
  0
ARC
  8
CSLAYER1
  6
CONTINUOUS
 62
     6
 10
423.711538
 20
401.760000
 40
5.000000
 50
0.000000
 51
90.000000
  0
ARC
  8
CSLAYER1
  6
CONTINUOUS
 62
     6
 10
426.711538
 20
385.310000
 40
2.000000
 50
284.470000
 51
360.000000
  0
ARC
  8
CSLAYER1
  6
CONTINUOUS
 62
     6
 10
427.711538
 20
381.430000
 40
2.000000
 50
104.470000
 51
180.000000
  0
LINE
  8
CSLAYER1
  6
CONTINUOUS
 62
     6
 10
425.711538
 20
381.430000
 11
425.711538
 21
370.170000
  0
ARC
  8
CSLAYER1
  6
CONTINUOUS
 62
     6
 10
427.711538
 20
370.170000
 40
2.000000
 50
180.000000
 51
255.520000
  0
ARC
  8
CSLAYER1
  6
CONTINUOUS
 62
     6
 10
426.711538
 20
366.310000
 40
2.000000
 50
0.000000
 51
75.520000
  0
LINE
  8
CSLAYER1
  6
CONTINUOUS
 62
     6
 10
449.711538
 20
368.078060
 11
451.711538
 21
368.078060
  0
LINE
  8
CSLAYER1
  6
CONTINUOUS
 62
     6
 10
451.711538
 20
368.078060
 11
451.711538
 21
383.478060
  0
LINE
  8
CSLAYER1
  6
CONTINUOUS
 62
     6
 10
451.711538
 20
383.478060
 11
449.711538
 21
383.478060
  0
LINE
  8
CSLAYER1
  6
CONTINUOUS
 62
     6
 10
451.711538
 20
382.278060
 11
457.011538
 21
382.278060
  0
LINE
  8
CSLAYER1
  6
CONTINUOUS
 62
     6
 10
457.011538
 20
382.278060
 11
457.011538
 21
369.278060
  0
LINE
  8
CSLAYER1
  6
CONTINUOUS
 62
     6
 10
457.011538
 20
369.278060
 11
451.711538
 21
369.278060
  0
ARC
  8
CSLAYER1
  6
CONTINUOUS
 62
     6
 10
446.255985
 20
372.528060
 40
10.755553
 50
-17.587954
 51
17.587954
  0
ARC
  8
CSLAYER1
  6
CONTINUOUS
 62
     6
 10
446.255985
 20
379.028060
 40
10.755553
 50
-17.587954
 51
17.587954
  0
LINE
  8
CSLAYER1
  6
CONTINUOUS
 62
     6
 10
457.011538
 20
376.750000
 11
534.711538
 21
376.750000
  0
LINE
  8
CSLAYER1
  6
CONTINUOUS
 62
     6
 10
534.711538
 20
376.750000
 11
534.711538
 21
466.750000
  0
LINE
  8
CSLAYER1
  6
CONTINUOUS
 62
     6
 10
534.711538
 20
466.750000
 11
457.011538
 21
466.750000
  0
ARC
  8
CSLAYER1
  6
CONTINUOUS
 62
     6
 10
446.255985
 20
464.461941
 40
10.755553
 50
-17.587954
 51
17.587954
  0
LINE
  8
CSLAYER1
  6
CONTINUOUS
 62
     6
 10
457.011538
 20
461.211941
 11
457.011538
 21
474.211941
  0
LINE
  8
CSLAYER1
  6
CONTINUOUS
 62
     6
 10
457.011538
 20
474.211941
 11
451.711538
 21
474.211941
  0
LINE
  8
CSLAYER1
  6
CONTINUOUS
 62
     6
 10
451.711538
 20
475.411941
 11
451.711538
 21
460.011941
  0
LINE
  8
CSLAYER1
  6
CONTINUOUS
 62
     6
 10
451.711538
 20
460.011941
 11
449.711538
 21
460.011941
  0
LINE
  8
CSLAYER1
  6
CONTINUOUS
 62
     6
 10
451.711538
 20
461.211941
 11
457.011538
 21
461.211941
  0
ARC
  8
CSLAYER1
  6
CONTINUOUS
 62
     6
 10
446.255985
 20
470.961941
 40
10.755553
 50
-17.587954
 51
17.587954
  0
LINE
  8
CSLAYER1
  6
CONTINUOUS
 62
     6
 10
451.711538
 20
475.411941
 11
449.711538
 21
475.411941
  0
LINE
  8
CSLAYER1
  6
CONTINUOUS
 62
     6
 10
451.711538
 20
468.943941
 11
449.711538
 21
468.327941
  0
LINE
  8
CSLAYER1
  6
CONTINUOUS
 62
     6
 10
449.711538
 20
466.479941
 11
451.711538
 21
467.095941
  0
LINE
  8
CSLAYER1
  6
CONTINUOUS
 62
     6
 10
451.711538
 20
467.711941
 11
456.508762
 21
467.711941
  0
ARC
  8
CSLAYER1
  6
CONTINUOUS
 62
     6
 10
426.711538
 20
477.190000
 40
2.000000
 50
284.480000
 51
360.000000
  0
ARC
  8
CSLAYER1
  6
CONTINUOUS
 62
     6
 10
427.711538
 20
473.330000
 40
2.000000
 50
104.480000
 51
180.000000
  0
LINE
  8
CSLAYER1
  6
CONTINUOUS
 62
     6
 10
425.711538
 20
473.330000
 11
425.711538
 21
462.070000
  0
ARC
  8
CSLAYER1
  6
CONTINUOUS
 62
     6
 10
427.711538
 20
462.070000
 40
2.000000
 50
180.000000
 51
255.530000
  0
ARC
  8
CSLAYER1
  6
CONTINUOUS
 62
     6
 10
426.711538
 20
458.190000
 40
2.000000
 50
0.000000
 51
75.530000
  0
LINE
  8
CSLAYER1
  6
CONTINUOUS
 62
     6
 10
428.711538
 20
498.610000
 11
428.711538
 21
344.890000
  0
ARC
  8
CSLAYER1
  6
CONTINUOUS
 62
     6
 10
431.711538
 20
344.890000
 40
3.000000
 50
180.000000
 51
268.500000
  0
LINE
  8
CSLAYER1
  6
CONTINUOUS
 62
     6
 10
431.631538
 20
341.890000
 11
436.711538
 21
341.750000
  0
LINE
  8
CSLAYER1
  6
CONTINUOUS
 62
     6
 10
436.711538
 20
341.750000
 11
436.711538
 21
501.750000
  0
LINE
  8
CSLAYER1
  6
CONTINUOUS
 62
     6
 10
436.711538
 20
501.750000
 11
449.711538
 21
501.750000
  0
LINE
  8
CSLAYER1
  6
CONTINUOUS
 62
     6
 10
449.711538
 20
501.750000
 11
449.711538
 21
341.750000
  0
LINE
  8
CSLAYER1
  6
CONTINUOUS
 62
     6
 10
449.711538
 20
341.750000
 11
436.711538
 21
341.750000
  0
LINE
  8
CSLAYER1
  6
CONTINUOUS
 62
     6
 10
449.711538
 20
374.546060
 11
451.711538
 21
375.162060
  0
LINE
  8
CSLAYER1
  6
CONTINUOUS
 62
     6
 10
451.711538
 20
375.778060
 11
456.508762
 21
375.778060
  0
LINE
  8
CSLAYER1
  6
CONTINUOUS
 62
     6
 10
451.711538
 20
377.010060
 11
449.711538
 21
376.394060
  0
ARC
  8
CSLAYER1
  6
CONTINUOUS
 62
     6
 10
423.711538
 20
441.740000
 40
5.000000
 50
270.000000
 51
360.000000
  0
LINE
  8
CSLAYER1
  6
CONTINUOUS
 62
     6
 10
423.711538
 20
436.760000
 11
421.611538
 21
436.760000
  0
ARC
  8
CSLAYER1
  6
CONTINUOUS
 62
     6
 10
421.611538
 20
433.740000
 40
3.000000
 50
90.000000
 51
180.000000
  0
LINE
  8
CSLAYER1
  6
CONTINUOUS
 62
     6
 10
299.211538
 20
368.750000
 11
299.211538
 21
366.750000
  0
LINE
  8
CSLAYER1
  6
CONTINUOUS
 62
     6
 10
294.211538
 20
368.750000
 11
294.211538
 21
360.750000
  0
ARC
  8
CSLAYER1
  6
CONTINUOUS
 62
     6
 10
272.431538
 20
379.750000
 40
5.000000
 50
15.700000
 51
90.000000
  0
LINE
  8
CSLAYER1
  6
CONTINUOUS
 62
     6
 10
290.287164
 20
387.750000
 11
290.287164
 21
455.750000
  0
ARC
  8
CSLAYER1
  6
CONTINUOUS
 62
     6
 10
272.431538
 20
463.750000
 40
5.000000
 50
270.000000
 51
344.300000
  0
LINE
  8
CSLAYER1
  6
CONTINUOUS
 62
     6
 10
294.211538
 20
474.750000
 11
294.211538
 21
482.750000
  0
LINE
  8
CSLAYER1
  6
CONTINUOUS
 62
     6
 10
334.211538
 20
482.750000
 11
334.211538
 21
474.750000
  0
ARC
  8
CSLAYER1
  6
CONTINUOUS
 62
     6
 10
431.711538
 20
498.610000
 40
3.000000
 50
91.500000
 51
180.000000
  0
LINE
  8
CSLAYER1
  6
CONTINUOUS
 62
     6
 10
431.631538
 20
501.610000
 11
436.711538
 21
501.750000
  0
LINE
  8
CSLAYER1
  6
CONTINUOUS
 62
     6
 10
534.711538
 20
465.749969
 11
536.186575
 21
465.749969
  0
LINE
  8
CSLAYER1
  6
CONTINUOUS
 62
     6
 10
536.617422
 20
465.854462
 11
535.919790
 21
459.217010
  0
ARC
  8
CSLAYER1
  6
CONTINUOUS
 62
     6
 10
534.925284
 20
459.321503
 40
1.000000
 50
269.999999
 51
353.999974
  0
ARC
  8
CSLAYER1
  6
CONTINUOUS
 62
     6
 10
534.974905
 20
463.793793
 40
1.000000
 50
269.999999
 51
353.999974
  0
LINE
  8
CSLAYER1
  6
CONTINUOUS
 62
     6
 10
535.969473
 20
463.689240
 11
536.617422
 21
469.854462
  0
ARC
  8
CSLAYER1
  6
CONTINUOUS
 62
     6
 10
537.611990
 20
469.749969
 40
1.000000
 50
89.999984
 51
173.999997
  0
LINE
  8
CSLAYER1
  6
CONTINUOUS
 62
     6
 10
537.611990
 20
470.749969
 11
573.811148
 21
470.749969
  0
ARC
  8
CSLAYER1
  6
CONTINUOUS
 62
     6
 10
573.811148
 20
469.749969
 40
1.000000
 50
6.000002
 51
89.999997
  0
LINE
  8
CSLAYER1
  6
CONTINUOUS
 62
     6
 10
574.805655
 20
469.854462
 11
575.453665
 21
463.689240
  0
ARC
  8
CSLAYER1
  6
CONTINUOUS
 62
     6
 10
576.448172
 20
463.793793
 40
1.000000
 50
186.000011
 51
269.999999
  0
LINE
  8
CSLAYER1
  6
CONTINUOUS
 62
     6
 10
575.237112
 20
465.749969
 11
586.711538
 21
465.749969
  0
LINE
  8
CSLAYER1
  6
CONTINUOUS
 62
     6
 10
586.711538
 20
465.749969
 11
587.711538
 21
464.749969
  0
LINE
  8
CSLAYER1
  6
CONTINUOUS
 62
     6
 10
587.711538
 20
464.749969
 11
587.711538
 21
378.749969
  0
LINE
  8
CSLAYER1
  6
CONTINUOUS
 62
     6
 10
587.711538
 20
378.749969
 11
586.711538
 21
377.749969
  0
LINE
  8
CSLAYER1
  6
CONTINUOUS
 62
     6
 10
586.711538
 20
377.749969
 11
575.237112
 21
377.749969
  0
ARC
  8
CSLAYER1
  6
CONTINUOUS
 62
     6
 10
573.811148
 20
377.749969
 40
1.000000
 50
269.999999
 51
353.999988
  0
LINE
  8
CSLAYER1
  6
CONTINUOUS
 62
     6
 10
573.811148
 20
376.749969
 11
537.611990
 21
376.749969
  0
ARC
  8
CSLAYER1
  6
CONTINUOUS
 62
     6
 10
537.611990
 20
377.749969
 40
1.000000
 50
185.999983
 51
269.999999
  0
LINE
  8
CSLAYER1
  6
CONTINUOUS
 62
     6
 10
536.617422
 20
377.645416
 11
535.919790
 21
384.282928
  0
ARC
  8
CSLAYER1
  6
CONTINUOUS
 62
     6
 10
534.925284
 20
384.178375
 40
1.000000
 50
6.000016
 51
89.999991
  0
ARC
  8
CSLAYER1
  6
CONTINUOUS
 62
     6
 10
534.974905
 20
379.706146
 40
1.000000
 50
6.000016
 51
89.999991
  0
LINE
  8
CSLAYER1
  6
CONTINUOUS
 62
     6
 10
535.969473
 20
379.810699
 11
536.617422
 21
373.645416
  0
ARC
  8
CSLAYER1
  6
CONTINUOUS
 62
     6
 10
537.611990
 20
373.749969
 40
1.000000
 50
185.999983
 51
269.999999
  0
LINE
  8
CSLAYER1
  6
CONTINUOUS
 62
     6
 10
537.611990
 20
372.749969
 11
573.811148
 21
372.749969
  0
ARC
  8
CSLAYER1
  6
CONTINUOUS
 62
     6
 10
573.811148
 20
373.749969
 40
1.000000
 50
269.999999
 51
353.999988
  0
LINE
  8
CSLAYER1
  6
CONTINUOUS
 62
     6
 10
574.805655
 20
373.645416
 11
575.453665
 21
379.810699
  0
ARC
  8
CSLAYER1
  6
CONTINUOUS
 62
     6
 10
576.448172
 20
379.706146
 40
1.000000
 50
89.999991
 51
173.999979
  0
LINE
  8
CSLAYER1
  6
CONTINUOUS
 62
     6
 10
574.805655
 20
377.645416
 11
575.503287
 21
384.282928
  0
ARC
  8
CSLAYER1
  6
CONTINUOUS
 62
     6
 10
576.497854
 20
384.178375
 40
1.000000
 50
89.999991
 51
173.999979
  0
LINE
  8
CSLAYER1
  6
CONTINUOUS
 62
     6
 10
572.025564
 20
385.356781
 11
540.068472
 21
385.356781
  0
LINE
  8
CSLAYER1
  6
CONTINUOUS
 62
     6
 10
536.186575
 20
377.749969
 11
534.711538
 21
377.749969
  0
LINE
  8
CSLAYER1
  6
CONTINUOUS
 62
     6
 10
586.711538
 20
377.749969
 11
586.711538
 21
465.749969
  0
ARC
  8
CSLAYER1
  6
CONTINUOUS
 62
     6
 10
573.811148
 20
465.749969
 40
1.000000
 50
6.000002
 51
89.999997
  0
LINE
  8
CSLAYER1
  6
CONTINUOUS
 62
     6
 10
573.811148
 20
466.749969
 11
537.611990
 21
466.749969
  0
ARC
  8
CSLAYER1
  6
CONTINUOUS
 62
     6
 10
537.611990
 20
465.749969
 40
1.000000
 50
89.999984
 51
173.999997
  0
LINE
  8
CSLAYER1
  6
CONTINUOUS
 62
     6
 10
540.068472
 20
458.143158
 11
572.025564
 21
458.143158
  0
LINE
  8
CSLAYER1
  6
CONTINUOUS
 62
     6
 10
575.503287
 20
459.217010
 11
574.805655
 21
465.854462
  0
ARC
  8
CSLAYER1
  6
CONTINUOUS
 62
     6
 10
576.497854
 20
459.321503
 40
1.000000
 50
186.000011
 51
269.999999
  0
LINE
  8
CSLAYER1
  6
CONTINUOUS
 62
     6
 10
674.711538
 20
257.596154
 11
674.711538
 21
238.625696
  0
ARC
  8
CSLAYER1
  6
CONTINUOUS
 62
     6
 10
711.711538
 20
167.696124
 40
45.000000
 50
205.550536
 51
210.185653
  0
ARC
  8
CSLAYER1
  6
CONTINUOUS
 62
     6
 10
675.535345
 20
139.283404
 40
2.000000
 50
38.145734
 51
86.999897
  0
LINE
  8
CSLAYER1
  6
CONTINUOUS
 62
     6
 10
672.249598
 20
125.486990
 11
665.749598
 21
129.239767
  0
LINE
  8
CSLAYER1
  6
CONTINUOUS
 62
     6
 10
665.749598
 20
129.239767
 11
659.249598
 21
125.486990
  0
LINE
  8
CSLAYER1
  6
CONTINUOUS
 62
     6
 10
659.249598
 20
125.486990
 11
659.249598
 21
117.981436
  0
LINE
  8
CSLAYER1
  6
CONTINUOUS
 62
     6
 10
659.249598
 20
117.981436
 11
665.749598
 21
114.228660
  0
LINE
  8
CSLAYER1
  6
CONTINUOUS
 62
     6
 10
665.749598
 20
114.228660
 11
672.249598
 21
117.981436
  0
LINE
  8
CSLAYER1
  6
CONTINUOUS
 62
     6
 10
672.249598
 20
117.981436
 11
672.249598
 21
125.486990
  0
CIRCLE
  8
CSLAYER1
  6
CONTINUOUS
 62
     6
 10
665.749598
 20
121.734213
 40
7.700000
  0
CIRCLE
  8
CSLAYER1
  6
CONTINUOUS
 62
     6
 10
665.749598
 20
121.734213
 40
6.305000
  0
LINE
  8
CSLAYER1
  6
CONTINUOUS
 62
     6
 10
661.758328
 20
105.208741
 11
650.931538
 21
102.296154
  0
ARC
  8
CSLAYER1
  6
CONTINUOUS
 62
     6
 10
651.711538
 20
99.396154
 40
3.000000
 50
105.070000
 51
180.000000
  0
LINE
  8
CSLAYER1
  6
CONTINUOUS
 62
     6
 10
648.711538
 20
99.396154
 11
648.711538
 21
86.696154
  0
LINE
  8
CSLAYER1
  6
CONTINUOUS
 62
     6
 10
648.711538
 20
86.696154
 11
684.211538
 21
86.696154
  0
LINE
  8
CSLAYER1
  6
CONTINUOUS
 62
     6
 10
684.211538
 20
86.696154
 11
685.211538
 21
87.696154
  0
LINE
  8
CSLAYER1
  6
CONTINUOUS
 62
     6
 10
685.211538
 20
87.696154
 11
738.211538
 21
87.696154
  0
LINE
  8
CSLAYER1
  6
CONTINUOUS
 62
     6
 10
738.211538
 20
87.696154
 11
739.211538
 21
86.696154
  0
LINE
  8
CSLAYER1
  6
CONTINUOUS
 62
     6
 10
739.211538
 20
86.696154
 11
774.711538
 21
86.696154
  0
LINE
  8
CSLAYER1
  6
CONTINUOUS
 62
     6
 10
774.711538
 20
86.696154
 11
774.711538
 21
99.396154
  0
ARC
  8
CSLAYER1
  6
CONTINUOUS
 62
     6
 10
771.711538
 20
99.396154
 40
3.000000
 50
0.000000
 51
74.940000
  0
LINE
  8
CSLAYER1
  6
CONTINUOUS
 62
     6
 10
772.491538
 20
102.296154
 11
761.664749
 21
105.208741
  0
LINE
  8
CSLAYER1
  6
CONTINUOUS
 62
     6
 10
756.922157
 20
101.696154
 11
772.211538
 21
101.696154
  0
ARC
  8
CSLAYER1
  6
CONTINUOUS
 62
     6
 10
772.211538
 20
99.196154
 40
2.500000
 50
0.000000
 51
90.000000
  0
LINE
  8
CSLAYER1
  6
DASHED
 62
     6
 10
767.211538
 20
101.696154
 11
767.211538
 21
86.696154
  0
LINE
  8
CSLAYER1
  6
DASHED
 62
     6
 10
756.211538
 20
86.696154
 11
756.211538
 21
101.214953
  0
LINE
  8
CSLAYER1
  6
CONTINUOUS
 62
     6
 10
748.711538
 20
96.766611
 11
748.711538
 21
86.696154
  0
LINE
  8
CSLAYER1
  6
CONTINUOUS
 62
     6
 10
757.673479
 20
114.228660
 11
764.173479
 21
117.981436
  0
LINE
  8
CSLAYER1
  6
CONTINUOUS
 62
     6
 10
764.173479
 20
117.981436
 11
764.173479
 21
125.486990
  0
LINE
  8
CSLAYER1
  6
CONTINUOUS
 62
     6
 10
764.173479
 20
125.486990
 11
757.673479
 21
129.239767
  0
LINE
  8
CSLAYER1
  6
CONTINUOUS
 62
     6
 10
757.673479
 20
129.239767
 11
751.173479
 21
125.486990
  0
LINE
  8
CSLAYER1
  6
CONTINUOUS
 62
     6
 10
751.173479
 20
125.486990
 11
751.173479
 21
117.981436
  0
LINE
  8
CSLAYER1
  6
CONTINUOUS
 62
     6
 10
751.173479
 20
117.981436
 11
757.673479
 21
114.228660
  0
CIRCLE
  8
CSLAYER1
  6
CONTINUOUS
 62
     6
 10
757.673479
 20
121.734213
 40
7.700000
  0
CIRCLE
  8
CSLAYER1
  6
CONTINUOUS
 62
     6
 10
757.673479
 20
121.734213
 40
6.305000
  0
ARC
  8
CSLAYER1
  6
CONTINUOUS
 62
     6
 10
711.711538
 20
167.696124
 40
45.000000
 50
329.814347
 51
334.449464
  0
LINE
  8
CSLAYER1
  6
CONTINUOUS
 62
     6
 10
713.713537
 20
122.740679
 11
713.713529
 21
116.140107
  0
ARC
  8
CSLAYER1
  6
CONTINUOUS
 62
     6
 10
713.213025
 20
117.007004
 40
1.001006
 50
240.000019
 51
300.000019
  0
ARC
  8
CSLAYER1
  6
CONTINUOUS
 62
     6
 10
712.212019
 20
117.007003
 40
1.001006
 50
240.000019
 51
300.000019
  0
LINE
  8
CSLAYER1
  6
CONTINUOUS
 62
     6
 10
711.711516
 20
116.140106
 11
711.711538
 21
122.696154
  0
LINE
  8
CSLAYER1
  6
CONTINUOUS
 62
     6
 10
709.709539
 20
122.740679
 11
709.709531
 21
116.140107
  0
ARC
  8
CSLAYER1
  6
CONTINUOUS
 62
     6
 10
710.210005
 20
117.007003
 40
1.001006
 50
240.000019
 51
300.000019
  0
ARC
  8
CSLAYER1
  6
CONTINUOUS
 62
     6
 10
711.211011
 20
117.007004
 40
1.001006
 50
240.000019
 51
300.000019
  0
ARC
  8
CSLAYER1
  6
CONTINUOUS
 62
     6
 10
712.212020
 20
115.273210
 40
1.001006
 50
60.000019
 51
120.000019
  0
ARC
  8
CSLAYER1
  6
CONTINUOUS
 62
     6
 10
713.213047
 20
113.781743
 40
1.000999
 50
59.999655
 51
119.999655
  0
ARC
  8
CSLAYER1
  6
CONTINUOUS
 62
     6
 10
713.213057
 20
115.515524
 40
1.000999
 50
239.999655
 51
299.999655
  0
ARC
  8
CSLAYER1
  6
CONTINUOUS
 62
     6
 10
712.212048
 20
113.781749
 40
1.000999
 50
59.999655
 51
119.999655
  0
ARC
  8
CSLAYER1
  6
CONTINUOUS
 62
     6
 10
711.211043
 20
115.515524
 40
1.000999
 50
239.999655
 51
299.999655
  0
ARC
  8
CSLAYER1
  6
CONTINUOUS
 62
     6
 10
711.211033
 20
113.781743
 40
1.000999
 50
59.999655
 51
119.999655
  0
LINE
  8
CSLAYER1
  6
CONTINUOUS
 62
     6
 10
711.711537
 20
114.648631
 11
711.711562
 21
113.475646
  0
ARC
  8
CSLAYER1
  6
CONTINUOUS
 62
     6
 10
726.052076
 20
113.489991
 40
14.340522
 50
180.057313
 51
207.463775
  0
LINE
  8
CSLAYER1
  6
CONTINUOUS
 62
     6
 10
713.327695
 20
106.876328
 11
715.104078
 21
107.799638
  0
ARC
  8
CSLAYER1
  6
CONTINUOUS
 62
     6
 10
726.052076
 20
113.489991
 40
12.338538
 50
180.057313
 51
207.463775
  0
LINE
  8
CSLAYER1
  6
CONTINUOUS
 62
     6
 10
713.713544
 20
113.490037
 11
713.713544
 21
114.648637
  0
ARC
  8
CSLAYER1
  6
CONTINUOUS
 62
     6
 10
697.371000
 20
113.490037
 40
14.340522
 50
332.536108
 51
359.999980
  0
LINE
  8
CSLAYER1
  6
CONTINUOUS
 62
     6
 10
710.095365
 20
106.876328
 11
708.318982
 21
107.799607
  0
ARC
  8
CSLAYER1
  6
CONTINUOUS
 62
     6
 10
697.371000
 20
113.489991
 40
12.338538
 50
-27.463892
 51
0.000037
  0
LINE
  8
CSLAYER1
  6
CONTINUOUS
 62
     6
 10
709.709531
 20
113.490037
 11
709.709531
 21
114.648637
  0
ARC
  8
CSLAYER1
  6
CONTINUOUS
 62
     6
 10
710.210034
 20
113.781749
 40
1.000999
 50
59.999655
 51
119.999655
  0
ARC
  8
CSLAYER1
  6
CONTINUOUS
 62
     6
 10
710.210006
 20
115.273210
 40
1.001006
 50
60.000019
 51
120.000019
  0
LINE
  8
CSLAYER1
  6
CONTINUOUS
 62
     6
 10
708.748820
 20
107.576198
 11
707.296022
 21
105.180056
  0
LINE
  8
CSLAYER1
  6
CONTINUOUS
 62
     6
 10
707.886022
 20
104.770056
 11
709.207174
 21
107.337967
  0
LINE
  8
CSLAYER1
  6
CONTINUOUS
 62
     6
 10
709.667492
 20
107.103555
 11
708.562635
 21
104.528403
  0
LINE
  8
CSLAYER1
  6
CONTINUOUS
 62
     6
 10
713.741348
 20
107.091332
 11
714.996022
 21
104.360056
  0
LINE
  8
CSLAYER1
  6
CONTINUOUS
 62
     6
 10
715.626022
 20
104.590056
 11
714.215887
 21
107.337983
  0
LINE
  8
CSLAYER1
  6
CONTINUOUS
 62
     6
 10
714.692973
 20
107.579671
 11
716.180232
 21
104.967749
  0
LINE
  8
CSLAYER1
  6
CONTINUOUS
 62
     6
 10
674.711538
 20
96.766611
 11
674.711538
 21
86.696154
  0
LINE
  8
CSLAYER1
  6
DASHED
 62
     6
 10
667.211538
 20
86.696154
 11
667.211538
 21
101.214953
  0
LINE
  8
CSLAYER1
  6
CONTINUOUS
 62
     6
 10
666.500920
 20
101.696154
 11
651.211538
 21
101.696154
  0
ARC
  8
CSLAYER1
  6
CONTINUOUS
 62
     6
 10
651.211538
 20
99.196154
 40
2.500000
 50
90.000000
 51
180.000000
  0
LINE
  8
CSLAYER1
  6
DASHED
 62
     6
 10
656.211538
 20
101.696154
 11
656.211538
 21
86.696154
  0
ENDSEC
  0
EOF
