  0
SECTION
  2
HEADER
  9
$ACADVER
  1
AC1006
  9
$INSBASE
 10
0.000000
 20
0.000000
 30
0.0
  9
$EXTMIN
 10
0.000000
 20
0.000000
  9
$EXTMAX
 10
594.000000
 20
420.000000
  9
$LIMMIN
 10
0.000000
 20
0.000000
  9
$LIMMAX
 10
594.000000
 20
420.000000
  9
$VIEWCTR
 10
297.000000
 20
210.000000
  9
$VIEWSIZE
 40
420.000000
  9
$SNAPMODE
 70
     0
  9
$SNAPUNIT
 10
1.0
 20
1.0
  9
$SNAPBASE
 10
0.0
 20
0.0
  9
$SNAPANG
 50
0.0
  9
$SNAPSTYLE
 70
     0
  9
$SNAPISOPAIR
 70
     0
  9
$GRIDMODE
 70
     0
  9
$GRIDUNIT
 10
0.0
 20
0.0
  9
$ORTHOMODE
 70
     0
  9
$REGENMODE
 70
     1
  9
$FILLMODE
 70
     1
  9
$QTEXTMODE
 70
     0
  9
$DRAGMODE
 70
     2
  9
$LTSCALE
 40
15.000000
  9
$OSMODE
 70
     0
  9
$ATTMODE
 70
     1
  9
$TEXTSIZE
 40
0.2
  9
$TRACEWID
 40
0.05
  9
$TEXTSTYLE
  7
STANDARD
  9
$CLAYER
  8
CSLAYER1
  9
$CELTYPE
  6
BYLAYER
  9
$CECOLOR
 62
   256
  9
$DIMSCALE
 40
1.0
  9
$DIMASZ
 40
0.18
  9
$DIMEXO
 40
0.0625
  9
$DIMDLI
 40
0.38
  9
$DIMRND
 40
0.0
  9
$DIMDLE
 40
0.0
  9
$DIMEXE
 40
0.18
  9
$DIMTP
 40
0.0
  9
$DIMTM
 40
0.0
  9
$DIMTXT
 40
0.18
  9
$DIMCEN
 40
0.09
  9
$DIMTSZ
 40
0.0
  9
$DIMTOL
 70
     0
  9
$DIMLIM
 70
     0
  9
$DIMTIH
 70
     1
  9
$DIMTOH
 70
     1
  9
$DIMSE1
 70
     0
  9
$DIMSE2
 70
     0
  9
$DIMTAD
 70
     0
  9
$DIMZIN
 70
     0
  9
$DIMBLK
  1

  9
$LUNITS
 70
     2
  9
$LUPREC
 70
     4
  9
$AXISMODE
 70
     0
  9
$AXISUNIT
 10
0.0
 20
0.0
  9
$SKETCHINC
 40
0.1
  9
$FILLETRAD
 40
0.0
  9
$AUNITS
 70
     0
  9
$AUPREC
 70
     0
  9
$MENU
  1
ACAD
  9
$ELEVATION
 40
0.0
  9
$THICKNESS
 40
0.0
  9
$VIEWDIR
 10
0.0
 20
0.0
 30
1.0
  9
$LIMCHECK
 70
     0
  9
$BLIPMODE
 70
     1
  9
$CHAMFERA
 40
0.0
  9
$CHAMFERB
 40
0.0
  9
$FASTZOOM
 70
     1
  9
$SKPOLY
 70
     0
  9
$TDCREATE
 40
0.000000
  9
$TDUPDATE
 40
0.000000
  9
$TDINDWG
 40
0.0
  9
$TDUSRTIMER
 40
0.0
  9
$USRTIMER
 70
     1
  9
$ANGBASE
 50
0.0
  9
$ANGDIR
 70
     0
  9
$PDMODE
 70
     0
  9
$PDSIZE
 40
0.0
  9
$PLINEWID
 40
0.0
  9
$COORDS
 70
     0
  9
$USERI1
 70
     0
  9
$USERI2
 70
     0
  9
$USERI3
 70
     0
  9
$USERI4
 70
     0
  9
$USERI5
 70
     0
  9
$USERR1
 40
0.0
  9
$USERR2
 40
0.0
  9
$USERR3
 40
0.0
  9
$USERR4
 40
0.0
  9
$USERR5
 40
0.0
  0
ENDSEC
  0
SECTION
  2
TABLES
  0
TABLE
  2
LTYPE
 70
     9
  0
LTYPE
  2
CONTINUOUS
 70
    64
  3
Solid line
 72
    65
 73
     0
 40
0.0
  0
LTYPE
  2
DASHED
 70
    64
  3
__ __ __ __ __ __ __ __ __ __ __ __ __ __ __
 72
    65
 73
     2
 40
0.75
 49
0.5
 49
-0.25
  0
LTYPE
  2
HIDDEN
 70
    64
  3
_ _ _ _ _ _ _ _ _ _ _ _ _ _ _ _ _ _ _ _ _ _ _
 72
    65
 73
     2
 40
0.375
 49
0.25
 49
-0.125
  0
LTYPE
  2
DOT
 70
    64
  3
...............................................
 72
    65
 73
     2
 40
0.25
 49
0.0
 49
-0.25
  0
LTYPE
  2
DASHDOT
 70
    64
  3
__ . __ . __ . __ . __ . __ . __ . __ . __ . __
 72
    65
 73
     4
 40
1.0
 49
0.5
 49
-0.25
 49
0.0
 49
-0.25
  0
LTYPE
  2
DIVIDE
 70
    64
  3
__ . . __ . . __ . . __ . . __ . . __ . . __
 72
    65
 73
     6
 40
1.25
 49
0.5
 49
-0.25
 49
0.0
 49
-0.25
 49
0.0
 49
-0.25
  0
LTYPE
  2
CENTER
 70
    64
  3
____ _ ____ _ ____ _ ____ _ ____ _ ____ _ ____ 
 72
    65
 73
     4
 40
2.0
 49
1.25
 49
-0.25
 49
0.25
 49
-0.25
  0
LTYPE
  2
PHANTOM
 70
    64
  3
______  __  __  ______  __  __  ______  __  __ 
 72
    65
 73
     6
 40
2.5
 49
1.25
 49
-0.25
 49
0.25
 49
-0.25
 49
0.25
 49
-0.25
  0
LTYPE
  2
BORDER
 70
    64
  3
__ __ . __ __ . __ __ . __ __ . __ __ . __ __ .
 72
    65
 73
     6
 40
1.75
 49
0.5
 49
-0.25
 49
0.5
 49
-0.25
 49
0.0
 49
-0.25
  0
ENDTAB
  0
TABLE
  2
LAYER
 70
    16
  0
LAYER
  2
CSLAYER1
 70
    64
 62
     7
  6
CONTINUOUS
  0
LAYER
  2
CSLAYER2
 70
    64
 62
     7
  6
CONTINUOUS
  0
LAYER
  2
CSLAYER3
 70
    64
 62
     7
  6
CONTINUOUS
  0
LAYER
  2
CSLAYER4
 70
    64
 62
     7
  6
CONTINUOUS
  0
LAYER
  2
CSLAYER5
 70
    64
 62
     7
  6
CONTINUOUS
  0
LAYER
  2
CSLAYER6
 70
    64
 62
     7
  6
CONTINUOUS
  0
LAYER
  2
CSLAYER7
 70
    64
 62
     7
  6
CONTINUOUS
  0
LAYER
  2
CSLAYER8
 70
    64
 62
     7
  6
CONTINUOUS
  0
LAYER
  2
CSLAYER9
 70
    64
 62
     7
  6
CONTINUOUS
  0
LAYER
  2
CSLAYER10
 70
    64
 62
     7
  6
CONTINUOUS
  0
LAYER
  2
CSLAYER11
 70
    64
 62
     7
  6
CONTINUOUS
  0
LAYER
  2
CSLAYER12
 70
    64
 62
     7
  6
CONTINUOUS
  0
LAYER
  2
CSLAYER13
 70
    64
 62
     7
  6
CONTINUOUS
  0
LAYER
  2
CSLAYER14
 70
    64
 62
     7
  6
CONTINUOUS
  0
LAYER
  2
CSLAYER15
 70
    64
 62
     7
  6
CONTINUOUS
  0
LAYER
  2
CSLAYER16
 70
    64
 62
     7
  6
CONTINUOUS
  0
ENDTAB
  0
TABLE
  2
STYLE
 70
     1
  0
STYLE
  2
JX_FONT
 70
     0
 40
1.0
 41
1.0
 50
0.0
 71
     0
 42
1.0
  3
monotxt
  4
bigfont
  0
ENDTAB
  0
TABLE
  2
VIEW
 70
     0
  0
ENDTAB
  0
ENDSEC
  0
SECTION
  2
BLOCKS
  0
ENDSEC
  0
SECTION
  2
ENTITIES
  0
LINE
  8
CSLAYER1
  6
CENTER
 62
     3
 10
79.463320
 20
138.934517
 11
79.463320
 21
267.159123
  0
ARC
  8
CSLAYER1
  6
CENTER
 62
     3
 10
79.463320
 20
211.159123
 40
36.500000
 50
45.074661
 51
74.925352
  0
LINE
  8
CSLAYER1
  6
CENTER
 62
     3
 10
98.555203
 20
230.251006
 11
79.463320
 21
211.159123
  0
LINE
  8
CSLAYER1
  6
CENTER
 62
     3
 10
79.463320
 20
211.159123
 11
60.371433
 21
192.067244
  0
ARC
  8
CSLAYER1
  6
CENTER
 62
     3
 10
79.463320
 20
211.159123
 40
22.000000
 50
212.622854
 51
237.377146
  0
ARC
  8
CSLAYER1
  6
CENTER
 62
     3
 10
79.463320
 20
211.159123
 40
14.000000
 50
200.397443
 51
249.602557
  0
ARC
  8
CSLAYER1
  6
CENTER
 62
     3
 10
79.463320
 20
211.159123
 40
36.500000
 50
165.074661
 51
194.925352
  0
ARC
  8
CSLAYER1
  6
CENTER
 62
     3
 10
79.463320
 20
211.159123
 40
22.000000
 50
122.622854
 51
147.377146
  0
LINE
  8
CSLAYER1
  6
CENTER
 62
     3
 10
67.598314
 20
223.024136
 11
60.371433
 21
230.251002
  0
ARC
  8
CSLAYER1
  6
CONTINUOUS
 62
     3
 10
63.713320
 20
211.159123
 40
0.250000
 50
90.000001
 51
270.000021
  0
LINE
  8
CSLAYER1
  6
CONTINUOUS
 62
     3
 10
63.713320
 20
210.909123
 11
67.213320
 21
210.909123
  0
ARC
  8
CSLAYER1
  6
CONTINUOUS
 62
     3
 10
67.213320
 20
211.159123
 40
0.250000
 50
-90.000019
 51
90.000001
  0
LINE
  8
CSLAYER1
  6
CONTINUOUS
 62
     3
 10
67.213320
 20
211.409123
 11
63.713320
 21
211.409123
  0
ARC
  8
CSLAYER1
  6
CENTER
 62
     3
 10
79.463320
 20
211.159123
 40
14.000000
 50
20.397443
 51
69.602557
  0
LINE
  8
CSLAYER1
  6
CONTINUOUS
 62
     3
 10
93.213320
 20
212.899090
 11
93.213320
 21
211.409123
  0
LINE
  8
CSLAYER1
  6
CONTINUOUS
 62
     3
 10
93.213320
 20
211.409123
 11
91.663599
 21
211.409123
  0
ARC
  8
CSLAYER1
  6
CONTINUOUS
 62
     3
 10
91.713320
 20
211.159123
 40
0.250000
 50
101.471877
 51
270.000021
  0
LINE
  8
CSLAYER1
  6
CONTINUOUS
 62
     3
 10
91.713320
 20
210.909123
 11
93.213320
 21
210.909123
  0
LINE
  8
CSLAYER1
  6
CONTINUOUS
 62
     3
 10
93.213320
 20
210.909123
 11
93.213320
 21
209.393902
  0
ARC
  8
CSLAYER1
  6
CONTINUOUS
 62
     3
 10
93.463320
 20
209.409123
 40
0.250000
 50
-176.508968
 51
0.000020
  0
LINE
  8
CSLAYER1
  6
CONTINUOUS
 62
     3
 10
93.713320
 20
209.409123
 11
93.713320
 21
210.909123
  0
LINE
  8
CSLAYER1
  6
CONTINUOUS
 62
     3
 10
93.713320
 20
210.909123
 11
95.213320
 21
210.909123
  0
ARC
  8
CSLAYER1
  6
CONTINUOUS
 62
     3
 10
95.213320
 20
211.159123
 40
0.250000
 50
-90.000019
 51
90.000001
  0
LINE
  8
CSLAYER1
  6
CONTINUOUS
 62
     3
 10
95.213320
 20
211.409123
 11
93.713320
 21
211.409123
  0
LINE
  8
CSLAYER1
  6
CONTINUOUS
 62
     3
 10
93.713320
 20
211.409123
 11
93.713320
 21
212.909123
  0
ARC
  8
CSLAYER1
  6
CONTINUOUS
 62
     3
 10
93.463320
 20
212.909123
 40
0.250000
 50
0.000020
 51
182.300752
  0
ARC
  8
CSLAYER1
  6
CENTER
 62
     3
 10
79.463320
 20
211.159123
 40
22.000000
 50
32.622854
 51
57.377146
  0
LINE
  8
CSLAYER1
  6
CENTER
 62
     3
 10
92.963312
 20
234.541794
 11
102.463312
 21
250.996277
  0
LINE
  8
CSLAYER1
  6
CENTER
 62
     3
 10
112.463320
 20
253.659123
 11
131.463320
 21
253.659123
  0
LINE
  8
CSLAYER1
  6
CENTER
 62
     3
 10
121.963320
 20
244.159123
 11
121.963320
 21
263.159123
  0
LINE
  8
CSLAYER1
  6
CENTER
 62
     3
 10
135.463320
 20
211.159123
 11
23.463320
 21
211.159123
  0
LINE
  8
CSLAYER1
  6
CENTER
 62
     3
 10
36.963320
 20
244.159123
 11
36.963320
 21
263.159123
  0
LINE
  8
CSLAYER1
  6
CENTER
 62
     3
 10
46.463320
 20
253.659123
 11
27.463320
 21
253.659123
  0
LINE
  8
CSLAYER1
  6
CENTER
 62
     3
 10
36.963320
 20
178.159123
 11
36.963320
 21
159.159123
  0
LINE
  8
CSLAYER1
  6
CENTER
 62
     3
 10
27.463320
 20
168.659123
 11
46.463320
 21
168.659123
  0
ARC
  8
CSLAYER1
  6
CENTER
 62
     3
 10
79.463320
 20
211.159123
 40
36.500000
 50
285.074661
 51
314.925339
  0
LINE
  8
CSLAYER1
  6
CENTER
 62
     3
 10
98.555203
 20
192.067240
 11
90.738085
 21
199.884365
  0
ARC
  8
CSLAYER1
  6
CENTER
 62
     3
 10
79.463320
 20
211.159123
 40
22.000000
 50
302.622854
 51
327.377146
  0
LINE
  8
CSLAYER1
  6
CENTER
 62
     3
 10
92.963312
 20
187.776452
 11
102.463312
 21
171.321969
  0
LINE
  8
CSLAYER1
  6
CENTER
 62
     3
 10
112.463320
 20
168.659123
 11
131.463320
 21
168.659123
  0
LINE
  8
CSLAYER1
  6
CENTER
 62
     3
 10
121.963320
 20
159.159123
 11
121.963320
 21
178.159123
  0
LINE
  8
CSLAYER1
  6
CENTER
 62
     3
 10
165.885631
 20
211.159123
 11
456.885600
 21
211.159123
  0
LINE
  8
CSLAYER1
  6
CENTER
 62
     3
 10
465.974424
 20
211.159123
 11
577.974424
 21
211.159123
  0
LINE
  8
CSLAYER1
  6
CENTER
 62
     3
 10
564.474424
 20
244.159123
 11
564.474424
 21
263.159123
  0
LINE
  8
CSLAYER1
  6
CENTER
 62
     3
 10
573.974424
 20
253.659123
 11
554.974424
 21
253.659123
  0
LINE
  8
CSLAYER1
  6
CENTER
 62
     3
 10
535.474424
 20
248.159145
 11
508.474424
 21
248.159145
  0
LINE
  8
CSLAYER1
  6
CENTER
 62
     3
 10
488.974424
 20
253.659123
 11
469.974424
 21
253.659123
  0
LINE
  8
CSLAYER1
  6
CENTER
 62
     3
 10
479.474424
 20
244.159123
 11
479.474424
 21
263.159123
  0
LINE
  8
CSLAYER1
  6
CENTER
 62
     3
 10
521.974424
 20
267.159123
 11
521.974424
 21
155.159123
  0
LINE
  8
CSLAYER1
  6
CENTER
 62
     3
 10
508.474424
 20
174.159100
 11
535.474424
 21
174.159100
  0
LINE
  8
CSLAYER1
  6
CENTER
 62
     3
 10
554.974424
 20
168.659123
 11
573.974424
 21
168.659123
  0
LINE
  8
CSLAYER1
  6
CENTER
 62
     3
 10
564.474424
 20
178.159123
 11
564.474424
 21
159.159123
  0
LINE
  8
CSLAYER1
  6
CENTER
 62
     3
 10
488.974424
 20
168.659123
 11
469.974424
 21
168.659123
  0
LINE
  8
CSLAYER1
  6
CENTER
 62
     3
 10
479.474424
 20
178.159123
 11
479.474424
 21
159.159123
  0
LINE
  8
CSLAYER1
  6
CENTER
 62
     3
 10
414.885631
 20
168.659123
 11
395.885631
 21
168.659123
  0
LINE
  8
CSLAYER1
  6
CENTER
 62
     3
 10
395.885600
 20
118.659123
 11
414.885600
 21
118.659123
  0
LINE
  8
CSLAYER1
  6
CENTER
 62
     3
 10
456.885600
 20
76.159123
 11
165.885631
 21
76.159123
  0
LINE
  8
CSLAYER1
  6
CENTER
 62
     3
 10
182.885631
 20
49.659199
 11
182.885631
 21
102.659199
  0
LINE
  8
CSLAYER1
  6
CENTER
 62
     3
 10
205.627031
 20
94.409124
 11
220.078797
 21
94.409122
  0
LINE
  8
CSLAYER1
  6
CENTER
 62
     3
 10
214.885656
 20
91.759159
 11
205.145763
 21
91.759159
  0
LINE
  8
CSLAYER1
  6
CENTER
 62
     3
 10
205.145759
 20
60.559065
 11
214.885656
 21
60.559063
  0
LINE
  8
CSLAYER1
  6
CENTER
 62
     3
 10
220.078788
 20
39.659124
 11
205.627022
 21
39.659122
  0
LINE
  8
CSLAYER1
  6
CENTER
 62
     3
 10
250.885631
 20
69.159123
 11
250.885631
 21
83.159123
  0
LINE
  8
CSLAYER1
  6
CENTER
 62
     3
 10
282.885631
 20
85.909085
 11
282.885631
 21
66.409085
  0
LINE
  8
CSLAYER1
  6
CENTER
 62
     3
 10
283.135637
 20
61.159123
 11
294.635637
 21
61.159123
  0
LINE
  8
CSLAYER1
  6
CENTER
 62
     3
 10
288.885631
 20
55.159123
 11
288.885631
 21
97.159123
  0
LINE
  8
CSLAYER1
  6
CENTER
 62
     3
 10
283.135637
 20
91.159123
 11
294.635637
 21
91.159123
  0
LINE
  8
CSLAYER1
  6
CENTER
 62
     3
 10
293.885631
 20
44.765919
 11
293.885631
 21
22.159108
  0
LINE
  8
CSLAYER1
  6
CENTER
 62
     3
 10
293.885631
 20
107.552296
 11
293.885631
 21
130.159108
  0
LINE
  8
CSLAYER1
  6
CENTER
 62
     3
 10
288.885631
 20
163.459111
 11
288.885631
 21
174.159123
  0
LINE
  8
CSLAYER1
  6
CENTER
 62
     3
 10
293.885631
 20
179.159123
 11
293.885631
 21
243.159123
  0
LINE
  8
CSLAYER1
  6
CENTER
 62
     3
 10
293.885631
 20
292.159138
 11
293.885631
 21
314.765950
  0
LINE
  8
CSLAYER1
  6
CENTER
 62
     3
 10
220.078774
 20
242.769039
 11
205.627008
 21
242.769036
  0
LINE
  8
CSLAYER1
  6
CENTER
 62
     3
 10
205.145763
 20
226.759153
 11
214.885681
 21
226.759153
  0
LINE
  8
CSLAYER1
  6
CENTER
 62
     3
 10
182.885631
 20
232.159123
 11
182.885631
 21
190.159123
  0
LINE
  8
CSLAYER1
  6
CENTER
 62
     3
 10
181.385637
 20
200.659109
 11
184.385637
 21
200.659110
  0
LINE
  8
CSLAYER1
  6
CENTER
 62
     3
 10
205.145759
 20
195.559059
 11
214.885681
 21
195.559057
  0
LINE
  8
CSLAYER1
  6
CENTER
 62
     3
 10
220.078784
 20
179.549210
 11
205.627018
 21
179.549208
  0
LINE
  8
CSLAYER1
  6
CENTER
 62
     3
 10
250.885631
 20
170.559123
 11
250.885631
 21
145.501308
  0
LINE
  8
CSLAYER1
  6
CONTINUOUS
 62
     3
 10
348.885600
 20
247.564888
 11
376.885600
 21
247.564857
  0
ARC
  8
CSLAYER1
  6
CONTINUOUS
 62
     3
 10
376.885600
 20
249.564857
 40
2.000000
 50
270.000001
 51
359.942691
  0
LINE
  8
CSLAYER1
  6
CONTINUOUS
 62
     3
 10
378.885600
 20
249.564857
 11
378.885600
 21
256.159123
  0
LINE
  8
CSLAYER1
  6
CENTER
 62
     3
 10
395.885631
 20
253.659123
 11
414.885631
 21
253.659123
  0
LINE
  8
CSLAYER1
  6
CENTER
 62
     3
 10
414.885600
 20
303.659123
 11
395.885600
 21
303.659123
  0
LINE
  8
CSLAYER1
  6
CONTINUOUS
 62
     3
 10
346.885600
 20
256.159123
 11
346.885600
 21
249.564888
  0
ARC
  8
CSLAYER1
  6
CONTINUOUS
 62
     3
 10
348.885600
 20
249.564888
 40
2.000000
 50
180.000005
 51
270.000001
  0
LINE
  8
CSLAYER1
  6
CONTINUOUS
 62
     3
 10
348.885600
 20
320.659123
 11
376.885600
 21
320.659123
  0
ARC
  8
CSLAYER1
  6
CONTINUOUS
 62
     3
 10
376.885600
 20
322.659123
 40
2.000000
 50
270.000000
 51
360.000000
  0
LINE
  8
CSLAYER1
  6
CONTINUOUS
 62
     3
 10
378.885600
 20
322.659123
 11
378.885600
 21
369.659123
  0
ARC
  8
CSLAYER1
  6
CONTINUOUS
 62
     3
 10
376.885600
 20
369.659123
 40
2.000000
 50
0.000000
 51
90.000000
  0
LINE
  8
CSLAYER1
  6
CONTINUOUS
 62
     3
 10
376.885600
 20
371.659123
 11
348.885600
 21
371.659123
  0
ARC
  8
CSLAYER1
  6
CONTINUOUS
 62
     3
 10
348.885600
 20
369.659123
 40
2.000000
 50
90.000000
 51
180.000000
  0
LINE
  8
CSLAYER1
  6
CONTINUOUS
 62
     3
 10
346.885600
 20
369.659123
 11
346.885600
 21
322.659123
  0
ARC
  8
CSLAYER1
  6
CONTINUOUS
 62
     3
 10
348.885600
 20
322.659123
 40
2.000000
 50
180.000000
 51
270.000000
  0
LINE
  8
CSLAYER1
  6
CENTER
 62
     3
 10
395.885600
 20
388.659123
 11
414.885600
 21
388.659123
  0
LINE
  8
CSLAYER1
  6
CENTER
 62
     3
 10
456.885600
 20
346.159123
 11
165.885631
 21
346.159123
  0
LINE
  8
CSLAYER1
  6
CENTER
 62
     3
 10
182.885631
 20
319.659168
 11
182.885631
 21
372.659168
  0
LINE
  8
CSLAYER1
  6
CENTER
 62
     3
 10
205.145759
 20
361.759181
 11
214.885656
 21
361.759183
  0
LINE
  8
CSLAYER1
  6
CENTER
 62
     3
 10
220.078788
 20
382.659122
 11
205.627022
 21
382.659124
  0
LINE
  8
CSLAYER1
  6
CENTER
 62
     3
 10
205.145763
 20
330.559087
 11
214.885656
 21
330.559087
  0
LINE
  8
CSLAYER1
  6
CENTER
 62
     3
 10
220.078797
 20
327.909124
 11
205.627031
 21
327.909122
  0
LINE
  8
CSLAYER1
  6
CENTER
 62
     3
 10
293.885631
 20
377.552327
 11
293.885631
 21
400.159138
  0
LINE
  8
CSLAYER1
  6
CENTER
 62
     3
 10
395.885600
 20
33.659123
 11
414.885600
 21
33.659123
  0
TEXT
  8
CSLAYER1
 62
     3
 10
360.942352
 20
351.409119
 40
3.500000
 41
1.125000
  1
N P
 50
270.000000
 51
10.000000
  7
JX_FONT
 72
     5
 11
360.942352
 21
340.909119
  0
LINE
  8
CSLAYER1
  6
CONTINUOUS
 62
     6
 10
73.597416
 20
139.026905
 11
75.710522
 21
143.144708
  0
LINE
  8
CSLAYER1
  6
CONTINUOUS
 62
     6
 10
74.995603
 20
143.506881
 11
72.766926
 21
139.592882
  0
LINE
  8
CSLAYER1
  6
CONTINUOUS
 62
     6
 10
74.541479
 20
138.682247
 11
76.421625
 21
142.775098
  0
LINE
  8
CSLAYER1
  6
CONTINUOUS
 62
     6
 10
77.041488
 20
142.452912
 11
74.379556
 21
143.836504
  0
ARC
  8
CSLAYER1
  6
CONTINUOUS
 62
     6
 10
57.973842
 20
152.363570
 40
18.489456
 50
332.536225
 51
359.942687
  0
LINE
  8
CSLAYER1
  6
CONTINUOUS
 62
     6
 10
76.463289
 20
152.363639
 11
76.463289
 21
154.099816
  0
ARC
  8
CSLAYER1
  6
CONTINUOUS
 62
     6
 10
77.213291
 20
152.800765
 40
1.500010
 50
77.905623
 51
120.000345
  0
ARC
  8
CSLAYER1
  6
CONTINUOUS
 62
     6
 10
77.213275
 20
155.398858
 40
1.500010
 50
240.000345
 51
278.069511
  0
LINE
  8
CSLAYER1
  6
CONTINUOUS
 62
     6
 10
76.768925
 20
152.328135
 11
78.179749
 21
151.594831
  0
ARC
  8
CSLAYER1
  6
CONTINUOUS
 62
     6
 10
68.073897
 20
156.847480
 40
11.389411
 50
332.536225
 51
359.942687
  0
LINE
  8
CSLAYER1
  6
CONTINUOUS
 62
     6
 10
79.463302
 20
156.836087
 11
79.463321
 21
157.767686
  0
ARC
  8
CSLAYER1
  6
CONTINUOUS
 62
     6
 10
79.860820
 20
158.456183
 40
0.795005
 50
240.000345
 51
300.000345
  0
ARC
  8
CSLAYER1
  6
CONTINUOUS
 62
     6
 10
79.860828
 20
157.079193
 40
0.795005
 50
60.000345
 51
120.000345
  0
ARC
  8
CSLAYER1
  6
CONTINUOUS
 62
     6
 10
79.065810
 20
157.079198
 40
0.795005
 50
60.000345
 51
120.000345
  0
ARC
  8
CSLAYER1
  6
CONTINUOUS
 62
     6
 10
78.270805
 20
157.079193
 40
0.795005
 50
60.000345
 51
120.000345
  0
ARC
  8
CSLAYER1
  6
CONTINUOUS
 62
     6
 10
78.270796
 20
158.456183
 40
0.795005
 50
240.000345
 51
300.000345
  0
LINE
  8
CSLAYER1
  6
CONTINUOUS
 62
     6
 10
77.873304
 20
157.767690
 11
77.873304
 21
156.847517
  0
ARC
  8
CSLAYER1
  6
CONTINUOUS
 62
     6
 10
68.073897
 20
156.847480
 40
9.799412
 50
332.536225
 51
359.942687
  0
LINE
  8
CSLAYER1
  6
CONTINUOUS
 62
     6
 10
77.095430
 20
152.153435
 11
75.914231
 21
150.079015
  0
LINE
  8
CSLAYER1
  6
CONTINUOUS
 62
     6
 10
76.354391
 20
149.779047
 11
77.474337
 21
151.961483
  0
LINE
  8
CSLAYER1
  6
CONTINUOUS
 62
     6
 10
77.851222
 20
151.765590
 11
76.854745
 21
149.596379
  0
ARC
  8
CSLAYER1
  6
CONTINUOUS
 62
     6
 10
57.973842
 20
152.363570
 40
21.489455
 50
332.536225
 51
359.942687
  0
ARC
  8
CSLAYER1
  6
CONTINUOUS
 62
     6
 10
100.952799
 20
152.363639
 40
21.489455
 50
180.000020
 51
207.463892
  0
LINE
  8
CSLAYER1
  6
CONTINUOUS
 62
     6
 10
79.463286
 20
152.342074
 11
79.463322
 21
154.099807
  0
ARC
  8
CSLAYER1
  6
CONTINUOUS
 62
     6
 10
80.213319
 20
155.398858
 40
1.500010
 50
240.000345
 51
255.551203
  0
ARC
  8
CSLAYER1
  6
CONTINUOUS
 62
     6
 10
80.213334
 20
152.800765
 40
1.500010
 50
107.291250
 51
120.000345
  0
ARC
  8
CSLAYER1
  6
CONTINUOUS
 62
     6
 10
78.713301
 20
152.800774
 40
1.500010
 50
60.000345
 51
72.708151
  0
LINE
  8
CSLAYER1
  6
CONTINUOUS
 62
     6
 10
79.463353
 20
156.334803
 11
79.463320
 21
166.159123
  0
LINE
  8
CSLAYER1
  6
CONTINUOUS
 62
     6
 10
79.463320
 20
166.159123
 11
79.463338
 21
158.952233
  0
ARC
  8
CSLAYER1
  6
CONTINUOUS
 62
     6
 10
79.065833
 20
159.640733
 40
0.795011
 50
239.999981
 51
299.999981
  0
ARC
  8
CSLAYER1
  6
CONTINUOUS
 62
     6
 10
79.065832
 20
158.263734
 40
0.795011
 50
59.999981
 51
119.999981
  0
ARC
  8
CSLAYER1
  6
CONTINUOUS
 62
     6
 10
79.860845
 20
159.640733
 40
0.795011
 50
239.999981
 51
299.999981
  0
ARC
  8
CSLAYER1
  6
CONTINUOUS
 62
     6
 10
80.655856
 20
159.640733
 40
0.795011
 50
239.999981
 51
299.999981
  0
ARC
  8
CSLAYER1
  6
CONTINUOUS
 62
     6
 10
80.655855
 20
158.263734
 40
0.795011
 50
59.999981
 51
119.999981
  0
LINE
  8
CSLAYER1
  6
CONTINUOUS
 62
     6
 10
81.053338
 20
158.952233
 11
81.053332
 21
165.159123
  0
LINE
  8
CSLAYER1
  6
CONTINUOUS
 62
     6
 10
82.463343
 20
165.159123
 11
82.463353
 21
156.334803
  0
ARC
  8
CSLAYER1
  6
CONTINUOUS
 62
     6
 10
81.713387
 20
157.633858
 40
1.500020
 50
244.594310
 51
299.999981
  0
ARC
  8
CSLAYER1
  6
CONTINUOUS
 62
     6
 10
81.713386
 20
155.035747
 40
1.500020
 50
59.999981
 51
115.648168
  0
ARC
  8
CSLAYER1
  6
CONTINUOUS
 62
     6
 10
90.852744
 20
156.847480
 40
9.799412
 50
179.999963
 51
207.463892
  0
LINE
  8
CSLAYER1
  6
CONTINUOUS
 62
     6
 10
82.157728
 20
152.328110
 11
80.746904
 21
151.594831
  0
ARC
  8
CSLAYER1
  6
CONTINUOUS
 62
     6
 10
90.852744
 20
156.847517
 40
11.389411
 50
180.000020
 51
207.463892
  0
ARC
  8
CSLAYER1
  6
CONTINUOUS
 62
     6
 10
80.655833
 20
157.079198
 40
0.795005
 50
60.000345
 51
120.000345
  0
LINE
  8
CSLAYER1
  6
CONTINUOUS
 62
     6
 10
81.053338
 20
157.767690
 11
81.053338
 21
156.847517
  0
ARC
  8
CSLAYER1
  6
CONTINUOUS
 62
     6
 10
81.713344
 20
152.800774
 40
1.500010
 50
60.000345
 51
102.094271
  0
LINE
  8
CSLAYER1
  6
CONTINUOUS
 62
     6
 10
82.463353
 20
154.099816
 11
82.463353
 21
152.363639
  0
ARC
  8
CSLAYER1
  6
CONTINUOUS
 62
     6
 10
100.952799
 20
152.363570
 40
18.489456
 50
179.999963
 51
207.463892
  0
LINE
  8
CSLAYER1
  6
CONTINUOUS
 62
     6
 10
84.547109
 20
143.836458
 11
81.885176
 21
142.452912
  0
LINE
  8
CSLAYER1
  6
CONTINUOUS
 62
     6
 10
82.526349
 20
142.793415
 11
84.181993
 21
138.934517
  0
LINE
  8
CSLAYER1
  6
CONTINUOUS
 62
     6
 10
85.195905
 20
139.296637
 11
83.216142
 21
143.144685
  0
LINE
  8
CSLAYER1
  6
CONTINUOUS
 62
     6
 10
83.902992
 20
143.501677
 11
86.080027
 21
139.911027
  0
LINE
  8
CSLAYER1
  6
CONTINUOUS
 62
     6
 10
82.501590
 20
149.922005
 11
81.452316
 21
151.961471
  0
LINE
  8
CSLAYER1
  6
CONTINUOUS
 62
     6
 10
81.816346
 20
152.150676
 11
82.970175
 21
150.247632
  0
LINE
  8
CSLAYER1
  6
CONTINUOUS
 62
     6
 10
81.964217
 20
149.730082
 11
81.086726
 21
151.775298
  0
ARC
  8
CSLAYER1
  6
CONTINUOUS
 62
     6
 10
77.213323
 20
157.633859
 40
1.500020
 50
239.999981
 51
295.402657
  0
LINE
  8
CSLAYER1
  6
CONTINUOUS
 62
     6
 10
76.463311
 20
156.334803
 11
76.463301
 21
165.159123
  0
LINE
  8
CSLAYER1
  6
CONTINUOUS
 62
     6
 10
75.753320
 20
165.159123
 11
83.173320
 21
165.159123
  0
LINE
  8
CSLAYER1
  6
CONTINUOUS
 62
     6
 10
83.173320
 20
165.159123
 11
83.173320
 21
166.159123
  0
LINE
  8
CSLAYER1
  6
CONTINUOUS
 62
     6
 10
83.173320
 20
166.159123
 11
75.753320
 21
166.159123
  0
LINE
  8
CSLAYER1
  6
CONTINUOUS
 62
     6
 10
75.753320
 20
166.159123
 11
75.753320
 21
165.159123
  0
LINE
  8
CSLAYER1
  6
CONTINUOUS
 62
     6
 10
77.873310
 20
165.159123
 11
77.873316
 21
158.952233
  0
ARC
  8
CSLAYER1
  6
CONTINUOUS
 62
     6
 10
78.270822
 20
159.640733
 40
0.795011
 50
239.999981
 51
299.999981
  0
LINE
  8
CSLAYER1
  6
CONTINUOUS
 62
     6
 10
76.463305
 20
161.159123
 11
36.963320
 21
161.159123
  0
ARC
  8
CSLAYER1
  6
CONTINUOUS
 62
     6
 10
36.963320
 20
168.659123
 40
7.500000
 50
146.246253
 51
303.753747
  0
LINE
  8
CSLAYER1
  6
CONTINUOUS
 62
     6
 10
30.727571
 20
172.826307
 11
38.852607
 21
184.984563
  0
LINE
  8
CSLAYER1
  6
CONTINUOUS
 62
     6
 10
39.022595
 20
188.346482
 11
35.448275
 21
188.159123
  0
ARC
  8
CSLAYER1
  6
CONTINUOUS
 62
     6
 10
35.448275
 20
187.159123
 40
1.000000
 50
90.000039
 51
180.000020
  0
LINE
  8
CSLAYER1
  6
CONTINUOUS
 62
     6
 10
34.463320
 20
187.159123
 11
34.463320
 21
186.159123
  0
ARC
  8
CSLAYER1
  6
CONTINUOUS
 62
     6
 10
35.463320
 20
186.159123
 40
1.000000
 50
180.000020
 51
270.000001
  0
LINE
  8
CSLAYER1
  6
CONTINUOUS
 62
     6
 10
35.463320
 20
185.159123
 11
43.018076
 21
184.763211
  0
ARC
  8
CSLAYER1
  6
CONTINUOUS
 62
     6
 10
33.864008
 20
188.318311
 40
6.000000
 50
2.848860
 51
26.606406
  0
LINE
  8
CSLAYER1
  6
CONTINUOUS
 62
     6
 10
38.864100
 20
191.750276
 11
31.442904
 21
192.139164
  0
ARC
  8
CSLAYER1
  6
CONTINUOUS
 62
     6
 10
31.463320
 20
193.138920
 40
1.000000
 50
180.000020
 51
268.830766
  0
LINE
  8
CSLAYER1
  6
CONTINUOUS
 62
     6
 10
30.463320
 20
193.138920
 11
30.463320
 21
229.179326
  0
ARC
  8
CSLAYER1
  6
CONTINUOUS
 62
     6
 10
31.463320
 20
229.179326
 40
1.000000
 50
91.169216
 51
180.000020
  0
LINE
  8
CSLAYER1
  6
CONTINUOUS
 62
     6
 10
31.442904
 20
230.179082
 11
38.864100
 21
230.567970
  0
ARC
  8
CSLAYER1
  6
CONTINUOUS
 62
     6
 10
33.864008
 20
233.999935
 40
6.000000
 50
333.393594
 51
357.151140
  0
ARC
  8
CSLAYER1
  6
CONTINUOUS
 62
     6
 10
38.933603
 20
232.274020
 40
1.700075
 50
37.189358
 51
86.999412
  0
LINE
  8
CSLAYER1
  6
CONTINUOUS
 62
     6
 10
39.022595
 20
233.971764
 11
35.448275
 21
234.159123
  0
ARC
  8
CSLAYER1
  6
CONTINUOUS
 62
     6
 10
35.448275
 20
235.159123
 40
1.000000
 50
180.000020
 51
270.000001
  0
LINE
  8
CSLAYER1
  6
CONTINUOUS
 62
     6
 10
34.463320
 20
235.159123
 11
34.463320
 21
236.159123
  0
ARC
  8
CSLAYER1
  6
CONTINUOUS
 62
     6
 10
35.463320
 20
236.159123
 40
1.000000
 50
90.000039
 51
180.000020
  0
LINE
  8
CSLAYER1
  6
CONTINUOUS
 62
     6
 10
35.463320
 20
237.159123
 11
43.018076
 21
237.555035
  0
LINE
  8
CSLAYER1
  6
CONTINUOUS
 62
     6
 10
38.852607
 20
237.333683
 11
30.727571
 21
249.491938
  0
ARC
  8
CSLAYER1
  6
CONTINUOUS
 62
     6
 10
36.963320
 20
253.659123
 40
7.500000
 50
56.246253
 51
213.753747
  0
LINE
  8
CSLAYER1
  6
CONTINUOUS
 62
     6
 10
41.130505
 20
259.894873
 11
53.288761
 21
251.769836
  0
ARC
  8
CSLAYER1
  6
CONTINUOUS
 62
     6
 10
56.622508
 20
256.758435
 40
6.000000
 50
236.246253
 51
296.606406
  0
CIRCLE
  8
CSLAYER1
  6
CONTINUOUS
 62
     6
 10
36.963320
 20
253.659123
 40
3.500000
  0
LINE
  8
CSLAYER1
  6
CONTINUOUS
 62
     6
 10
29.463320
 20
253.659123
 11
29.463320
 21
168.659123
  0
CIRCLE
  8
CSLAYER1
  6
CONTINUOUS
 62
     6
 10
36.963320
 20
168.659123
 40
3.500000
  0
LINE
  8
CSLAYER1
  6
CONTINUOUS
 62
     6
 10
41.130505
 20
162.423373
 11
53.288761
 21
170.548410
  0
ARC
  8
CSLAYER1
  6
CONTINUOUS
 62
     6
 10
56.622508
 20
165.559810
 40
6.000000
 50
63.393594
 51
123.753747
  0
ARC
  8
CSLAYER1
  6
CONTINUOUS
 62
     6
 10
63.906969
 20
195.602772
 40
1.750000
 50
253.398415
 51
286.601605
  0
LINE
  8
CSLAYER1
  6
CONTINUOUS
 62
     6
 10
64.406969
 20
193.925724
 11
64.406969
 21
194.602772
  0
ARC
  8
CSLAYER1
  6
CONTINUOUS
 62
     6
 10
64.906969
 20
194.602772
 40
0.500000
 50
90.000001
 51
179.942687
  0
LINE
  8
CSLAYER1
  6
CONTINUOUS
 62
     6
 10
64.906969
 20
195.102772
 11
65.584017
 21
195.102772
  0
ARC
  8
CSLAYER1
  6
CONTINUOUS
 62
     6
 10
63.906969
 20
195.602772
 40
1.750000
 50
-16.601547
 51
16.601587
  0
LINE
  8
CSLAYER1
  6
CONTINUOUS
 62
     6
 10
65.584017
 20
196.102772
 11
64.906969
 21
196.102772
  0
ARC
  8
CSLAYER1
  6
CONTINUOUS
 62
     6
 10
64.906969
 20
196.602772
 40
0.500000
 50
180.000000
 51
269.999981
  0
LINE
  8
CSLAYER1
  6
CONTINUOUS
 62
     6
 10
64.406969
 20
196.602772
 11
64.406969
 21
197.279820
  0
ARC
  8
CSLAYER1
  6
CONTINUOUS
 62
     6
 10
63.906969
 20
195.602772
 40
1.750000
 50
73.398434
 51
106.601568
  0
LINE
  8
CSLAYER1
  6
CONTINUOUS
 62
     6
 10
63.406969
 20
197.279820
 11
63.406969
 21
196.602772
  0
ARC
  8
CSLAYER1
  6
CONTINUOUS
 62
     6
 10
62.906969
 20
196.602772
 40
0.500000
 50
-90.000019
 51
0.000020
  0
LINE
  8
CSLAYER1
  6
CONTINUOUS
 62
     6
 10
62.906969
 20
196.102772
 11
62.229921
 21
196.102772
  0
ARC
  8
CSLAYER1
  6
CONTINUOUS
 62
     6
 10
63.906969
 20
195.602772
 40
1.750000
 50
163.398416
 51
196.601606
  0
LINE
  8
CSLAYER1
  6
CONTINUOUS
 62
     6
 10
62.229921
 20
195.102772
 11
62.906969
 21
195.102772
  0
ARC
  8
CSLAYER1
  6
CONTINUOUS
 62
     6
 10
62.906969
 20
194.602772
 40
0.500000
 50
0.000020
 51
90.000001
  0
LINE
  8
CSLAYER1
  6
CONTINUOUS
 62
     6
 10
63.406969
 20
194.602772
 11
63.406969
 21
193.925724
  0
CIRCLE
  8
CSLAYER1
  6
CONTINUOUS
 62
     6
 10
63.906969
 20
195.602772
 40
2.750000
  0
LINE
  8
CSLAYER1
  6
CONTINUOUS
 62
     6
 10
64.792101
 20
200.730542
 11
67.442492
 21
203.380947
  0
ARC
  8
CSLAYER1
  6
CONTINUOUS
 62
     6
 10
69.563829
 20
201.259625
 40
3.000000
 50
-44.999971
 51
134.999992
  0
LINE
  8
CSLAYER1
  6
CONTINUOUS
 62
     6
 10
71.685137
 20
199.138302
 11
69.034746
 21
196.487896
  0
ARC
  8
CSLAYER1
  6
CONTINUOUS
 62
     6
 10
69.563829
 20
201.259625
 40
1.750000
 50
253.398415
 51
286.601605
  0
LINE
  8
CSLAYER1
  6
CONTINUOUS
 62
     6
 10
70.063829
 20
199.582577
 11
70.063829
 21
200.259625
  0
ARC
  8
CSLAYER1
  6
CONTINUOUS
 62
     6
 10
70.563829
 20
200.259625
 40
0.500000
 50
90.000001
 51
179.942687
  0
LINE
  8
CSLAYER1
  6
CONTINUOUS
 62
     6
 10
70.563829
 20
200.759625
 11
71.240862
 21
200.759625
  0
ARC
  8
CSLAYER1
  6
CONTINUOUS
 62
     6
 10
69.563829
 20
201.259625
 40
1.750000
 50
-16.601547
 51
16.601587
  0
LINE
  8
CSLAYER1
  6
CONTINUOUS
 62
     6
 10
71.240862
 20
201.759625
 11
70.563829
 21
201.759625
  0
ARC
  8
CSLAYER1
  6
CONTINUOUS
 62
     6
 10
70.563829
 20
202.259625
 40
0.500000
 50
180.000000
 51
269.999981
  0
LINE
  8
CSLAYER1
  6
CONTINUOUS
 62
     6
 10
70.063829
 20
202.259625
 11
70.063829
 21
202.936672
  0
ARC
  8
CSLAYER1
  6
CONTINUOUS
 62
     6
 10
69.563829
 20
201.259625
 40
1.750000
 50
73.398434
 51
106.601568
  0
LINE
  8
CSLAYER1
  6
CONTINUOUS
 62
     6
 10
69.063829
 20
202.936672
 11
69.063829
 21
202.259625
  0
ARC
  8
CSLAYER1
  6
CONTINUOUS
 62
     6
 10
68.563829
 20
202.259625
 40
0.500000
 50
-90.000019
 51
0.000020
  0
LINE
  8
CSLAYER1
  6
CONTINUOUS
 62
     6
 10
68.563829
 20
201.759625
 11
67.886766
 21
201.759625
  0
ARC
  8
CSLAYER1
  6
CONTINUOUS
 62
     6
 10
69.563829
 20
201.259625
 40
1.750000
 50
163.398416
 51
196.601606
  0
LINE
  8
CSLAYER1
  6
CONTINUOUS
 62
     6
 10
67.886766
 20
200.759625
 11
68.563829
 21
200.759625
  0
ARC
  8
CSLAYER1
  6
CONTINUOUS
 62
     6
 10
68.563829
 20
200.259625
 40
0.500000
 50
0.000020
 51
90.000001
  0
LINE
  8
CSLAYER1
  6
CONTINUOUS
 62
     6
 10
69.063829
 20
200.259625
 11
69.063829
 21
199.582577
  0
CIRCLE
  8
CSLAYER1
  6
CONTINUOUS
 62
     6
 10
69.563829
 20
201.259625
 40
2.750000
  0
LINE
  8
CSLAYER1
  6
CONTINUOUS
 62
     6
 10
62.463335
 20
205.159123
 11
60.963320
 21
205.159123
  0
LINE
  8
CSLAYER1
  6
CONTINUOUS
 62
     6
 10
60.963320
 20
205.159123
 11
60.963320
 21
206.659123
  0
LINE
  8
CSLAYER1
  6
CONTINUOUS
 62
     6
 10
60.963320
 20
206.659123
 11
56.963320
 21
206.659123
  0
LINE
  8
CSLAYER1
  6
CONTINUOUS
 62
     6
 10
56.963320
 20
206.159123
 11
56.963320
 21
217.159123
  0
LINE
  8
CSLAYER1
  6
CONTINUOUS
 62
     6
 10
56.963320
 20
217.159123
 11
62.463335
 21
217.159123
  0
ARC
  8
CSLAYER1
  6
CONTINUOUS
 62
     6
 10
79.463320
 20
211.159123
 40
19.000000
 50
18.408466
 51
161.591536
  0
LINE
  8
CSLAYER1
  6
CONTINUOUS
 62
     6
 10
96.463312
 20
217.159123
 11
101.963320
 21
217.159123
  0
LINE
  8
CSLAYER1
  6
CONTINUOUS
 62
     6
 10
101.963320
 20
217.159123
 11
101.963320
 21
206.159123
  0
ARC
  8
CSLAYER1
  6
CONTINUOUS
 62
     6
 10
102.613314
 20
206.121723
 40
0.650002
 50
-183.291660
 51
0.000002
  0
LINE
  8
CSLAYER1
  6
CONTINUOUS
 62
     6
 10
103.263315
 20
205.409107
 11
103.263315
 21
216.909107
  0
LINE
  8
CSLAYER1
  6
CONTINUOUS
 62
     6
 10
103.263315
 20
216.909107
 11
104.463320
 21
216.909107
  0
LINE
  8
CSLAYER1
  6
CONTINUOUS
 62
     6
 10
104.463320
 20
216.909107
 11
104.463320
 21
205.409107
  0
LINE
  8
CSLAYER1
  6
CONTINUOUS
 62
     6
 10
104.463320
 20
205.409107
 11
103.263315
 21
205.409107
  0
ARC
  8
CSLAYER1
  6
CONTINUOUS
 62
     6
 10
79.463320
 20
211.159123
 40
25.000000
 50
193.297090
 51
346.702873
  0
LINE
  8
CSLAYER1
  6
CONTINUOUS
 62
     6
 10
55.663317
 20
205.409107
 11
55.663317
 21
216.909107
  0
LINE
  8
CSLAYER1
  6
CONTINUOUS
 62
     6
 10
55.663317
 20
216.909107
 11
54.463320
 21
216.909107
  0
LINE
  8
CSLAYER1
  6
CONTINUOUS
 62
     6
 10
54.463320
 20
216.909107
 11
54.463320
 21
205.409107
  0
LINE
  8
CSLAYER1
  6
CONTINUOUS
 62
     6
 10
54.463320
 20
205.409107
 11
55.663317
 21
205.409107
  0
ARC
  8
CSLAYER1
  6
CONTINUOUS
 62
     6
 10
56.313326
 20
206.121723
 40
0.650002
 50
-179.999943
 51
3.291720
  0
LINE
  8
CSLAYER1
  6
CONTINUOUS
 62
     6
 10
59.063311
 20
206.659123
 11
59.063311
 21
199.159115
  0
LINE
  8
CSLAYER1
  6
CONTINUOUS
 62
     6
 10
59.063311
 20
199.159115
 11
59.563311
 21
199.159123
  0
LINE
  8
CSLAYER1
  6
CONTINUOUS
 62
     6
 10
59.563311
 20
199.159123
 11
59.563311
 21
206.659123
  0
ARC
  8
CSLAYER1
  6
CONTINUOUS
 62
     6
 10
79.463320
 20
211.159123
 40
19.000000
 50
198.408504
 51
341.591516
  0
LINE
  8
CSLAYER1
  6
CONTINUOUS
 62
     6
 10
97.963320
 20
205.159123
 11
97.963320
 21
206.659123
  0
LINE
  8
CSLAYER1
  6
CONTINUOUS
 62
     6
 10
97.963320
 20
206.659123
 11
101.963320
 21
206.659123
  0
LINE
  8
CSLAYER1
  6
CONTINUOUS
 62
     6
 10
99.863329
 20
206.659123
 11
99.863321
 21
199.159115
  0
LINE
  8
CSLAYER1
  6
CONTINUOUS
 62
     6
 10
99.863321
 20
199.159115
 11
99.363329
 21
199.159123
  0
LINE
  8
CSLAYER1
  6
CONTINUOUS
 62
     6
 10
99.363329
 20
199.159123
 11
99.363329
 21
206.659123
  0
LINE
  8
CSLAYER1
  6
CONTINUOUS
 62
     6
 10
97.963320
 20
205.159123
 11
96.463312
 21
205.159123
  0
ARC
  8
CSLAYER1
  6
CONTINUOUS
 62
     6
 10
95.019671
 20
195.602772
 40
1.750000
 50
73.398434
 51
106.601568
  0
LINE
  8
CSLAYER1
  6
CONTINUOUS
 62
     6
 10
94.519671
 20
197.279820
 11
94.519671
 21
196.602772
  0
ARC
  8
CSLAYER1
  6
CONTINUOUS
 62
     6
 10
94.019671
 20
196.602772
 40
0.500000
 50
-90.000019
 51
0.000020
  0
LINE
  8
CSLAYER1
  6
CONTINUOUS
 62
     6
 10
94.019671
 20
196.102772
 11
93.342623
 21
196.102772
  0
ARC
  8
CSLAYER1
  6
CONTINUOUS
 62
     6
 10
95.019671
 20
195.602772
 40
1.750000
 50
163.398416
 51
196.601606
  0
LINE
  8
CSLAYER1
  6
CONTINUOUS
 62
     6
 10
93.342623
 20
195.102772
 11
94.019671
 21
195.102772
  0
ARC
  8
CSLAYER1
  6
CONTINUOUS
 62
     6
 10
94.019671
 20
194.602772
 40
0.500000
 50
0.000020
 51
90.000001
  0
LINE
  8
CSLAYER1
  6
CONTINUOUS
 62
     6
 10
94.519671
 20
194.602772
 11
94.519671
 21
193.925724
  0
ARC
  8
CSLAYER1
  6
CONTINUOUS
 62
     6
 10
95.019671
 20
195.602772
 40
1.750000
 50
253.398415
 51
286.601605
  0
LINE
  8
CSLAYER1
  6
CONTINUOUS
 62
     6
 10
95.519671
 20
193.925724
 11
95.519671
 21
194.602772
  0
ARC
  8
CSLAYER1
  6
CONTINUOUS
 62
     6
 10
96.019671
 20
194.602772
 40
0.500000
 50
90.000001
 51
179.942687
  0
LINE
  8
CSLAYER1
  6
CONTINUOUS
 62
     6
 10
96.019671
 20
195.102772
 11
96.696718
 21
195.102772
  0
ARC
  8
CSLAYER1
  6
CONTINUOUS
 62
     6
 10
95.019671
 20
195.602772
 40
1.750000
 50
-16.601547
 51
16.601587
  0
LINE
  8
CSLAYER1
  6
CONTINUOUS
 62
     6
 10
96.696718
 20
196.102772
 11
96.019671
 21
196.102772
  0
ARC
  8
CSLAYER1
  6
CONTINUOUS
 62
     6
 10
96.019671
 20
196.602772
 40
0.500000
 50
180.000000
 51
269.999981
  0
LINE
  8
CSLAYER1
  6
CONTINUOUS
 62
     6
 10
95.519671
 20
196.602772
 11
95.519671
 21
197.279820
  0
CIRCLE
  8
CSLAYER1
  6
CONTINUOUS
 62
     6
 10
95.019671
 20
195.602772
 40
2.750000
  0
LINE
  8
CSLAYER1
  6
CONTINUOUS
 62
     6
 10
97.157759
 20
181.412620
 11
97.157759
 21
180.660305
  0
ARC
  8
CSLAYER1
  6
CONTINUOUS
 62
     6
 10
96.602196
 20
180.660305
 40
0.555556
 50
269.999984
 51
359.999990
  0
LINE
  8
CSLAYER1
  6
CONTINUOUS
 62
     6
 10
96.602196
 20
180.104772
 11
95.849940
 21
180.104772
  0
ARC
  8
CSLAYER1
  6
CONTINUOUS
 62
     6
 10
97.713321
 20
179.549209
 40
1.944444
 50
163.398428
 51
196.601562
  0
LINE
  8
CSLAYER1
  6
CONTINUOUS
 62
     6
 10
95.849940
 20
178.993647
 11
96.602196
 21
178.993647
  0
ARC
  8
CSLAYER1
  6
CONTINUOUS
 62
     6
 10
96.602196
 20
178.438113
 40
0.555556
 50
0.057309
 51
89.999999
  0
LINE
  8
CSLAYER1
  6
CONTINUOUS
 62
     6
 10
97.157759
 20
178.438113
 11
97.157759
 21
177.685799
  0
ARC
  8
CSLAYER1
  6
CONTINUOUS
 62
     6
 10
97.713321
 20
179.549209
 40
1.944444
 50
253.398417
 51
286.601578
  0
LINE
  8
CSLAYER1
  6
CONTINUOUS
 62
     6
 10
98.268883
 20
177.685799
 11
98.268883
 21
178.438113
  0
ARC
  8
CSLAYER1
  6
CONTINUOUS
 62
     6
 10
98.824446
 20
178.438113
 40
0.555556
 50
90.057346
 51
179.999995
  0
LINE
  8
CSLAYER1
  6
CONTINUOUS
 62
     6
 10
98.824446
 20
178.993647
 11
99.576702
 21
178.993647
  0
ARC
  8
CSLAYER1
  6
CONTINUOUS
 62
     6
 10
97.713321
 20
179.549209
 40
1.944444
 50
-16.601577
 51
16.601584
  0
LINE
  8
CSLAYER1
  6
CONTINUOUS
 62
     6
 10
99.576702
 20
180.104772
 11
98.824446
 21
180.104772
  0
ARC
  8
CSLAYER1
  6
CONTINUOUS
 62
     6
 10
98.824446
 20
180.660305
 40
0.555556
 50
179.999995
 51
269.999984
  0
LINE
  8
CSLAYER1
  6
CONTINUOUS
 62
     6
 10
98.268883
 20
180.660305
 11
98.268883
 21
181.412620
  0
ARC
  8
CSLAYER1
  6
CONTINUOUS
 62
     6
 10
97.713321
 20
179.549209
 40
1.944444
 50
73.398405
 51
106.601594
  0
CIRCLE
  8
CSLAYER1
  6
CONTINUOUS
 62
     6
 10
97.713308
 20
179.549209
 40
3.500000
  0
ARC
  8
CSLAYER1
  6
CONTINUOUS
 62
     6
 10
102.304132
 20
165.559810
 40
6.000000
 50
56.246253
 51
116.606406
  0
LINE
  8
CSLAYER1
  6
CONTINUOUS
 62
     6
 10
105.637880
 20
170.548410
 11
117.796136
 21
162.423373
  0
ARC
  8
CSLAYER1
  6
CONTINUOUS
 62
     6
 10
121.963320
 20
168.659123
 40
7.500000
 50
-123.753747
 51
33.753747
  0
LINE
  8
CSLAYER1
  6
CONTINUOUS
 62
     6
 10
128.199070
 20
172.826307
 11
120.076008
 21
184.981609
  0
LINE
  8
CSLAYER1
  6
CONTINUOUS
 62
     6
 10
119.904045
 20
188.346482
 11
123.478365
 21
188.159123
  0
ARC
  8
CSLAYER1
  6
CONTINUOUS
 62
     6
 10
123.478365
 20
187.159123
 40
1.000000
 50
0.000018
 51
89.999999
  0
LINE
  8
CSLAYER1
  6
CONTINUOUS
 62
     6
 10
124.463320
 20
187.159123
 11
124.463320
 21
186.159123
  0
ARC
  8
CSLAYER1
  6
CONTINUOUS
 62
     6
 10
123.463320
 20
186.159123
 40
1.000000
 50
270.000019
 51
360.000000
  0
LINE
  8
CSLAYER1
  6
CONTINUOUS
 62
     6
 10
123.463320
 20
185.159123
 11
115.908565
 21
184.763211
  0
ARC
  8
CSLAYER1
  6
CONTINUOUS
 62
     6
 10
125.062633
 20
188.318311
 40
6.000000
 50
153.393594
 51
177.151140
  0
LINE
  8
CSLAYER1
  6
CONTINUOUS
 62
     6
 10
120.062540
 20
191.750276
 11
127.483736
 21
192.139164
  0
ARC
  8
CSLAYER1
  6
CONTINUOUS
 62
     6
 10
127.463320
 20
193.138920
 40
1.000000
 50
271.169236
 51
359.999982
  0
LINE
  8
CSLAYER1
  6
CONTINUOUS
 62
     6
 10
128.463320
 20
193.138920
 11
128.463320
 21
229.179326
  0
ARC
  8
CSLAYER1
  6
CONTINUOUS
 62
     6
 10
127.463320
 20
229.179326
 40
1.000000
 50
0.000000
 51
88.830746
  0
LINE
  8
CSLAYER1
  6
CONTINUOUS
 62
     6
 10
127.483736
 20
230.179082
 11
120.062540
 21
230.567970
  0
ARC
  8
CSLAYER1
  6
CONTINUOUS
 62
     6
 10
125.062633
 20
233.999935
 40
6.000000
 50
182.848860
 51
206.606406
  0
ARC
  8
CSLAYER1
  6
CONTINUOUS
 62
     6
 10
119.993038
 20
232.274020
 40
1.700075
 50
93.000588
 51
142.810642
  0
LINE
  8
CSLAYER1
  6
CONTINUOUS
 62
     6
 10
119.904045
 20
233.971764
 11
123.478365
 21
234.159123
  0
ARC
  8
CSLAYER1
  6
CONTINUOUS
 62
     6
 10
123.478365
 20
235.159123
 40
1.000000
 50
270.000001
 51
359.999982
  0
LINE
  8
CSLAYER1
  6
CONTINUOUS
 62
     6
 10
124.463320
 20
235.159123
 11
124.463320
 21
236.159123
  0
ARC
  8
CSLAYER1
  6
CONTINUOUS
 62
     6
 10
123.463320
 20
236.159123
 40
1.000000
 50
0.000000
 51
89.999981
  0
LINE
  8
CSLAYER1
  6
CONTINUOUS
 62
     6
 10
123.463320
 20
237.159123
 11
115.908565
 21
237.555035
  0
LINE
  8
CSLAYER1
  6
CONTINUOUS
 62
     6
 10
120.074033
 20
237.333683
 11
128.199070
 21
249.491938
  0
ARC
  8
CSLAYER1
  6
CONTINUOUS
 62
     6
 10
121.963320
 20
253.659123
 40
7.500000
 50
-33.753747
 51
123.753747
  0
LINE
  8
CSLAYER1
  6
CONTINUOUS
 62
     6
 10
117.796136
 20
259.894873
 11
105.637880
 21
251.769836
  0
ARC
  8
CSLAYER1
  6
CONTINUOUS
 62
     6
 10
102.304132
 20
256.758435
 40
6.000000
 50
243.393594
 51
303.753747
  0
LINE
  8
CSLAYER1
  6
CONTINUOUS
 62
     6
 10
98.268883
 20
244.632447
 11
98.268883
 21
243.880132
  0
ARC
  8
CSLAYER1
  6
CONTINUOUS
 62
     6
 10
98.824446
 20
243.880132
 40
0.555556
 50
180.000005
 51
269.942654
  0
LINE
  8
CSLAYER1
  6
CONTINUOUS
 62
     6
 10
98.824446
 20
243.324599
 11
99.576702
 21
243.324599
  0
ARC
  8
CSLAYER1
  6
CONTINUOUS
 62
     6
 10
97.713321
 20
242.769037
 40
1.944444
 50
-16.601584
 51
16.601577
  0
LINE
  8
CSLAYER1
  6
CONTINUOUS
 62
     6
 10
99.576702
 20
242.213474
 11
98.824446
 21
242.213474
  0
ARC
  8
CSLAYER1
  6
CONTINUOUS
 62
     6
 10
98.824446
 20
241.657941
 40
0.555556
 50
90.000016
 51
180.000005
  0
LINE
  8
CSLAYER1
  6
CONTINUOUS
 62
     6
 10
98.268883
 20
241.657941
 11
98.268883
 21
240.905626
  0
ARC
  8
CSLAYER1
  6
CONTINUOUS
 62
     6
 10
97.713321
 20
242.769037
 40
1.944444
 50
253.398406
 51
286.601595
  0
LINE
  8
CSLAYER1
  6
CONTINUOUS
 62
     6
 10
97.157759
 20
240.905626
 11
97.157759
 21
241.657941
  0
ARC
  8
CSLAYER1
  6
CONTINUOUS
 62
     6
 10
96.602196
 20
241.657941
 40
0.555556
 50
0.000010
 51
90.000016
  0
LINE
  8
CSLAYER1
  6
CONTINUOUS
 62
     6
 10
96.602196
 20
242.213474
 11
95.849940
 21
242.213474
  0
ARC
  8
CSLAYER1
  6
CONTINUOUS
 62
     6
 10
97.713321
 20
242.769037
 40
1.944444
 50
163.398438
 51
196.601572
  0
LINE
  8
CSLAYER1
  6
CONTINUOUS
 62
     6
 10
95.849940
 20
243.324599
 11
96.602196
 21
243.324599
  0
ARC
  8
CSLAYER1
  6
CONTINUOUS
 62
     6
 10
96.602196
 20
243.880132
 40
0.555556
 50
270.000001
 51
359.942691
  0
LINE
  8
CSLAYER1
  6
CONTINUOUS
 62
     6
 10
97.157759
 20
243.880132
 11
97.157759
 21
244.632447
  0
ARC
  8
CSLAYER1
  6
CONTINUOUS
 62
     6
 10
97.713321
 20
242.769037
 40
1.944444
 50
73.398422
 51
106.601583
  0
CIRCLE
  8
CSLAYER1
  6
CONTINUOUS
 62
     6
 10
97.713308
 20
242.769037
 40
3.500000
  0
ARC
  8
CSLAYER1
  6
CONTINUOUS
 62
     6
 10
95.019671
 20
226.715473
 40
1.750000
 50
73.398434
 51
106.601568
  0
LINE
  8
CSLAYER1
  6
CONTINUOUS
 62
     6
 10
94.519671
 20
228.392521
 11
94.519671
 21
227.715473
  0
ARC
  8
CSLAYER1
  6
CONTINUOUS
 62
     6
 10
94.019671
 20
227.715473
 40
0.500000
 50
-90.000019
 51
0.000020
  0
LINE
  8
CSLAYER1
  6
CONTINUOUS
 62
     6
 10
94.019671
 20
227.215473
 11
93.342623
 21
227.215473
  0
ARC
  8
CSLAYER1
  6
CONTINUOUS
 62
     6
 10
95.019671
 20
226.715473
 40
1.750000
 50
163.398416
 51
196.601606
  0
LINE
  8
CSLAYER1
  6
CONTINUOUS
 62
     6
 10
93.342623
 20
226.215473
 11
94.019671
 21
226.215473
  0
ARC
  8
CSLAYER1
  6
CONTINUOUS
 62
     6
 10
94.019671
 20
225.715473
 40
0.500000
 50
0.000020
 51
90.000001
  0
LINE
  8
CSLAYER1
  6
CONTINUOUS
 62
     6
 10
94.519671
 20
225.715473
 11
94.519671
 21
225.038426
  0
ARC
  8
CSLAYER1
  6
CONTINUOUS
 62
     6
 10
95.019671
 20
226.715473
 40
1.750000
 50
253.398415
 51
286.601605
  0
LINE
  8
CSLAYER1
  6
CONTINUOUS
 62
     6
 10
95.519671
 20
225.038426
 11
95.519671
 21
225.715473
  0
ARC
  8
CSLAYER1
  6
CONTINUOUS
 62
     6
 10
96.019671
 20
225.715473
 40
0.500000
 50
90.000001
 51
179.942687
  0
LINE
  8
CSLAYER1
  6
CONTINUOUS
 62
     6
 10
96.019671
 20
226.215473
 11
96.696718
 21
226.215473
  0
ARC
  8
CSLAYER1
  6
CONTINUOUS
 62
     6
 10
95.019671
 20
226.715473
 40
1.750000
 50
-16.601547
 51
16.601587
  0
LINE
  8
CSLAYER1
  6
CONTINUOUS
 62
     6
 10
96.696718
 20
227.215473
 11
96.019671
 21
227.215473
  0
ARC
  8
CSLAYER1
  6
CONTINUOUS
 62
     6
 10
96.019671
 20
227.715473
 40
0.500000
 50
180.000000
 51
269.999981
  0
LINE
  8
CSLAYER1
  6
CONTINUOUS
 62
     6
 10
95.519671
 20
227.715473
 11
95.519671
 21
228.392521
  0
CIRCLE
  8
CSLAYER1
  6
CONTINUOUS
 62
     6
 10
95.019671
 20
226.715473
 40
2.750000
  0
LINE
  8
CSLAYER1
  6
CONTINUOUS
 62
     6
 10
94.134546
 20
221.587704
 11
91.484140
 21
218.937298
  0
ARC
  8
CSLAYER1
  6
CONTINUOUS
 62
     6
 10
89.362818
 20
221.058621
 40
3.000000
 50
134.999992
 51
315.000012
  0
LINE
  8
CSLAYER1
  6
CONTINUOUS
 62
     6
 10
87.241495
 20
223.179943
 11
89.891901
 21
225.830349
  0
ARC
  8
CSLAYER1
  6
CONTINUOUS
 62
     6
 10
89.362818
 20
221.058621
 40
1.750000
 50
73.398434
 51
106.601568
  0
LINE
  8
CSLAYER1
  6
CONTINUOUS
 62
     6
 10
88.862818
 20
222.735668
 11
88.862818
 21
222.058621
  0
ARC
  8
CSLAYER1
  6
CONTINUOUS
 62
     6
 10
88.362818
 20
222.058621
 40
0.500000
 50
-90.000019
 51
0.000020
  0
LINE
  8
CSLAYER1
  6
CONTINUOUS
 62
     6
 10
88.362818
 20
221.558621
 11
87.685770
 21
221.558621
  0
ARC
  8
CSLAYER1
  6
CONTINUOUS
 62
     6
 10
89.362818
 20
221.058621
 40
1.750000
 50
163.398416
 51
196.601549
  0
LINE
  8
CSLAYER1
  6
CONTINUOUS
 62
     6
 10
87.685770
 20
220.558621
 11
88.362818
 21
220.558621
  0
ARC
  8
CSLAYER1
  6
CONTINUOUS
 62
     6
 10
88.362818
 20
220.058621
 40
0.500000
 50
0.000020
 51
90.000001
  0
LINE
  8
CSLAYER1
  6
CONTINUOUS
 62
     6
 10
88.862818
 20
220.058621
 11
88.862818
 21
219.381573
  0
ARC
  8
CSLAYER1
  6
CONTINUOUS
 62
     6
 10
89.362818
 20
221.058621
 40
1.750000
 50
253.398415
 51
286.601605
  0
LINE
  8
CSLAYER1
  6
CONTINUOUS
 62
     6
 10
89.862818
 20
219.381573
 11
89.862818
 21
220.058621
  0
ARC
  8
CSLAYER1
  6
CONTINUOUS
 62
     6
 10
90.362818
 20
220.058621
 40
0.500000
 50
90.000001
 51
179.942687
  0
LINE
  8
CSLAYER1
  6
CONTINUOUS
 62
     6
 10
90.362818
 20
220.558621
 11
91.039866
 21
220.558621
  0
ARC
  8
CSLAYER1
  6
CONTINUOUS
 62
     6
 10
89.362818
 20
221.058621
 40
1.750000
 50
-16.601604
 51
16.601587
  0
LINE
  8
CSLAYER1
  6
CONTINUOUS
 62
     6
 10
91.039866
 20
221.558621
 11
90.362818
 21
221.558621
  0
ARC
  8
CSLAYER1
  6
CONTINUOUS
 62
     6
 10
90.362818
 20
222.058621
 40
0.500000
 50
179.999982
 51
269.999964
  0
LINE
  8
CSLAYER1
  6
CONTINUOUS
 62
     6
 10
89.862818
 20
222.058621
 11
89.862818
 21
222.735668
  0
CIRCLE
  8
CSLAYER1
  6
CONTINUOUS
 62
     6
 10
89.362818
 20
221.058621
 40
2.750000
  0
LINE
  8
CSLAYER1
  6
CONTINUOUS
 62
     6
 10
84.463289
 20
211.159123
 11
81.946322
 21
211.159123
  0
LINE
  8
CSLAYER1
  6
CONTINUOUS
 62
     6
 10
81.946322
 20
211.159123
 11
81.963289
 21
208.659123
  0
LINE
  8
CSLAYER1
  6
CONTINUOUS
 62
     6
 10
81.963289
 20
208.659123
 11
74.463289
 21
211.159123
  0
LINE
  8
CSLAYER1
  6
CONTINUOUS
 62
     6
 10
74.463289
 20
211.159123
 11
76.932711
 21
211.159123
  0
LINE
  8
CSLAYER1
  6
CONTINUOUS
 62
     6
 10
76.932711
 20
211.159123
 11
76.963289
 21
213.659123
  0
LINE
  8
CSLAYER1
  6
CONTINUOUS
 62
     6
 10
76.963289
 20
213.659123
 11
84.463289
 21
211.159123
  0
CIRCLE
  8
CSLAYER1
  6
CONTINUOUS
 62
     6
 10
79.463320
 20
211.159123
 40
45.000000
  0
CIRCLE
  8
CSLAYER1
  6
CONTINUOUS
 62
     6
 10
79.463312
 20
211.159123
 40
18.000000
  0
CIRCLE
  8
CSLAYER1
  6
CONTINUOUS
 62
     6
 10
79.463289
 20
211.159123
 40
5.000000
  0
CIRCLE
  8
CSLAYER1
  6
CONTINUOUS
 62
     6
 10
79.463289
 20
211.159123
 40
5.800000
  0
ARC
  8
CSLAYER1
  6
CONTINUOUS
 62
     6
 10
63.906969
 20
226.715466
 40
1.750000
 50
253.398415
 51
286.601605
  0
LINE
  8
CSLAYER1
  6
CONTINUOUS
 62
     6
 10
63.406969
 20
225.038418
 11
63.406969
 21
225.715466
  0
ARC
  8
CSLAYER1
  6
CONTINUOUS
 62
     6
 10
62.906969
 20
225.715466
 40
0.500000
 50
0.000020
 51
90.000001
  0
LINE
  8
CSLAYER1
  6
CONTINUOUS
 62
     6
 10
62.906969
 20
226.215466
 11
62.229921
 21
226.215466
  0
ARC
  8
CSLAYER1
  6
CONTINUOUS
 62
     6
 10
63.906969
 20
226.715466
 40
1.750000
 50
163.398416
 51
196.601606
  0
LINE
  8
CSLAYER1
  6
CONTINUOUS
 62
     6
 10
62.229921
 20
227.215466
 11
62.906969
 21
227.215466
  0
ARC
  8
CSLAYER1
  6
CONTINUOUS
 62
     6
 10
62.906969
 20
227.715466
 40
0.500000
 50
-90.000019
 51
0.000020
  0
LINE
  8
CSLAYER1
  6
CONTINUOUS
 62
     6
 10
63.406969
 20
227.715466
 11
63.406969
 21
228.392514
  0
ARC
  8
CSLAYER1
  6
CONTINUOUS
 62
     6
 10
63.906969
 20
226.715466
 40
1.750000
 50
73.398434
 51
106.601568
  0
LINE
  8
CSLAYER1
  6
CONTINUOUS
 62
     6
 10
64.406969
 20
228.392514
 11
64.406969
 21
227.715466
  0
ARC
  8
CSLAYER1
  6
CONTINUOUS
 62
     6
 10
64.906969
 20
227.715466
 40
0.500000
 50
180.000000
 51
269.999981
  0
LINE
  8
CSLAYER1
  6
CONTINUOUS
 62
     6
 10
64.906969
 20
227.215466
 11
65.584017
 21
227.215466
  0
ARC
  8
CSLAYER1
  6
CONTINUOUS
 62
     6
 10
63.906969
 20
226.715466
 40
1.750000
 50
-16.601547
 51
16.601587
  0
LINE
  8
CSLAYER1
  6
CONTINUOUS
 62
     6
 10
65.584017
 20
226.215466
 11
64.906969
 21
226.215466
  0
ARC
  8
CSLAYER1
  6
CONTINUOUS
 62
     6
 10
64.906969
 20
225.715466
 40
0.500000
 50
90.000001
 51
179.942687
  0
LINE
  8
CSLAYER1
  6
CONTINUOUS
 62
     6
 10
64.406969
 20
225.715466
 11
64.406969
 21
225.038418
  0
CIRCLE
  8
CSLAYER1
  6
CONTINUOUS
 62
     6
 10
63.906969
 20
226.715466
 40
2.750000
  0
ARC
  8
CSLAYER1
  6
CONTINUOUS
 62
     6
 10
56.313326
 20
216.196492
 40
0.650002
 50
-3.291680
 51
179.942687
  0
ARC
  8
CSLAYER1
  6
CONTINUOUS
 62
     6
 10
79.463320
 20
211.159123
 40
25.000000
 50
13.297052
 51
166.702950
  0
ARC
  8
CSLAYER1
  6
CONTINUOUS
 62
     6
 10
102.613314
 20
216.196492
 40
0.650002
 50
0.000020
 51
183.291682
  0
CIRCLE
  8
CSLAYER1
  6
CONTINUOUS
 62
     6
 10
121.963320
 20
253.659123
 40
3.500000
  0
LINE
  8
CSLAYER1
  6
CONTINUOUS
 62
     6
 10
121.963320
 20
261.159123
 11
36.963320
 21
261.159123
  0
ARC
  8
CSLAYER1
  6
CONTINUOUS
 62
     6
 10
42.963334
 20
211.159122
 40
1.944444
 50
73.398428
 51
106.601562
  0
LINE
  8
CSLAYER1
  6
CONTINUOUS
 62
     6
 10
43.518896
 20
213.022503
 11
43.518896
 21
212.270247
  0
ARC
  8
CSLAYER1
  6
CONTINUOUS
 62
     6
 10
44.074430
 20
212.270247
 40
0.555556
 50
179.999984
 51
269.999990
  0
LINE
  8
CSLAYER1
  6
CONTINUOUS
 62
     6
 10
44.074430
 20
211.714685
 11
44.826744
 21
211.714685
  0
ARC
  8
CSLAYER1
  6
CONTINUOUS
 62
     6
 10
42.963334
 20
211.159122
 40
1.944444
 50
-16.601595
 51
16.601594
  0
LINE
  8
CSLAYER1
  6
CONTINUOUS
 62
     6
 10
44.826744
 20
210.603560
 11
44.074430
 21
210.603560
  0
ARC
  8
CSLAYER1
  6
CONTINUOUS
 62
     6
 10
44.074430
 20
210.047997
 40
0.555556
 50
89.999995
 51
179.999984
  0
LINE
  8
CSLAYER1
  6
CONTINUOUS
 62
     6
 10
43.518896
 20
210.047997
 11
43.518896
 21
209.295741
  0
ARC
  8
CSLAYER1
  6
CONTINUOUS
 62
     6
 10
42.963334
 20
211.159122
 40
1.944444
 50
253.398423
 51
286.601584
  0
LINE
  8
CSLAYER1
  6
CONTINUOUS
 62
     6
 10
42.407771
 20
209.295741
 11
42.407771
 21
210.047997
  0
ARC
  8
CSLAYER1
  6
CONTINUOUS
 62
     6
 10
41.852238
 20
210.047997
 40
0.555556
 50
0.057346
 51
89.999995
  0
LINE
  8
CSLAYER1
  6
CONTINUOUS
 62
     6
 10
41.852238
 20
210.603560
 11
41.099924
 21
210.603560
  0
ARC
  8
CSLAYER1
  6
CONTINUOUS
 62
     6
 10
42.963334
 20
211.159122
 40
1.944444
 50
163.398417
 51
196.601578
  0
LINE
  8
CSLAYER1
  6
CONTINUOUS
 62
     6
 10
41.099924
 20
211.714685
 11
41.852238
 21
211.714685
  0
ARC
  8
CSLAYER1
  6
CONTINUOUS
 62
     6
 10
41.852238
 20
212.270247
 40
0.555556
 50
270.057309
 51
359.999999
  0
LINE
  8
CSLAYER1
  6
CONTINUOUS
 62
     6
 10
42.407771
 20
212.270247
 11
42.407771
 21
213.022503
  0
CIRCLE
  8
CSLAYER1
  6
CONTINUOUS
 62
     6
 10
42.963333
 20
211.159135
 40
3.500000
  0
LINE
  8
CSLAYER1
  6
CONTINUOUS
 62
     6
 10
129.463320
 20
253.659123
 11
129.463320
 21
168.659123
  0
CIRCLE
  8
CSLAYER1
  6
CONTINUOUS
 62
     6
 10
121.963320
 20
168.659123
 40
3.500000
  0
LINE
  8
CSLAYER1
  6
CONTINUOUS
 62
     6
 10
121.963320
 20
161.159123
 11
82.463347
 21
161.159123
  0
ARC
  8
CSLAYER1
  6
CONTINUOUS
 62
     6
 10
119.993038
 20
190.044226
 40
1.700075
 50
217.189358
 51
266.999412
  0
ARC
  8
CSLAYER1
  6
CONTINUOUS
 62
     6
 10
38.933603
 20
190.044226
 40
1.700075
 50
273.000588
 51
322.810642
  0
LINE
  8
CSLAYER1
  6
CONTINUOUS
 62
     6
 10
171.885641
 20
194.159124
 11
171.885620
 21
228.159124
  0
LINE
  8
CSLAYER1
  6
CONTINUOUS
 62
     6
 10
171.885620
 20
228.159124
 11
172.885619
 21
229.159124
  0
LINE
  8
CSLAYER1
  6
CONTINUOUS
 62
     6
 10
172.885619
 20
229.159124
 11
181.885631
 21
229.159123
  0
ARC
  8
CSLAYER1
  6
CONTINUOUS
 62
     6
 10
182.885601
 20
228.869292
 40
1.289831
 50
39.166091
 51
140.829784
  0
LINE
  8
CSLAYER1
  6
CONTINUOUS
 62
     6
 10
183.885631
 20
229.683917
 11
183.885631
 21
216.821485
  0
LINE
  8
CSLAYER1
  6
CONTINUOUS
 62
     6
 10
181.885631
 20
216.821485
 11
181.885631
 21
229.683983
  0
LINE
  8
CSLAYER1
  6
CONTINUOUS
 62
     6
 10
183.885631
 20
229.159122
 11
207.731815
 21
229.159120
  0
ARC
  8
CSLAYER1
  6
CONTINUOUS
 62
     6
 10
214.185618
 20
226.759184
 40
7.000000
 50
163.742994
 51
196.257016
  0
ARC
  8
CSLAYER1
  6
CONTINUOUS
 62
     6
 10
208.425517
 20
225.079497
 40
1.000000
 50
196.257399
 51
264.999892
  0
LINE
  8
CSLAYER1
  6
CONTINUOUS
 62
     6
 10
208.338359
 20
224.083281
 11
208.968181
 21
224.028196
  0
ARC
  8
CSLAYER1
  6
CONTINUOUS
 62
     6
 10
208.985606
 20
224.227446
 40
0.200000
 50
264.999865
 51
359.942691
  0
LINE
  8
CSLAYER1
  6
CONTINUOUS
 62
     6
 10
209.185618
 20
223.959196
 11
209.185618
 21
229.559172
  0
ARC
  8
CSLAYER1
  6
CONTINUOUS
 62
     6
 10
209.285594
 20
229.559172
 40
0.100000
 50
90.000003
 51
180.000005
  0
LINE
  8
CSLAYER1
  6
CONTINUOUS
 62
     6
 10
209.285594
 20
229.659147
 11
209.785594
 21
229.659147
  0
ARC
  8
CSLAYER1
  6
CONTINUOUS
 62
     6
 10
209.785594
 20
229.559172
 40
0.100000
 50
0.000000
 51
90.000003
  0
ARC
  8
CSLAYER1
  6
CONTINUOUS
 62
     6
 10
208.985606
 20
229.290922
 40
0.200000
 50
0.000000
 51
95.000152
  0
LINE
  8
CSLAYER1
  6
CONTINUOUS
 62
     6
 10
208.968181
 20
229.490141
 11
208.338359
 21
229.435026
  0
ARC
  8
CSLAYER1
  6
CONTINUOUS
 62
     6
 10
208.425517
 20
228.438841
 40
1.000000
 50
95.000111
 51
163.742611
  0
LINE
  8
CSLAYER1
  6
CONTINUOUS
 62
     6
 10
209.185618
 20
226.663237
 11
209.885600
 21
227.107084
  0
LINE
  8
CSLAYER1
  6
CONTINUOUS
 62
     6
 10
209.885600
 20
226.607084
 11
209.185618
 21
226.163237
  0
ARC
  8
CSLAYER1
  6
CONTINUOUS
 62
     6
 10
209.285594
 20
223.959196
 40
0.100000
 50
180.000005
 51
270.000001
  0
LINE
  8
CSLAYER1
  6
CONTINUOUS
 62
     6
 10
209.285594
 20
223.859160
 11
209.785594
 21
223.859160
  0
ARC
  8
CSLAYER1
  6
CONTINUOUS
 62
     6
 10
209.785594
 20
223.959196
 40
0.100000
 50
270.000001
 51
359.942691
  0
LINE
  8
CSLAYER1
  6
CONTINUOUS
 62
     6
 10
209.885631
 20
236.159123
 11
209.885631
 21
186.159123
  0
LINE
  8
CSLAYER1
  6
CONTINUOUS
 62
     6
 10
209.885631
 20
186.159123
 11
211.885631
 21
186.159123
  0
LINE
  8
CSLAYER1
  6
CONTINUOUS
 62
     6
 10
211.764941
 20
183.049227
 11
211.161491
 21
183.049227
  0
ARC
  8
CSLAYER1
  6
CONTINUOUS
 62
     6
 10
211.161491
 20
182.928530
 40
0.120690
 50
90.000003
 51
180.000005
  0
LINE
  8
CSLAYER1
  6
CONTINUOUS
 62
     6
 10
211.040831
 20
182.928530
 11
211.040831
 21
176.169924
  0
ARC
  8
CSLAYER1
  6
CONTINUOUS
 62
     6
 10
211.161491
 20
176.169924
 40
0.120690
 50
180.000005
 51
270.000001
  0
LINE
  8
CSLAYER1
  6
CONTINUOUS
 62
     6
 10
211.161491
 20
176.049227
 11
211.764941
 21
176.049227
  0
ARC
  8
CSLAYER1
  6
CONTINUOUS
 62
     6
 10
211.764941
 20
176.169924
 40
0.120690
 50
270.000001
 51
359.942691
  0
ARC
  8
CSLAYER1
  6
CONTINUOUS
 62
     6
 10
210.799436
 20
176.493674
 40
0.241380
 50
264.999865
 51
359.942691
  0
LINE
  8
CSLAYER1
  6
CONTINUOUS
 62
     6
 10
210.778369
 20
176.253219
 11
210.018237
 21
176.319719
  0
ARC
  8
CSLAYER1
  6
CONTINUOUS
 62
     6
 10
210.123428
 20
177.522032
 40
1.206899
 50
196.257399
 51
264.999892
  0
ARC
  8
CSLAYER1
  6
CONTINUOUS
 62
     6
 10
217.075326
 20
179.549227
 40
8.448294
 50
163.742994
 51
196.257016
  0
ARC
  8
CSLAYER1
  6
CONTINUOUS
 62
     6
 10
210.123428
 20
181.576422
 40
1.206899
 50
95.000111
 51
163.742611
  0
LINE
  8
CSLAYER1
  6
CONTINUOUS
 62
     6
 10
210.018237
 20
182.778735
 11
210.778369
 21
182.845235
  0
ARC
  8
CSLAYER1
  6
CONTINUOUS
 62
     6
 10
210.799436
 20
182.604780
 40
0.241380
 50
0.000000
 51
95.000152
  0
ARC
  8
CSLAYER1
  6
CONTINUOUS
 62
     6
 10
211.764941
 20
182.928530
 40
0.120690
 50
0.000000
 51
90.000003
  0
LINE
  8
CSLAYER1
  6
CONTINUOUS
 62
     6
 10
211.885638
 20
179.969145
 11
211.040831
 21
179.433447
  0
LINE
  8
CSLAYER1
  6
CONTINUOUS
 62
     6
 10
211.040831
 20
178.829997
 11
211.885638
 21
179.365695
  0
LINE
  8
CSLAYER1
  6
CONTINUOUS
 62
     6
 10
211.885631
 20
166.159123
 11
271.885631
 21
166.159123
  0
LINE
  8
CSLAYER1
  6
CONTINUOUS
 62
     6
 10
271.885631
 20
166.159123
 11
271.885631
 21
256.159123
  0
LINE
  8
CSLAYER1
  6
CONTINUOUS
 62
     6
 10
271.885631
 20
256.159123
 11
211.885631
 21
256.159123
  0
LINE
  8
CSLAYER1
  6
CONTINUOUS
 62
     6
 10
211.885631
 20
256.159123
 11
211.885631
 21
166.159123
  0
LINE
  8
CSLAYER1
  6
CONTINUOUS
 62
     6
 10
216.885631
 20
166.159123
 11
216.885631
 21
256.159123
  0
LINE
  8
CSLAYER1
  6
CONTINUOUS
 62
     6
 10
211.764941
 20
246.269056
 11
211.161491
 21
246.269056
  0
ARC
  8
CSLAYER1
  6
CONTINUOUS
 62
     6
 10
211.161491
 20
246.148358
 40
0.120690
 50
90.000003
 51
180.000005
  0
LINE
  8
CSLAYER1
  6
CONTINUOUS
 62
     6
 10
211.040831
 20
246.148358
 11
211.040831
 21
239.389753
  0
ARC
  8
CSLAYER1
  6
CONTINUOUS
 62
     6
 10
211.161491
 20
239.389753
 40
0.120690
 50
180.000005
 51
270.000001
  0
LINE
  8
CSLAYER1
  6
CONTINUOUS
 62
     6
 10
211.161491
 20
239.269056
 11
211.764941
 21
239.269056
  0
ARC
  8
CSLAYER1
  6
CONTINUOUS
 62
     6
 10
211.764941
 20
239.389753
 40
0.120690
 50
270.000001
 51
359.942691
  0
ARC
  8
CSLAYER1
  6
CONTINUOUS
 62
     6
 10
210.799436
 20
239.713503
 40
0.241380
 50
264.999865
 51
359.942691
  0
LINE
  8
CSLAYER1
  6
CONTINUOUS
 62
     6
 10
210.778369
 20
239.473048
 11
210.018237
 21
239.539547
  0
ARC
  8
CSLAYER1
  6
CONTINUOUS
 62
     6
 10
210.123428
 20
240.741861
 40
1.206899
 50
196.257399
 51
264.999892
  0
ARC
  8
CSLAYER1
  6
CONTINUOUS
 62
     6
 10
217.075326
 20
242.769056
 40
8.448294
 50
163.742994
 51
196.257016
  0
ARC
  8
CSLAYER1
  6
CONTINUOUS
 62
     6
 10
210.123428
 20
244.796251
 40
1.206899
 50
95.000111
 51
163.742611
  0
LINE
  8
CSLAYER1
  6
CONTINUOUS
 62
     6
 10
210.018237
 20
245.998564
 11
210.778369
 21
246.065064
  0
ARC
  8
CSLAYER1
  6
CONTINUOUS
 62
     6
 10
210.799436
 20
245.824608
 40
0.241380
 50
0.000000
 51
95.000152
  0
ARC
  8
CSLAYER1
  6
CONTINUOUS
 62
     6
 10
211.764941
 20
246.148358
 40
0.120690
 50
0.000000
 51
90.000003
  0
LINE
  8
CSLAYER1
  6
CONTINUOUS
 62
     6
 10
211.885638
 20
243.188973
 11
211.040831
 21
242.653275
  0
LINE
  8
CSLAYER1
  6
CONTINUOUS
 62
     6
 10
211.040831
 20
242.049826
 11
211.885638
 21
242.585524
  0
LINE
  8
CSLAYER1
  6
CONTINUOUS
 62
     6
 10
211.885631
 20
236.159123
 11
209.885631
 21
236.159123
  0
LINE
  8
CSLAYER1
  6
CONTINUOUS
 62
     6
 10
189.885631
 20
229.159164
 11
189.885631
 21
193.159122
  0
LINE
  8
CSLAYER1
  6
CONTINUOUS
 62
     6
 10
183.885631
 20
193.159122
 11
207.731923
 21
193.159120
  0
ARC
  8
CSLAYER1
  6
CONTINUOUS
 62
     6
 10
208.425517
 20
193.879469
 40
1.000000
 50
196.257399
 51
264.999892
  0
LINE
  8
CSLAYER1
  6
CONTINUOUS
 62
     6
 10
208.338359
 20
192.883253
 11
208.968181
 21
192.828169
  0
ARC
  8
CSLAYER1
  6
CONTINUOUS
 62
     6
 10
208.985606
 20
193.027418
 40
0.200000
 50
264.999865
 51
359.942691
  0
LINE
  8
CSLAYER1
  6
CONTINUOUS
 62
     6
 10
209.185618
 20
192.759169
 11
209.185618
 21
198.359144
  0
ARC
  8
CSLAYER1
  6
CONTINUOUS
 62
     6
 10
209.285594
 20
198.359144
 40
0.100000
 50
90.000003
 51
180.000005
  0
LINE
  8
CSLAYER1
  6
CONTINUOUS
 62
     6
 10
209.285594
 20
198.459120
 11
209.785594
 21
198.459120
  0
ARC
  8
CSLAYER1
  6
CONTINUOUS
 62
     6
 10
209.785594
 20
198.359144
 40
0.100000
 50
0.000000
 51
90.000003
  0
ARC
  8
CSLAYER1
  6
CONTINUOUS
 62
     6
 10
208.985606
 20
198.090895
 40
0.200000
 50
0.000000
 51
95.000152
  0
LINE
  8
CSLAYER1
  6
CONTINUOUS
 62
     6
 10
208.968181
 20
198.290114
 11
208.338359
 21
198.234999
  0
ARC
  8
CSLAYER1
  6
CONTINUOUS
 62
     6
 10
208.425517
 20
197.238814
 40
1.000000
 50
95.000111
 51
163.742611
  0
ARC
  8
CSLAYER1
  6
CONTINUOUS
 62
     6
 10
214.185618
 20
195.559157
 40
7.000000
 50
163.742994
 51
196.257016
  0
ARC
  8
CSLAYER1
  6
CONTINUOUS
 62
     6
 10
209.285594
 20
192.759169
 40
0.100000
 50
180.000005
 51
270.000001
  0
LINE
  8
CSLAYER1
  6
CONTINUOUS
 62
     6
 10
209.285594
 20
192.659132
 11
209.785594
 21
192.659132
  0
ARC
  8
CSLAYER1
  6
CONTINUOUS
 62
     6
 10
209.785594
 20
192.759169
 40
0.100000
 50
270.000001
 51
359.942691
  0
LINE
  8
CSLAYER1
  6
CONTINUOUS
 62
     6
 10
209.185618
 20
194.963209
 11
209.885600
 21
195.407057
  0
LINE
  8
CSLAYER1
  6
CONTINUOUS
 62
     6
 10
209.885600
 20
195.907057
 11
209.185618
 21
195.463209
  0
LINE
  8
CSLAYER1
  6
CONTINUOUS
 62
     6
 10
184.285625
 20
199.159110
 11
184.285621
 21
205.582145
  0
LINE
  8
CSLAYER1
  6
CONTINUOUS
 62
     6
 10
183.385631
 20
208.159094
 11
182.385631
 21
208.159094
  0
LINE
  8
CSLAYER1
  6
CONTINUOUS
 62
     6
 10
182.385631
 20
208.159094
 11
182.385631
 21
214.159124
  0
LINE
  8
CSLAYER1
  6
CONTINUOUS
 62
     6
 10
182.385631
 20
214.159124
 11
183.385631
 21
214.159124
  0
LINE
  8
CSLAYER1
  6
CONTINUOUS
 62
     6
 10
183.385631
 20
214.159124
 11
183.385631
 21
208.159094
  0
LINE
  8
CSLAYER1
  6
CONTINUOUS
 62
     6
 10
181.485633
 20
205.582147
 11
181.485637
 21
199.159109
  0
LINE
  8
CSLAYER1
  6
CONTINUOUS
 62
     6
 10
181.485637
 20
199.159109
 11
184.285625
 21
199.159110
  0
LINE
  8
CSLAYER1
  6
CONTINUOUS
 62
     6
 10
183.885631
 20
199.159109
 11
183.885631
 21
192.651515
  0
ARC
  8
CSLAYER1
  6
CONTINUOUS
 62
     6
 10
182.885631
 20
193.420759
 40
1.261636
 50
217.568822
 51
322.431165
  0
LINE
  8
CSLAYER1
  6
CONTINUOUS
 62
     6
 10
181.885631
 20
192.651522
 11
181.885631
 21
199.159109
  0
CIRCLE
  8
CSLAYER1
  6
CONTINUOUS
 62
     6
 10
182.885637
 20
200.659109
 40
0.500000
  0
LINE
  8
CSLAYER1
  6
CONTINUOUS
 62
     6
 10
181.885631
 20
193.159123
 11
172.885642
 21
193.159124
  0
LINE
  8
CSLAYER1
  6
CONTINUOUS
 62
     6
 10
172.885642
 20
193.159124
 11
171.885641
 21
194.159124
  0
LINE
  8
CSLAYER1
  6
CONTINUOUS
 62
     6
 10
172.885642
 20
193.159124
 11
172.885624
 21
221.587607
  0
LINE
  8
CSLAYER1
  6
CONTINUOUS
 62
     6
 10
172.885624
 20
221.587607
 11
176.885624
 21
221.587609
  0
LINE
  8
CSLAYER1
  6
CONTINUOUS
 62
     6
 10
176.885624
 20
221.587609
 11
176.885622
 21
225.830285
  0
LINE
  8
CSLAYER1
  6
CONTINUOUS
 62
     6
 10
176.885622
 20
225.830285
 11
172.885622
 21
225.830282
  0
LINE
  8
CSLAYER1
  6
CONTINUOUS
 62
     6
 10
172.885622
 20
225.830282
 11
171.885622
 21
224.830282
  0
LINE
  8
CSLAYER1
  6
CONTINUOUS
 62
     6
 10
172.885622
 20
225.830282
 11
172.885619
 21
229.159124
  0
LINE
  8
CSLAYER1
  6
CONTINUOUS
 62
     6
 10
175.324832
 20
223.734398
 11
175.954654
 21
223.789513
  0
ARC
  8
CSLAYER1
  6
CONTINUOUS
 62
     6
 10
175.972079
 20
223.590233
 40
0.200000
 50
0.057345
 51
95.000171
  0
ARC
  8
CSLAYER1
  6
CONTINUOUS
 62
     6
 10
176.272067
 20
223.858483
 40
0.100000
 50
90.057354
 51
180.000044
  0
LINE
  8
CSLAYER1
  6
CONTINUOUS
 62
     6
 10
176.272067
 20
223.958519
 11
176.772067
 21
223.958520
  0
ARC
  8
CSLAYER1
  6
CONTINUOUS
 62
     6
 10
176.772067
 20
223.858483
 40
0.100000
 50
0.057345
 51
90.000035
  0
LINE
  8
CSLAYER1
  6
CONTINUOUS
 62
     6
 10
176.172061
 20
223.858483
 11
176.172062
 21
221.587609
  0
ARC
  8
CSLAYER1
  6
CONTINUOUS
 62
     6
 10
181.172062
 20
221.058498
 40
7.000000
 50
163.743019
 51
175.665197
  0
ARC
  8
CSLAYER1
  6
CONTINUOUS
 62
     6
 10
175.411991
 20
222.738182
 40
1.000000
 50
95.000143
 51
163.742637
  0
LINE
  8
CSLAYER1
  6
CONTINUOUS
 62
     6
 10
172.885624
 20
221.587607
 11
171.885625
 21
220.587606
  0
CIRCLE
  8
CSLAYER1
  6
CONTINUOUS
 62
     6
 10
182.885631
 20
211.159109
 40
5.750000
  0
ARC
  8
CSLAYER1
  6
CONTINUOUS
 62
     6
 10
275.885631
 20
228.159123
 40
1.000000
 50
180.000019
 51
270.000001
  0
LINE
  8
CSLAYER1
  6
CONTINUOUS
 62
     6
 10
275.885631
 20
227.159123
 11
280.656871
 21
227.159123
  0
ARC
  8
CSLAYER1
  6
CONTINUOUS
 62
     6
 10
280.656871
 20
226.159123
 40
1.000000
 50
-48.590366
 51
90.000019
  0
ARC
  8
CSLAYER1
  6
CONTINUOUS
 62
     6
 10
293.885631
 20
211.159123
 40
19.000000
 50
131.409657
 51
228.590367
  0
ARC
  8
CSLAYER1
  6
CONTINUOUS
 62
     6
 10
280.656871
 20
196.159123
 40
1.000000
 50
-89.999999
 51
48.590386
  0
LINE
  8
CSLAYER1
  6
CONTINUOUS
 62
     6
 10
280.656871
 20
195.159123
 11
275.885631
 21
195.159123
  0
ARC
  8
CSLAYER1
  6
CONTINUOUS
 62
     6
 10
275.885631
 20
194.159123
 40
1.000000
 50
89.999999
 51
179.999981
  0
LINE
  8
CSLAYER1
  6
CONTINUOUS
 62
     6
 10
274.885631
 20
194.159123
 11
274.885631
 21
193.159123
  0
ARC
  8
CSLAYER1
  6
CONTINUOUS
 62
     6
 10
275.885631
 20
193.159123
 40
1.000000
 50
179.999995
 51
269.999984
  0
LINE
  8
CSLAYER1
  6
CONTINUOUS
 62
     6
 10
275.885631
 20
192.159123
 11
311.885631
 21
192.159123
  0
ARC
  8
CSLAYER1
  6
CONTINUOUS
 62
     6
 10
311.885631
 20
193.159123
 40
1.000000
 50
269.999997
 51
360.000000
  0
LINE
  8
CSLAYER1
  6
CONTINUOUS
 62
     6
 10
312.885631
 20
193.159123
 11
312.885631
 21
194.159123
  0
ARC
  8
CSLAYER1
  6
CONTINUOUS
 62
     6
 10
311.885631
 20
194.159123
 40
1.000000
 50
0.057309
 51
89.999999
  0
LINE
  8
CSLAYER1
  6
CONTINUOUS
 62
     6
 10
311.885631
 20
195.159123
 11
307.114390
 21
195.159123
  0
ARC
  8
CSLAYER1
  6
CONTINUOUS
 62
     6
 10
307.114390
 20
196.159123
 40
1.000000
 50
131.409643
 51
270.000001
  0
ARC
  8
CSLAYER1
  6
CONTINUOUS
 62
     6
 10
293.885631
 20
211.159123
 40
19.000000
 50
-48.590366
 51
48.590386
  0
ARC
  8
CSLAYER1
  6
CONTINUOUS
 62
     6
 10
307.114390
 20
226.159123
 40
1.000000
 50
90.000003
 51
228.590367
  0
LINE
  8
CSLAYER1
  6
CONTINUOUS
 62
     6
 10
307.114390
 20
227.159123
 11
311.885631
 21
227.159123
  0
ARC
  8
CSLAYER1
  6
CONTINUOUS
 62
     6
 10
311.885631
 20
228.159123
 40
1.000000
 50
270.000001
 51
359.942691
  0
LINE
  8
CSLAYER1
  6
CONTINUOUS
 62
     6
 10
312.885631
 20
228.159123
 11
312.885631
 21
229.159123
  0
ARC
  8
CSLAYER1
  6
CONTINUOUS
 62
     6
 10
311.885631
 20
229.159123
 40
1.000000
 50
0.000000
 51
90.000003
  0
LINE
  8
CSLAYER1
  6
CONTINUOUS
 62
     6
 10
311.885631
 20
230.159123
 11
275.885631
 21
230.159123
  0
ARC
  8
CSLAYER1
  6
CONTINUOUS
 62
     6
 10
275.885631
 20
229.159123
 40
1.000000
 50
90.000016
 51
180.000005
  0
LINE
  8
CSLAYER1
  6
CONTINUOUS
 62
     6
 10
274.885631
 20
229.159123
 11
274.885631
 21
228.159123
  0
LINE
  8
CSLAYER1
  6
CONTINUOUS
 62
     6
 10
275.885631
 20
234.159123
 11
311.885631
 21
234.159123
  0
ARC
  8
CSLAYER1
  6
CONTINUOUS
 62
     6
 10
311.885631
 20
235.159123
 40
1.000000
 50
270.000001
 51
359.942691
  0
LINE
  8
CSLAYER1
  6
CONTINUOUS
 62
     6
 10
312.885631
 20
235.159123
 11
312.885631
 21
236.159123
  0
ARC
  8
CSLAYER1
  6
CONTINUOUS
 62
     6
 10
311.885631
 20
236.159123
 40
1.000000
 50
0.000000
 51
90.000003
  0
LINE
  8
CSLAYER1
  6
CONTINUOUS
 62
     6
 10
311.885631
 20
237.159123
 11
275.885631
 21
237.159123
  0
ARC
  8
CSLAYER1
  6
CONTINUOUS
 62
     6
 10
275.885631
 20
236.159123
 40
1.000000
 50
90.000016
 51
180.000005
  0
LINE
  8
CSLAYER1
  6
CONTINUOUS
 62
     6
 10
274.885631
 20
236.159123
 11
274.885631
 21
235.159123
  0
ARC
  8
CSLAYER1
  6
CONTINUOUS
 62
     6
 10
275.885631
 20
235.159123
 40
1.000000
 50
180.000019
 51
270.000001
  0
LINE
  8
CSLAYER1
  6
CONTINUOUS
 62
     6
 10
271.885631
 20
255.047581
 11
314.885631
 21
255.047581
  0
LINE
  8
CSLAYER1
  6
CONTINUOUS
 62
     6
 10
314.885631
 20
256.159123
 11
400.885631
 21
256.159123
  0
LINE
  8
CSLAYER1
  6
CONTINUOUS
 62
     6
 10
399.885631
 20
256.159123
 11
399.885631
 21
166.159123
  0
LINE
  8
CSLAYER1
  6
CONTINUOUS
 62
     6
 10
400.885631
 20
166.159123
 11
314.885631
 21
166.159123
  0
LINE
  8
CSLAYER1
  6
CONTINUOUS
 62
     6
 10
314.885631
 20
166.159123
 11
314.885631
 21
256.159123
  0
LINE
  8
CSLAYER1
  6
CONTINUOUS
 62
     6
 10
311.985179
 20
297.159138
 11
275.786021
 21
297.159138
  0
ARC
  8
CSLAYER1
  6
CONTINUOUS
 62
     6
 10
275.786021
 20
298.159138
 40
1.000000
 50
186.000002
 51
269.999997
  0
LINE
  8
CSLAYER1
  6
CONTINUOUS
 62
     6
 10
274.791514
 20
298.054646
 11
274.143504
 21
304.219868
  0
ARC
  8
CSLAYER1
  6
CONTINUOUS
 62
     6
 10
273.148997
 20
304.115315
 40
1.000000
 50
6.000011
 51
89.999999
  0
LINE
  8
CSLAYER1
  6
CONTINUOUS
 62
     6
 10
274.360057
 20
302.159138
 11
271.885631
 21
302.159138
  0
LINE
  8
CSLAYER1
  6
CONTINUOUS
 62
     6
 10
271.885631
 20
301.159123
 11
211.885631
 21
301.159123
  0
LINE
  8
CSLAYER1
  6
CONTINUOUS
 62
     6
 10
211.885631
 20
301.159123
 11
211.885631
 21
391.159123
  0
LINE
  8
CSLAYER1
  6
CONTINUOUS
 62
     6
 10
211.885631
 20
391.159123
 11
271.885631
 21
391.159123
  0
LINE
  8
CSLAYER1
  6
CONTINUOUS
 62
     6
 10
271.885631
 20
391.159123
 11
271.885631
 21
301.159123
  0
ARC
  8
CSLAYER1
  6
CONTINUOUS
 62
     6
 10
275.786021
 20
302.159138
 40
1.000000
 50
186.000002
 51
269.999997
  0
LINE
  8
CSLAYER1
  6
CONTINUOUS
 62
     6
 10
275.786021
 20
301.159138
 11
311.985179
 21
301.159138
  0
ARC
  8
CSLAYER1
  6
CONTINUOUS
 62
     6
 10
311.985179
 20
302.159138
 40
1.000000
 50
269.999984
 51
353.999997
  0
LINE
  8
CSLAYER1
  6
CONTINUOUS
 62
     6
 10
312.979747
 20
302.054646
 11
313.677379
 21
308.692097
  0
ARC
  8
CSLAYER1
  6
CONTINUOUS
 62
     6
 10
314.671886
 20
308.587605
 40
1.000000
 50
89.999999
 51
173.999974
  0
ARC
  8
CSLAYER1
  6
CONTINUOUS
 62
     6
 10
314.622264
 20
304.115315
 40
1.000000
 50
89.999999
 51
173.999974
  0
LINE
  8
CSLAYER1
  6
CONTINUOUS
 62
     6
 10
313.627696
 20
304.219868
 11
312.979747
 21
298.054646
  0
ARC
  8
CSLAYER1
  6
CONTINUOUS
 62
     6
 10
311.985179
 20
298.159138
 40
1.000000
 50
269.999984
 51
353.999997
  0
LINE
  8
CSLAYER1
  6
CONTINUOUS
 62
     6
 10
314.885631
 20
301.159123
 11
314.885631
 21
391.159123
  0
LINE
  8
CSLAYER1
  6
CONTINUOUS
 62
     6
 10
314.885631
 20
391.159123
 11
400.885600
 21
391.159123
  0
LINE
  8
CSLAYER1
  6
CONTINUOUS
 62
     6
 10
399.885600
 20
391.159123
 11
399.885600
 21
301.159123
  0
LINE
  8
CSLAYER1
  6
CONTINUOUS
 62
     6
 10
400.885600
 20
301.159123
 11
314.885631
 21
301.159123
  0
LINE
  8
CSLAYER1
  6
CONTINUOUS
 62
     6
 10
314.885631
 20
302.159138
 11
313.410594
 21
302.159138
  0
LINE
  8
CSLAYER1
  6
CONTINUOUS
 62
     6
 10
309.528697
 20
309.765950
 11
277.571605
 21
309.765950
  0
LINE
  8
CSLAYER1
  6
CONTINUOUS
 62
     6
 10
274.093883
 20
308.692097
 11
274.791514
 21
302.054646
  0
ARC
  8
CSLAYER1
  6
CONTINUOUS
 62
     6
 10
273.099315
 20
308.587605
 40
1.000000
 50
6.000011
 51
89.999999
  0
LINE
  8
CSLAYER1
  6
CONTINUOUS
 62
     6
 10
216.885631
 20
301.159123
 11
216.885631
 21
391.159123
  0
LINE
  8
CSLAYER1
  6
CONTINUOUS
 62
     6
 10
211.764942
 20
386.159141
 11
211.161492
 21
386.159142
  0
ARC
  8
CSLAYER1
  6
CONTINUOUS
 62
     6
 10
211.161492
 20
386.038444
 40
0.120690
 50
89.999985
 51
179.999988
  0
LINE
  8
CSLAYER1
  6
CONTINUOUS
 62
     6
 10
211.040832
 20
386.038444
 11
211.040830
 21
379.279839
  0
ARC
  8
CSLAYER1
  6
CONTINUOUS
 62
     6
 10
211.161490
 20
379.279839
 40
0.120690
 50
179.999988
 51
269.999983
  0
LINE
  8
CSLAYER1
  6
CONTINUOUS
 62
     6
 10
211.161490
 20
379.159142
 11
211.764940
 21
379.159141
  0
ARC
  8
CSLAYER1
  6
CONTINUOUS
 62
     6
 10
211.764940
 20
379.279839
 40
0.120690
 50
269.999983
 51
359.942674
  0
ARC
  8
CSLAYER1
  6
CONTINUOUS
 62
     6
 10
210.799435
 20
379.603589
 40
0.241380
 50
264.999848
 51
359.942674
  0
LINE
  8
CSLAYER1
  6
CONTINUOUS
 62
     6
 10
210.778368
 20
379.363134
 11
210.018236
 21
379.429633
  0
ARC
  8
CSLAYER1
  6
CONTINUOUS
 62
     6
 10
210.123428
 20
380.631947
 40
1.206899
 50
196.257381
 51
264.999875
  0
ARC
  8
CSLAYER1
  6
CONTINUOUS
 62
     6
 10
217.075326
 20
382.659140
 40
8.448294
 50
163.742976
 51
196.256999
  0
ARC
  8
CSLAYER1
  6
CONTINUOUS
 62
     6
 10
210.123429
 20
384.686337
 40
1.206899
 50
95.000093
 51
163.742594
  0
LINE
  8
CSLAYER1
  6
CONTINUOUS
 62
     6
 10
210.018238
 20
385.888650
 11
210.778370
 21
385.955150
  0
ARC
  8
CSLAYER1
  6
CONTINUOUS
 62
     6
 10
210.799437
 20
385.714694
 40
0.241380
 50
-0.000017
 51
95.000134
  0
ARC
  8
CSLAYER1
  6
CONTINUOUS
 62
     6
 10
211.764942
 20
386.038444
 40
0.120690
 50
-0.000017
 51
89.999985
  0
LINE
  8
CSLAYER1
  6
CONTINUOUS
 62
     6
 10
211.885638
 20
383.079059
 11
211.040831
 21
382.543361
  0
LINE
  8
CSLAYER1
  6
CONTINUOUS
 62
     6
 10
211.040831
 20
381.939912
 11
211.885638
 21
382.475609
  0
LINE
  8
CSLAYER1
  6
CONTINUOUS
 62
     6
 10
211.885631
 20
371.159123
 11
209.885631
 21
371.159123
  0
LINE
  8
CSLAYER1
  6
CONTINUOUS
 62
     6
 10
209.885631
 20
371.159123
 11
209.885631
 21
331.119540
  0
ARC
  8
CSLAYER1
  6
CONTINUOUS
 62
     6
 10
210.123428
 20
329.936299
 40
1.206899
 50
95.000108
 51
163.742601
  0
ARC
  8
CSLAYER1
  6
CONTINUOUS
 62
     6
 10
217.075326
 20
327.909105
 40
8.448294
 50
163.742984
 51
196.257006
  0
ARC
  8
CSLAYER1
  6
CONTINUOUS
 62
     6
 10
210.123428
 20
325.881910
 40
1.206899
 50
196.257389
 51
264.999889
  0
LINE
  8
CSLAYER1
  6
CONTINUOUS
 62
     6
 10
210.018237
 20
324.679596
 11
210.778369
 21
324.613097
  0
ARC
  8
CSLAYER1
  6
CONTINUOUS
 62
     6
 10
210.799436
 20
324.853552
 40
0.241380
 50
264.999848
 51
360.000000
  0
ARC
  8
CSLAYER1
  6
CONTINUOUS
 62
     6
 10
211.161491
 20
324.529802
 40
0.120690
 50
179.999995
 51
269.999997
  0
LINE
  8
CSLAYER1
  6
CONTINUOUS
 62
     6
 10
211.161491
 20
324.409105
 11
211.764941
 21
324.409105
  0
ARC
  8
CSLAYER1
  6
CONTINUOUS
 62
     6
 10
211.764941
 20
324.529802
 40
0.120690
 50
269.999997
 51
360.000000
  0
LINE
  8
CSLAYER1
  6
CONTINUOUS
 62
     6
 10
211.040831
 20
324.529802
 11
211.040831
 21
331.288407
  0
ARC
  8
CSLAYER1
  6
CONTINUOUS
 62
     6
 10
211.161491
 20
331.288407
 40
0.120690
 50
89.999999
 51
179.999995
  0
LINE
  8
CSLAYER1
  6
CONTINUOUS
 62
     6
 10
211.161491
 20
331.409105
 11
211.764941
 21
331.409105
  0
ARC
  8
CSLAYER1
  6
CONTINUOUS
 62
     6
 10
211.764941
 20
331.288407
 40
0.120690
 50
0.057309
 51
89.999999
  0
ARC
  8
CSLAYER1
  6
CONTINUOUS
 62
     6
 10
210.799436
 20
330.964657
 40
0.241380
 50
0.057309
 51
95.000135
  0
LINE
  8
CSLAYER1
  6
CONTINUOUS
 62
     6
 10
210.778369
 20
331.205113
 11
210.018237
 21
331.138613
  0
LINE
  8
CSLAYER1
  6
CONTINUOUS
 62
     6
 10
209.185618
 20
330.695982
 11
209.185618
 21
333.359044
  0
ARC
  8
CSLAYER1
  6
CONTINUOUS
 62
     6
 10
209.285594
 20
333.359044
 40
0.100000
 50
89.999999
 51
179.999995
  0
LINE
  8
CSLAYER1
  6
CONTINUOUS
 62
     6
 10
209.285594
 20
333.459081
 11
209.785594
 21
333.459081
  0
ARC
  8
CSLAYER1
  6
CONTINUOUS
 62
     6
 10
209.785594
 20
333.359044
 40
0.100000
 50
0.057309
 51
89.999999
  0
ARC
  8
CSLAYER1
  6
CONTINUOUS
 62
     6
 10
208.985606
 20
333.090794
 40
0.200000
 50
0.057309
 51
95.000135
  0
LINE
  8
CSLAYER1
  6
CONTINUOUS
 62
     6
 10
208.968181
 20
333.290044
 11
208.338359
 21
333.234959
  0
ARC
  8
CSLAYER1
  6
CONTINUOUS
 62
     6
 10
208.425517
 20
332.238744
 40
1.000000
 50
95.000108
 51
163.742601
  0
ARC
  8
CSLAYER1
  6
CONTINUOUS
 62
     6
 10
214.185618
 20
330.559056
 40
7.000000
 50
163.742984
 51
196.257006
  0
ARC
  8
CSLAYER1
  6
CONTINUOUS
 62
     6
 10
208.425517
 20
328.879399
 40
1.000000
 50
196.257389
 51
264.999889
  0
LINE
  8
CSLAYER1
  6
CONTINUOUS
 62
     6
 10
208.338359
 20
327.883214
 11
208.627188
 21
327.857939
  0
LINE
  8
CSLAYER1
  6
CONTINUOUS
 62
     6
 10
207.731925
 20
328.159091
 11
188.885631
 21
328.159091
  0
LINE
  8
CSLAYER1
  6
CONTINUOUS
 62
     6
 10
188.885631
 20
328.159144
 11
188.885631
 21
323.159015
  0
LINE
  8
CSLAYER1
  6
CONTINUOUS
 62
     6
 10
188.885631
 20
323.159015
 11
176.885631
 21
323.159015
  0
LINE
  8
CSLAYER1
  6
CONTINUOUS
 62
     6
 10
176.885631
 20
323.159015
 11
176.885631
 21
328.159155
  0
ARC
  8
CSLAYER1
  6
CONTINUOUS
 62
     6
 10
182.885614
 20
310.659149
 40
18.500000
 50
93.098552
 51
108.924617
  0
ARC
  8
CSLAYER1
  6
CONTINUOUS
 62
     6
 10
182.885627
 20
329.952822
 40
1.293673
 50
219.376242
 51
320.623679
  0
LINE
  8
CSLAYER1
  6
CONTINUOUS
 62
     6
 10
183.885631
 20
329.132102
 11
183.885631
 21
363.186138
  0
ARC
  8
CSLAYER1
  6
CONTINUOUS
 62
     6
 10
182.885631
 20
362.365428
 40
1.293664
 50
39.376084
 51
140.623916
  0
LINE
  8
CSLAYER1
  6
CONTINUOUS
 62
     6
 10
181.885631
 20
363.186138
 11
181.885631
 21
329.132103
  0
ARC
  8
CSLAYER1
  6
CONTINUOUS
 62
     6
 10
182.885614
 20
310.659149
 40
18.500000
 50
71.075329
 51
86.901394
  0
LINE
  8
CSLAYER1
  6
CONTINUOUS
 62
     6
 10
188.885622
 20
328.159146
 11
189.885622
 21
328.159146
  0
LINE
  8
CSLAYER1
  6
CONTINUOUS
 62
     6
 10
189.885631
 20
328.159137
 11
189.885631
 21
364.159091
  0
LINE
  8
CSLAYER1
  6
CONTINUOUS
 62
     6
 10
188.885631
 20
364.159091
 11
188.885631
 21
369.159168
  0
LINE
  8
CSLAYER1
  6
CONTINUOUS
 62
     6
 10
188.885631
 20
369.159168
 11
176.885631
 21
369.159168
  0
LINE
  8
CSLAYER1
  6
CONTINUOUS
 62
     6
 10
176.885631
 20
369.159168
 11
176.885631
 21
364.159091
  0
LINE
  8
CSLAYER1
  6
CONTINUOUS
 62
     6
 10
176.885631
 20
364.159091
 11
172.885631
 21
364.159091
  0
LINE
  8
CSLAYER1
  6
CONTINUOUS
 62
     6
 10
172.885631
 20
364.159091
 11
171.885631
 21
363.159091
  0
LINE
  8
CSLAYER1
  6
CONTINUOUS
 62
     6
 10
171.885631
 20
363.159091
 11
171.885631
 21
329.159091
  0
LINE
  8
CSLAYER1
  6
CONTINUOUS
 62
     6
 10
171.885631
 20
329.159091
 11
172.885631
 21
328.159091
  0
LINE
  8
CSLAYER1
  6
CONTINUOUS
 62
     6
 10
172.885631
 20
328.159091
 11
172.885631
 21
331.487903
  0
LINE
  8
CSLAYER1
  6
CONTINUOUS
 62
     6
 10
172.885631
 20
331.487903
 11
176.885631
 21
331.487903
  0
LINE
  8
CSLAYER1
  6
CONTINUOUS
 62
     6
 10
176.885631
 20
331.487903
 11
176.885631
 21
335.730579
  0
LINE
  8
CSLAYER1
  6
CONTINUOUS
 62
     6
 10
176.885631
 20
335.730579
 11
172.885631
 21
335.730579
  0
LINE
  8
CSLAYER1
  6
CONTINUOUS
 62
     6
 10
172.885631
 20
335.730579
 11
171.885631
 21
336.730579
  0
LINE
  8
CSLAYER1
  6
CONTINUOUS
 62
     6
 10
172.885631
 20
335.730579
 11
172.885631
 21
364.159091
  0
ARC
  8
CSLAYER1
  6
CONTINUOUS
 62
     6
 10
182.885631
 20
381.659091
 40
18.500000
 50
251.075356
 51
266.901421
  0
ARC
  8
CSLAYER1
  6
CONTINUOUS
 62
     6
 10
182.885631
 20
381.659091
 40
18.500000
 50
273.098579
 51
288.924644
  0
LINE
  8
CSLAYER1
  6
CONTINUOUS
 62
     6
 10
188.885631
 20
364.159091
 11
207.731814
 21
364.159091
  0
ARC
  8
CSLAYER1
  6
CONTINUOUS
 62
     6
 10
214.185618
 20
361.759283
 40
7.000000
 50
163.743022
 51
196.257044
  0
ARC
  8
CSLAYER1
  6
CONTINUOUS
 62
     6
 10
208.425518
 20
360.079592
 40
1.000000
 50
196.257427
 51
264.999920
  0
LINE
  8
CSLAYER1
  6
CONTINUOUS
 62
     6
 10
208.338360
 20
359.083377
 11
208.968182
 21
359.028293
  0
ARC
  8
CSLAYER1
  6
CONTINUOUS
 62
     6
 10
208.985608
 20
359.227542
 40
0.200000
 50
264.999893
 51
359.942719
  0
LINE
  8
CSLAYER1
  6
CONTINUOUS
 62
     6
 10
209.185620
 20
358.959293
 11
209.185617
 21
364.559268
  0
ARC
  8
CSLAYER1
  6
CONTINUOUS
 62
     6
 10
209.285593
 20
364.559268
 40
0.100000
 50
90.000030
 51
180.000033
  0
LINE
  8
CSLAYER1
  6
CONTINUOUS
 62
     6
 10
209.285593
 20
364.659244
 11
209.785593
 21
364.659244
  0
ARC
  8
CSLAYER1
  6
CONTINUOUS
 62
     6
 10
209.785593
 20
364.559268
 40
0.100000
 50
0.000028
 51
90.000030
  0
ARC
  8
CSLAYER1
  6
CONTINUOUS
 62
     6
 10
208.985605
 20
364.291019
 40
0.200000
 50
0.000028
 51
95.000180
  0
LINE
  8
CSLAYER1
  6
CONTINUOUS
 62
     6
 10
208.968179
 20
364.490237
 11
208.338358
 21
364.435122
  0
ARC
  8
CSLAYER1
  6
CONTINUOUS
 62
     6
 10
208.425516
 20
363.438937
 40
1.000000
 50
95.000139
 51
163.742639
  0
LINE
  8
CSLAYER1
  6
CONTINUOUS
 62
     6
 10
209.185619
 20
361.663333
 11
209.885600
 21
362.107181
  0
LINE
  8
CSLAYER1
  6
CONTINUOUS
 62
     6
 10
209.885600
 20
361.607181
 11
209.185619
 21
361.163333
  0
ARC
  8
CSLAYER1
  6
CONTINUOUS
 62
     6
 10
209.285595
 20
358.959293
 40
0.100000
 50
180.000033
 51
270.000029
  0
LINE
  8
CSLAYER1
  6
CONTINUOUS
 62
     6
 10
209.285595
 20
358.859256
 11
209.785595
 21
358.859256
  0
ARC
  8
CSLAYER1
  6
CONTINUOUS
 62
     6
 10
209.785595
 20
358.959293
 40
0.100000
 50
270.000029
 51
359.942719
  0
LINE
  8
CSLAYER1
  6
CONTINUOUS
 62
     6
 10
188.635631
 20
370.159168
 11
188.635631
 21
371.159168
  0
LINE
  8
CSLAYER1
  6
CONTINUOUS
 62
     6
 10
188.635631
 20
371.159168
 11
177.135631
 21
371.159168
  0
LINE
  8
CSLAYER1
  6
CONTINUOUS
 62
     6
 10
177.135631
 20
371.159168
 11
177.135631
 21
370.159168
  0
LINE
  8
CSLAYER1
  6
CONTINUOUS
 62
     6
 10
177.135631
 20
370.159168
 11
188.635631
 21
370.159168
  0
ARC
  8
CSLAYER1
  6
CONTINUOUS
 62
     6
 10
187.885631
 20
369.659168
 40
0.500000
 50
-89.999999
 51
90.000019
  0
ARC
  8
CSLAYER1
  6
CONTINUOUS
 62
     6
 10
177.885631
 20
369.659168
 40
0.500000
 50
90.000003
 51
269.942682
  0
LINE
  8
CSLAYER1
  6
CONTINUOUS
 62
     6
 10
176.172069
 20
335.730579
 11
176.172069
 21
333.459705
  0
ARC
  8
CSLAYER1
  6
CONTINUOUS
 62
     6
 10
176.272075
 20
333.459705
 40
0.100000
 50
179.999991
 51
269.942682
  0
LINE
  8
CSLAYER1
  6
CONTINUOUS
 62
     6
 10
176.272075
 20
333.359668
 11
176.772075
 21
333.359668
  0
ARC
  8
CSLAYER1
  6
CONTINUOUS
 62
     6
 10
176.772075
 20
333.459705
 40
0.100000
 50
270.000001
 51
359.942691
  0
ARC
  8
CSLAYER1
  6
CONTINUOUS
 62
     6
 10
175.972087
 20
333.727954
 40
0.200000
 50
264.999865
 51
359.942691
  0
LINE
  8
CSLAYER1
  6
CONTINUOUS
 62
     6
 10
175.954661
 20
333.528674
 11
175.324840
 21
333.583789
  0
ARC
  8
CSLAYER1
  6
CONTINUOUS
 62
     6
 10
175.411998
 20
334.580005
 40
1.000000
 50
196.257399
 51
264.999892
  0
ARC
  8
CSLAYER1
  6
CONTINUOUS
 62
     6
 10
181.172069
 20
336.259692
 40
7.000000
 50
184.334839
 51
196.257016
  0
LINE
  8
CSLAYER1
  6
CONTINUOUS
 62
     6
 10
171.885631
 20
332.487903
 11
172.885631
 21
331.487903
  0
LINE
  8
CSLAYER1
  6
CONTINUOUS
 62
     6
 10
172.885631
 20
328.159091
 11
176.885631
 21
328.159091
  0
ARC
  8
CSLAYER1
  6
CONTINUOUS
 62
     6
 10
177.885631
 20
322.659015
 40
0.500000
 50
90.057318
 51
269.999997
  0
LINE
  8
CSLAYER1
  6
CONTINUOUS
 62
     6
 10
177.135631
 20
322.159015
 11
177.135631
 21
321.159015
  0
LINE
  8
CSLAYER1
  6
CONTINUOUS
 62
     6
 10
177.135631
 20
321.159015
 11
188.635631
 21
321.159015
  0
LINE
  8
CSLAYER1
  6
CONTINUOUS
 62
     6
 10
188.635631
 20
321.159015
 11
188.635631
 21
322.159015
  0
LINE
  8
CSLAYER1
  6
CONTINUOUS
 62
     6
 10
188.635631
 20
322.159015
 11
177.135631
 21
322.159015
  0
ARC
  8
CSLAYER1
  6
CONTINUOUS
 62
     6
 10
187.885631
 20
322.659015
 40
0.500000
 50
-90.000019
 51
89.999999
  0
LINE
  8
CSLAYER1
  6
CONTINUOUS
 62
     6
 10
209.885631
 20
324.698669
 11
209.885631
 21
321.159093
  0
LINE
  8
CSLAYER1
  6
CONTINUOUS
 62
     6
 10
209.885631
 20
321.159123
 11
211.885631
 21
321.159123
  0
LINE
  8
CSLAYER1
  6
CONTINUOUS
 62
     6
 10
211.040831
 20
327.189911
 11
211.885638
 21
327.725609
  0
LINE
  8
CSLAYER1
  6
CONTINUOUS
 62
     6
 10
211.885638
 20
328.329059
 11
211.040831
 21
327.793361
  0
ARC
  8
CSLAYER1
  6
CONTINUOUS
 62
     6
 10
273.099315
 20
383.730732
 40
1.000000
 50
269.999991
 51
353.999979
  0
LINE
  8
CSLAYER1
  6
CONTINUOUS
 62
     6
 10
274.093883
 20
383.626179
 11
274.791514
 21
390.263691
  0
ARC
  8
CSLAYER1
  6
CONTINUOUS
 62
     6
 10
275.786021
 20
390.159138
 40
1.000000
 50
89.999999
 51
173.999988
  0
LINE
  8
CSLAYER1
  6
CONTINUOUS
 62
     6
 10
275.786021
 20
391.159138
 11
311.985179
 21
391.159138
  0
ARC
  8
CSLAYER1
  6
CONTINUOUS
 62
     6
 10
311.985179
 20
390.159138
 40
1.000000
 50
5.999983
 51
89.999999
  0
LINE
  8
CSLAYER1
  6
CONTINUOUS
 62
     6
 10
312.979747
 20
390.263691
 11
313.677379
 21
383.626179
  0
ARC
  8
CSLAYER1
  6
CONTINUOUS
 62
     6
 10
314.671886
 20
383.730732
 40
1.000000
 50
186.000016
 51
269.999991
  0
ARC
  8
CSLAYER1
  6
CONTINUOUS
 62
     6
 10
314.622264
 20
388.202961
 40
1.000000
 50
186.000016
 51
269.999991
  0
LINE
  8
CSLAYER1
  6
CONTINUOUS
 62
     6
 10
313.627696
 20
388.098408
 11
312.979747
 21
394.263691
  0
ARC
  8
CSLAYER1
  6
CONTINUOUS
 62
     6
 10
311.985179
 20
394.159138
 40
1.000000
 50
5.999983
 51
89.999999
  0
LINE
  8
CSLAYER1
  6
CONTINUOUS
 62
     6
 10
311.985179
 20
395.159138
 11
275.786021
 21
395.159138
  0
ARC
  8
CSLAYER1
  6
CONTINUOUS
 62
     6
 10
275.786021
 20
394.159138
 40
1.000000
 50
89.999999
 51
173.999988
  0
LINE
  8
CSLAYER1
  6
CONTINUOUS
 62
     6
 10
274.791514
 20
394.263691
 11
274.143504
 21
388.098408
  0
ARC
  8
CSLAYER1
  6
CONTINUOUS
 62
     6
 10
273.148997
 20
388.202961
 40
1.000000
 50
269.999991
 51
353.999979
  0
LINE
  8
CSLAYER1
  6
CONTINUOUS
 62
     6
 10
274.360057
 20
390.159138
 11
271.885631
 21
390.159138
  0
LINE
  8
CSLAYER1
  6
CONTINUOUS
 62
     6
 10
277.571605
 20
382.552327
 11
309.528697
 21
382.552327
  0
LINE
  8
CSLAYER1
  6
CONTINUOUS
 62
     6
 10
313.410594
 20
390.159138
 11
314.885631
 21
390.159138
  0
LINE
  8
CSLAYER1
  6
CONTINUOUS
 62
     6
 10
400.885509
 20
396.159123
 11
410.885570
 21
396.159123
  0
LINE
  8
CSLAYER1
  6
CONTINUOUS
 62
     6
 10
410.885600
 20
396.159123
 11
410.885600
 21
296.159123
  0
LINE
  8
CSLAYER1
  6
CONTINUOUS
 62
     6
 10
410.885570
 20
296.159123
 11
400.885509
 21
296.159123
  0
LINE
  8
CSLAYER1
  6
CONTINUOUS
 62
     6
 10
400.885600
 20
296.159123
 11
400.885600
 21
319.097874
  0
LINE
  8
CSLAYER1
  6
CONTINUOUS
 62
     6
 10
410.885600
 20
316.159123
 11
413.885600
 21
316.159123
  0
LINE
  8
CSLAYER1
  6
CONTINUOUS
 62
     6
 10
413.885600
 20
316.159123
 11
413.885600
 21
376.159123
  0
LINE
  8
CSLAYER1
  6
CONTINUOUS
 62
     6
 10
413.885600
 20
376.159123
 11
410.885600
 21
376.159123
  0
LINE
  8
CSLAYER1
  6
CONTINUOUS
 62
     6
 10
400.885600
 20
373.220341
 11
400.885600
 21
396.159123
  0
LINE
  8
CSLAYER1
  6
CONTINUOUS
 62
     6
 10
406.885600
 20
386.159123
 11
406.885600
 21
306.159123
  0
LINE
  8
CSLAYER1
  6
CONTINUOUS
 62
     6
 10
410.885600
 20
261.159123
 11
400.885539
 21
261.159123
  0
LINE
  8
CSLAYER1
  6
CONTINUOUS
 62
     6
 10
400.885631
 20
261.159123
 11
400.885631
 21
238.220372
  0
LINE
  8
CSLAYER1
  6
CONTINUOUS
 62
     6
 10
410.885631
 20
241.159123
 11
413.885631
 21
241.159123
  0
LINE
  8
CSLAYER1
  6
CONTINUOUS
 62
     6
 10
413.885631
 20
241.159123
 11
413.885631
 21
181.159123
  0
LINE
  8
CSLAYER1
  6
CONTINUOUS
 62
     6
 10
413.885631
 20
181.159123
 11
410.885631
 21
181.159123
  0
LINE
  8
CSLAYER1
  6
CONTINUOUS
 62
     6
 10
400.885631
 20
184.097905
 11
400.885631
 21
161.159123
  0
LINE
  8
CSLAYER1
  6
CONTINUOUS
 62
     6
 10
400.885539
 20
161.159123
 11
410.885600
 21
161.159123
  0
LINE
  8
CSLAYER1
  6
CONTINUOUS
 62
     6
 10
410.885631
 20
161.159123
 11
410.885631
 21
261.159123
  0
LINE
  8
CSLAYER1
  6
CONTINUOUS
 62
     6
 10
406.885631
 20
251.159123
 11
406.885631
 21
171.159123
  0
LINE
  8
CSLAYER1
  6
CONTINUOUS
 62
     6
 10
413.885631
 20
205.159123
 11
450.885631
 21
205.159123
  0
LINE
  8
CSLAYER1
  6
CONTINUOUS
 62
     6
 10
450.885631
 20
205.159123
 11
450.885631
 21
217.159123
  0
LINE
  8
CSLAYER1
  6
CONTINUOUS
 62
     6
 10
450.885631
 20
217.159123
 11
413.885631
 21
217.159123
  0
LINE
  8
CSLAYER1
  6
CONTINUOUS
 62
     6
 10
299.885631
 20
212.059117
 11
287.885631
 21
212.059117
  0
LINE
  8
CSLAYER1
  6
CONTINUOUS
 62
     6
 10
287.885631
 20
212.059117
 11
287.885631
 21
210.259129
  0
LINE
  8
CSLAYER1
  6
CONTINUOUS
 62
     6
 10
287.885631
 20
210.259129
 11
299.885631
 21
210.259129
  0
LINE
  8
CSLAYER1
  6
CONTINUOUS
 62
     6
 10
299.885631
 20
210.259129
 11
299.885631
 21
212.059117
  0
CIRCLE
  8
CSLAYER1
  6
CONTINUOUS
 62
     6
 10
293.885631
 20
211.159123
 40
12.000000
  0
CIRCLE
  8
CSLAYER1
  6
CONTINUOUS
 62
     6
 10
293.885631
 20
211.159123
 40
15.000000
  0
CIRCLE
  8
CSLAYER1
  6
CONTINUOUS
 62
     6
 10
293.885631
 20
211.159123
 40
16.000000
  0
ARC
  8
CSLAYER1
  6
CONTINUOUS
 62
     6
 10
275.885631
 20
187.159123
 40
1.000000
 50
89.999999
 51
179.999981
  0
LINE
  8
CSLAYER1
  6
CONTINUOUS
 62
     6
 10
274.885631
 20
187.159123
 11
274.885631
 21
186.159123
  0
ARC
  8
CSLAYER1
  6
CONTINUOUS
 62
     6
 10
275.885631
 20
186.159123
 40
1.000000
 50
179.999995
 51
269.999984
  0
LINE
  8
CSLAYER1
  6
CONTINUOUS
 62
     6
 10
275.885631
 20
185.159123
 11
311.885631
 21
185.159123
  0
ARC
  8
CSLAYER1
  6
CONTINUOUS
 62
     6
 10
311.885631
 20
186.159123
 40
1.000000
 50
269.999997
 51
360.000000
  0
LINE
  8
CSLAYER1
  6
CONTINUOUS
 62
     6
 10
312.885631
 20
186.159123
 11
312.885631
 21
187.159123
  0
ARC
  8
CSLAYER1
  6
CONTINUOUS
 62
     6
 10
311.885631
 20
187.159123
 40
1.000000
 50
0.057309
 51
89.999999
  0
LINE
  8
CSLAYER1
  6
CONTINUOUS
 62
     6
 10
311.885631
 20
188.159123
 11
275.885631
 21
188.159123
  0
LINE
  8
CSLAYER1
  6
CONTINUOUS
 62
     6
 10
275.885631
 20
171.159123
 11
301.885631
 21
171.159123
  0
LINE
  8
CSLAYER1
  6
CONTINUOUS
 62
     6
 10
301.885631
 20
171.159123
 11
301.885631
 21
167.159123
  0
LINE
  8
CSLAYER1
  6
CONTINUOUS
 62
     6
 10
301.885631
 20
167.159123
 11
314.885631
 21
167.159123
  0
LINE
  8
CSLAYER1
  6
CONTINUOUS
 62
     6
 10
301.885631
 20
169.159123
 11
275.885631
 21
169.159123
  0
LINE
  8
CSLAYER1
  6
CONTINUOUS
 62
     6
 10
276.135631
 20
169.159123
 11
276.135631
 21
168.659123
  0
ARC
  8
CSLAYER1
  6
CONTINUOUS
 62
     6
 10
278.135631
 20
168.659123
 40
2.000000
 50
180.000000
 51
270.000000
  0
LINE
  8
CSLAYER1
  6
CONTINUOUS
 62
     6
 10
278.135631
 20
166.659123
 11
287.224256
 21
166.659123
  0
ARC
  8
CSLAYER1
  6
CONTINUOUS
 62
     6
 10
288.885631
 20
173.459111
 40
7.000000
 50
253.743003
 51
286.257026
  0
ARC
  8
CSLAYER1
  6
CONTINUOUS
 62
     6
 10
290.565288
 20
167.699040
 40
1.000000
 50
286.257408
 51
354.999902
  0
LINE
  8
CSLAYER1
  6
CONTINUOUS
 62
     6
 10
291.561473
 20
167.611882
 11
291.616588
 21
168.241704
  0
ARC
  8
CSLAYER1
  6
CONTINUOUS
 62
     6
 10
291.417369
 20
168.259129
 40
0.200000
 50
-5.000126
 51
90.000019
  0
LINE
  8
CSLAYER1
  6
CONTINUOUS
 62
     6
 10
291.685618
 20
168.459141
 11
288.885631
 21
168.459111
  0
LINE
  8
CSLAYER1
  6
CONTINUOUS
 62
     6
 10
288.885631
 20
168.459111
 11
286.085643
 21
168.459111
  0
ARC
  8
CSLAYER1
  6
CONTINUOUS
 62
     6
 10
286.085643
 20
168.559117
 40
0.100000
 50
180.000005
 51
270.000001
  0
LINE
  8
CSLAYER1
  6
CONTINUOUS
 62
     6
 10
285.985606
 20
168.559117
 11
285.985606
 21
169.059117
  0
ARC
  8
CSLAYER1
  6
CONTINUOUS
 62
     6
 10
286.085643
 20
169.059117
 40
0.100000
 50
90.000003
 51
180.000005
  0
ARC
  8
CSLAYER1
  6
CONTINUOUS
 62
     6
 10
286.353892
 20
168.259129
 40
0.200000
 50
90.000003
 51
185.000154
  0
LINE
  8
CSLAYER1
  6
CONTINUOUS
 62
     6
 10
286.154643
 20
168.241704
 11
286.209727
 21
167.611882
  0
ARC
  8
CSLAYER1
  6
CONTINUOUS
 62
     6
 10
287.205943
 20
167.699040
 40
1.000000
 50
185.000113
 51
253.742620
  0
LINE
  8
CSLAYER1
  6
CONTINUOUS
 62
     6
 10
285.314253
 20
166.659123
 11
285.149136
 21
165.641079
  0
LINE
  8
CSLAYER1
  6
CONTINUOUS
 62
     6
 10
285.149136
 20
165.641079
 11
285.091000
 21
165.318652
  0
LINE
  8
CSLAYER1
  6
CONTINUOUS
 62
     6
 10
285.091000
 20
165.318652
 11
285.026148
 21
164.986843
  0
LINE
  8
CSLAYER1
  6
CONTINUOUS
 62
     6
 10
285.026148
 20
164.986843
 11
284.955772
 21
164.649046
  0
LINE
  8
CSLAYER1
  6
CONTINUOUS
 62
     6
 10
284.955772
 20
164.649046
 11
284.881069
 21
164.308659
  0
LINE
  8
CSLAYER1
  6
CONTINUOUS
 62
     6
 10
284.881069
 20
164.308659
 11
284.803233
 21
163.969075
  0
LINE
  8
CSLAYER1
  6
CONTINUOUS
 62
     6
 10
284.803233
 20
163.969075
 11
284.723459
 21
163.633689
  0
LINE
  8
CSLAYER1
  6
CONTINUOUS
 62
     6
 10
284.723459
 20
163.633689
 11
284.642942
 21
163.305898
  0
LINE
  8
CSLAYER1
  6
CONTINUOUS
 62
     6
 10
284.642942
 20
163.305898
 11
284.562878
 21
162.989097
  0
LINE
  8
CSLAYER1
  6
CONTINUOUS
 62
     6
 10
284.562878
 20
162.989097
 11
284.484461
 21
162.686680
  0
LINE
  8
CSLAYER1
  6
CONTINUOUS
 62
     6
 10
284.484461
 20
162.686680
 11
284.401088
 21
162.386930
  0
LINE
  8
CSLAYER1
  6
CONTINUOUS
 62
     6
 10
284.401088
 20
162.386930
 11
284.307175
 21
162.081406
  0
LINE
  8
CSLAYER1
  6
CONTINUOUS
 62
     6
 10
284.307175
 20
162.081406
 11
284.203590
 21
161.771367
  0
LINE
  8
CSLAYER1
  6
CONTINUOUS
 62
     6
 10
284.203590
 20
161.771367
 11
284.091202
 21
161.458071
  0
LINE
  8
CSLAYER1
  6
CONTINUOUS
 62
     6
 10
284.091202
 20
161.458071
 11
283.970880
 21
161.142780
  0
LINE
  8
CSLAYER1
  6
CONTINUOUS
 62
     6
 10
283.970880
 20
161.142780
 11
283.843493
 21
160.826752
  0
LINE
  8
CSLAYER1
  6
CONTINUOUS
 62
     6
 10
283.843493
 20
160.826752
 11
283.709910
 21
160.511246
  0
LINE
  8
CSLAYER1
  6
CONTINUOUS
 62
     6
 10
283.709910
 20
160.511246
 11
283.571001
 21
160.197522
  0
LINE
  8
CSLAYER1
  6
CONTINUOUS
 62
     6
 10
283.571001
 20
160.197522
 11
283.427635
 21
159.886840
  0
LINE
  8
CSLAYER1
  6
CONTINUOUS
 62
     6
 10
283.427635
 20
159.886840
 11
283.280680
 21
159.580458
  0
LINE
  8
CSLAYER1
  6
CONTINUOUS
 62
     6
 10
283.280680
 20
159.580458
 11
283.131006
 21
159.279637
  0
LINE
  8
CSLAYER1
  6
CONTINUOUS
 62
     6
 10
283.131006
 20
159.279637
 11
283.003661
 21
159.032017
  0
LINE
  8
CSLAYER1
  6
CONTINUOUS
 62
     6
 10
283.003661
 20
159.032017
 11
282.873509
 21
158.785983
  0
LINE
  8
CSLAYER1
  6
CONTINUOUS
 62
     6
 10
282.873509
 20
158.785983
 11
282.740830
 21
158.541377
  0
LINE
  8
CSLAYER1
  6
CONTINUOUS
 62
     6
 10
282.740830
 20
158.541377
 11
282.605905
 21
158.298040
  0
LINE
  8
CSLAYER1
  6
CONTINUOUS
 62
     6
 10
282.605905
 20
158.298040
 11
282.469015
 21
158.055813
  0
LINE
  8
CSLAYER1
  6
CONTINUOUS
 62
     6
 10
282.469015
 20
158.055813
 11
282.330441
 21
157.814538
  0
LINE
  8
CSLAYER1
  6
CONTINUOUS
 62
     6
 10
282.330441
 20
157.814538
 11
282.190462
 21
157.574056
  0
LINE
  8
CSLAYER1
  6
CONTINUOUS
 62
     6
 10
282.190462
 20
157.574056
 11
282.049361
 21
157.334209
  0
LINE
  8
CSLAYER1
  6
CONTINUOUS
 62
     6
 10
282.049361
 20
157.334209
 11
281.907417
 21
157.094837
  0
LINE
  8
CSLAYER1
  6
CONTINUOUS
 62
     6
 10
281.907417
 20
157.094837
 11
281.764912
 21
156.855783
  0
LINE
  8
CSLAYER1
  6
CONTINUOUS
 62
     6
 10
281.764912
 20
156.855783
 11
281.622126
 21
156.616887
  0
ARC
  8
CSLAYER1
  6
CONTINUOUS
 62
     6
 10
281.612460
 20
157.816855
 40
1.200008
 50
210.461486
 51
270.461486
  0
ARC
  8
CSLAYER1
  6
CONTINUOUS
 62
     6
 10
280.568423
 20
158.408469
 40
1.200008
 50
210.461486
 51
270.461486
  0
LINE
  8
CSLAYER1
  6
CONTINUOUS
 62
     6
 10
279.534021
 20
157.800114
 11
279.669302
 21
158.026036
  0
LINE
  8
CSLAYER1
  6
CONTINUOUS
 62
     6
 10
279.669302
 20
158.026036
 11
279.804309
 21
158.252112
  0
LINE
  8
CSLAYER1
  6
CONTINUOUS
 62
     6
 10
279.804309
 20
158.252112
 11
279.938765
 21
158.478498
  0
LINE
  8
CSLAYER1
  6
CONTINUOUS
 62
     6
 10
279.938765
 20
158.478498
 11
280.072395
 21
158.705348
  0
LINE
  8
CSLAYER1
  6
CONTINUOUS
 62
     6
 10
280.072395
 20
158.705348
 11
280.204925
 21
158.932816
  0
LINE
  8
CSLAYER1
  6
CONTINUOUS
 62
     6
 10
280.204925
 20
158.932816
 11
280.336079
 21
159.161058
  0
LINE
  8
CSLAYER1
  6
CONTINUOUS
 62
     6
 10
280.336079
 20
159.161058
 11
280.465581
 21
159.390228
  0
LINE
  8
CSLAYER1
  6
CONTINUOUS
 62
     6
 10
280.465581
 20
159.390228
 11
280.593157
 21
159.620480
  0
LINE
  8
CSLAYER1
  6
CONTINUOUS
 62
     6
 10
280.593157
 20
159.620480
 11
280.718531
 21
159.851970
  0
LINE
  8
CSLAYER1
  6
CONTINUOUS
 62
     6
 10
280.718531
 20
159.851970
 11
280.841428
 21
160.084851
  0
LINE
  8
CSLAYER1
  6
CONTINUOUS
 62
     6
 10
280.841428
 20
160.084851
 11
280.961573
 21
160.319279
  0
LINE
  8
CSLAYER1
  6
CONTINUOUS
 62
     6
 10
280.961573
 20
160.319279
 11
281.095814
 21
160.590085
  0
LINE
  8
CSLAYER1
  6
CONTINUOUS
 62
     6
 10
281.095814
 20
160.590085
 11
281.227677
 21
160.865850
  0
LINE
  8
CSLAYER1
  6
CONTINUOUS
 62
     6
 10
281.227677
 20
160.865850
 11
281.356384
 21
161.145443
  0
LINE
  8
CSLAYER1
  6
CONTINUOUS
 62
     6
 10
281.356384
 20
161.145443
 11
281.481158
 21
161.427733
  0
LINE
  8
CSLAYER1
  6
CONTINUOUS
 62
     6
 10
281.481158
 20
161.427733
 11
281.601221
 21
161.711589
  0
LINE
  8
CSLAYER1
  6
CONTINUOUS
 62
     6
 10
281.601221
 20
161.711589
 11
281.715796
 21
161.995879
  0
LINE
  8
CSLAYER1
  6
CONTINUOUS
 62
     6
 10
281.715796
 20
161.995879
 11
281.824105
 21
162.279472
  0
LINE
  8
CSLAYER1
  6
CONTINUOUS
 62
     6
 10
281.824105
 20
162.279472
 11
281.925371
 21
162.561237
  0
LINE
  8
CSLAYER1
  6
CONTINUOUS
 62
     6
 10
281.925371
 20
162.561237
 11
282.018816
 21
162.840043
  0
LINE
  8
CSLAYER1
  6
CONTINUOUS
 62
     6
 10
282.018816
 20
162.840043
 11
282.103662
 21
163.114758
  0
LINE
  8
CSLAYER1
  6
CONTINUOUS
 62
     6
 10
282.103662
 20
163.114758
 11
282.179132
 21
163.384251
  0
LINE
  8
CSLAYER1
  6
CONTINUOUS
 62
     6
 10
282.179132
 20
163.384251
 11
282.253672
 21
163.669690
  0
LINE
  8
CSLAYER1
  6
CONTINUOUS
 62
     6
 10
282.253672
 20
163.669690
 11
282.329680
 21
163.968869
  0
LINE
  8
CSLAYER1
  6
CONTINUOUS
 62
     6
 10
282.329680
 20
163.968869
 11
282.406023
 21
164.278534
  0
LINE
  8
CSLAYER1
  6
CONTINUOUS
 62
     6
 10
282.406023
 20
164.278534
 11
282.481569
 21
164.595434
  0
LINE
  8
CSLAYER1
  6
CONTINUOUS
 62
     6
 10
282.481569
 20
164.595434
 11
282.555185
 21
164.916316
  0
LINE
  8
CSLAYER1
  6
CONTINUOUS
 62
     6
 10
282.555185
 20
164.916316
 11
282.625738
 21
165.237927
  0
LINE
  8
CSLAYER1
  6
CONTINUOUS
 62
     6
 10
282.625738
 20
165.237927
 11
282.692095
 21
165.557015
  0
LINE
  8
CSLAYER1
  6
CONTINUOUS
 62
     6
 10
282.692095
 20
165.557015
 11
282.753123
 21
165.870326
  0
LINE
  8
CSLAYER1
  6
CONTINUOUS
 62
     6
 10
282.753123
 20
165.870326
 11
282.807690
 21
166.174609
  0
LINE
  8
CSLAYER1
  6
CONTINUOUS
 62
     6
 10
282.807690
 20
166.174609
 11
282.885631
 21
166.659123
  0
LINE
  8
CSLAYER1
  6
CONTINUOUS
 62
     6
 10
282.757230
 20
165.893229
 11
282.708984
 21
165.805395
  0
LINE
  8
CSLAYER1
  6
CONTINUOUS
 62
     6
 10
282.708984
 20
165.805395
 11
282.599096
 21
165.613586
  0
LINE
  8
CSLAYER1
  6
CONTINUOUS
 62
     6
 10
282.599096
 20
165.613586
 11
282.480843
 21
165.414099
  0
LINE
  8
CSLAYER1
  6
CONTINUOUS
 62
     6
 10
282.480843
 20
165.414099
 11
282.355804
 21
165.209119
  0
LINE
  8
CSLAYER1
  6
CONTINUOUS
 62
     6
 10
282.355804
 20
165.209119
 11
282.225563
 21
165.000834
  0
LINE
  8
CSLAYER1
  6
CONTINUOUS
 62
     6
 10
282.225563
 20
165.000834
 11
282.091700
 21
164.791428
  0
LINE
  8
CSLAYER1
  6
CONTINUOUS
 62
     6
 10
282.091700
 20
164.791428
 11
281.955798
 21
164.583088
  0
LINE
  8
CSLAYER1
  6
CONTINUOUS
 62
     6
 10
281.955798
 20
164.583088
 11
281.819438
 21
164.378001
  0
LINE
  8
CSLAYER1
  6
CONTINUOUS
 62
     6
 10
281.819438
 20
164.378001
 11
281.684201
 21
164.178351
  0
LINE
  8
CSLAYER1
  6
CONTINUOUS
 62
     6
 10
281.684201
 20
164.178351
 11
281.551670
 21
163.986326
  0
LINE
  8
CSLAYER1
  6
CONTINUOUS
 62
     6
 10
281.551670
 20
163.986326
 11
281.423426
 21
163.804112
  0
LINE
  8
CSLAYER1
  6
CONTINUOUS
 62
     6
 10
281.423426
 20
163.804112
 11
281.318345
 21
163.659933
  0
LINE
  8
CSLAYER1
  6
CONTINUOUS
 62
     6
 10
281.318345
 20
163.659933
 11
281.206455
 21
163.512883
  0
LINE
  8
CSLAYER1
  6
CONTINUOUS
 62
     6
 10
281.206455
 20
163.512883
 11
281.088886
 21
163.363861
  0
LINE
  8
CSLAYER1
  6
CONTINUOUS
 62
     6
 10
281.088886
 20
163.363861
 11
280.966773
 21
163.213767
  0
LINE
  8
CSLAYER1
  6
CONTINUOUS
 62
     6
 10
280.966773
 20
163.213767
 11
280.841247
 21
163.063499
  0
LINE
  8
CSLAYER1
  6
CONTINUOUS
 62
     6
 10
280.841247
 20
163.063499
 11
280.713441
 21
162.913956
  0
LINE
  8
CSLAYER1
  6
CONTINUOUS
 62
     6
 10
280.713441
 20
162.913956
 11
280.584489
 21
162.766038
  0
LINE
  8
CSLAYER1
  6
CONTINUOUS
 62
     6
 10
280.584489
 20
162.766038
 11
280.455521
 21
162.620643
  0
LINE
  8
CSLAYER1
  6
CONTINUOUS
 62
     6
 10
280.455521
 20
162.620643
 11
280.327672
 21
162.478671
  0
LINE
  8
CSLAYER1
  6
CONTINUOUS
 62
     6
 10
280.327672
 20
162.478671
 11
280.202074
 21
162.341021
  0
LINE
  8
CSLAYER1
  6
CONTINUOUS
 62
     6
 10
280.202074
 20
162.341021
 11
280.079859
 21
162.208592
  0
LINE
  8
CSLAYER1
  6
CONTINUOUS
 62
     6
 10
280.079859
 20
162.208592
 11
279.934882
 21
162.056432
  0
LINE
  8
CSLAYER1
  6
CONTINUOUS
 62
     6
 10
279.934882
 20
162.056432
 11
279.781707
 21
161.902481
  0
LINE
  8
CSLAYER1
  6
CONTINUOUS
 62
     6
 10
279.781707
 20
161.902481
 11
279.622299
 21
161.747048
  0
LINE
  8
CSLAYER1
  6
CONTINUOUS
 62
     6
 10
279.622299
 20
161.747048
 11
279.458622
 21
161.590440
  0
LINE
  8
CSLAYER1
  6
CONTINUOUS
 62
     6
 10
279.458622
 20
161.590440
 11
279.292642
 21
161.432966
  0
LINE
  8
CSLAYER1
  6
CONTINUOUS
 62
     6
 10
279.292642
 20
161.432966
 11
279.126324
 21
161.274935
  0
LINE
  8
CSLAYER1
  6
CONTINUOUS
 62
     6
 10
279.126324
 20
161.274935
 11
278.961634
 21
161.116655
  0
LINE
  8
CSLAYER1
  6
CONTINUOUS
 62
     6
 10
278.961634
 20
161.116655
 11
278.800536
 21
160.958435
  0
LINE
  8
CSLAYER1
  6
CONTINUOUS
 62
     6
 10
278.800536
 20
160.958435
 11
278.644997
 21
160.800583
  0
LINE
  8
CSLAYER1
  6
CONTINUOUS
 62
     6
 10
278.644997
 20
160.800583
 11
278.496981
 21
160.643407
  0
LINE
  8
CSLAYER1
  6
CONTINUOUS
 62
     6
 10
278.496981
 20
160.643407
 11
278.358454
 21
160.487217
  0
LINE
  8
CSLAYER1
  6
CONTINUOUS
 62
     6
 10
278.358454
 20
160.487217
 11
278.232539
 21
160.340635
  0
LINE
  8
CSLAYER1
  6
CONTINUOUS
 62
     6
 10
278.232539
 20
160.340635
 11
278.101729
 21
160.190457
  0
LINE
  8
CSLAYER1
  6
CONTINUOUS
 62
     6
 10
278.101729
 20
160.190457
 11
277.966127
 21
160.038237
  0
LINE
  8
CSLAYER1
  6
CONTINUOUS
 62
     6
 10
277.966127
 20
160.038237
 11
277.825833
 21
159.885532
  0
LINE
  8
CSLAYER1
  6
CONTINUOUS
 62
     6
 10
277.825833
 20
159.885532
 11
277.680950
 21
159.733899
  0
LINE
  8
CSLAYER1
  6
CONTINUOUS
 62
     6
 10
277.680950
 20
159.733899
 11
277.531580
 21
159.584892
  0
LINE
  8
CSLAYER1
  6
CONTINUOUS
 62
     6
 10
277.531580
 20
159.584892
 11
277.377823
 21
159.440068
  0
LINE
  8
CSLAYER1
  6
CONTINUOUS
 62
     6
 10
277.377823
 20
159.440068
 11
277.219782
 21
159.300983
  0
LINE
  8
CSLAYER1
  6
CONTINUOUS
 62
     6
 10
277.219782
 20
159.300983
 11
277.057559
 21
159.169193
  0
LINE
  8
CSLAYER1
  6
CONTINUOUS
 62
     6
 10
277.057559
 20
159.169193
 11
276.891255
 21
159.046253
  0
LINE
  8
CSLAYER1
  6
CONTINUOUS
 62
     6
 10
276.891255
 20
159.046253
 11
276.720972
 21
158.933720
  0
LINE
  8
CSLAYER1
  6
CONTINUOUS
 62
     6
 10
276.720972
 20
158.933720
 11
276.628238
 21
158.878294
  0
LINE
  8
CSLAYER1
  6
CONTINUOUS
 62
     6
 10
276.628238
 20
158.878294
 11
276.533645
 21
158.825617
  0
LINE
  8
CSLAYER1
  6
CONTINUOUS
 62
     6
 10
276.533645
 20
158.825617
 11
276.437381
 21
158.775416
  0
LINE
  8
CSLAYER1
  6
CONTINUOUS
 62
     6
 10
276.437381
 20
158.775416
 11
276.339630
 21
158.727415
  0
LINE
  8
CSLAYER1
  6
CONTINUOUS
 62
     6
 10
276.339630
 20
158.727415
 11
276.240578
 21
158.681338
  0
LINE
  8
CSLAYER1
  6
CONTINUOUS
 62
     6
 10
276.240578
 20
158.681338
 11
276.140411
 21
158.636912
  0
LINE
  8
CSLAYER1
  6
CONTINUOUS
 62
     6
 10
276.140411
 20
158.636912
 11
276.039315
 21
158.593861
  0
LINE
  8
CSLAYER1
  6
CONTINUOUS
 62
     6
 10
276.039315
 20
158.593861
 11
275.937476
 21
158.551909
  0
LINE
  8
CSLAYER1
  6
CONTINUOUS
 62
     6
 10
275.937476
 20
158.551909
 11
275.835080
 21
158.510783
  0
LINE
  8
CSLAYER1
  6
CONTINUOUS
 62
     6
 10
275.835080
 20
158.510783
 11
275.732312
 21
158.470206
  0
LINE
  8
CSLAYER1
  6
CONTINUOUS
 62
     6
 10
275.732312
 20
158.470206
 11
275.629358
 21
158.429905
  0
ARC
  8
CSLAYER1
  6
CONTINUOUS
 62
     6
 10
275.752089
 20
159.518877
 40
1.095863
 50
203.568976
 51
263.568976
  0
ARC
  8
CSLAYER1
  6
CONTINUOUS
 62
     6
 10
274.870388
 20
160.169660
 40
1.095863
 50
203.568976
 51
263.568976
  0
LINE
  8
CSLAYER1
  6
CONTINUOUS
 62
     6
 10
273.865961
 20
159.731480
 11
274.119072
 21
159.911447
  0
LINE
  8
CSLAYER1
  6
CONTINUOUS
 62
     6
 10
274.119072
 20
159.911447
 11
274.371933
 21
160.091767
  0
LINE
  8
CSLAYER1
  6
CONTINUOUS
 62
     6
 10
274.371933
 20
160.091767
 11
274.624293
 21
160.272793
  0
LINE
  8
CSLAYER1
  6
CONTINUOUS
 62
     6
 10
274.624293
 20
160.272793
 11
274.875901
 21
160.454877
  0
LINE
  8
CSLAYER1
  6
CONTINUOUS
 62
     6
 10
274.875901
 20
160.454877
 11
275.126507
 21
160.638372
  0
LINE
  8
CSLAYER1
  6
CONTINUOUS
 62
     6
 10
275.126507
 20
160.638372
 11
275.375860
 21
160.823631
  0
LINE
  8
CSLAYER1
  6
CONTINUOUS
 62
     6
 10
275.375860
 20
160.823631
 11
275.623708
 21
161.011006
  0
LINE
  8
CSLAYER1
  6
CONTINUOUS
 62
     6
 10
275.623708
 20
161.011006
 11
275.869803
 21
161.200851
  0
LINE
  8
CSLAYER1
  6
CONTINUOUS
 62
     6
 10
275.869803
 20
161.200851
 11
276.113893
 21
161.393519
  0
LINE
  8
CSLAYER1
  6
CONTINUOUS
 62
     6
 10
276.113893
 20
161.393519
 11
276.355727
 21
161.589361
  0
LINE
  8
CSLAYER1
  6
CONTINUOUS
 62
     6
 10
276.355727
 20
161.589361
 11
276.595056
 21
161.788731
  0
LINE
  8
CSLAYER1
  6
CONTINUOUS
 62
     6
 10
276.595056
 20
161.788731
 11
276.752321
 21
161.923028
  0
LINE
  8
CSLAYER1
  6
CONTINUOUS
 62
     6
 10
276.752321
 20
161.923028
 11
276.909370
 21
162.060052
  0
LINE
  8
CSLAYER1
  6
CONTINUOUS
 62
     6
 10
276.909370
 20
162.060052
 11
277.065461
 21
162.199612
  0
LINE
  8
CSLAYER1
  6
CONTINUOUS
 62
     6
 10
277.065461
 20
162.199612
 11
277.219850
 21
162.341514
  0
LINE
  8
CSLAYER1
  6
CONTINUOUS
 62
     6
 10
277.219850
 20
162.341514
 11
277.371795
 21
162.485567
  0
LINE
  8
CSLAYER1
  6
CONTINUOUS
 62
     6
 10
277.371795
 20
162.485567
 11
277.520552
 21
162.631577
  0
LINE
  8
CSLAYER1
  6
CONTINUOUS
 62
     6
 10
277.520552
 20
162.631577
 11
277.665378
 21
162.779352
  0
LINE
  8
CSLAYER1
  6
CONTINUOUS
 62
     6
 10
277.665378
 20
162.779352
 11
277.805530
 21
162.928699
  0
LINE
  8
CSLAYER1
  6
CONTINUOUS
 62
     6
 10
277.805530
 20
162.928699
 11
277.940266
 21
163.079427
  0
LINE
  8
CSLAYER1
  6
CONTINUOUS
 62
     6
 10
277.940266
 20
163.079427
 11
278.068842
 21
163.231342
  0
LINE
  8
CSLAYER1
  6
CONTINUOUS
 62
     6
 10
278.068842
 20
163.231342
 11
278.190515
 21
163.384251
  0
LINE
  8
CSLAYER1
  6
CONTINUOUS
 62
     6
 10
278.190515
 20
163.384251
 11
278.304970
 21
163.535577
  0
LINE
  8
CSLAYER1
  6
CONTINUOUS
 62
     6
 10
278.304970
 20
163.535577
 11
278.420270
 21
163.692831
  0
LINE
  8
CSLAYER1
  6
CONTINUOUS
 62
     6
 10
278.420270
 20
163.692831
 11
278.535883
 21
163.854889
  0
LINE
  8
CSLAYER1
  6
CONTINUOUS
 62
     6
 10
278.535883
 20
163.854889
 11
278.651276
 21
164.020629
  0
LINE
  8
CSLAYER1
  6
CONTINUOUS
 62
     6
 10
278.651276
 20
164.020629
 11
278.765916
 21
164.188928
  0
LINE
  8
CSLAYER1
  6
CONTINUOUS
 62
     6
 10
278.765916
 20
164.188928
 11
278.879270
 21
164.358664
  0
LINE
  8
CSLAYER1
  6
CONTINUOUS
 62
     6
 10
278.879270
 20
164.358664
 11
278.990806
 21
164.528715
  0
LINE
  8
CSLAYER1
  6
CONTINUOUS
 62
     6
 10
278.990806
 20
164.528715
 11
279.099990
 21
164.697957
  0
LINE
  8
CSLAYER1
  6
CONTINUOUS
 62
     6
 10
279.099990
 20
164.697957
 11
279.206290
 21
164.865269
  0
LINE
  8
CSLAYER1
  6
CONTINUOUS
 62
     6
 10
279.206290
 20
164.865269
 11
279.309173
 21
165.029528
  0
LINE
  8
CSLAYER1
  6
CONTINUOUS
 62
     6
 10
279.309173
 20
165.029528
 11
279.408106
 21
165.189610
  0
LINE
  8
CSLAYER1
  6
CONTINUOUS
 62
     6
 10
279.408106
 20
165.189610
 11
279.494579
 21
165.327836
  0
LINE
  8
CSLAYER1
  6
CONTINUOUS
 62
     6
 10
279.494579
 20
165.327836
 11
279.586531
 21
165.470294
  0
LINE
  8
CSLAYER1
  6
CONTINUOUS
 62
     6
 10
279.586531
 20
165.470294
 11
279.682731
 21
165.615774
  0
LINE
  8
CSLAYER1
  6
CONTINUOUS
 62
     6
 10
279.682731
 20
165.615774
 11
279.781950
 21
165.763064
  0
LINE
  8
CSLAYER1
  6
CONTINUOUS
 62
     6
 10
279.781950
 20
165.763064
 11
279.882958
 21
165.910954
  0
LINE
  8
CSLAYER1
  6
CONTINUOUS
 62
     6
 10
279.882958
 20
165.910954
 11
279.984526
 21
166.058233
  0
LINE
  8
CSLAYER1
  6
CONTINUOUS
 62
     6
 10
279.984526
 20
166.058233
 11
280.085424
 21
166.203689
  0
LINE
  8
CSLAYER1
  6
CONTINUOUS
 62
     6
 10
280.085424
 20
166.203689
 11
280.184423
 21
166.346113
  0
LINE
  8
CSLAYER1
  6
CONTINUOUS
 62
     6
 10
280.184423
 20
166.346113
 11
280.280293
 21
166.484293
  0
LINE
  8
CSLAYER1
  6
CONTINUOUS
 62
     6
 10
280.280293
 20
166.484293
 11
280.400835
 21
166.659123
  0
LINE
  8
CSLAYER1
  6
CONTINUOUS
 62
     6
 10
275.885631
 20
167.159123
 11
275.885631
 21
171.159123
  0
LINE
  8
CSLAYER1
  6
CONTINUOUS
 62
     6
 10
275.885631
 20
167.159123
 11
271.885631
 21
167.159123
  0
ARC
  8
CSLAYER1
  6
CONTINUOUS
 62
     6
 10
273.323293
 20
159.321545
 40
1.080690
 50
210.945197
 51
270.945197
  0
ARC
  8
CSLAYER1
  6
CONTINUOUS
 62
     6
 10
272.414256
 20
157.685292
 40
1.080690
 50
30.945197
 51
90.945197
  0
LINE
  8
CSLAYER1
  6
CONTINUOUS
 62
     6
 10
272.396448
 20
158.765812
 11
272.251745
 21
158.626466
  0
LINE
  8
CSLAYER1
  6
CONTINUOUS
 62
     6
 10
272.251745
 20
158.626466
 11
272.097830
 21
158.476716
  0
LINE
  8
CSLAYER1
  6
CONTINUOUS
 62
     6
 10
272.097830
 20
158.476716
 11
271.936480
 21
158.318888
  0
LINE
  8
CSLAYER1
  6
CONTINUOUS
 62
     6
 10
271.936480
 20
158.318888
 11
271.769469
 21
158.155306
  0
LINE
  8
CSLAYER1
  6
CONTINUOUS
 62
     6
 10
271.769469
 20
158.155306
 11
271.598575
 21
157.988295
  0
LINE
  8
CSLAYER1
  6
CONTINUOUS
 62
     6
 10
271.598575
 20
157.988295
 11
271.425572
 21
157.820179
  0
LINE
  8
CSLAYER1
  6
CONTINUOUS
 62
     6
 10
271.425572
 20
157.820179
 11
271.252236
 21
157.653284
  0
LINE
  8
CSLAYER1
  6
CONTINUOUS
 62
     6
 10
271.252236
 20
157.653284
 11
271.080344
 21
157.489935
  0
LINE
  8
CSLAYER1
  6
CONTINUOUS
 62
     6
 10
271.080344
 20
157.489935
 11
270.911672
 21
157.332456
  0
LINE
  8
CSLAYER1
  6
CONTINUOUS
 62
     6
 10
270.911672
 20
157.332456
 11
270.747995
 21
157.183171
  0
LINE
  8
CSLAYER1
  6
CONTINUOUS
 62
     6
 10
270.747995
 20
157.183171
 11
270.591089
 21
157.044407
  0
LINE
  8
CSLAYER1
  6
CONTINUOUS
 62
     6
 10
270.591089
 20
157.044407
 11
270.449858
 21
156.921610
  0
LINE
  8
CSLAYER1
  6
CONTINUOUS
 62
     6
 10
270.449858
 20
156.921610
 11
270.303675
 21
156.793724
  0
LINE
  8
CSLAYER1
  6
CONTINUOUS
 62
     6
 10
270.303675
 20
156.793724
 11
270.153681
 21
156.661217
  0
LINE
  8
CSLAYER1
  6
CONTINUOUS
 62
     6
 10
270.153681
 20
156.661217
 11
270.001020
 21
156.524558
  0
LINE
  8
CSLAYER1
  6
CONTINUOUS
 62
     6
 10
270.001020
 20
156.524558
 11
269.846833
 21
156.384213
  0
LINE
  8
CSLAYER1
  6
CONTINUOUS
 62
     6
 10
269.846833
 20
156.384213
 11
269.692263
 21
156.240650
  0
LINE
  8
CSLAYER1
  6
CONTINUOUS
 62
     6
 10
269.692263
 20
156.240650
 11
269.538451
 21
156.094338
  0
LINE
  8
CSLAYER1
  6
CONTINUOUS
 62
     6
 10
269.538451
 20
156.094338
 11
269.386541
 21
155.945743
  0
LINE
  8
CSLAYER1
  6
CONTINUOUS
 62
     6
 10
269.386541
 20
155.945743
 11
269.237673
 21
155.795333
  0
LINE
  8
CSLAYER1
  6
CONTINUOUS
 62
     6
 10
269.237673
 20
155.795333
 11
269.092992
 21
155.643577
  0
LINE
  8
CSLAYER1
  6
CONTINUOUS
 62
     6
 10
269.092992
 20
155.643577
 11
268.953638
 21
155.490941
  0
LINE
  8
CSLAYER1
  6
CONTINUOUS
 62
     6
 10
268.953638
 20
155.490941
 11
268.898113
 21
155.427997
  0
LINE
  8
CSLAYER1
  6
CONTINUOUS
 62
     6
 10
268.898113
 20
155.427997
 11
268.843186
 21
155.364497
  0
LINE
  8
CSLAYER1
  6
CONTINUOUS
 62
     6
 10
268.843186
 20
155.364497
 11
268.788795
 21
155.300495
  0
LINE
  8
CSLAYER1
  6
CONTINUOUS
 62
     6
 10
268.788795
 20
155.300495
 11
268.734881
 21
155.236049
  0
LINE
  8
CSLAYER1
  6
CONTINUOUS
 62
     6
 10
268.734881
 20
155.236049
 11
268.681385
 21
155.171213
  0
LINE
  8
CSLAYER1
  6
CONTINUOUS
 62
     6
 10
268.681385
 20
155.171213
 11
268.628247
 21
155.106043
  0
LINE
  8
CSLAYER1
  6
CONTINUOUS
 62
     6
 10
268.628247
 20
155.106043
 11
268.575408
 21
155.040595
  0
LINE
  8
CSLAYER1
  6
CONTINUOUS
 62
     6
 10
268.575408
 20
155.040595
 11
268.522807
 21
154.974925
  0
LINE
  8
CSLAYER1
  6
CONTINUOUS
 62
     6
 10
268.522807
 20
154.974925
 11
268.470385
 21
154.909087
  0
LINE
  8
CSLAYER1
  6
CONTINUOUS
 62
     6
 10
268.470385
 20
154.909087
 11
268.418082
 21
154.843139
  0
LINE
  8
CSLAYER1
  6
CONTINUOUS
 62
     6
 10
268.418082
 20
154.843139
 11
268.289527
 21
154.680721
  0
LINE
  8
CSLAYER1
  6
CONTINUOUS
 62
     6
 10
268.289527
 20
154.680721
 11
268.318264
 21
154.633866
  0
LINE
  8
CSLAYER1
  6
CONTINUOUS
 62
     6
 10
268.318264
 20
154.633866
 11
268.358856
 21
154.573985
  0
LINE
  8
CSLAYER1
  6
CONTINUOUS
 62
     6
 10
268.358856
 20
154.573985
 11
268.403138
 21
154.514117
  0
LINE
  8
CSLAYER1
  6
CONTINUOUS
 62
     6
 10
268.403138
 20
154.514117
 11
268.450590
 21
154.454844
  0
LINE
  8
CSLAYER1
  6
CONTINUOUS
 62
     6
 10
268.450590
 20
154.454844
 11
268.500689
 21
154.396746
  0
LINE
  8
CSLAYER1
  6
CONTINUOUS
 62
     6
 10
268.500689
 20
154.396746
 11
268.552913
 21
154.340406
  0
LINE
  8
CSLAYER1
  6
CONTINUOUS
 62
     6
 10
268.552913
 20
154.340406
 11
268.606741
 21
154.286402
  0
LINE
  8
CSLAYER1
  6
CONTINUOUS
 62
     6
 10
268.606741
 20
154.286402
 11
268.661652
 21
154.235317
  0
LINE
  8
CSLAYER1
  6
CONTINUOUS
 62
     6
 10
268.661652
 20
154.235317
 11
268.717123
 21
154.187731
  0
LINE
  8
CSLAYER1
  6
CONTINUOUS
 62
     6
 10
268.717123
 20
154.187731
 11
268.772633
 21
154.144226
  0
LINE
  8
CSLAYER1
  6
CONTINUOUS
 62
     6
 10
268.772633
 20
154.144226
 11
268.827661
 21
154.105381
  0
LINE
  8
CSLAYER1
  6
CONTINUOUS
 62
     6
 10
268.827661
 20
154.105381
 11
268.884147
 21
154.071087
  0
LINE
  8
CSLAYER1
  6
CONTINUOUS
 62
     6
 10
268.884147
 20
154.071087
 11
268.944749
 21
154.040120
  0
LINE
  8
CSLAYER1
  6
CONTINUOUS
 62
     6
 10
268.944749
 20
154.040120
 11
269.008909
 21
154.012131
  0
LINE
  8
CSLAYER1
  6
CONTINUOUS
 62
     6
 10
269.008909
 20
154.012131
 11
269.076071
 21
153.986770
  0
LINE
  8
CSLAYER1
  6
CONTINUOUS
 62
     6
 10
269.076071
 20
153.986770
 11
269.145678
 21
153.963688
  0
LINE
  8
CSLAYER1
  6
CONTINUOUS
 62
     6
 10
269.145678
 20
153.963688
 11
269.217172
 21
153.942534
  0
LINE
  8
CSLAYER1
  6
CONTINUOUS
 62
     6
 10
269.217172
 20
153.942534
 11
269.289997
 21
153.922960
  0
LINE
  8
CSLAYER1
  6
CONTINUOUS
 62
     6
 10
269.289997
 20
153.922960
 11
269.363595
 21
153.904615
  0
LINE
  8
CSLAYER1
  6
CONTINUOUS
 62
     6
 10
269.363595
 20
153.904615
 11
269.437409
 21
153.887149
  0
LINE
  8
CSLAYER1
  6
CONTINUOUS
 62
     6
 10
269.437409
 20
153.887149
 11
269.510883
 21
153.870214
  0
LINE
  8
CSLAYER1
  6
CONTINUOUS
 62
     6
 10
269.510883
 20
153.870214
 11
269.583460
 21
153.853459
  0
LINE
  8
CSLAYER1
  6
CONTINUOUS
 62
     6
 10
269.583460
 20
153.853459
 11
269.657683
 21
153.835859
  0
LINE
  8
CSLAYER1
  6
CONTINUOUS
 62
     6
 10
269.657683
 20
153.835859
 11
269.731419
 21
153.817834
  0
LINE
  8
CSLAYER1
  6
CONTINUOUS
 62
     6
 10
269.731419
 20
153.817834
 11
269.804715
 21
153.799428
  0
LINE
  8
CSLAYER1
  6
CONTINUOUS
 62
     6
 10
269.804715
 20
153.799428
 11
269.877621
 21
153.780683
  0
LINE
  8
CSLAYER1
  6
CONTINUOUS
 62
     6
 10
269.877621
 20
153.780683
 11
269.950185
 21
153.761640
  0
LINE
  8
CSLAYER1
  6
CONTINUOUS
 62
     6
 10
269.950185
 20
153.761640
 11
270.022456
 21
153.742344
  0
LINE
  8
CSLAYER1
  6
CONTINUOUS
 62
     6
 10
270.022456
 20
153.742344
 11
270.094484
 21
153.722835
  0
LINE
  8
CSLAYER1
  6
CONTINUOUS
 62
     6
 10
270.094484
 20
153.722835
 11
270.166315
 21
153.703157
  0
LINE
  8
CSLAYER1
  6
CONTINUOUS
 62
     6
 10
270.166315
 20
153.703157
 11
270.238001
 21
153.683351
  0
LINE
  8
CSLAYER1
  6
CONTINUOUS
 62
     6
 10
270.238001
 20
153.683351
 11
270.309589
 21
153.663461
  0
LINE
  8
CSLAYER1
  6
CONTINUOUS
 62
     6
 10
270.309589
 20
153.663461
 11
270.390208
 21
153.640998
  0
LINE
  8
CSLAYER1
  6
CONTINUOUS
 62
     6
 10
270.390208
 20
153.640998
 11
270.517463
 21
153.813148
  0
LINE
  8
CSLAYER1
  6
CONTINUOUS
 62
     6
 10
270.517463
 20
153.813148
 11
270.612243
 21
153.940311
  0
LINE
  8
CSLAYER1
  6
CONTINUOUS
 62
     6
 10
270.612243
 20
153.940311
 11
270.707894
 21
154.066542
  0
LINE
  8
CSLAYER1
  6
CONTINUOUS
 62
     6
 10
270.707894
 20
154.066542
 11
270.804853
 21
154.191378
  0
LINE
  8
CSLAYER1
  6
CONTINUOUS
 62
     6
 10
270.804853
 20
154.191378
 11
270.903555
 21
154.314353
  0
LINE
  8
CSLAYER1
  6
CONTINUOUS
 62
     6
 10
270.903555
 20
154.314353
 11
271.004437
 21
154.435001
  0
LINE
  8
CSLAYER1
  6
CONTINUOUS
 62
     6
 10
271.004437
 20
154.435001
 11
271.107933
 21
154.552858
  0
LINE
  8
CSLAYER1
  6
CONTINUOUS
 62
     6
 10
271.107933
 20
154.552858
 11
271.214481
 21
154.667458
  0
LINE
  8
CSLAYER1
  6
CONTINUOUS
 62
     6
 10
271.214481
 20
154.667458
 11
271.324515
 21
154.778336
  0
LINE
  8
CSLAYER1
  6
CONTINUOUS
 62
     6
 10
271.324515
 20
154.778336
 11
271.438471
 21
154.885027
  0
LINE
  8
CSLAYER1
  6
CONTINUOUS
 62
     6
 10
271.438471
 20
154.885027
 11
271.556787
 21
154.987065
  0
LINE
  8
CSLAYER1
  6
CONTINUOUS
 62
     6
 10
271.556787
 20
154.987065
 11
271.708211
 21
155.106103
  0
LINE
  8
CSLAYER1
  6
CONTINUOUS
 62
     6
 10
271.708211
 20
155.106103
 11
271.866451
 21
155.220615
  0
LINE
  8
CSLAYER1
  6
CONTINUOUS
 62
     6
 10
271.866451
 20
155.220615
 11
272.029572
 21
155.331555
  0
LINE
  8
CSLAYER1
  6
CONTINUOUS
 62
     6
 10
272.029572
 20
155.331555
 11
272.195640
 21
155.439874
  0
LINE
  8
CSLAYER1
  6
CONTINUOUS
 62
     6
 10
272.195640
 20
155.439874
 11
272.362722
 21
155.546523
  0
LINE
  8
CSLAYER1
  6
CONTINUOUS
 62
     6
 10
272.362722
 20
155.546523
 11
272.528883
 21
155.652456
  0
LINE
  8
CSLAYER1
  6
CONTINUOUS
 62
     6
 10
272.528883
 20
155.652456
 11
272.692189
 21
155.758623
  0
LINE
  8
CSLAYER1
  6
CONTINUOUS
 62
     6
 10
272.692189
 20
155.758623
 11
272.850707
 21
155.865978
  0
LINE
  8
CSLAYER1
  6
CONTINUOUS
 62
     6
 10
272.850707
 20
155.865978
 11
273.002503
 21
155.975472
  0
LINE
  8
CSLAYER1
  6
CONTINUOUS
 62
     6
 10
273.002503
 20
155.975472
 11
273.145642
 21
156.088058
  0
LINE
  8
CSLAYER1
  6
CONTINUOUS
 62
     6
 10
273.145642
 20
156.088058
 11
273.278192
 21
156.204686
  0
LINE
  8
CSLAYER1
  6
CONTINUOUS
 62
     6
 10
273.278192
 20
156.204686
 11
273.381197
 21
156.307701
  0
LINE
  8
CSLAYER1
  6
CONTINUOUS
 62
     6
 10
273.381197
 20
156.307701
 11
273.482860
 21
156.421137
  0
LINE
  8
CSLAYER1
  6
CONTINUOUS
 62
     6
 10
273.482860
 20
156.421137
 11
273.582615
 21
156.543304
  0
LINE
  8
CSLAYER1
  6
CONTINUOUS
 62
     6
 10
273.582615
 20
156.543304
 11
273.679893
 21
156.672513
  0
LINE
  8
CSLAYER1
  6
CONTINUOUS
 62
     6
 10
273.679893
 20
156.672513
 11
273.774128
 21
156.807073
  0
LINE
  8
CSLAYER1
  6
CONTINUOUS
 62
     6
 10
273.774128
 20
156.807073
 11
273.864752
 21
156.945295
  0
LINE
  8
CSLAYER1
  6
CONTINUOUS
 62
     6
 10
273.864752
 20
156.945295
 11
273.951198
 21
157.085488
  0
LINE
  8
CSLAYER1
  6
CONTINUOUS
 62
     6
 10
273.951198
 20
157.085488
 11
274.032900
 21
157.225962
  0
LINE
  8
CSLAYER1
  6
CONTINUOUS
 62
     6
 10
274.032900
 20
157.225962
 11
274.109288
 21
157.365029
  0
LINE
  8
CSLAYER1
  6
CONTINUOUS
 62
     6
 10
274.109288
 20
157.365029
 11
274.179797
 21
157.500997
  0
LINE
  8
CSLAYER1
  6
CONTINUOUS
 62
     6
 10
274.179797
 20
157.500997
 11
274.285058
 21
157.716537
  0
ARC
  8
CSLAYER1
  6
CONTINUOUS
 62
     6
 10
273.358947
 20
157.160459
 40
1.080690
 50
30.945197
 51
90.945197
  0
ARC
  8
CSLAYER1
  6
CONTINUOUS
 62
     6
 10
274.624899
 20
157.991726
 40
1.095863
 50
23.568976
 51
83.568976
  0
LINE
  8
CSLAYER1
  6
CONTINUOUS
 62
     6
 10
278.528123
 20
156.109273
 11
278.657132
 21
156.266672
  0
LINE
  8
CSLAYER1
  6
CONTINUOUS
 62
     6
 10
278.657132
 20
156.266672
 11
278.778314
 21
156.414586
  0
ARC
  8
CSLAYER1
  6
CONTINUOUS
 62
     6
 10
279.824724
 20
156.925487
 40
1.164461
 50
206.024005
 51
266.024005
  0
ARC
  8
CSLAYER1
  6
CONTINUOUS
 62
     6
 10
278.697585
 20
155.252925
 40
1.164461
 50
26.024005
 51
86.024005
  0
LINE
  8
CSLAYER1
  6
CONTINUOUS
 62
     6
 10
278.528123
 20
156.109273
 11
278.393321
 21
155.943961
  0
LINE
  8
CSLAYER1
  6
CONTINUOUS
 62
     6
 10
278.393321
 20
155.943961
 11
278.254764
 21
155.772309
  0
LINE
  8
CSLAYER1
  6
CONTINUOUS
 62
     6
 10
278.254764
 20
155.772309
 11
278.114488
 21
155.595887
  0
LINE
  8
CSLAYER1
  6
CONTINUOUS
 62
     6
 10
278.114488
 20
155.595887
 11
277.974530
 21
155.416269
  0
LINE
  8
CSLAYER1
  6
CONTINUOUS
 62
     6
 10
277.974530
 20
155.416269
 11
277.836927
 21
155.235026
  0
LINE
  8
CSLAYER1
  6
CONTINUOUS
 62
     6
 10
277.836927
 20
155.235026
 11
277.703715
 21
155.053729
  0
LINE
  8
CSLAYER1
  6
CONTINUOUS
 62
     6
 10
277.703715
 20
155.053729
 11
277.576931
 21
154.873952
  0
LINE
  8
CSLAYER1
  6
CONTINUOUS
 62
     6
 10
277.576931
 20
154.873952
 11
277.458612
 21
154.697266
  0
LINE
  8
CSLAYER1
  6
CONTINUOUS
 62
     6
 10
277.458612
 20
154.697266
 11
277.350794
 21
154.525242
  0
LINE
  8
CSLAYER1
  6
CONTINUOUS
 62
     6
 10
277.350794
 20
154.525242
 11
277.253155
 21
154.361481
  0
LINE
  8
CSLAYER1
  6
CONTINUOUS
 62
     6
 10
277.253155
 20
154.361481
 11
277.153526
 21
154.192214
  0
LINE
  8
CSLAYER1
  6
CONTINUOUS
 62
     6
 10
277.153526
 20
154.192214
 11
277.051699
 21
154.018743
  0
LINE
  8
CSLAYER1
  6
CONTINUOUS
 62
     6
 10
277.051699
 20
154.018743
 11
276.947469
 21
153.842370
  0
LINE
  8
CSLAYER1
  6
CONTINUOUS
 62
     6
 10
276.947469
 20
153.842370
 11
276.840629
 21
153.664397
  0
LINE
  8
CSLAYER1
  6
CONTINUOUS
 62
     6
 10
276.840629
 20
153.664397
 11
276.730972
 21
153.486128
  0
LINE
  8
CSLAYER1
  6
CONTINUOUS
 62
     6
 10
276.730972
 20
153.486128
 11
276.618291
 21
153.308863
  0
LINE
  8
CSLAYER1
  6
CONTINUOUS
 62
     6
 10
276.618291
 20
153.308863
 11
276.502381
 21
153.133905
  0
LINE
  8
CSLAYER1
  6
CONTINUOUS
 62
     6
 10
276.502381
 20
153.133905
 11
276.383034
 21
152.962557
  0
LINE
  8
CSLAYER1
  6
CONTINUOUS
 62
     6
 10
276.383034
 20
152.962557
 11
276.260043
 21
152.796121
  0
LINE
  8
CSLAYER1
  6
CONTINUOUS
 62
     6
 10
276.260043
 20
152.796121
 11
276.133203
 21
152.635899
  0
LINE
  8
CSLAYER1
  6
CONTINUOUS
 62
     6
 10
276.133203
 20
152.635899
 11
276.034382
 21
152.519386
  0
LINE
  8
CSLAYER1
  6
CONTINUOUS
 62
     6
 10
276.034382
 20
152.519386
 11
275.932170
 21
152.405627
  0
LINE
  8
CSLAYER1
  6
CONTINUOUS
 62
     6
 10
275.932170
 20
152.405627
 11
275.826905
 21
152.294346
  0
LINE
  8
CSLAYER1
  6
CONTINUOUS
 62
     6
 10
275.826905
 20
152.294346
 11
275.718928
 21
152.185268
  0
LINE
  8
CSLAYER1
  6
CONTINUOUS
 62
     6
 10
275.718928
 20
152.185268
 11
275.608577
 21
152.078117
  0
LINE
  8
CSLAYER1
  6
CONTINUOUS
 62
     6
 10
275.608577
 20
152.078117
 11
275.496192
 21
151.972619
  0
LINE
  8
CSLAYER1
  6
CONTINUOUS
 62
     6
 10
275.496192
 20
151.972619
 11
275.382111
 21
151.868497
  0
LINE
  8
CSLAYER1
  6
CONTINUOUS
 62
     6
 10
275.382111
 20
151.868497
 11
275.266673
 21
151.765477
  0
LINE
  8
CSLAYER1
  6
CONTINUOUS
 62
     6
 10
275.266673
 20
151.765477
 11
275.150218
 21
151.663282
  0
LINE
  8
CSLAYER1
  6
CONTINUOUS
 62
     6
 10
275.150218
 20
151.663282
 11
275.054192
 21
151.579954
  0
LINE
  8
CSLAYER1
  6
CONTINUOUS
 62
     6
 10
275.054192
 20
151.579954
 11
275.123339
 21
151.545426
  0
LINE
  8
CSLAYER1
  6
CONTINUOUS
 62
     6
 10
275.123339
 20
151.545426
 11
275.207815
 21
151.497809
  0
LINE
  8
CSLAYER1
  6
CONTINUOUS
 62
     6
 10
275.207815
 20
151.497809
 11
275.293748
 21
151.444059
  0
LINE
  8
CSLAYER1
  6
CONTINUOUS
 62
     6
 10
275.293748
 20
151.444059
 11
275.379867
 21
151.384835
  0
LINE
  8
CSLAYER1
  6
CONTINUOUS
 62
     6
 10
275.379867
 20
151.384835
 11
275.464903
 21
151.320797
  0
LINE
  8
CSLAYER1
  6
CONTINUOUS
 62
     6
 10
275.464903
 20
151.320797
 11
275.547585
 21
151.252606
  0
LINE
  8
CSLAYER1
  6
CONTINUOUS
 62
     6
 10
275.547585
 20
151.252606
 11
275.626645
 21
151.180923
  0
LINE
  8
CSLAYER1
  6
CONTINUOUS
 62
     6
 10
275.626645
 20
151.180923
 11
275.700811
 21
151.106407
  0
LINE
  8
CSLAYER1
  6
CONTINUOUS
 62
     6
 10
275.700811
 20
151.106407
 11
275.768814
 21
151.029720
  0
LINE
  8
CSLAYER1
  6
CONTINUOUS
 62
     6
 10
275.768814
 20
151.029720
 11
275.829383
 21
150.951521
  0
LINE
  8
CSLAYER1
  6
CONTINUOUS
 62
     6
 10
275.829383
 20
150.951521
 11
275.881250
 21
150.872471
  0
LINE
  8
CSLAYER1
  6
CONTINUOUS
 62
     6
 10
275.881250
 20
150.872471
 11
275.897156
 21
150.844865
  0
LINE
  8
CSLAYER1
  6
CONTINUOUS
 62
     6
 10
275.897156
 20
150.844865
 11
275.912810
 21
150.816171
  0
LINE
  8
CSLAYER1
  6
CONTINUOUS
 62
     6
 10
275.912810
 20
150.816171
 11
275.928252
 21
150.786558
  0
LINE
  8
CSLAYER1
  6
CONTINUOUS
 62
     6
 10
275.928252
 20
150.786558
 11
275.943525
 21
150.756192
  0
LINE
  8
CSLAYER1
  6
CONTINUOUS
 62
     6
 10
275.943525
 20
150.756192
 11
275.958670
 21
150.725240
  0
LINE
  8
CSLAYER1
  6
CONTINUOUS
 62
     6
 10
275.958670
 20
150.725240
 11
275.973731
 21
150.693870
  0
LINE
  8
CSLAYER1
  6
CONTINUOUS
 62
     6
 10
275.973731
 20
150.693870
 11
275.988747
 21
150.662248
  0
LINE
  8
CSLAYER1
  6
CONTINUOUS
 62
     6
 10
275.988747
 20
150.662248
 11
276.003763
 21
150.630543
  0
LINE
  8
CSLAYER1
  6
CONTINUOUS
 62
     6
 10
276.003763
 20
150.630543
 11
276.018818
 21
150.598921
  0
LINE
  8
CSLAYER1
  6
CONTINUOUS
 62
     6
 10
276.018818
 20
150.598921
 11
276.033956
 21
150.567549
  0
LINE
  8
CSLAYER1
  6
CONTINUOUS
 62
     6
 10
276.033956
 20
150.567549
 11
276.049219
 21
150.536595
  0
LINE
  8
CSLAYER1
  6
CONTINUOUS
 62
     6
 10
276.049219
 20
150.536595
 11
276.090040
 21
150.458458
  0
LINE
  8
CSLAYER1
  6
CONTINUOUS
 62
     6
 10
276.090040
 20
150.458458
 11
276.133375
 21
150.381926
  0
LINE
  8
CSLAYER1
  6
CONTINUOUS
 62
     6
 10
276.133375
 20
150.381926
 11
276.178974
 21
150.306837
  0
LINE
  8
CSLAYER1
  6
CONTINUOUS
 62
     6
 10
276.178974
 20
150.306837
 11
276.226584
 21
150.233033
  0
LINE
  8
CSLAYER1
  6
CONTINUOUS
 62
     6
 10
276.226584
 20
150.233033
 11
276.275954
 21
150.160351
  0
LINE
  8
CSLAYER1
  6
CONTINUOUS
 62
     6
 10
276.275954
 20
150.160351
 11
276.326833
 21
150.088633
  0
LINE
  8
CSLAYER1
  6
CONTINUOUS
 62
     6
 10
276.326833
 20
150.088633
 11
276.378969
 21
150.017716
  0
LINE
  8
CSLAYER1
  6
CONTINUOUS
 62
     6
 10
276.378969
 20
150.017716
 11
276.432110
 21
149.947442
  0
LINE
  8
CSLAYER1
  6
CONTINUOUS
 62
     6
 10
276.432110
 20
149.947442
 11
276.486006
 21
149.877649
  0
LINE
  8
CSLAYER1
  6
CONTINUOUS
 62
     6
 10
276.486006
 20
149.877649
 11
276.540405
 21
149.808177
  0
LINE
  8
CSLAYER1
  6
CONTINUOUS
 62
     6
 10
276.540405
 20
149.808177
 11
276.592479
 21
149.742134
  0
LINE
  8
CSLAYER1
  6
CONTINUOUS
 62
     6
 10
276.592479
 20
149.742134
 11
276.719826
 21
149.851435
  0
LINE
  8
CSLAYER1
  6
CONTINUOUS
 62
     6
 10
276.719826
 20
149.851435
 11
276.856541
 21
149.969468
  0
LINE
  8
CSLAYER1
  6
CONTINUOUS
 62
     6
 10
276.856541
 20
149.969468
 11
276.992428
 21
150.088172
  0
LINE
  8
CSLAYER1
  6
CONTINUOUS
 62
     6
 10
276.992428
 20
150.088172
 11
277.127075
 21
150.207883
  0
LINE
  8
CSLAYER1
  6
CONTINUOUS
 62
     6
 10
277.127075
 20
150.207883
 11
277.260066
 21
150.328938
  0
LINE
  8
CSLAYER1
  6
CONTINUOUS
 62
     6
 10
277.260066
 20
150.328938
 11
277.390988
 21
150.451671
  0
LINE
  8
CSLAYER1
  6
CONTINUOUS
 62
     6
 10
277.390988
 20
150.451671
 11
277.519428
 21
150.576419
  0
LINE
  8
CSLAYER1
  6
CONTINUOUS
 62
     6
 10
277.519428
 20
150.576419
 11
277.644971
 21
150.703517
  0
LINE
  8
CSLAYER1
  6
CONTINUOUS
 62
     6
 10
277.644971
 20
150.703517
 11
277.767205
 21
150.833300
  0
LINE
  8
CSLAYER1
  6
CONTINUOUS
 62
     6
 10
277.767205
 20
150.833300
 11
277.885714
 21
150.966106
  0
LINE
  8
CSLAYER1
  6
CONTINUOUS
 62
     6
 10
277.885714
 20
150.966106
 11
278.000086
 21
151.102269
  0
LINE
  8
CSLAYER1
  6
CONTINUOUS
 62
     6
 10
278.000086
 20
151.102269
 11
278.136582
 21
151.276495
  0
LINE
  8
CSLAYER1
  6
CONTINUOUS
 62
     6
 10
278.136582
 20
151.276495
 11
278.268925
 21
151.457171
  0
LINE
  8
CSLAYER1
  6
CONTINUOUS
 62
     6
 10
278.268925
 20
151.457171
 11
278.397397
 21
151.642941
  0
LINE
  8
CSLAYER1
  6
CONTINUOUS
 62
     6
 10
278.397397
 20
151.642941
 11
278.522278
 21
151.832449
  0
LINE
  8
CSLAYER1
  6
CONTINUOUS
 62
     6
 10
278.522278
 20
151.832449
 11
278.643850
 21
152.024337
  0
LINE
  8
CSLAYER1
  6
CONTINUOUS
 62
     6
 10
278.643850
 20
152.024337
 11
278.762394
 21
152.217250
  0
LINE
  8
CSLAYER1
  6
CONTINUOUS
 62
     6
 10
278.762394
 20
152.217250
 11
278.878192
 21
152.409830
  0
LINE
  8
CSLAYER1
  6
CONTINUOUS
 62
     6
 10
278.878192
 20
152.409830
 11
278.991525
 21
152.600721
  0
LINE
  8
CSLAYER1
  6
CONTINUOUS
 62
     6
 10
278.991525
 20
152.600721
 11
279.102673
 21
152.788566
  0
LINE
  8
CSLAYER1
  6
CONTINUOUS
 62
     6
 10
279.102673
 20
152.788566
 11
279.211919
 21
152.972009
  0
LINE
  8
CSLAYER1
  6
CONTINUOUS
 62
     6
 10
279.211919
 20
152.972009
 11
279.319544
 21
153.149693
  0
LINE
  8
CSLAYER1
  6
CONTINUOUS
 62
     6
 10
279.319544
 20
153.149693
 11
279.424870
 21
153.315380
  0
LINE
  8
CSLAYER1
  6
CONTINUOUS
 62
     6
 10
279.424870
 20
153.315380
 11
279.539598
 21
153.485269
  0
LINE
  8
CSLAYER1
  6
CONTINUOUS
 62
     6
 10
279.539598
 20
153.485269
 11
279.661899
 21
153.657932
  0
LINE
  8
CSLAYER1
  6
CONTINUOUS
 62
     6
 10
279.661899
 20
153.657932
 11
279.789940
 21
153.831942
  0
LINE
  8
CSLAYER1
  6
CONTINUOUS
 62
     6
 10
279.789940
 20
153.831942
 11
279.921893
 21
154.005872
  0
LINE
  8
CSLAYER1
  6
CONTINUOUS
 62
     6
 10
279.921893
 20
154.005872
 11
280.055925
 21
154.178293
  0
LINE
  8
CSLAYER1
  6
CONTINUOUS
 62
     6
 10
280.055925
 20
154.178293
 11
280.190205
 21
154.347778
  0
LINE
  8
CSLAYER1
  6
CONTINUOUS
 62
     6
 10
280.190205
 20
154.347778
 11
280.322904
 21
154.512900
  0
LINE
  8
CSLAYER1
  6
CONTINUOUS
 62
     6
 10
280.322904
 20
154.512900
 11
280.452190
 21
154.672230
  0
LINE
  8
CSLAYER1
  6
CONTINUOUS
 62
     6
 10
280.452190
 20
154.672230
 11
280.576233
 21
154.824342
  0
LINE
  8
CSLAYER1
  6
CONTINUOUS
 62
     6
 10
280.576233
 20
154.824342
 11
280.745490
 21
155.031943
  0
ARC
  8
CSLAYER1
  6
CONTINUOUS
 62
     6
 10
279.663240
 20
154.602171
 40
1.164461
 50
21.658505
 51
86.024005
  0
ARC
  8
CSLAYER1
  6
CONTINUOUS
 62
     6
 10
280.587754
 20
156.008531
 40
1.200008
 50
30.461486
 51
90.461486
  0
LINE
  8
CSLAYER1
  6
CONTINUOUS
 62
     6
 10
275.819240
 20
150.964616
 11
273.376245
 21
148.569981
  0
LINE
  8
CSLAYER1
  6
CONTINUOUS
 62
     6
 10
272.761896
 20
148.782628
 11
275.507743
 21
151.285466
  0
LINE
  8
CSLAYER1
  6
CONTINUOUS
 62
     6
 10
276.099710
 20
150.441379
 11
273.848780
 21
148.002873
  0
LINE
  8
CSLAYER1
  6
CONTINUOUS
 62
     6
 10
267.421900
 20
150.861912
 11
269.648022
 21
153.838150
  0
LINE
  8
CSLAYER1
  6
CONTINUOUS
 62
     6
 10
269.082189
 20
153.984742
 11
266.736658
 21
151.310856
  0
LINE
  8
CSLAYER1
  6
CONTINUOUS
 62
     6
 10
266.193201
 20
151.830662
 11
268.664970
 21
154.232470
  0
LINE
  8
CSLAYER1
  6
CONTINUOUS
 62
     6
 10
253.482865
 20
148.742722
 11
251.553723
 21
147.739988
  0
ARC
  8
CSLAYER1
  6
CONTINUOUS
 62
     6
 10
265.372640
 20
154.922609
 40
15.574134
 50
201.503298
 51
207.463892
  0
ARC
  8
CSLAYER1
  6
CONTINUOUS
 62
     6
 10
236.398621
 20
154.938252
 40
15.574134
 50
332.536225
 51
359.942687
  0
ARC
  8
CSLAYER1
  6
CONTINUOUS
 62
     6
 10
265.372640
 20
154.922609
 40
13.399933
 50
179.999963
 51
207.463892
  0
LINE
  8
CSLAYER1
  6
CONTINUOUS
 62
     6
 10
252.832968
 20
148.404931
 11
254.431180
 21
145.501308
  0
LINE
  8
CSLAYER1
  6
CONTINUOUS
 62
     6
 10
253.908087
 20
146.169897
 11
252.349779
 21
148.153775
  0
LINE
  8
CSLAYER1
  6
CONTINUOUS
 62
     6
 10
251.956308
 20
147.949301
 11
253.341379
 21
145.893818
  0
LINE
  8
CSLAYER1
  6
CONTINUOUS
 62
     6
 10
250.217539
 20
147.755664
 11
248.288396
 21
148.758399
  0
ARC
  8
CSLAYER1
  6
CONTINUOUS
 62
     6
 10
236.398621
 20
154.938252
 40
13.399933
 50
332.536225
 51
359.942687
  0
LINE
  8
CSLAYER1
  6
CONTINUOUS
 62
     6
 10
249.798548
 20
154.938252
 11
249.798548
 21
156.196568
  0
ARC
  8
CSLAYER1
  6
CONTINUOUS
 62
     6
 10
250.342083
 20
155.255102
 40
1.087108
 50
60.000362
 51
120.000362
  0
ARC
  8
CSLAYER1
  6
CONTINUOUS
 62
     6
 10
251.429190
 20
155.255108
 40
1.087108
 50
60.000362
 51
120.000362
  0
LINE
  8
CSLAYER1
  6
CONTINUOUS
 62
     6
 10
251.972781
 20
156.196568
 11
251.972781
 21
154.938252
  0
ARC
  8
CSLAYER1
  6
CONTINUOUS
 62
     6
 10
250.342071
 20
157.138027
 40
1.087108
 50
240.000362
 51
300.000362
  0
ARC
  8
CSLAYER1
  6
CONTINUOUS
 62
     6
 10
250.342107
 20
158.757808
 40
1.087115
 50
239.999981
 51
299.999981
  0
ARC
  8
CSLAYER1
  6
CONTINUOUS
 62
     6
 10
251.429222
 20
158.757808
 40
1.087115
 50
239.999981
 51
299.999981
  0
ARC
  8
CSLAYER1
  6
CONTINUOUS
 62
     6
 10
251.429222
 20
156.874869
 40
1.087115
 50
59.999981
 51
119.999981
  0
LINE
  8
CSLAYER1
  6
CONTINUOUS
 62
     6
 10
251.972781
 20
157.816356
 11
251.972781
 21
165.159123
  0
LINE
  8
CSLAYER1
  6
CONTINUOUS
 62
     6
 10
249.798548
 20
165.159123
 11
249.798548
 21
157.816356
  0
LINE
  8
CSLAYER1
  6
CONTINUOUS
 62
     6
 10
247.175631
 20
165.159123
 11
247.175631
 21
166.159123
  0
LINE
  8
CSLAYER1
  6
CONTINUOUS
 62
     6
 10
247.175631
 20
165.159123
 11
254.595631
 21
165.159123
  0
LINE
  8
CSLAYER1
  6
CONTINUOUS
 62
     6
 10
254.595631
 20
165.159123
 11
254.595631
 21
166.159123
  0
LINE
  8
CSLAYER1
  6
CONTINUOUS
 62
     6
 10
248.938293
 20
148.420608
 11
247.340082
 21
145.516935
  0
LINE
  8
CSLAYER1
  6
CONTINUOUS
 62
     6
 10
247.863175
 20
146.185542
 11
249.421482
 21
148.169418
  0
LINE
  8
CSLAYER1
  6
CONTINUOUS
 62
     6
 10
249.814953
 20
147.964894
 11
248.429883
 21
145.909495
  0
LINE
  8
CSLAYER1
  6
CONTINUOUS
 62
     6
 10
271.885631
 20
121.159123
 11
211.885631
 21
121.159123
  0
LINE
  8
CSLAYER1
  6
CONTINUOUS
 62
     6
 10
211.885631
 20
121.159123
 11
211.885631
 21
31.159123
  0
LINE
  8
CSLAYER1
  6
CONTINUOUS
 62
     6
 10
211.885631
 20
31.159123
 11
271.885631
 21
31.159123
  0
LINE
  8
CSLAYER1
  6
CONTINUOUS
 62
     6
 10
271.885631
 20
31.159123
 11
271.885631
 21
73.099655
  0
ARC
  8
CSLAYER1
  6
CONTINUOUS
 62
     6
 10
272.903902
 20
74.142101
 40
1.500006
 50
183.178280
 51
243.178280
  0
LINE
  8
CSLAYER1
  6
CONTINUOUS
 62
     6
 10
271.406169
 20
74.058991
 11
271.551595
 21
74.161930
  0
LINE
  8
CSLAYER1
  6
CONTINUOUS
 62
     6
 10
271.551595
 20
74.161930
 11
271.697191
 21
74.264587
  0
LINE
  8
CSLAYER1
  6
CONTINUOUS
 62
     6
 10
271.697191
 20
74.264587
 11
271.843124
 21
74.366678
  0
LINE
  8
CSLAYER1
  6
CONTINUOUS
 62
     6
 10
271.843124
 20
74.366678
 11
271.989563
 21
74.467921
  0
LINE
  8
CSLAYER1
  6
CONTINUOUS
 62
     6
 10
271.989563
 20
74.467921
 11
272.136679
 21
74.568034
  0
LINE
  8
CSLAYER1
  6
CONTINUOUS
 62
     6
 10
272.136679
 20
74.568034
 11
272.284639
 21
74.666734
  0
LINE
  8
CSLAYER1
  6
CONTINUOUS
 62
     6
 10
272.284639
 20
74.666734
 11
272.433612
 21
74.763737
  0
LINE
  8
CSLAYER1
  6
CONTINUOUS
 62
     6
 10
272.433612
 20
74.763737
 11
272.583767
 21
74.858763
  0
LINE
  8
CSLAYER1
  6
CONTINUOUS
 62
     6
 10
272.583767
 20
74.858763
 11
272.735274
 21
74.951527
  0
LINE
  8
CSLAYER1
  6
CONTINUOUS
 62
     6
 10
272.735274
 20
74.951527
 11
272.888300
 21
75.041748
  0
LINE
  8
CSLAYER1
  6
CONTINUOUS
 62
     6
 10
272.888300
 20
75.041748
 11
273.043016
 21
75.129143
  0
LINE
  8
CSLAYER1
  6
CONTINUOUS
 62
     6
 10
273.043016
 20
75.129143
 11
273.259507
 21
75.244974
  0
LINE
  8
CSLAYER1
  6
CONTINUOUS
 62
     6
 10
273.259507
 20
75.244974
 11
273.481503
 21
75.356514
  0
LINE
  8
CSLAYER1
  6
CONTINUOUS
 62
     6
 10
273.481503
 20
75.356514
 11
273.707961
 21
75.463157
  0
LINE
  8
CSLAYER1
  6
CONTINUOUS
 62
     6
 10
273.707961
 20
75.463157
 11
273.937842
 21
75.564294
  0
LINE
  8
CSLAYER1
  6
CONTINUOUS
 62
     6
 10
273.937842
 20
75.564294
 11
274.170102
 21
75.659319
  0
LINE
  8
CSLAYER1
  6
CONTINUOUS
 62
     6
 10
274.170102
 20
75.659319
 11
274.403701
 21
75.747624
  0
LINE
  8
CSLAYER1
  6
CONTINUOUS
 62
     6
 10
274.403701
 20
75.747624
 11
274.637597
 21
75.828603
  0
LINE
  8
CSLAYER1
  6
CONTINUOUS
 62
     6
 10
274.637597
 20
75.828603
 11
274.870749
 21
75.901648
  0
LINE
  8
CSLAYER1
  6
CONTINUOUS
 62
     6
 10
274.870749
 20
75.901648
 11
275.102115
 21
75.966152
  0
LINE
  8
CSLAYER1
  6
CONTINUOUS
 62
     6
 10
275.102115
 20
75.966152
 11
275.330654
 21
76.021509
  0
LINE
  8
CSLAYER1
  6
CONTINUOUS
 62
     6
 10
275.330654
 20
76.021509
 11
275.555325
 21
76.067111
  0
LINE
  8
CSLAYER1
  6
CONTINUOUS
 62
     6
 10
275.555325
 20
76.067111
 11
275.799568
 21
76.110116
  0
LINE
  8
CSLAYER1
  6
CONTINUOUS
 62
     6
 10
275.799568
 20
76.110116
 11
276.052613
 21
76.151351
  0
LINE
  8
CSLAYER1
  6
CONTINUOUS
 62
     6
 10
276.052613
 20
76.151351
 11
276.312674
 21
76.189927
  0
LINE
  8
CSLAYER1
  6
CONTINUOUS
 62
     6
 10
276.312674
 20
76.189927
 11
276.577962
 21
76.224952
  0
LINE
  8
CSLAYER1
  6
CONTINUOUS
 62
     6
 10
276.577962
 20
76.224952
 11
276.846690
 21
76.255536
  0
LINE
  8
CSLAYER1
  6
CONTINUOUS
 62
     6
 10
276.846690
 20
76.255536
 11
277.117070
 21
76.280789
  0
LINE
  8
CSLAYER1
  6
CONTINUOUS
 62
     6
 10
277.117070
 20
76.280789
 11
277.387315
 21
76.299820
  0
LINE
  8
CSLAYER1
  6
CONTINUOUS
 62
     6
 10
277.387315
 20
76.299820
 11
277.655637
 21
76.311739
  0
LINE
  8
CSLAYER1
  6
CONTINUOUS
 62
     6
 10
277.655637
 20
76.311739
 11
277.920249
 21
76.315656
  0
LINE
  8
CSLAYER1
  6
CONTINUOUS
 62
     6
 10
277.920249
 20
76.315656
 11
278.179363
 21
76.310679
  0
LINE
  8
CSLAYER1
  6
CONTINUOUS
 62
     6
 10
278.179363
 20
76.310679
 11
278.431190
 21
76.295919
  0
LINE
  8
CSLAYER1
  6
CONTINUOUS
 62
     6
 10
278.431190
 20
76.295919
 11
278.620335
 21
76.280647
  0
LINE
  8
CSLAYER1
  6
CONTINUOUS
 62
     6
 10
278.620335
 20
76.280647
 11
278.814076
 21
76.264821
  0
LINE
  8
CSLAYER1
  6
CONTINUOUS
 62
     6
 10
278.814076
 20
76.264821
 11
279.011378
 21
76.248354
  0
LINE
  8
CSLAYER1
  6
CONTINUOUS
 62
     6
 10
279.011378
 20
76.248354
 11
279.211206
 21
76.231153
  0
LINE
  8
CSLAYER1
  6
CONTINUOUS
 62
     6
 10
279.211206
 20
76.231153
 11
279.412527
 21
76.213129
  0
LINE
  8
CSLAYER1
  6
CONTINUOUS
 62
     6
 10
279.412527
 20
76.213129
 11
279.614306
 21
76.194192
  0
LINE
  8
CSLAYER1
  6
CONTINUOUS
 62
     6
 10
279.614306
 20
76.194192
 11
279.815507
 21
76.174252
  0
LINE
  8
CSLAYER1
  6
CONTINUOUS
 62
     6
 10
279.815507
 20
76.174252
 11
280.015098
 21
76.153219
  0
LINE
  8
CSLAYER1
  6
CONTINUOUS
 62
     6
 10
280.015098
 20
76.153219
 11
280.212042
 21
76.131002
  0
LINE
  8
CSLAYER1
  6
CONTINUOUS
 62
     6
 10
280.212042
 20
76.131002
 11
280.405306
 21
76.107511
  0
LINE
  8
CSLAYER1
  6
CONTINUOUS
 62
     6
 10
280.405306
 20
76.107511
 11
280.593854
 21
76.082657
  0
LINE
  8
CSLAYER1
  6
CONTINUOUS
 62
     6
 10
280.593854
 20
76.082657
 11
280.742475
 21
76.063006
  0
LINE
  8
CSLAYER1
  6
CONTINUOUS
 62
     6
 10
280.742475
 20
76.063006
 11
280.895193
 21
76.044390
  0
LINE
  8
CSLAYER1
  6
CONTINUOUS
 62
     6
 10
280.895193
 20
76.044390
 11
281.051066
 21
76.026953
  0
LINE
  8
CSLAYER1
  6
CONTINUOUS
 62
     6
 10
281.051066
 20
76.026953
 11
281.209155
 21
76.010841
  0
LINE
  8
CSLAYER1
  6
CONTINUOUS
 62
     6
 10
281.209155
 20
76.010841
 11
281.368517
 21
75.996199
  0
LINE
  8
CSLAYER1
  6
CONTINUOUS
 62
     6
 10
281.368517
 20
75.996199
 11
281.528211
 21
75.983171
  0
LINE
  8
CSLAYER1
  6
CONTINUOUS
 62
     6
 10
281.528211
 20
75.983171
 11
281.687297
 21
75.971903
  0
LINE
  8
CSLAYER1
  6
CONTINUOUS
 62
     6
 10
281.687297
 20
75.971903
 11
281.844834
 21
75.962540
  0
LINE
  8
CSLAYER1
  6
CONTINUOUS
 62
     6
 10
281.844834
 20
75.962540
 11
281.999879
 21
75.955227
  0
LINE
  8
CSLAYER1
  6
CONTINUOUS
 62
     6
 10
281.999879
 20
75.955227
 11
282.151493
 21
75.950109
  0
LINE
  8
CSLAYER1
  6
CONTINUOUS
 62
     6
 10
282.151493
 20
75.950109
 11
282.298734
 21
75.947331
  0
LINE
  8
CSLAYER1
  6
CONTINUOUS
 62
     6
 10
282.298734
 20
75.947331
 11
282.442708
 21
75.946738
  0
LINE
  8
CSLAYER1
  6
CONTINUOUS
 62
     6
 10
282.442708
 20
75.946738
 11
282.592693
 21
75.947934
  0
LINE
  8
CSLAYER1
  6
CONTINUOUS
 62
     6
 10
282.592693
 20
75.947934
 11
282.747134
 21
75.950840
  0
LINE
  8
CSLAYER1
  6
CONTINUOUS
 62
     6
 10
282.747134
 20
75.950840
 11
282.904475
 21
75.955376
  0
LINE
  8
CSLAYER1
  6
CONTINUOUS
 62
     6
 10
282.904475
 20
75.955376
 11
283.063161
 21
75.961463
  0
LINE
  8
CSLAYER1
  6
CONTINUOUS
 62
     6
 10
283.063161
 20
75.961463
 11
283.221637
 21
75.969021
  0
LINE
  8
CSLAYER1
  6
CONTINUOUS
 62
     6
 10
283.221637
 20
75.969021
 11
283.378346
 21
75.977970
  0
LINE
  8
CSLAYER1
  6
CONTINUOUS
 62
     6
 10
283.378346
 20
75.977970
 11
283.531733
 21
75.988230
  0
LINE
  8
CSLAYER1
  6
CONTINUOUS
 62
     6
 10
283.531733
 20
75.988230
 11
283.680243
 21
75.999724
  0
LINE
  8
CSLAYER1
  6
CONTINUOUS
 62
     6
 10
283.680243
 20
75.999724
 11
283.822320
 21
76.012369
  0
LINE
  8
CSLAYER1
  6
CONTINUOUS
 62
     6
 10
283.822320
 20
76.012369
 11
283.956408
 21
76.026088
  0
ARC
  8
CSLAYER1
  6
CONTINUOUS
 62
     6
 10
284.063126
 20
74.528665
 40
1.500000
 50
-88.640300
 51
91.359720
  0
LINE
  8
CSLAYER1
  6
CONTINUOUS
 62
     6
 10
284.098748
 20
73.029473
 11
283.949067
 21
73.014235
  0
LINE
  8
CSLAYER1
  6
CONTINUOUS
 62
     6
 10
283.949067
 20
73.014235
 11
283.790347
 21
73.000201
  0
LINE
  8
CSLAYER1
  6
CONTINUOUS
 62
     6
 10
283.790347
 20
73.000201
 11
283.624378
 21
72.987453
  0
LINE
  8
CSLAYER1
  6
CONTINUOUS
 62
     6
 10
283.624378
 20
72.987453
 11
283.452956
 21
72.976075
  0
LINE
  8
CSLAYER1
  6
CONTINUOUS
 62
     6
 10
283.452956
 20
72.976075
 11
283.277872
 21
72.966149
  0
LINE
  8
CSLAYER1
  6
CONTINUOUS
 62
     6
 10
283.277872
 20
72.966149
 11
283.100922
 21
72.957759
  0
LINE
  8
CSLAYER1
  6
CONTINUOUS
 62
     6
 10
283.100922
 20
72.957759
 11
282.923897
 21
72.950987
  0
LINE
  8
CSLAYER1
  6
CONTINUOUS
 62
     6
 10
282.923897
 20
72.950987
 11
282.748592
 21
72.945917
  0
LINE
  8
CSLAYER1
  6
CONTINUOUS
 62
     6
 10
282.748592
 20
72.945917
 11
282.576799
 21
72.942632
  0
LINE
  8
CSLAYER1
  6
CONTINUOUS
 62
     6
 10
282.576799
 20
72.942632
 11
282.410313
 21
72.941215
  0
LINE
  8
CSLAYER1
  6
CONTINUOUS
 62
     6
 10
282.410313
 20
72.941215
 11
282.250926
 21
72.941748
  0
LINE
  8
CSLAYER1
  6
CONTINUOUS
 62
     6
 10
282.250926
 20
72.941748
 11
282.085779
 21
72.944683
  0
LINE
  8
CSLAYER1
  6
CONTINUOUS
 62
     6
 10
282.085779
 20
72.944683
 11
281.914974
 21
72.950198
  0
LINE
  8
CSLAYER1
  6
CONTINUOUS
 62
     6
 10
281.914974
 20
72.950198
 11
281.739749
 21
72.958161
  0
LINE
  8
CSLAYER1
  6
CONTINUOUS
 62
     6
 10
281.739749
 20
72.958161
 11
281.561345
 21
72.968443
  0
LINE
  8
CSLAYER1
  6
CONTINUOUS
 62
     6
 10
281.561345
 20
72.968443
 11
281.381002
 21
72.980913
  0
LINE
  8
CSLAYER1
  6
CONTINUOUS
 62
     6
 10
281.381002
 20
72.980913
 11
281.199960
 21
72.995441
  0
LINE
  8
CSLAYER1
  6
CONTINUOUS
 62
     6
 10
281.199960
 20
72.995441
 11
281.019458
 21
73.011896
  0
LINE
  8
CSLAYER1
  6
CONTINUOUS
 62
     6
 10
281.019458
 20
73.011896
 11
280.840737
 21
73.030149
  0
LINE
  8
CSLAYER1
  6
CONTINUOUS
 62
     6
 10
280.840737
 20
73.030149
 11
280.665036
 21
73.050068
  0
LINE
  8
CSLAYER1
  6
CONTINUOUS
 62
     6
 10
280.665036
 20
73.050068
 11
280.493597
 21
73.071524
  0
LINE
  8
CSLAYER1
  6
CONTINUOUS
 62
     6
 10
280.493597
 20
73.071524
 11
280.327657
 21
73.094387
  0
LINE
  8
CSLAYER1
  6
CONTINUOUS
 62
     6
 10
280.327657
 20
73.094387
 11
280.161573
 21
73.117193
  0
LINE
  8
CSLAYER1
  6
CONTINUOUS
 62
     6
 10
280.161573
 20
73.117193
 11
279.990443
 21
73.138528
  0
LINE
  8
CSLAYER1
  6
CONTINUOUS
 62
     6
 10
279.990443
 20
73.138528
 11
279.815355
 21
73.158511
  0
LINE
  8
CSLAYER1
  6
CONTINUOUS
 62
     6
 10
279.815355
 20
73.158511
 11
279.637395
 21
73.177263
  0
LINE
  8
CSLAYER1
  6
CONTINUOUS
 62
     6
 10
279.637395
 20
73.177263
 11
279.457652
 21
73.194902
  0
LINE
  8
CSLAYER1
  6
CONTINUOUS
 62
     6
 10
279.457652
 20
73.194902
 11
279.277214
 21
73.211551
  0
LINE
  8
CSLAYER1
  6
CONTINUOUS
 62
     6
 10
279.277214
 20
73.211551
 11
279.097169
 21
73.227328
  0
LINE
  8
CSLAYER1
  6
CONTINUOUS
 62
     6
 10
279.097169
 20
73.227328
 11
278.918603
 21
73.242353
  0
LINE
  8
CSLAYER1
  6
CONTINUOUS
 62
     6
 10
278.918603
 20
73.242353
 11
278.742606
 21
73.256748
  0
LINE
  8
CSLAYER1
  6
CONTINUOUS
 62
     6
 10
278.742606
 20
73.256748
 11
278.570265
 21
73.270631
  0
LINE
  8
CSLAYER1
  6
CONTINUOUS
 62
     6
 10
278.570265
 20
73.270631
 11
278.402668
 21
73.284124
  0
LINE
  8
CSLAYER1
  6
CONTINUOUS
 62
     6
 10
278.402668
 20
73.284124
 11
278.211877
 21
73.295394
  0
LINE
  8
CSLAYER1
  6
CONTINUOUS
 62
     6
 10
278.211877
 20
73.295394
 11
278.015136
 21
73.299318
  0
LINE
  8
CSLAYER1
  6
CONTINUOUS
 62
     6
 10
278.015136
 20
73.299318
 11
277.813870
 21
73.296539
  0
LINE
  8
CSLAYER1
  6
CONTINUOUS
 62
     6
 10
277.813870
 20
73.296539
 11
277.609499
 21
73.287696
  0
LINE
  8
CSLAYER1
  6
CONTINUOUS
 62
     6
 10
277.609499
 20
73.287696
 11
277.403448
 21
73.273431
  0
LINE
  8
CSLAYER1
  6
CONTINUOUS
 62
     6
 10
277.403448
 20
73.273431
 11
277.197140
 21
73.254383
  0
LINE
  8
CSLAYER1
  6
CONTINUOUS
 62
     6
 10
277.197140
 20
73.254383
 11
276.991996
 21
73.231195
  0
LINE
  8
CSLAYER1
  6
CONTINUOUS
 62
     6
 10
276.991996
 20
73.231195
 11
276.789440
 21
73.204506
  0
LINE
  8
CSLAYER1
  6
CONTINUOUS
 62
     6
 10
276.789440
 20
73.204506
 11
276.590895
 21
73.174957
  0
LINE
  8
CSLAYER1
  6
CONTINUOUS
 62
     6
 10
276.590895
 20
73.174957
 11
276.397784
 21
73.143190
  0
LINE
  8
CSLAYER1
  6
CONTINUOUS
 62
     6
 10
276.397784
 20
73.143190
 11
276.211529
 21
73.109844
  0
LINE
  8
CSLAYER1
  6
CONTINUOUS
 62
     6
 10
276.211529
 20
73.109844
 11
276.049998
 21
73.076469
  0
LINE
  8
CSLAYER1
  6
CONTINUOUS
 62
     6
 10
276.049998
 20
73.076469
 11
275.885778
 21
73.036150
  0
LINE
  8
CSLAYER1
  6
CONTINUOUS
 62
     6
 10
275.885778
 20
73.036150
 11
275.719588
 21
72.989342
  0
LINE
  8
CSLAYER1
  6
CONTINUOUS
 62
     6
 10
275.719588
 20
72.989342
 11
275.552146
 21
72.936495
  0
LINE
  8
CSLAYER1
  6
CONTINUOUS
 62
     6
 10
275.552146
 20
72.936495
 11
275.384170
 21
72.878062
  0
LINE
  8
CSLAYER1
  6
CONTINUOUS
 62
     6
 10
275.384170
 20
72.878062
 11
275.216378
 21
72.814495
  0
LINE
  8
CSLAYER1
  6
CONTINUOUS
 62
     6
 10
275.216378
 20
72.814495
 11
275.049489
 21
72.746246
  0
LINE
  8
CSLAYER1
  6
CONTINUOUS
 62
     6
 10
275.049489
 20
72.746246
 11
274.884220
 21
72.673767
  0
LINE
  8
CSLAYER1
  6
CONTINUOUS
 62
     6
 10
274.884220
 20
72.673767
 11
274.721290
 21
72.597510
  0
LINE
  8
CSLAYER1
  6
CONTINUOUS
 62
     6
 10
274.721290
 20
72.597510
 11
274.561418
 21
72.517929
  0
LINE
  8
CSLAYER1
  6
CONTINUOUS
 62
     6
 10
274.561418
 20
72.517929
 11
274.405320
 21
72.435474
  0
LINE
  8
CSLAYER1
  6
CONTINUOUS
 62
     6
 10
274.405320
 20
72.435474
 11
274.276615
 21
72.363681
  0
LINE
  8
CSLAYER1
  6
CONTINUOUS
 62
     6
 10
274.276615
 20
72.363681
 11
274.149426
 21
72.289351
  0
LINE
  8
CSLAYER1
  6
CONTINUOUS
 62
     6
 10
274.149426
 20
72.289351
 11
274.023601
 21
72.212737
  0
LINE
  8
CSLAYER1
  6
CONTINUOUS
 62
     6
 10
274.023601
 20
72.212737
 11
273.898988
 21
72.134094
  0
LINE
  8
CSLAYER1
  6
CONTINUOUS
 62
     6
 10
273.898988
 20
72.134094
 11
273.775435
 21
72.053674
  0
LINE
  8
CSLAYER1
  6
CONTINUOUS
 62
     6
 10
273.775435
 20
72.053674
 11
273.652792
 21
71.971731
  0
LINE
  8
CSLAYER1
  6
CONTINUOUS
 62
     6
 10
273.652792
 20
71.971731
 11
273.530907
 21
71.888520
  0
LINE
  8
CSLAYER1
  6
CONTINUOUS
 62
     6
 10
273.530907
 20
71.888520
 11
273.409627
 21
71.804294
  0
LINE
  8
CSLAYER1
  6
CONTINUOUS
 62
     6
 10
273.409627
 20
71.804294
 11
273.288803
 21
71.719307
  0
LINE
  8
CSLAYER1
  6
CONTINUOUS
 62
     6
 10
273.288803
 20
71.719307
 11
273.168281
 21
71.633812
  0
LINE
  8
CSLAYER1
  6
CONTINUOUS
 62
     6
 10
273.168281
 20
71.633812
 11
273.047911
 21
71.548063
  0
ARC
  8
CSLAYER1
  6
CONTINUOUS
 62
     6
 10
271.550250
 20
71.464847
 40
1.500006
 50
3.178280
 51
63.178280
  0
ARC
  8
CSLAYER1
  6
CONTINUOUS
 62
     6
 10
273.724774
 20
72.886639
 40
1.500006
 50
183.178280
 51
243.178280
  0
LINE
  8
CSLAYER1
  6
CONTINUOUS
 62
     6
 10
271.885631
 20
72.159123
 11
269.820139
 21
72.159123
  0
ARC
  8
CSLAYER1
  6
CONTINUOUS
 62
     6
 10
269.018470
 20
70.891319
 40
1.500000
 50
18.366208
 51
78.366208
  0
ARC
  8
CSLAYER1
  6
CONTINUOUS
 62
     6
 10
270.744547
 20
72.833138
 40
1.500000
 50
198.366208
 51
258.366208
  0
LINE
  8
CSLAYER1
  6
CONTINUOUS
 62
     6
 10
269.320946
 20
72.360558
 11
269.218745
 21
72.271319
  0
LINE
  8
CSLAYER1
  6
CONTINUOUS
 62
     6
 10
269.218745
 20
72.271319
 11
269.114570
 21
72.174226
  0
LINE
  8
CSLAYER1
  6
CONTINUOUS
 62
     6
 10
269.114570
 20
72.174226
 11
269.009345
 21
72.070480
  0
LINE
  8
CSLAYER1
  6
CONTINUOUS
 62
     6
 10
269.009345
 20
72.070480
 11
268.903995
 21
71.961283
  0
LINE
  8
CSLAYER1
  6
CONTINUOUS
 62
     6
 10
268.903995
 20
71.961283
 11
268.799444
 21
71.847836
  0
LINE
  8
CSLAYER1
  6
CONTINUOUS
 62
     6
 10
268.799444
 20
71.847836
 11
268.696614
 21
71.731338
  0
LINE
  8
CSLAYER1
  6
CONTINUOUS
 62
     6
 10
268.696614
 20
71.731338
 11
268.596432
 21
71.612993
  0
LINE
  8
CSLAYER1
  6
CONTINUOUS
 62
     6
 10
268.596432
 20
71.612993
 11
268.499819
 21
71.494000
  0
LINE
  8
CSLAYER1
  6
CONTINUOUS
 62
     6
 10
268.499819
 20
71.494000
 11
268.407701
 21
71.375560
  0
LINE
  8
CSLAYER1
  6
CONTINUOUS
 62
     6
 10
268.407701
 20
71.375560
 11
268.321002
 21
71.258875
  0
LINE
  8
CSLAYER1
  6
CONTINUOUS
 62
     6
 10
268.321002
 20
71.258875
 11
268.240645
 21
71.145146
  0
LINE
  8
CSLAYER1
  6
CONTINUOUS
 62
     6
 10
268.240645
 20
71.145146
 11
268.159328
 21
71.019660
  0
LINE
  8
CSLAYER1
  6
CONTINUOUS
 62
     6
 10
268.159328
 20
71.019660
 11
268.082298
 21
70.886961
  0
LINE
  8
CSLAYER1
  6
CONTINUOUS
 62
     6
 10
268.082298
 20
70.886961
 11
268.009278
 21
70.747996
  0
LINE
  8
CSLAYER1
  6
CONTINUOUS
 62
     6
 10
268.009278
 20
70.747996
 11
267.939987
 21
70.603713
  0
LINE
  8
CSLAYER1
  6
CONTINUOUS
 62
     6
 10
267.939987
 20
70.603713
 11
267.874146
 21
70.455058
  0
LINE
  8
CSLAYER1
  6
CONTINUOUS
 62
     6
 10
267.874146
 20
70.455058
 11
267.811478
 21
70.302980
  0
LINE
  8
CSLAYER1
  6
CONTINUOUS
 62
     6
 10
267.811478
 20
70.302980
 11
267.751702
 21
70.148425
  0
LINE
  8
CSLAYER1
  6
CONTINUOUS
 62
     6
 10
267.751702
 20
70.148425
 11
267.694539
 21
69.992341
  0
LINE
  8
CSLAYER1
  6
CONTINUOUS
 62
     6
 10
267.694539
 20
69.992341
 11
267.639711
 21
69.835675
  0
LINE
  8
CSLAYER1
  6
CONTINUOUS
 62
     6
 10
267.639711
 20
69.835675
 11
267.586939
 21
69.679374
  0
LINE
  8
CSLAYER1
  6
CONTINUOUS
 62
     6
 10
267.586939
 20
69.679374
 11
267.535943
 21
69.524386
  0
LINE
  8
CSLAYER1
  6
CONTINUOUS
 62
     6
 10
267.535943
 20
69.524386
 11
267.489436
 21
69.380639
  0
LINE
  8
CSLAYER1
  6
CONTINUOUS
 62
     6
 10
267.489436
 20
69.380639
 11
267.443612
 21
69.236996
  0
LINE
  8
CSLAYER1
  6
CONTINUOUS
 62
     6
 10
267.443612
 20
69.236996
 11
267.398404
 21
69.093448
  0
LINE
  8
CSLAYER1
  6
CONTINUOUS
 62
     6
 10
267.398404
 20
69.093448
 11
267.353743
 21
68.949984
  0
LINE
  8
CSLAYER1
  6
CONTINUOUS
 62
     6
 10
267.353743
 20
68.949984
 11
267.309560
 21
68.806594
  0
LINE
  8
CSLAYER1
  6
CONTINUOUS
 62
     6
 10
267.309560
 20
68.806594
 11
267.265787
 21
68.663266
  0
LINE
  8
CSLAYER1
  6
CONTINUOUS
 62
     6
 10
267.265787
 20
68.663266
 11
267.222356
 21
68.519991
  0
LINE
  8
CSLAYER1
  6
CONTINUOUS
 62
     6
 10
267.222356
 20
68.519991
 11
267.179198
 21
68.376759
  0
LINE
  8
CSLAYER1
  6
CONTINUOUS
 62
     6
 10
267.179198
 20
68.376759
 11
267.136246
 21
68.233557
  0
LINE
  8
CSLAYER1
  6
CONTINUOUS
 62
     6
 10
267.136246
 20
68.233557
 11
267.093430
 21
68.090377
  0
LINE
  8
CSLAYER1
  6
CONTINUOUS
 62
     6
 10
267.093430
 20
68.090377
 11
267.050683
 21
67.947207
  0
ARC
  8
CSLAYER1
  6
CONTINUOUS
 62
     6
 10
268.149544
 20
68.968268
 40
1.500000
 50
222.897147
 51
282.897147
  0
ARC
  8
CSLAYER1
  6
CONTINUOUS
 62
     6
 10
269.583211
 20
68.527136
 40
1.500000
 50
222.897147
 51
282.897147
  0
ARC
  8
CSLAYER1
  6
CONTINUOUS
 62
     6
 10
268.819148
 20
66.043951
 40
1.500000
 50
42.897147
 51
102.897147
  0
LINE
  8
CSLAYER1
  6
CONTINUOUS
 62
     6
 10
268.385425
 20
67.486931
 11
267.591851
 21
64.454308
  0
LINE
  8
CSLAYER1
  6
CONTINUOUS
 62
     6
 10
266.872085
 20
64.972588
 11
267.724453
 21
67.529762
  0
LINE
  8
CSLAYER1
  6
CONTINUOUS
 62
     6
 10
269.135493
 20
67.095512
 11
268.455542
 21
64.080054
  0
LINE
  8
CSLAYER1
  6
CONTINUOUS
 62
     6
 10
269.917980
 20
67.064962
 11
269.956048
 21
67.193650
  0
LINE
  8
CSLAYER1
  6
CONTINUOUS
 62
     6
 10
269.956048
 20
67.193650
 11
269.994194
 21
67.322345
  0
LINE
  8
CSLAYER1
  6
CONTINUOUS
 62
     6
 10
269.994194
 20
67.322345
 11
270.032497
 21
67.451053
  0
LINE
  8
CSLAYER1
  6
CONTINUOUS
 62
     6
 10
270.032497
 20
67.451053
 11
270.071035
 21
67.579781
  0
LINE
  8
CSLAYER1
  6
CONTINUOUS
 62
     6
 10
270.071035
 20
67.579781
 11
270.109887
 21
67.708534
  0
LINE
  8
CSLAYER1
  6
CONTINUOUS
 62
     6
 10
270.109887
 20
67.708534
 11
270.149131
 21
67.837319
  0
LINE
  8
CSLAYER1
  6
CONTINUOUS
 62
     6
 10
270.149131
 20
67.837319
 11
270.188845
 21
67.966144
  0
LINE
  8
CSLAYER1
  6
CONTINUOUS
 62
     6
 10
270.188845
 20
67.966144
 11
270.229108
 21
68.095013
  0
LINE
  8
CSLAYER1
  6
CONTINUOUS
 62
     6
 10
270.229108
 20
68.095013
 11
270.269998
 21
68.223934
  0
LINE
  8
CSLAYER1
  6
CONTINUOUS
 62
     6
 10
270.269998
 20
68.223934
 11
270.311595
 21
68.352913
  0
LINE
  8
CSLAYER1
  6
CONTINUOUS
 62
     6
 10
270.311595
 20
68.352913
 11
270.353975
 21
68.481957
  0
LINE
  8
CSLAYER1
  6
CONTINUOUS
 62
     6
 10
270.353975
 20
68.481957
 11
270.386787
 21
68.580078
  0
LINE
  8
CSLAYER1
  6
CONTINUOUS
 62
     6
 10
270.386787
 20
68.580078
 11
270.420626
 21
68.678894
  0
LINE
  8
CSLAYER1
  6
CONTINUOUS
 62
     6
 10
270.420626
 20
68.678894
 11
270.455670
 21
68.777863
  0
LINE
  8
CSLAYER1
  6
CONTINUOUS
 62
     6
 10
270.455670
 20
68.777863
 11
270.492099
 21
68.876440
  0
LINE
  8
CSLAYER1
  6
CONTINUOUS
 62
     6
 10
270.492099
 20
68.876440
 11
270.530093
 21
68.974083
  0
LINE
  8
CSLAYER1
  6
CONTINUOUS
 62
     6
 10
270.530093
 20
68.974083
 11
270.569829
 21
69.070249
  0
LINE
  8
CSLAYER1
  6
CONTINUOUS
 62
     6
 10
270.569829
 20
69.070249
 11
270.611488
 21
69.164395
  0
LINE
  8
CSLAYER1
  6
CONTINUOUS
 62
     6
 10
270.611488
 20
69.164395
 11
270.655248
 21
69.255978
  0
LINE
  8
CSLAYER1
  6
CONTINUOUS
 62
     6
 10
270.655248
 20
69.255978
 11
270.701289
 21
69.344455
  0
LINE
  8
CSLAYER1
  6
CONTINUOUS
 62
     6
 10
270.701289
 20
69.344455
 11
270.749790
 21
69.429282
  0
LINE
  8
CSLAYER1
  6
CONTINUOUS
 62
     6
 10
270.749790
 20
69.429282
 11
270.800931
 21
69.509918
  0
LINE
  8
CSLAYER1
  6
CONTINUOUS
 62
     6
 10
270.800931
 20
69.509918
 11
270.857222
 21
69.591298
  0
LINE
  8
CSLAYER1
  6
CONTINUOUS
 62
     6
 10
270.857222
 20
69.591298
 11
270.918131
 21
69.674471
  0
LINE
  8
CSLAYER1
  6
CONTINUOUS
 62
     6
 10
270.918131
 20
69.674471
 11
270.982985
 21
69.758612
  0
LINE
  8
CSLAYER1
  6
CONTINUOUS
 62
     6
 10
270.982985
 20
69.758612
 11
271.051112
 21
69.842895
  0
LINE
  8
CSLAYER1
  6
CONTINUOUS
 62
     6
 10
271.051112
 20
69.842895
 11
271.121842
 21
69.926493
  0
LINE
  8
CSLAYER1
  6
CONTINUOUS
 62
     6
 10
271.121842
 20
69.926493
 11
271.194501
 21
70.008580
  0
LINE
  8
CSLAYER1
  6
CONTINUOUS
 62
     6
 10
271.194501
 20
70.008580
 11
271.268419
 21
70.088331
  0
LINE
  8
CSLAYER1
  6
CONTINUOUS
 62
     6
 10
271.268419
 20
70.088331
 11
271.342924
 21
70.164919
  0
LINE
  8
CSLAYER1
  6
CONTINUOUS
 62
     6
 10
271.342924
 20
70.164919
 11
271.417343
 21
70.237518
  0
LINE
  8
CSLAYER1
  6
CONTINUOUS
 62
     6
 10
271.417343
 20
70.237518
 11
271.491006
 21
70.305303
  0
LINE
  8
CSLAYER1
  6
CONTINUOUS
 62
     6
 10
271.491006
 20
70.305303
 11
271.563240
 21
70.367447
  0
ARC
  8
CSLAYER1
  6
CONTINUOUS
 62
     6
 10
270.139580
 20
69.894768
 40
1.500000
 50
18.366208
 51
78.366208
  0
LINE
  8
CSLAYER1
  6
CONTINUOUS
 62
     6
 10
269.099252
 20
72.159123
 11
266.891864
 21
72.159123
  0
LINE
  8
CSLAYER1
  6
CONTINUOUS
 62
     6
 10
266.879930
 20
72.138184
 11
266.961729
 21
72.281708
  0
LINE
  8
CSLAYER1
  6
CONTINUOUS
 62
     6
 10
266.961729
 20
72.281708
 11
267.045972
 21
72.423754
  0
LINE
  8
CSLAYER1
  6
CONTINUOUS
 62
     6
 10
267.045972
 20
72.423754
 11
267.133007
 21
72.564111
  0
LINE
  8
CSLAYER1
  6
CONTINUOUS
 62
     6
 10
267.133007
 20
72.564111
 11
267.223183
 21
72.702568
  0
LINE
  8
CSLAYER1
  6
CONTINUOUS
 62
     6
 10
267.223183
 20
72.702568
 11
267.316850
 21
72.838914
  0
LINE
  8
CSLAYER1
  6
CONTINUOUS
 62
     6
 10
267.316850
 20
72.838914
 11
267.391272
 21
72.942176
  0
LINE
  8
CSLAYER1
  6
CONTINUOUS
 62
     6
 10
267.391272
 20
72.942176
 11
267.468473
 21
73.045062
  0
LINE
  8
CSLAYER1
  6
CONTINUOUS
 62
     6
 10
267.468473
 20
73.045062
 11
267.548232
 21
73.147031
  0
LINE
  8
CSLAYER1
  6
CONTINUOUS
 62
     6
 10
267.548232
 20
73.147031
 11
267.630325
 21
73.247543
  0
LINE
  8
CSLAYER1
  6
CONTINUOUS
 62
     6
 10
267.630325
 20
73.247543
 11
267.714529
 21
73.346055
  0
LINE
  8
CSLAYER1
  6
CONTINUOUS
 62
     6
 10
267.714529
 20
73.346055
 11
267.800621
 21
73.442027
  0
LINE
  8
CSLAYER1
  6
CONTINUOUS
 62
     6
 10
267.800621
 20
73.442027
 11
267.888377
 21
73.534918
  0
LINE
  8
CSLAYER1
  6
CONTINUOUS
 62
     6
 10
267.888377
 20
73.534918
 11
267.977574
 21
73.624185
  0
LINE
  8
CSLAYER1
  6
CONTINUOUS
 62
     6
 10
267.977574
 20
73.624185
 11
268.067990
 21
73.709289
  0
LINE
  8
CSLAYER1
  6
CONTINUOUS
 62
     6
 10
268.067990
 20
73.709289
 11
268.159400
 21
73.789688
  0
LINE
  8
CSLAYER1
  6
CONTINUOUS
 62
     6
 10
268.159400
 20
73.789688
 11
268.251581
 21
73.864840
  0
LINE
  8
CSLAYER1
  6
CONTINUOUS
 62
     6
 10
268.251581
 20
73.864840
 11
268.369830
 21
73.955907
  0
LINE
  8
CSLAYER1
  6
CONTINUOUS
 62
     6
 10
268.369830
 20
73.955907
 11
268.494477
 21
74.049028
  0
LINE
  8
CSLAYER1
  6
CONTINUOUS
 62
     6
 10
268.494477
 20
74.049028
 11
268.624277
 21
74.143084
  0
LINE
  8
CSLAYER1
  6
CONTINUOUS
 62
     6
 10
268.624277
 20
74.143084
 11
268.757982
 21
74.236957
  0
LINE
  8
CSLAYER1
  6
CONTINUOUS
 62
     6
 10
268.757982
 20
74.236957
 11
268.894346
 21
74.329527
  0
LINE
  8
CSLAYER1
  6
CONTINUOUS
 62
     6
 10
268.894346
 20
74.329527
 11
269.032121
 21
74.419677
  0
LINE
  8
CSLAYER1
  6
CONTINUOUS
 62
     6
 10
269.032121
 20
74.419677
 11
269.170062
 21
74.506288
  0
LINE
  8
CSLAYER1
  6
CONTINUOUS
 62
     6
 10
269.170062
 20
74.506288
 11
269.306921
 21
74.588240
  0
LINE
  8
CSLAYER1
  6
CONTINUOUS
 62
     6
 10
269.306921
 20
74.588240
 11
269.441452
 21
74.664415
  0
LINE
  8
CSLAYER1
  6
CONTINUOUS
 62
     6
 10
269.441452
 20
74.664415
 11
269.572408
 21
74.733695
  0
LINE
  8
CSLAYER1
  6
CONTINUOUS
 62
     6
 10
269.572408
 20
74.733695
 11
269.698543
 21
74.794960
  0
ARC
  8
CSLAYER1
  6
CONTINUOUS
 62
     6
 10
268.200304
 20
74.723428
 40
1.499998
 50
2.735346
 51
62.735346
  0
ARC
  8
CSLAYER1
  6
CONTINUOUS
 62
     6
 10
269.574607
 20
77.390124
 40
1.499998
 50
182.735346
 51
242.735346
  0
ARC
  8
CSLAYER1
  6
CONTINUOUS
 62
     6
 10
267.389166
 20
75.985192
 40
1.499998
 50
2.735346
 51
62.735346
  0
LINE
  8
CSLAYER1
  6
CONTINUOUS
 62
     6
 10
268.076240
 20
77.318600
 11
267.920711
 21
77.240779
  0
LINE
  8
CSLAYER1
  6
CONTINUOUS
 62
     6
 10
267.920711
 20
77.240779
 11
267.759724
 21
77.153693
  0
LINE
  8
CSLAYER1
  6
CONTINUOUS
 62
     6
 10
267.759724
 20
77.153693
 11
267.594693
 21
77.058692
  0
LINE
  8
CSLAYER1
  6
CONTINUOUS
 62
     6
 10
267.594693
 20
77.058692
 11
267.427033
 21
76.957126
  0
LINE
  8
CSLAYER1
  6
CONTINUOUS
 62
     6
 10
267.427033
 20
76.957126
 11
267.258160
 21
76.850346
  0
LINE
  8
CSLAYER1
  6
CONTINUOUS
 62
     6
 10
267.258160
 20
76.850346
 11
267.089486
 21
76.739703
  0
LINE
  8
CSLAYER1
  6
CONTINUOUS
 62
     6
 10
267.089486
 20
76.739703
 11
266.922428
 21
76.626546
  0
LINE
  8
CSLAYER1
  6
CONTINUOUS
 62
     6
 10
266.922428
 20
76.626546
 11
266.758400
 21
76.512226
  0
LINE
  8
CSLAYER1
  6
CONTINUOUS
 62
     6
 10
266.758400
 20
76.512226
 11
266.598817
 21
76.398093
  0
LINE
  8
CSLAYER1
  6
CONTINUOUS
 62
     6
 10
266.598817
 20
76.398093
 11
266.445092
 21
76.285499
  0
LINE
  8
CSLAYER1
  6
CONTINUOUS
 62
     6
 10
266.445092
 20
76.285499
 11
266.298642
 21
76.175792
  0
LINE
  8
CSLAYER1
  6
CONTINUOUS
 62
     6
 10
266.298642
 20
76.175792
 11
266.156591
 21
76.063211
  0
LINE
  8
CSLAYER1
  6
CONTINUOUS
 62
     6
 10
266.156591
 20
76.063211
 11
266.015921
 21
75.942088
  0
LINE
  8
CSLAYER1
  6
CONTINUOUS
 62
     6
 10
266.015921
 20
75.942088
 11
265.876998
 21
75.813289
  0
LINE
  8
CSLAYER1
  6
CONTINUOUS
 62
     6
 10
265.876998
 20
75.813289
 11
265.740190
 21
75.677681
  0
LINE
  8
CSLAYER1
  6
CONTINUOUS
 62
     6
 10
265.740190
 20
75.677681
 11
265.605865
 21
75.536132
  0
LINE
  8
CSLAYER1
  6
CONTINUOUS
 62
     6
 10
265.605865
 20
75.536132
 11
265.474391
 21
75.389509
  0
LINE
  8
CSLAYER1
  6
CONTINUOUS
 62
     6
 10
265.474391
 20
75.389509
 11
265.346136
 21
75.238679
  0
LINE
  8
CSLAYER1
  6
CONTINUOUS
 62
     6
 10
265.346136
 20
75.238679
 11
265.221469
 21
75.084509
  0
LINE
  8
CSLAYER1
  6
CONTINUOUS
 62
     6
 10
265.221469
 20
75.084509
 11
265.100755
 21
74.927866
  0
LINE
  8
CSLAYER1
  6
CONTINUOUS
 62
     6
 10
265.100755
 20
74.927866
 11
264.984365
 21
74.769617
  0
LINE
  8
CSLAYER1
  6
CONTINUOUS
 62
     6
 10
264.984365
 20
74.769617
 11
264.872665
 21
74.610630
  0
LINE
  8
CSLAYER1
  6
CONTINUOUS
 62
     6
 10
264.872665
 20
74.610630
 11
264.763485
 21
74.447703
  0
LINE
  8
CSLAYER1
  6
CONTINUOUS
 62
     6
 10
264.763485
 20
74.447703
 11
264.657919
 21
74.282658
  0
LINE
  8
CSLAYER1
  6
CONTINUOUS
 62
     6
 10
264.657919
 20
74.282658
 11
264.555605
 21
74.115707
  0
LINE
  8
CSLAYER1
  6
CONTINUOUS
 62
     6
 10
264.555605
 20
74.115707
 11
264.456182
 21
73.947062
  0
LINE
  8
CSLAYER1
  6
CONTINUOUS
 62
     6
 10
264.456182
 20
73.947062
 11
264.359289
 21
73.776935
  0
LINE
  8
CSLAYER1
  6
CONTINUOUS
 62
     6
 10
264.359289
 20
73.776935
 11
264.264564
 21
73.605538
  0
LINE
  8
CSLAYER1
  6
CONTINUOUS
 62
     6
 10
264.264564
 20
73.605538
 11
264.171645
 21
73.433081
  0
LINE
  8
CSLAYER1
  6
CONTINUOUS
 62
     6
 10
264.171645
 20
73.433081
 11
264.080173
 21
73.259778
  0
LINE
  8
CSLAYER1
  6
CONTINUOUS
 62
     6
 10
264.080173
 20
73.259778
 11
263.989784
 21
73.085839
  0
LINE
  8
CSLAYER1
  6
CONTINUOUS
 62
     6
 10
263.989784
 20
73.085839
 11
263.900118
 21
72.911477
  0
LINE
  8
CSLAYER1
  6
CONTINUOUS
 62
     6
 10
263.900118
 20
72.911477
 11
263.810814
 21
72.736903
  0
ARC
  8
CSLAYER1
  6
CONTINUOUS
 62
     6
 10
265.103795
 20
73.497341
 40
1.499998
 50
210.461270
 51
270.461270
  0
ARC
  8
CSLAYER1
  6
CONTINUOUS
 62
     6
 10
266.408827
 20
72.757824
 40
1.499998
 50
210.461270
 51
270.461270
  0
ARC
  8
CSLAYER1
  6
CONTINUOUS
 62
     6
 10
265.127946
 20
70.497442
 40
1.499998
 50
30.461270
 51
90.461270
  0
LINE
  8
CSLAYER1
  6
CONTINUOUS
 62
     6
 10
264.956996
 20
72.004543
 11
263.791539
 21
68.600110
  0
LINE
  8
CSLAYER1
  6
CONTINUOUS
 62
     6
 10
264.655227
 20
68.312225
 11
265.532956
 21
71.540103
  0
LINE
  8
CSLAYER1
  6
CONTINUOUS
 62
     6
 10
266.420898
 20
71.257829
 11
266.495367
 21
71.405787
  0
LINE
  8
CSLAYER1
  6
CONTINUOUS
 62
     6
 10
266.495367
 20
71.405787
 11
266.570185
 21
71.553533
  0
LINE
  8
CSLAYER1
  6
CONTINUOUS
 62
     6
 10
266.570185
 20
71.553533
 11
266.645702
 21
71.700857
  0
LINE
  8
CSLAYER1
  6
CONTINUOUS
 62
     6
 10
266.645702
 20
71.700857
 11
266.722265
 21
71.847548
  0
LINE
  8
CSLAYER1
  6
CONTINUOUS
 62
     6
 10
266.722265
 20
71.847548
 11
266.800225
 21
71.993394
  0
LINE
  8
CSLAYER1
  6
CONTINUOUS
 62
     6
 10
266.800225
 20
71.993394
 11
266.879930
 21
72.138184
  0
LINE
  8
CSLAYER1
  6
CONTINUOUS
 62
     6
 10
264.426176
 20
72.159123
 11
250.885631
 21
72.159123
  0
ARC
  8
CSLAYER1
  6
CONTINUOUS
 62
     6
 10
250.885631
 20
76.159123
 40
4.000000
 50
234.043961
 51
270.000000
  0
LINE
  8
CSLAYER1
  6
CONTINUOUS
 62
     6
 10
248.565023
 20
72.932762
 11
248.500332
 21
72.870738
  0
LINE
  8
CSLAYER1
  6
CONTINUOUS
 62
     6
 10
248.500332
 20
72.870738
 11
248.436456
 21
72.805213
  0
LINE
  8
CSLAYER1
  6
CONTINUOUS
 62
     6
 10
248.436456
 20
72.805213
 11
248.373606
 21
72.736584
  0
LINE
  8
CSLAYER1
  6
CONTINUOUS
 62
     6
 10
248.373606
 20
72.736584
 11
248.311990
 21
72.665250
  0
LINE
  8
CSLAYER1
  6
CONTINUOUS
 62
     6
 10
248.311990
 20
72.665250
 11
248.251820
 21
72.591608
  0
LINE
  8
CSLAYER1
  6
CONTINUOUS
 62
     6
 10
248.251820
 20
72.591608
 11
248.193305
 21
72.516057
  0
LINE
  8
CSLAYER1
  6
CONTINUOUS
 62
     6
 10
248.193305
 20
72.516057
 11
248.136655
 21
72.438993
  0
LINE
  8
CSLAYER1
  6
CONTINUOUS
 62
     6
 10
248.136655
 20
72.438993
 11
248.082079
 21
72.360816
  0
LINE
  8
CSLAYER1
  6
CONTINUOUS
 62
     6
 10
248.082079
 20
72.360816
 11
248.029788
 21
72.281922
  0
LINE
  8
CSLAYER1
  6
CONTINUOUS
 62
     6
 10
248.029788
 20
72.281922
 11
247.979991
 21
72.202710
  0
LINE
  8
CSLAYER1
  6
CONTINUOUS
 62
     6
 10
247.979991
 20
72.202710
 11
247.939941
 21
72.135651
  0
LINE
  8
CSLAYER1
  6
CONTINUOUS
 62
     6
 10
247.939941
 20
72.135651
 11
247.901259
 21
72.067829
  0
LINE
  8
CSLAYER1
  6
CONTINUOUS
 62
     6
 10
247.901259
 20
72.067829
 11
247.863809
 21
71.999320
  0
LINE
  8
CSLAYER1
  6
CONTINUOUS
 62
     6
 10
247.863809
 20
71.999320
 11
247.827453
 21
71.930200
  0
LINE
  8
CSLAYER1
  6
CONTINUOUS
 62
     6
 10
247.827453
 20
71.930200
 11
247.792055
 21
71.860547
  0
LINE
  8
CSLAYER1
  6
CONTINUOUS
 62
     6
 10
247.792055
 20
71.860547
 11
247.757477
 21
71.790435
  0
LINE
  8
CSLAYER1
  6
CONTINUOUS
 62
     6
 10
247.757477
 20
71.790435
 11
247.723583
 21
71.719942
  0
LINE
  8
CSLAYER1
  6
CONTINUOUS
 62
     6
 10
247.723583
 20
71.719942
 11
247.690237
 21
71.649144
  0
LINE
  8
CSLAYER1
  6
CONTINUOUS
 62
     6
 10
247.690237
 20
71.649144
 11
247.657301
 21
71.578117
  0
LINE
  8
CSLAYER1
  6
CONTINUOUS
 62
     6
 10
247.657301
 20
71.578117
 11
247.624638
 21
71.506937
  0
LINE
  8
CSLAYER1
  6
CONTINUOUS
 62
     6
 10
247.624638
 20
71.506937
 11
247.592113
 21
71.435681
  0
ARC
  8
CSLAYER1
  6
CONTINUOUS
 62
     6
 10
246.926748
 20
71.000605
 40
0.795003
 50
33.178280
 51
93.178280
  0
ARC
  8
CSLAYER1
  6
CONTINUOUS
 62
     6
 10
247.548066
 20
72.229447
 40
0.795003
 50
213.178280
 51
273.178280
  0
ARC
  8
CSLAYER1
  6
CONTINUOUS
 62
     6
 10
246.838593
 20
72.588165
 40
0.795003
 50
213.178280
 51
273.178280
  0
LINE
  8
CSLAYER1
  6
CONTINUOUS
 62
     6
 10
246.173168
 20
72.153119
 11
246.212639
 21
72.238905
  0
LINE
  8
CSLAYER1
  6
CONTINUOUS
 62
     6
 10
246.212639
 20
72.238905
 11
246.252262
 21
72.324607
  0
LINE
  8
CSLAYER1
  6
CONTINUOUS
 62
     6
 10
246.252262
 20
72.324607
 11
246.292190
 21
72.410138
  0
LINE
  8
CSLAYER1
  6
CONTINUOUS
 62
     6
 10
246.292190
 20
72.410138
 11
246.332575
 21
72.495415
  0
LINE
  8
CSLAYER1
  6
CONTINUOUS
 62
     6
 10
246.332575
 20
72.495415
 11
246.373571
 21
72.580351
  0
LINE
  8
CSLAYER1
  6
CONTINUOUS
 62
     6
 10
246.373571
 20
72.580351
 11
246.415328
 21
72.664863
  0
LINE
  8
CSLAYER1
  6
CONTINUOUS
 62
     6
 10
246.415328
 20
72.664863
 11
246.457999
 21
72.748865
  0
LINE
  8
CSLAYER1
  6
CONTINUOUS
 62
     6
 10
246.457999
 20
72.748865
 11
246.501738
 21
72.832272
  0
LINE
  8
CSLAYER1
  6
CONTINUOUS
 62
     6
 10
246.501738
 20
72.832272
 11
246.546696
 21
72.915000
  0
LINE
  8
CSLAYER1
  6
CONTINUOUS
 62
     6
 10
246.546696
 20
72.915000
 11
246.593026
 21
72.996963
  0
LINE
  8
CSLAYER1
  6
CONTINUOUS
 62
     6
 10
246.593026
 20
72.996963
 11
246.640880
 21
73.078076
  0
LINE
  8
CSLAYER1
  6
CONTINUOUS
 62
     6
 10
246.640880
 20
73.078076
 11
246.709552
 21
73.188612
  0
LINE
  8
CSLAYER1
  6
CONTINUOUS
 62
     6
 10
246.709552
 20
73.188612
 11
246.781889
 21
73.298637
  0
LINE
  8
CSLAYER1
  6
CONTINUOUS
 62
     6
 10
246.781889
 20
73.298637
 11
246.857572
 21
73.407597
  0
LINE
  8
CSLAYER1
  6
CONTINUOUS
 62
     6
 10
246.857572
 20
73.407597
 11
246.936284
 21
73.514936
  0
LINE
  8
CSLAYER1
  6
CONTINUOUS
 62
     6
 10
246.936284
 20
73.514936
 11
247.017708
 21
73.620101
  0
LINE
  8
CSLAYER1
  6
CONTINUOUS
 62
     6
 10
247.017708
 20
73.620101
 11
247.101527
 21
73.722536
  0
LINE
  8
CSLAYER1
  6
CONTINUOUS
 62
     6
 10
247.101527
 20
73.722536
 11
247.187425
 21
73.821687
  0
LINE
  8
CSLAYER1
  6
CONTINUOUS
 62
     6
 10
247.187425
 20
73.821687
 11
247.275083
 21
73.917000
  0
LINE
  8
CSLAYER1
  6
CONTINUOUS
 62
     6
 10
247.275083
 20
73.917000
 11
247.364185
 21
74.007919
  0
LINE
  8
CSLAYER1
  6
CONTINUOUS
 62
     6
 10
247.364185
 20
74.007919
 11
247.454414
 21
74.093890
  0
LINE
  8
CSLAYER1
  6
CONTINUOUS
 62
     6
 10
247.454414
 20
74.093890
 11
247.545452
 21
74.174359
  0
LINE
  8
CSLAYER1
  6
CONTINUOUS
 62
     6
 10
247.545452
 20
74.174359
 11
247.646161
 21
74.258822
  0
LINE
  8
CSLAYER1
  6
CONTINUOUS
 62
     6
 10
247.646161
 20
74.258822
 11
247.751380
 21
74.344806
  0
LINE
  8
CSLAYER1
  6
CONTINUOUS
 62
     6
 10
247.751380
 20
74.344806
 11
247.860524
 21
74.431428
  0
LINE
  8
CSLAYER1
  6
CONTINUOUS
 62
     6
 10
247.860524
 20
74.431428
 11
247.973007
 21
74.517806
  0
LINE
  8
CSLAYER1
  6
CONTINUOUS
 62
     6
 10
247.973007
 20
74.517806
 11
248.088247
 21
74.603057
  0
LINE
  8
CSLAYER1
  6
CONTINUOUS
 62
     6
 10
248.088247
 20
74.603057
 11
248.205658
 21
74.686298
  0
LINE
  8
CSLAYER1
  6
CONTINUOUS
 62
     6
 10
248.205658
 20
74.686298
 11
248.324655
 21
74.766648
  0
LINE
  8
CSLAYER1
  6
CONTINUOUS
 62
     6
 10
248.324655
 20
74.766648
 11
248.444655
 21
74.843224
  0
LINE
  8
CSLAYER1
  6
CONTINUOUS
 62
     6
 10
248.444655
 20
74.843224
 11
248.565072
 21
74.915144
  0
LINE
  8
CSLAYER1
  6
CONTINUOUS
 62
     6
 10
248.565072
 20
74.915144
 11
248.685322
 21
74.981525
  0
LINE
  8
CSLAYER1
  6
CONTINUOUS
 62
     6
 10
248.685322
 20
74.981525
 11
248.804821
 21
75.041485
  0
LINE
  8
CSLAYER1
  6
CONTINUOUS
 62
     6
 10
248.804821
 20
75.041485
 11
248.895684
 21
75.084598
  0
LINE
  8
CSLAYER1
  6
CONTINUOUS
 62
     6
 10
248.895684
 20
75.084598
 11
248.988803
 21
75.128676
  0
LINE
  8
CSLAYER1
  6
CONTINUOUS
 62
     6
 10
248.988803
 20
75.128676
 11
249.083728
 21
75.173402
  0
LINE
  8
CSLAYER1
  6
CONTINUOUS
 62
     6
 10
249.083728
 20
75.173402
 11
249.180006
 21
75.218462
  0
LINE
  8
CSLAYER1
  6
CONTINUOUS
 62
     6
 10
249.180006
 20
75.218462
 11
249.277187
 21
75.263539
  0
LINE
  8
CSLAYER1
  6
CONTINUOUS
 62
     6
 10
249.277187
 20
75.263539
 11
249.374821
 21
75.308318
  0
LINE
  8
CSLAYER1
  6
CONTINUOUS
 62
     6
 10
249.374821
 20
75.308318
 11
249.472455
 21
75.352484
  0
LINE
  8
CSLAYER1
  6
CONTINUOUS
 62
     6
 10
249.472455
 20
75.352484
 11
249.569639
 21
75.395722
  0
LINE
  8
CSLAYER1
  6
CONTINUOUS
 62
     6
 10
249.569639
 20
75.395722
 11
249.665923
 21
75.437715
  0
LINE
  8
CSLAYER1
  6
CONTINUOUS
 62
     6
 10
249.665923
 20
75.437715
 11
249.760855
 21
75.478147
  0
LINE
  8
CSLAYER1
  6
CONTINUOUS
 62
     6
 10
249.760855
 20
75.478147
 11
249.853984
 21
75.516705
  0
LINE
  8
CSLAYER1
  6
CONTINUOUS
 62
     6
 10
249.853984
 20
75.516705
 11
249.927407
 21
75.547070
  0
LINE
  8
CSLAYER1
  6
CONTINUOUS
 62
     6
 10
249.927407
 20
75.547070
 11
250.002437
 21
75.578995
  0
LINE
  8
CSLAYER1
  6
CONTINUOUS
 62
     6
 10
250.002437
 20
75.578995
 11
250.078603
 21
75.612298
  0
LINE
  8
CSLAYER1
  6
CONTINUOUS
 62
     6
 10
250.078603
 20
75.612298
 11
250.155434
 21
75.646796
  0
LINE
  8
CSLAYER1
  6
CONTINUOUS
 62
     6
 10
250.155434
 20
75.646796
 11
250.232460
 21
75.682306
  0
LINE
  8
CSLAYER1
  6
CONTINUOUS
 62
     6
 10
250.232460
 20
75.682306
 11
250.309211
 21
75.718646
  0
LINE
  8
CSLAYER1
  6
CONTINUOUS
 62
     6
 10
250.309211
 20
75.718646
 11
250.385217
 21
75.755632
  0
LINE
  8
CSLAYER1
  6
CONTINUOUS
 62
     6
 10
250.385217
 20
75.755632
 11
250.460006
 21
75.793082
  0
LINE
  8
CSLAYER1
  6
CONTINUOUS
 62
     6
 10
250.460006
 20
75.793082
 11
250.533109
 21
75.830812
  0
LINE
  8
CSLAYER1
  6
CONTINUOUS
 62
     6
 10
250.533109
 20
75.830812
 11
250.604055
 21
75.868640
  0
LINE
  8
CSLAYER1
  6
CONTINUOUS
 62
     6
 10
250.604055
 20
75.868640
 11
250.672374
 21
75.906384
  0
LINE
  8
CSLAYER1
  6
CONTINUOUS
 62
     6
 10
250.672374
 20
75.906384
 11
250.738614
 21
75.944265
  0
LINE
  8
CSLAYER1
  6
CONTINUOUS
 62
     6
 10
250.738614
 20
75.944265
 11
250.807139
 21
75.984560
  0
LINE
  8
CSLAYER1
  6
CONTINUOUS
 62
     6
 10
250.807139
 20
75.984560
 11
250.877257
 21
76.026821
  0
LINE
  8
CSLAYER1
  6
CONTINUOUS
 62
     6
 10
250.877257
 20
76.026821
 11
250.948273
 21
76.070598
  0
LINE
  8
CSLAYER1
  6
CONTINUOUS
 62
     6
 10
250.948273
 20
76.070598
 11
251.019496
 21
76.115444
  0
LINE
  8
CSLAYER1
  6
CONTINUOUS
 62
     6
 10
251.019496
 20
76.115444
 11
251.090232
 21
76.160909
  0
LINE
  8
CSLAYER1
  6
CONTINUOUS
 62
     6
 10
251.090232
 20
76.160909
 11
251.159789
 21
76.206544
  0
LINE
  8
CSLAYER1
  6
CONTINUOUS
 62
     6
 10
251.159789
 20
76.206544
 11
251.227474
 21
76.251901
  0
LINE
  8
CSLAYER1
  6
CONTINUOUS
 62
     6
 10
251.227474
 20
76.251901
 11
251.292593
 21
76.296532
  0
LINE
  8
CSLAYER1
  6
CONTINUOUS
 62
     6
 10
251.292593
 20
76.296532
 11
251.354454
 21
76.339987
  0
LINE
  8
CSLAYER1
  6
CONTINUOUS
 62
     6
 10
251.354454
 20
76.339987
 11
251.412365
 21
76.381817
  0
ARC
  8
CSLAYER1
  6
CONTINUOUS
 62
     6
 10
251.858165
 20
75.722790
 40
0.795000
 50
-58.640300
 51
121.359720
  0
LINE
  8
CSLAYER1
  6
CONTINUOUS
 62
     6
 10
252.271801
 20
75.044110
 11
252.207136
 21
74.997451
  0
LINE
  8
CSLAYER1
  6
CONTINUOUS
 62
     6
 10
252.207136
 20
74.997451
 11
252.138004
 21
74.948948
  0
LINE
  8
CSLAYER1
  6
CONTINUOUS
 62
     6
 10
252.138004
 20
74.948948
 11
252.065203
 21
74.899115
  0
LINE
  8
CSLAYER1
  6
CONTINUOUS
 62
     6
 10
252.065203
 20
74.899115
 11
251.989537
 21
74.848466
  0
LINE
  8
CSLAYER1
  6
CONTINUOUS
 62
     6
 10
251.989537
 20
74.848466
 11
251.911805
 21
74.797513
  0
LINE
  8
CSLAYER1
  6
CONTINUOUS
 62
     6
 10
251.911805
 20
74.797513
 11
251.832809
 21
74.746770
  0
LINE
  8
CSLAYER1
  6
CONTINUOUS
 62
     6
 10
251.832809
 20
74.746770
 11
251.753351
 21
74.696750
  0
LINE
  8
CSLAYER1
  6
CONTINUOUS
 62
     6
 10
251.753351
 20
74.696750
 11
251.674230
 21
74.647967
  0
LINE
  8
CSLAYER1
  6
CONTINUOUS
 62
     6
 10
251.674230
 20
74.647967
 11
251.596249
 21
74.600934
  0
LINE
  8
CSLAYER1
  6
CONTINUOUS
 62
     6
 10
251.596249
 20
74.600934
 11
251.520209
 21
74.556165
  0
LINE
  8
CSLAYER1
  6
CONTINUOUS
 62
     6
 10
251.520209
 20
74.556165
 11
251.446910
 21
74.514172
  0
LINE
  8
CSLAYER1
  6
CONTINUOUS
 62
     6
 10
251.446910
 20
74.514172
 11
251.370331
 21
74.471755
  0
LINE
  8
CSLAYER1
  6
CONTINUOUS
 62
     6
 10
251.370331
 20
74.471755
 11
251.290471
 21
74.429023
  0
LINE
  8
CSLAYER1
  6
CONTINUOUS
 62
     6
 10
251.290471
 20
74.429023
 11
251.207933
 21
74.386244
  0
LINE
  8
CSLAYER1
  6
CONTINUOUS
 62
     6
 10
251.207933
 20
74.386244
 11
251.123323
 21
74.343686
  0
LINE
  8
CSLAYER1
  6
CONTINUOUS
 62
     6
 10
251.123323
 20
74.343686
 11
251.037242
 21
74.301619
  0
LINE
  8
CSLAYER1
  6
CONTINUOUS
 62
     6
 10
251.037242
 20
74.301619
 11
250.950295
 21
74.260311
  0
LINE
  8
CSLAYER1
  6
CONTINUOUS
 62
     6
 10
250.950295
 20
74.260311
 11
250.863085
 21
74.220031
  0
LINE
  8
CSLAYER1
  6
CONTINUOUS
 62
     6
 10
250.863085
 20
74.220031
 11
250.776216
 21
74.181047
  0
LINE
  8
CSLAYER1
  6
CONTINUOUS
 62
     6
 10
250.776216
 20
74.181047
 11
250.690292
 21
74.143630
  0
LINE
  8
CSLAYER1
  6
CONTINUOUS
 62
     6
 10
250.690292
 20
74.143630
 11
250.605916
 21
74.108046
  0
LINE
  8
CSLAYER1
  6
CONTINUOUS
 62
     6
 10
250.605916
 20
74.108046
 11
250.523693
 21
74.074566
  0
LINE
  8
CSLAYER1
  6
CONTINUOUS
 62
     6
 10
250.523693
 20
74.074566
 11
250.441418
 21
74.041022
  0
LINE
  8
CSLAYER1
  6
CONTINUOUS
 62
     6
 10
250.441418
 20
74.041022
 11
250.357216
 21
74.005465
  0
LINE
  8
CSLAYER1
  6
CONTINUOUS
 62
     6
 10
250.357216
 20
74.005465
 11
250.271556
 21
73.968239
  0
LINE
  8
CSLAYER1
  6
CONTINUOUS
 62
     6
 10
250.271556
 20
73.968239
 11
250.184905
 21
73.929686
  0
LINE
  8
CSLAYER1
  6
CONTINUOUS
 62
     6
 10
250.184905
 20
73.929686
 11
250.097729
 21
73.890151
  0
LINE
  8
CSLAYER1
  6
CONTINUOUS
 62
     6
 10
250.097729
 20
73.890151
 11
250.010498
 21
73.849976
  0
LINE
  8
CSLAYER1
  6
CONTINUOUS
 62
     6
 10
250.010498
 20
73.849976
 11
249.923677
 21
73.809506
  0
LINE
  8
CSLAYER1
  6
CONTINUOUS
 62
     6
 10
249.923677
 20
73.809506
 11
249.837735
 21
73.769082
  0
LINE
  8
CSLAYER1
  6
CONTINUOUS
 62
     6
 10
249.837735
 20
73.769082
 11
249.753139
 21
73.729050
  0
LINE
  8
CSLAYER1
  6
CONTINUOUS
 62
     6
 10
249.753139
 20
73.729050
 11
249.589855
 21
73.651532
  0
LINE
  8
CSLAYER1
  6
CONTINUOUS
 62
     6
 10
249.589855
 20
73.651532
 11
249.499296
 21
73.606145
  0
LINE
  8
CSLAYER1
  6
CONTINUOUS
 62
     6
 10
249.499296
 20
73.606145
 11
249.407954
 21
73.555810
  0
LINE
  8
CSLAYER1
  6
CONTINUOUS
 62
     6
 10
249.407954
 20
73.555810
 11
249.316310
 21
73.501199
  0
LINE
  8
CSLAYER1
  6
CONTINUOUS
 62
     6
 10
249.316310
 20
73.501199
 11
249.224849
 21
73.442982
  0
LINE
  8
CSLAYER1
  6
CONTINUOUS
 62
     6
 10
249.224849
 20
73.442982
 11
249.134053
 21
73.381831
  0
LINE
  8
CSLAYER1
  6
CONTINUOUS
 62
     6
 10
249.134053
 20
73.381831
 11
249.044406
 21
73.318416
  0
LINE
  8
CSLAYER1
  6
CONTINUOUS
 62
     6
 10
249.044406
 20
73.318416
 11
248.956392
 21
73.253410
  0
LINE
  8
CSLAYER1
  6
CONTINUOUS
 62
     6
 10
248.956392
 20
73.253410
 11
248.870493
 21
73.187482
  0
LINE
  8
CSLAYER1
  6
CONTINUOUS
 62
     6
 10
248.870493
 20
73.187482
 11
248.787192
 21
73.121305
  0
LINE
  8
CSLAYER1
  6
CONTINUOUS
 62
     6
 10
248.787192
 20
73.121305
 11
248.706974
 21
73.055550
  0
LINE
  8
CSLAYER1
  6
CONTINUOUS
 62
     6
 10
248.706974
 20
73.055550
 11
248.630321
 21
72.990887
  0
LINE
  8
CSLAYER1
  6
CONTINUOUS
 62
     6
 10
248.630321
 20
72.990887
 11
248.565023
 21
72.932762
  0
ARC
  8
CSLAYER1
  6
CONTINUOUS
 62
     6
 10
250.885631
 20
76.159100
 40
3.710000
 50
-124.666466
 51
179.299504
  0
LINE
  8
CSLAYER1
  6
CONTINUOUS
 62
     6
 10
247.085730
 20
76.160387
 11
246.879913
 21
76.058823
  0
LINE
  8
CSLAYER1
  6
CONTINUOUS
 62
     6
 10
246.879913
 20
76.058823
 11
246.676267
 21
75.951050
  0
LINE
  8
CSLAYER1
  6
CONTINUOUS
 62
     6
 10
246.676267
 20
75.951050
 11
246.476061
 21
75.836876
  0
LINE
  8
CSLAYER1
  6
CONTINUOUS
 62
     6
 10
246.476061
 20
75.836876
 11
246.280567
 21
75.716107
  0
LINE
  8
CSLAYER1
  6
CONTINUOUS
 62
     6
 10
246.280567
 20
75.716107
 11
246.091054
 21
75.588550
  0
LINE
  8
CSLAYER1
  6
CONTINUOUS
 62
     6
 10
246.091054
 20
75.588550
 11
245.908794
 21
75.454011
  0
LINE
  8
CSLAYER1
  6
CONTINUOUS
 62
     6
 10
245.908794
 20
75.454011
 11
245.735057
 21
75.312298
  0
LINE
  8
CSLAYER1
  6
CONTINUOUS
 62
     6
 10
245.735057
 20
75.312298
 11
245.627671
 21
75.216629
  0
LINE
  8
CSLAYER1
  6
CONTINUOUS
 62
     6
 10
245.627671
 20
75.216629
 11
245.523327
 21
75.117332
  0
LINE
  8
CSLAYER1
  6
CONTINUOUS
 62
     6
 10
245.523327
 20
75.117332
 11
245.421721
 21
75.014771
  0
LINE
  8
CSLAYER1
  6
CONTINUOUS
 62
     6
 10
245.421721
 20
75.014771
 11
245.322550
 21
74.909308
  0
LINE
  8
CSLAYER1
  6
CONTINUOUS
 62
     6
 10
245.322550
 20
74.909308
 11
245.225508
 21
74.801305
  0
LINE
  8
CSLAYER1
  6
CONTINUOUS
 62
     6
 10
245.225508
 20
74.801305
 11
245.130291
 21
74.691126
  0
LINE
  8
CSLAYER1
  6
CONTINUOUS
 62
     6
 10
245.130291
 20
74.691126
 11
245.036595
 21
74.579134
  0
LINE
  8
CSLAYER1
  6
CONTINUOUS
 62
     6
 10
245.036595
 20
74.579134
 11
244.944116
 21
74.465691
  0
LINE
  8
CSLAYER1
  6
CONTINUOUS
 62
     6
 10
244.944116
 20
74.465691
 11
244.852550
 21
74.351159
  0
LINE
  8
CSLAYER1
  6
CONTINUOUS
 62
     6
 10
244.852550
 20
74.351159
 11
244.761593
 21
74.235902
  0
LINE
  8
CSLAYER1
  6
CONTINUOUS
 62
     6
 10
244.761593
 20
74.235902
 11
244.670940
 21
74.120282
  0
ARC
  8
CSLAYER1
  6
CONTINUOUS
 62
     6
 10
245.425999
 20
74.369190
 40
0.794997
 50
198.245911
 51
258.245911
  0
ARC
  8
CSLAYER1
  6
CONTINUOUS
 62
     6
 10
245.102099
 20
72.812536
 40
0.794997
 50
18.245911
 51
78.245911
  0
ARC
  8
CSLAYER1
  6
CONTINUOUS
 62
     6
 10
246.019074
 20
73.839773
 40
0.794997
 50
198.245911
 51
258.245911
  0
LINE
  8
CSLAYER1
  6
CONTINUOUS
 62
     6
 10
245.857097
 20
73.061444
 11
245.932445
 21
73.157302
  0
LINE
  8
CSLAYER1
  6
CONTINUOUS
 62
     6
 10
245.932445
 20
73.157302
 11
246.008041
 21
73.252864
  0
LINE
  8
CSLAYER1
  6
CONTINUOUS
 62
     6
 10
246.008041
 20
73.252864
 11
246.084131
 21
73.347834
  0
LINE
  8
CSLAYER1
  6
CONTINUOUS
 62
     6
 10
246.084131
 20
73.347834
 11
246.160962
 21
73.441919
  0
LINE
  8
CSLAYER1
  6
CONTINUOUS
 62
     6
 10
246.160962
 20
73.441919
 11
246.238782
 21
73.534821
  0
LINE
  8
CSLAYER1
  6
CONTINUOUS
 62
     6
 10
246.238782
 20
73.534821
 11
246.317838
 21
73.626245
  0
LINE
  8
CSLAYER1
  6
CONTINUOUS
 62
     6
 10
246.317838
 20
73.626245
 11
246.398377
 21
73.715896
  0
LINE
  8
CSLAYER1
  6
CONTINUOUS
 62
     6
 10
246.398377
 20
73.715896
 11
246.480646
 21
73.803477
  0
LINE
  8
CSLAYER1
  6
CONTINUOUS
 62
     6
 10
246.480646
 20
73.803477
 11
246.564892
 21
73.888695
  0
LINE
  8
CSLAYER1
  6
CONTINUOUS
 62
     6
 10
246.564892
 20
73.888695
 11
246.651363
 21
73.971252
  0
LINE
  8
CSLAYER1
  6
CONTINUOUS
 62
     6
 10
246.651363
 20
73.971252
 11
246.740306
 21
74.050854
  0
LINE
  8
CSLAYER1
  6
CONTINUOUS
 62
     6
 10
246.740306
 20
74.050854
 11
246.889475
 21
74.173096
  0
LINE
  8
CSLAYER1
  6
CONTINUOUS
 62
     6
 10
246.889475
 20
74.173096
 11
247.046167
 21
74.289178
  0
LINE
  8
CSLAYER1
  6
CONTINUOUS
 62
     6
 10
247.046167
 20
74.289178
 11
247.209241
 21
74.399238
  0
LINE
  8
CSLAYER1
  6
CONTINUOUS
 62
     6
 10
247.209241
 20
74.399238
 11
247.377555
 21
74.503413
  0
LINE
  8
CSLAYER1
  6
CONTINUOUS
 62
     6
 10
247.377555
 20
74.503413
 11
247.549969
 21
74.601843
  0
LINE
  8
CSLAYER1
  6
CONTINUOUS
 62
     6
 10
247.549969
 20
74.601843
 11
247.725339
 21
74.694664
  0
LINE
  8
CSLAYER1
  6
CONTINUOUS
 62
     6
 10
247.725339
 20
74.694664
 11
247.902526
 21
74.782015
  0
LINE
  8
CSLAYER1
  6
CONTINUOUS
 62
     6
 10
247.902526
 20
74.782015
 11
248.080388
 21
74.864034
  0
LINE
  8
CSLAYER1
  6
CONTINUOUS
 62
     6
 10
248.080388
 20
74.864034
 11
248.257783
 21
74.940859
  0
LINE
  8
CSLAYER1
  6
CONTINUOUS
 62
     6
 10
248.257783
 20
74.940859
 11
248.433570
 21
75.012629
  0
LINE
  8
CSLAYER1
  6
CONTINUOUS
 62
     6
 10
248.433570
 20
75.012629
 11
248.606609
 21
75.079480
  0
LINE
  8
CSLAYER1
  6
CONTINUOUS
 62
     6
 10
248.606609
 20
75.079480
 11
248.735312
 21
75.129151
  0
LINE
  8
CSLAYER1
  6
CONTINUOUS
 62
     6
 10
248.735312
 20
75.129151
 11
248.866724
 21
75.182119
  0
LINE
  8
CSLAYER1
  6
CONTINUOUS
 62
     6
 10
248.866724
 20
75.182119
 11
249.000157
 21
75.237781
  0
LINE
  8
CSLAYER1
  6
CONTINUOUS
 62
     6
 10
249.000157
 20
75.237781
 11
249.134924
 21
75.295538
  0
LINE
  8
CSLAYER1
  6
CONTINUOUS
 62
     6
 10
249.134924
 20
75.295538
 11
249.270337
 21
75.354790
  0
LINE
  8
CSLAYER1
  6
CONTINUOUS
 62
     6
 10
249.270337
 20
75.354790
 11
249.405708
 21
75.414935
  0
LINE
  8
CSLAYER1
  6
CONTINUOUS
 62
     6
 10
249.405708
 20
75.414935
 11
249.540350
 21
75.475374
  0
LINE
  8
CSLAYER1
  6
CONTINUOUS
 62
     6
 10
249.540350
 20
75.475374
 11
249.673575
 21
75.535505
  0
LINE
  8
CSLAYER1
  6
CONTINUOUS
 62
     6
 10
249.673575
 20
75.535505
 11
249.804695
 21
75.594728
  0
LINE
  8
CSLAYER1
  6
CONTINUOUS
 62
     6
 10
249.804695
 20
75.594728
 11
249.933024
 21
75.652444
  0
LINE
  8
CSLAYER1
  6
CONTINUOUS
 62
     6
 10
249.933024
 20
75.652444
 11
250.057872
 21
75.708050
  0
LINE
  8
CSLAYER1
  6
CONTINUOUS
 62
     6
 10
250.057872
 20
75.708050
 11
250.180896
 21
75.763516
  0
LINE
  8
CSLAYER1
  6
CONTINUOUS
 62
     6
 10
250.180896
 20
75.763516
 11
250.308224
 21
75.822832
  0
LINE
  8
CSLAYER1
  6
CONTINUOUS
 62
     6
 10
250.308224
 20
75.822832
 11
250.438626
 21
75.885218
  0
LINE
  8
CSLAYER1
  6
CONTINUOUS
 62
     6
 10
250.438626
 20
75.885218
 11
250.570868
 21
75.949897
  0
LINE
  8
CSLAYER1
  6
CONTINUOUS
 62
     6
 10
250.570868
 20
75.949897
 11
250.703719
 21
76.016090
  0
LINE
  8
CSLAYER1
  6
CONTINUOUS
 62
     6
 10
250.703719
 20
76.016090
 11
250.835946
 21
76.083018
  0
LINE
  8
CSLAYER1
  6
CONTINUOUS
 62
     6
 10
250.835946
 20
76.083018
 11
250.966316
 21
76.149903
  0
LINE
  8
CSLAYER1
  6
CONTINUOUS
 62
     6
 10
250.966316
 20
76.149903
 11
251.093598
 21
76.215966
  0
LINE
  8
CSLAYER1
  6
CONTINUOUS
 62
     6
 10
251.093598
 20
76.215966
 11
251.216559
 21
76.280429
  0
LINE
  8
CSLAYER1
  6
CONTINUOUS
 62
     6
 10
251.216559
 20
76.280429
 11
251.333968
 21
76.342513
  0
LINE
  8
CSLAYER1
  6
CONTINUOUS
 62
     6
 10
251.333968
 20
76.342513
 11
251.444591
 21
76.401440
  0
ARC
  8
CSLAYER1
  6
CONTINUOUS
 62
     6
 10
251.089000
 20
77.112530
 40
0.795000
 50
-63.433378
 51
116.566642
  0
LINE
  8
CSLAYER1
  6
CONTINUOUS
 62
     6
 10
250.733470
 20
77.823590
 11
250.625676
 21
77.766267
  0
LINE
  8
CSLAYER1
  6
CONTINUOUS
 62
     6
 10
250.625676
 20
77.766267
 11
250.511490
 21
77.705998
  0
LINE
  8
CSLAYER1
  6
CONTINUOUS
 62
     6
 10
250.511490
 20
77.705998
 11
250.392061
 21
77.643501
  0
LINE
  8
CSLAYER1
  6
CONTINUOUS
 62
     6
 10
250.392061
 20
77.643501
 11
250.268538
 21
77.579496
  0
LINE
  8
CSLAYER1
  6
CONTINUOUS
 62
     6
 10
250.268538
 20
77.579496
 11
250.142067
 21
77.514702
  0
LINE
  8
CSLAYER1
  6
CONTINUOUS
 62
     6
 10
250.142067
 20
77.514702
 11
250.013798
 21
77.449837
  0
LINE
  8
CSLAYER1
  6
CONTINUOUS
 62
     6
 10
250.013798
 20
77.449837
 11
249.884878
 21
77.385622
  0
LINE
  8
CSLAYER1
  6
CONTINUOUS
 62
     6
 10
249.884878
 20
77.385622
 11
249.756456
 21
77.322776
  0
LINE
  8
CSLAYER1
  6
CONTINUOUS
 62
     6
 10
249.756456
 20
77.322776
 11
249.629681
 21
77.262017
  0
LINE
  8
CSLAYER1
  6
CONTINUOUS
 62
     6
 10
249.629681
 20
77.262017
 11
249.505700
 21
77.204066
  0
LINE
  8
CSLAYER1
  6
CONTINUOUS
 62
     6
 10
249.505700
 20
77.204066
 11
249.385662
 21
77.149640
  0
LINE
  8
CSLAYER1
  6
CONTINUOUS
 62
     6
 10
249.385662
 20
77.149640
 11
249.257814
 21
77.092413
  0
LINE
  8
CSLAYER1
  6
CONTINUOUS
 62
     6
 10
249.257814
 20
77.092413
 11
249.126683
 21
77.033341
  0
LINE
  8
CSLAYER1
  6
CONTINUOUS
 62
     6
 10
249.126683
 20
77.033341
 11
248.992914
 21
76.972968
  0
LINE
  8
CSLAYER1
  6
CONTINUOUS
 62
     6
 10
248.992914
 20
76.972968
 11
248.857154
 21
76.911838
  0
LINE
  8
CSLAYER1
  6
CONTINUOUS
 62
     6
 10
248.857154
 20
76.911838
 11
248.720046
 21
76.850495
  0
LINE
  8
CSLAYER1
  6
CONTINUOUS
 62
     6
 10
248.720046
 20
76.850495
 11
248.582238
 21
76.789483
  0
LINE
  8
CSLAYER1
  6
CONTINUOUS
 62
     6
 10
248.582238
 20
76.789483
 11
248.444375
 21
76.729347
  0
LINE
  8
CSLAYER1
  6
CONTINUOUS
 62
     6
 10
248.444375
 20
76.729347
 11
248.307102
 21
76.670630
  0
LINE
  8
CSLAYER1
  6
CONTINUOUS
 62
     6
 10
248.307102
 20
76.670630
 11
248.171066
 21
76.613876
  0
LINE
  8
CSLAYER1
  6
CONTINUOUS
 62
     6
 10
248.171066
 20
76.613876
 11
248.036911
 21
76.559630
  0
LINE
  8
CSLAYER1
  6
CONTINUOUS
 62
     6
 10
248.036911
 20
76.559630
 11
247.905284
 21
76.508435
  0
LINE
  8
CSLAYER1
  6
CONTINUOUS
 62
     6
 10
247.905284
 20
76.508435
 11
247.703493
 21
76.429768
  0
LINE
  8
CSLAYER1
  6
CONTINUOUS
 62
     6
 10
247.703493
 20
76.429768
 11
247.498790
 21
76.345667
  0
LINE
  8
CSLAYER1
  6
CONTINUOUS
 62
     6
 10
247.498790
 20
76.345667
 11
247.292446
 21
76.255938
  0
LINE
  8
CSLAYER1
  6
CONTINUOUS
 62
     6
 10
247.292446
 20
76.255938
 11
247.085730
 21
76.160387
  0
ARC
  8
CSLAYER1
  6
CONTINUOUS
 62
     6
 10
250.885631
 20
76.159123
 40
4.000000
 50
90.000000
 51
181.434347
  0
LINE
  8
CSLAYER1
  6
CONTINUOUS
 62
     6
 10
250.885631
 20
80.159123
 11
271.885631
 21
80.159123
  0
LINE
  8
CSLAYER1
  6
CONTINUOUS
 62
     6
 10
272.096444
 20
79.189968
 11
272.355972
 21
79.280174
  0
LINE
  8
CSLAYER1
  6
CONTINUOUS
 62
     6
 10
272.355972
 20
79.280174
 11
272.616428
 21
79.365102
  0
LINE
  8
CSLAYER1
  6
CONTINUOUS
 62
     6
 10
272.616428
 20
79.365102
 11
272.877970
 21
79.443871
  0
LINE
  8
CSLAYER1
  6
CONTINUOUS
 62
     6
 10
272.877970
 20
79.443871
 11
273.140750
 21
79.515603
  0
LINE
  8
CSLAYER1
  6
CONTINUOUS
 62
     6
 10
273.140750
 20
79.515603
 11
273.404925
 21
79.579417
  0
LINE
  8
CSLAYER1
  6
CONTINUOUS
 62
     6
 10
273.404925
 20
79.579417
 11
273.670649
 21
79.634434
  0
LINE
  8
CSLAYER1
  6
CONTINUOUS
 62
     6
 10
273.670649
 20
79.634434
 11
274.088229
 21
79.702092
  0
LINE
  8
CSLAYER1
  6
CONTINUOUS
 62
     6
 10
274.088229
 20
79.702092
 11
274.512967
 21
79.749986
  0
LINE
  8
CSLAYER1
  6
CONTINUOUS
 62
     6
 10
274.512967
 20
79.749986
 11
274.942969
 21
79.779630
  0
LINE
  8
CSLAYER1
  6
CONTINUOUS
 62
     6
 10
274.942969
 20
79.779630
 11
275.376342
 21
79.792539
  0
LINE
  8
CSLAYER1
  6
CONTINUOUS
 62
     6
 10
275.376342
 20
79.792539
 11
275.811192
 21
79.790227
  0
LINE
  8
CSLAYER1
  6
CONTINUOUS
 62
     6
 10
275.811192
 20
79.790227
 11
276.245625
 21
79.774210
  0
LINE
  8
CSLAYER1
  6
CONTINUOUS
 62
     6
 10
276.245625
 20
79.774210
 11
276.677747
 21
79.746001
  0
LINE
  8
CSLAYER1
  6
CONTINUOUS
 62
     6
 10
276.677747
 20
79.746001
 11
277.105664
 21
79.707117
  0
LINE
  8
CSLAYER1
  6
CONTINUOUS
 62
     6
 10
277.105664
 20
79.707117
 11
277.527484
 21
79.659070
  0
LINE
  8
CSLAYER1
  6
CONTINUOUS
 62
     6
 10
277.527484
 20
79.659070
 11
277.941311
 21
79.603377
  0
LINE
  8
CSLAYER1
  6
CONTINUOUS
 62
     6
 10
277.941311
 20
79.603377
 11
278.345253
 21
79.541550
  0
LINE
  8
CSLAYER1
  6
CONTINUOUS
 62
     6
 10
278.345253
 20
79.541550
 11
278.608630
 21
79.501026
  0
LINE
  8
CSLAYER1
  6
CONTINUOUS
 62
     6
 10
278.608630
 20
79.501026
 11
278.879016
 21
79.463104
  0
LINE
  8
CSLAYER1
  6
CONTINUOUS
 62
     6
 10
278.879016
 20
79.463104
 11
279.154843
 21
79.427504
  0
LINE
  8
CSLAYER1
  6
CONTINUOUS
 62
     6
 10
279.154843
 20
79.427504
 11
279.434541
 21
79.393946
  0
LINE
  8
CSLAYER1
  6
CONTINUOUS
 62
     6
 10
279.434541
 20
79.393946
 11
279.716544
 21
79.362150
  0
LINE
  8
CSLAYER1
  6
CONTINUOUS
 62
     6
 10
279.716544
 20
79.362150
 11
279.999282
 21
79.331836
  0
LINE
  8
CSLAYER1
  6
CONTINUOUS
 62
     6
 10
279.999282
 20
79.331836
 11
280.281187
 21
79.302725
  0
LINE
  8
CSLAYER1
  6
CONTINUOUS
 62
     6
 10
280.281187
 20
79.302725
 11
280.560691
 21
79.274535
  0
LINE
  8
CSLAYER1
  6
CONTINUOUS
 62
     6
 10
280.560691
 20
79.274535
 11
280.836227
 21
79.246989
  0
LINE
  8
CSLAYER1
  6
CONTINUOUS
 62
     6
 10
280.836227
 20
79.246989
 11
281.106224
 21
79.219805
  0
LINE
  8
CSLAYER1
  6
CONTINUOUS
 62
     6
 10
281.106224
 20
79.219805
 11
281.369116
 21
79.192703
  0
LINE
  8
CSLAYER1
  6
CONTINUOUS
 62
     6
 10
281.369116
 20
79.192703
 11
281.616605
 21
79.168391
  0
LINE
  8
CSLAYER1
  6
CONTINUOUS
 62
     6
 10
281.616605
 20
79.168391
 11
281.873863
 21
79.146122
  0
LINE
  8
CSLAYER1
  6
CONTINUOUS
 62
     6
 10
281.873863
 20
79.146122
 11
282.138334
 21
79.125803
  0
LINE
  8
CSLAYER1
  6
CONTINUOUS
 62
     6
 10
282.138334
 20
79.125803
 11
282.407466
 21
79.107342
  0
LINE
  8
CSLAYER1
  6
CONTINUOUS
 62
     6
 10
282.407466
 20
79.107342
 11
282.678702
 21
79.090647
  0
LINE
  8
CSLAYER1
  6
CONTINUOUS
 62
     6
 10
282.678702
 20
79.090647
 11
282.949487
 21
79.075628
  0
LINE
  8
CSLAYER1
  6
CONTINUOUS
 62
     6
 10
282.949487
 20
79.075628
 11
283.217269
 21
79.062190
  0
LINE
  8
CSLAYER1
  6
CONTINUOUS
 62
     6
 10
283.217269
 20
79.062190
 11
283.479490
 21
79.050243
  0
LINE
  8
CSLAYER1
  6
CONTINUOUS
 62
     6
 10
283.479490
 20
79.050243
 11
283.733597
 21
79.039695
  0
LINE
  8
CSLAYER1
  6
CONTINUOUS
 62
     6
 10
283.733597
 20
79.039695
 11
283.977036
 21
79.030454
  0
LINE
  8
CSLAYER1
  6
CONTINUOUS
 62
     6
 10
283.977036
 20
79.030454
 11
284.207250
 21
79.022427
  0
ARC
  8
CSLAYER1
  6
CONTINUOUS
 62
     6
 10
284.117378
 20
77.525142
 40
1.500000
 50
-93.433378
 51
86.566642
  0
LINE
  8
CSLAYER1
  6
CONTINUOUS
 62
     6
 10
284.027578
 20
76.027751
 11
283.791227
 21
76.035825
  0
LINE
  8
CSLAYER1
  6
CONTINUOUS
 62
     6
 10
283.791227
 20
76.035825
 11
283.540811
 21
76.045141
  0
LINE
  8
CSLAYER1
  6
CONTINUOUS
 62
     6
 10
283.540811
 20
76.045141
 11
283.279077
 21
76.055809
  0
LINE
  8
CSLAYER1
  6
CONTINUOUS
 62
     6
 10
283.279077
 20
76.055809
 11
283.008773
 21
76.067939
  0
LINE
  8
CSLAYER1
  6
CONTINUOUS
 62
     6
 10
283.008773
 20
76.067939
 11
282.732648
 21
76.081639
  0
LINE
  8
CSLAYER1
  6
CONTINUOUS
 62
     6
 10
282.732648
 20
76.081639
 11
282.453448
 21
76.097020
  0
LINE
  8
CSLAYER1
  6
CONTINUOUS
 62
     6
 10
282.453448
 20
76.097020
 11
282.173923
 21
76.114192
  0
LINE
  8
CSLAYER1
  6
CONTINUOUS
 62
     6
 10
282.173923
 20
76.114192
 11
281.896820
 21
76.133263
  0
LINE
  8
CSLAYER1
  6
CONTINUOUS
 62
     6
 10
281.896820
 20
76.133263
 11
281.624887
 21
76.154343
  0
LINE
  8
CSLAYER1
  6
CONTINUOUS
 62
     6
 10
281.624887
 20
76.154343
 11
281.360872
 21
76.177542
  0
LINE
  8
CSLAYER1
  6
CONTINUOUS
 62
     6
 10
281.360872
 20
76.177542
 11
281.107523
 21
76.202970
  0
LINE
  8
CSLAYER1
  6
CONTINUOUS
 62
     6
 10
281.107523
 20
76.202970
 11
280.851061
 21
76.229890
  0
LINE
  8
CSLAYER1
  6
CONTINUOUS
 62
     6
 10
280.851061
 20
76.229890
 11
280.586924
 21
76.256647
  0
LINE
  8
CSLAYER1
  6
CONTINUOUS
 62
     6
 10
280.586924
 20
76.256647
 11
280.316801
 21
76.283573
  0
LINE
  8
CSLAYER1
  6
CONTINUOUS
 62
     6
 10
280.316801
 20
76.283573
 11
280.042382
 21
76.311002
  0
LINE
  8
CSLAYER1
  6
CONTINUOUS
 62
     6
 10
280.042382
 20
76.311002
 11
279.765358
 21
76.339266
  0
LINE
  8
CSLAYER1
  6
CONTINUOUS
 62
     6
 10
279.765358
 20
76.339266
 11
279.487419
 21
76.368697
  0
LINE
  8
CSLAYER1
  6
CONTINUOUS
 62
     6
 10
279.487419
 20
76.368697
 11
279.210256
 21
76.399627
  0
LINE
  8
CSLAYER1
  6
CONTINUOUS
 62
     6
 10
279.210256
 20
76.399627
 11
278.935557
 21
76.432390
  0
LINE
  8
CSLAYER1
  6
CONTINUOUS
 62
     6
 10
278.935557
 20
76.432390
 11
278.665014
 21
76.467317
  0
LINE
  8
CSLAYER1
  6
CONTINUOUS
 62
     6
 10
278.665014
 20
76.467317
 11
278.400316
 21
76.504742
  0
LINE
  8
CSLAYER1
  6
CONTINUOUS
 62
     6
 10
278.400316
 20
76.504742
 11
278.143154
 21
76.544996
  0
LINE
  8
CSLAYER1
  6
CONTINUOUS
 62
     6
 10
278.143154
 20
76.544996
 11
277.797341
 21
76.599004
  0
LINE
  8
CSLAYER1
  6
CONTINUOUS
 62
     6
 10
277.797341
 20
76.599004
 11
277.442396
 21
76.647570
  0
LINE
  8
CSLAYER1
  6
CONTINUOUS
 62
     6
 10
277.442396
 20
76.647570
 11
277.080053
 21
76.689390
  0
LINE
  8
CSLAYER1
  6
CONTINUOUS
 62
     6
 10
277.080053
 20
76.689390
 11
276.712049
 21
76.723164
  0
LINE
  8
CSLAYER1
  6
CONTINUOUS
 62
     6
 10
276.712049
 20
76.723164
 11
276.340117
 21
76.747589
  0
LINE
  8
CSLAYER1
  6
CONTINUOUS
 62
     6
 10
276.340117
 20
76.747589
 11
275.965992
 21
76.761362
  0
LINE
  8
CSLAYER1
  6
CONTINUOUS
 62
     6
 10
275.965992
 20
76.761362
 11
275.591410
 21
76.763181
  0
LINE
  8
CSLAYER1
  6
CONTINUOUS
 62
     6
 10
275.591410
 20
76.763181
 11
275.218104
 21
76.751744
  0
LINE
  8
CSLAYER1
  6
CONTINUOUS
 62
     6
 10
275.218104
 20
76.751744
 11
274.847810
 21
76.725749
  0
LINE
  8
CSLAYER1
  6
CONTINUOUS
 62
     6
 10
274.847810
 20
76.725749
 11
274.482261
 21
76.683893
  0
LINE
  8
CSLAYER1
  6
CONTINUOUS
 62
     6
 10
274.482261
 20
76.683893
 11
274.123194
 21
76.624874
  0
LINE
  8
CSLAYER1
  6
CONTINUOUS
 62
     6
 10
274.123194
 20
76.624874
 11
273.902765
 21
76.578712
  0
LINE
  8
CSLAYER1
  6
CONTINUOUS
 62
     6
 10
273.902765
 20
76.578712
 11
273.683587
 21
76.525388
  0
LINE
  8
CSLAYER1
  6
CONTINUOUS
 62
     6
 10
273.683587
 20
76.525388
 11
273.465534
 21
76.465620
  0
LINE
  8
CSLAYER1
  6
CONTINUOUS
 62
     6
 10
273.465534
 20
76.465620
 11
273.248481
 21
76.400123
  0
LINE
  8
CSLAYER1
  6
CONTINUOUS
 62
     6
 10
273.248481
 20
76.400123
 11
273.032303
 21
76.329612
  0
LINE
  8
CSLAYER1
  6
CONTINUOUS
 62
     6
 10
273.032303
 20
76.329612
 11
272.816876
 21
76.254805
  0
LINE
  8
CSLAYER1
  6
CONTINUOUS
 62
     6
 10
272.816876
 20
76.254805
 11
272.602074
 21
76.176418
  0
LINE
  8
CSLAYER1
  6
CONTINUOUS
 62
     6
 10
272.602074
 20
76.176418
 11
272.387772
 21
76.095166
  0
LINE
  8
CSLAYER1
  6
CONTINUOUS
 62
     6
 10
272.387772
 20
76.095166
 11
272.173845
 21
76.011765
  0
LINE
  8
CSLAYER1
  6
CONTINUOUS
 62
     6
 10
272.173845
 20
76.011765
 11
271.960168
 21
75.926933
  0
LINE
  8
CSLAYER1
  6
CONTINUOUS
 62
     6
 10
271.960168
 20
75.926933
 11
271.746616
 21
75.841384
  0
ARC
  8
CSLAYER1
  6
CONTINUOUS
 62
     6
 10
270.278123
 20
76.146929
 40
1.499994
 50
-11.754089
 51
48.245911
  0
ARC
  8
CSLAYER1
  6
CONTINUOUS
 62
     6
 10
272.275920
 20
78.384950
 40
1.499994
 50
168.245911
 51
228.245911
  0
LINE
  8
CSLAYER1
  6
CONTINUOUS
 62
     6
 10
270.807327
 20
78.690552
 11
271.064531
 21
78.793954
  0
LINE
  8
CSLAYER1
  6
CONTINUOUS
 62
     6
 10
271.064531
 20
78.793954
 11
271.321890
 21
78.896476
  0
LINE
  8
CSLAYER1
  6
CONTINUOUS
 62
     6
 10
271.321890
 20
78.896476
 11
271.579558
 21
78.997239
  0
LINE
  8
CSLAYER1
  6
CONTINUOUS
 62
     6
 10
271.579558
 20
78.997239
 11
271.837691
 21
79.095363
  0
LINE
  8
CSLAYER1
  6
CONTINUOUS
 62
     6
 10
271.837691
 20
79.095363
 11
272.096444
 21
79.189968
  0
LINE
  8
CSLAYER1
  6
CONTINUOUS
 62
     6
 10
271.885631
 20
79.095363
 11
271.885631
 21
121.159123
  0
LINE
  8
CSLAYER1
  6
CONTINUOUS
 62
     6
 10
271.885631
 20
120.159108
 11
274.360057
 21
120.159108
  0
ARC
  8
CSLAYER1
  6
CONTINUOUS
 62
     6
 10
275.786021
 20
120.159108
 40
1.000000
 50
90.000003
 51
173.999998
  0
LINE
  8
CSLAYER1
  6
CONTINUOUS
 62
     6
 10
275.786021
 20
121.159108
 11
311.985179
 21
121.159108
  0
ARC
  8
CSLAYER1
  6
CONTINUOUS
 62
     6
 10
311.985179
 20
120.159108
 40
1.000000
 50
6.000003
 51
90.000016
  0
LINE
  8
CSLAYER1
  6
CONTINUOUS
 62
     6
 10
312.979747
 20
120.263600
 11
313.677379
 21
113.626149
  0
ARC
  8
CSLAYER1
  6
CONTINUOUS
 62
     6
 10
314.671886
 20
113.730641
 40
1.000000
 50
186.000026
 51
270.000001
  0
ARC
  8
CSLAYER1
  6
CONTINUOUS
 62
     6
 10
314.622264
 20
118.202931
 40
1.000000
 50
186.000026
 51
270.000001
  0
LINE
  8
CSLAYER1
  6
CONTINUOUS
 62
     6
 10
313.627696
 20
118.098378
 11
312.979747
 21
124.263600
  0
ARC
  8
CSLAYER1
  6
CONTINUOUS
 62
     6
 10
311.985179
 20
124.159108
 40
1.000000
 50
6.000003
 51
90.000016
  0
LINE
  8
CSLAYER1
  6
CONTINUOUS
 62
     6
 10
311.985179
 20
125.159108
 11
275.786021
 21
125.159108
  0
ARC
  8
CSLAYER1
  6
CONTINUOUS
 62
     6
 10
275.786021
 20
124.159108
 40
1.000000
 50
90.000003
 51
173.999998
  0
LINE
  8
CSLAYER1
  6
CONTINUOUS
 62
     6
 10
274.791514
 20
124.263600
 11
274.143504
 21
118.098378
  0
ARC
  8
CSLAYER1
  6
CONTINUOUS
 62
     6
 10
273.148997
 20
118.202931
 40
1.000000
 50
270.000001
 51
353.999989
  0
LINE
  8
CSLAYER1
  6
CONTINUOUS
 62
     6
 10
274.791514
 20
120.263600
 11
274.093883
 21
113.626149
  0
ARC
  8
CSLAYER1
  6
CONTINUOUS
 62
     6
 10
273.099315
 20
113.730641
 40
1.000000
 50
270.000001
 51
353.999989
  0
LINE
  8
CSLAYER1
  6
CONTINUOUS
 62
     6
 10
277.571605
 20
112.552296
 11
309.528697
 21
112.552296
  0
LINE
  8
CSLAYER1
  6
CONTINUOUS
 62
     6
 10
313.410594
 20
120.159108
 11
314.885631
 21
120.159108
  0
LINE
  8
CSLAYER1
  6
CONTINUOUS
 62
     6
 10
314.885631
 20
121.159123
 11
314.885631
 21
31.159123
  0
LINE
  8
CSLAYER1
  6
CONTINUOUS
 62
     6
 10
314.885631
 20
31.159123
 11
400.885600
 21
31.159123
  0
LINE
  8
CSLAYER1
  6
CONTINUOUS
 62
     6
 10
399.885600
 20
31.159123
 11
399.885600
 21
121.159123
  0
LINE
  8
CSLAYER1
  6
CONTINUOUS
 62
     6
 10
400.885600
 20
121.159123
 11
314.885631
 21
121.159123
  0
LINE
  8
CSLAYER1
  6
CONTINUOUS
 62
     6
 10
400.885509
 20
126.159123
 11
410.885570
 21
126.159123
  0
LINE
  8
CSLAYER1
  6
CONTINUOUS
 62
     6
 10
410.885600
 20
126.159123
 11
410.885600
 21
26.159123
  0
LINE
  8
CSLAYER1
  6
CONTINUOUS
 62
     6
 10
410.885570
 20
26.159123
 11
400.885509
 21
26.159123
  0
LINE
  8
CSLAYER1
  6
CONTINUOUS
 62
     6
 10
400.885600
 20
26.159123
 11
400.885600
 21
49.097905
  0
LINE
  8
CSLAYER1
  6
CONTINUOUS
 62
     6
 10
410.885600
 20
46.159123
 11
413.885600
 21
46.159123
  0
LINE
  8
CSLAYER1
  6
CONTINUOUS
 62
     6
 10
413.885600
 20
46.159123
 11
413.885600
 21
106.159123
  0
LINE
  8
CSLAYER1
  6
CONTINUOUS
 62
     6
 10
413.885600
 20
106.159123
 11
410.885600
 21
106.159123
  0
LINE
  8
CSLAYER1
  6
CONTINUOUS
 62
     6
 10
406.885600
 20
116.159123
 11
406.885600
 21
36.159123
  0
LINE
  8
CSLAYER1
  6
CONTINUOUS
 62
     6
 10
413.885600
 20
70.159123
 11
450.885600
 21
70.159123
  0
LINE
  8
CSLAYER1
  6
CONTINUOUS
 62
     6
 10
450.885600
 20
70.159123
 11
450.885600
 21
82.159123
  0
LINE
  8
CSLAYER1
  6
CONTINUOUS
 62
     6
 10
450.885600
 20
82.159123
 11
413.885600
 21
82.159123
  0
LINE
  8
CSLAYER1
  6
CONTINUOUS
 62
     6
 10
400.885600
 20
103.220372
 11
400.885600
 21
126.159123
  0
LINE
  8
CSLAYER1
  6
CONTINUOUS
 62
     6
 10
471.974424
 20
168.659123
 11
471.974424
 21
253.659123
  0
ARC
  8
CSLAYER1
  6
CONTINUOUS
 62
     6
 10
479.474424
 20
253.659123
 40
7.500000
 50
90.000000
 51
180.000000
  0
LINE
  8
CSLAYER1
  6
CONTINUOUS
 62
     6
 10
479.474424
 20
261.159123
 11
564.474424
 21
261.159123
  0
ARC
  8
CSLAYER1
  6
CONTINUOUS
 62
     6
 10
564.474424
 20
253.659123
 40
7.500000
 50
0.000000
 51
90.000000
  0
LINE
  8
CSLAYER1
  6
CONTINUOUS
 62
     6
 10
571.974424
 20
253.659123
 11
571.974424
 21
168.659123
  0
ARC
  8
CSLAYER1
  6
CONTINUOUS
 62
     6
 10
564.474424
 20
168.659123
 40
7.500000
 50
270.000000
 51
360.000000
  0
LINE
  8
CSLAYER1
  6
CONTINUOUS
 62
     6
 10
564.474424
 20
161.159123
 11
479.474424
 21
161.159123
  0
ARC
  8
CSLAYER1
  6
CONTINUOUS
 62
     6
 10
479.474424
 20
168.659123
 40
7.500000
 50
180.000000
 51
270.000000
  0
CIRCLE
  8
CSLAYER1
  6
CONTINUOUS
 62
     6
 10
479.474424
 20
168.659123
 40
3.500000
  0
ARC
  8
CSLAYER1
  6
CONTINUOUS
 62
     6
 10
521.974431
 20
174.159099
 40
2.916667
 50
163.398438
 51
196.601572
  0
LINE
  8
CSLAYER1
  6
CONTINUOUS
 62
     6
 10
519.179359
 20
174.992443
 11
520.307743
 21
174.992443
  0
ARC
  8
CSLAYER1
  6
CONTINUOUS
 62
     6
 10
520.307743
 20
175.825743
 40
0.833333
 50
270.000001
 51
359.942691
  0
LINE
  8
CSLAYER1
  6
CONTINUOUS
 62
     6
 10
521.141087
 20
175.825743
 11
521.141087
 21
176.954215
  0
ARC
  8
CSLAYER1
  6
CONTINUOUS
 62
     6
 10
521.974431
 20
174.159099
 40
2.916667
 50
73.398422
 51
106.601583
  0
LINE
  8
CSLAYER1
  6
CONTINUOUS
 62
     6
 10
522.807774
 20
176.954215
 11
522.807774
 21
175.825743
  0
ARC
  8
CSLAYER1
  6
CONTINUOUS
 62
     6
 10
523.641118
 20
175.825743
 40
0.833333
 50
180.000005
 51
269.942654
  0
LINE
  8
CSLAYER1
  6
CONTINUOUS
 62
     6
 10
523.641118
 20
174.992443
 11
524.769503
 21
174.992443
  0
ARC
  8
CSLAYER1
  6
CONTINUOUS
 62
     6
 10
521.974431
 20
174.159099
 40
2.916667
 50
-16.601584
 51
16.601577
  0
LINE
  8
CSLAYER1
  6
CONTINUOUS
 62
     6
 10
524.769503
 20
173.325756
 11
523.641118
 21
173.325756
  0
ARC
  8
CSLAYER1
  6
CONTINUOUS
 62
     6
 10
523.641118
 20
172.492456
 40
0.833333
 50
90.000016
 51
180.000005
  0
LINE
  8
CSLAYER1
  6
CONTINUOUS
 62
     6
 10
522.807774
 20
172.492456
 11
522.807774
 21
171.363984
  0
ARC
  8
CSLAYER1
  6
CONTINUOUS
 62
     6
 10
521.974431
 20
174.159099
 40
2.916667
 50
253.398406
 51
286.601595
  0
LINE
  8
CSLAYER1
  6
CONTINUOUS
 62
     6
 10
521.141087
 20
171.363984
 11
521.141087
 21
172.492456
  0
ARC
  8
CSLAYER1
  6
CONTINUOUS
 62
     6
 10
520.307743
 20
172.492456
 40
0.833333
 50
0.000010
 51
90.000016
  0
LINE
  8
CSLAYER1
  6
CONTINUOUS
 62
     6
 10
520.307743
 20
173.325756
 11
519.179359
 21
173.325756
  0
CIRCLE
  8
CSLAYER1
  6
CONTINUOUS
 62
     6
 10
521.974411
 20
174.159100
 40
5.250000
  0
CIRCLE
  8
CSLAYER1
  6
CONTINUOUS
 62
     6
 10
521.974424
 20
174.159123
 40
7.500000
  0
ARC
  8
CSLAYER1
  6
CONTINUOUS
 62
     6
 10
521.974424
 20
211.159123
 40
30.000000
 50
-85.368215
 51
85.368215
  0
LINE
  8
CSLAYER1
  6
CONTINUOUS
 62
     6
 10
522.807774
 20
245.364031
 11
522.807774
 21
246.492503
  0
ARC
  8
CSLAYER1
  6
CONTINUOUS
 62
     6
 10
523.641118
 20
246.492503
 40
0.833333
 50
90.057346
 51
179.999995
  0
LINE
  8
CSLAYER1
  6
CONTINUOUS
 62
     6
 10
523.641118
 20
247.325803
 11
524.769503
 21
247.325803
  0
ARC
  8
CSLAYER1
  6
CONTINUOUS
 62
     6
 10
521.974431
 20
248.159146
 40
2.916667
 50
-16.601577
 51
16.601584
  0
LINE
  8
CSLAYER1
  6
CONTINUOUS
 62
     6
 10
524.769503
 20
248.992490
 11
523.641118
 21
248.992490
  0
ARC
  8
CSLAYER1
  6
CONTINUOUS
 62
     6
 10
523.641118
 20
249.825790
 40
0.833333
 50
179.999995
 51
269.999984
  0
LINE
  8
CSLAYER1
  6
CONTINUOUS
 62
     6
 10
522.807774
 20
249.825790
 11
522.807774
 21
250.954262
  0
ARC
  8
CSLAYER1
  6
CONTINUOUS
 62
     6
 10
521.974431
 20
248.159146
 40
2.916667
 50
73.398405
 51
106.601594
  0
LINE
  8
CSLAYER1
  6
CONTINUOUS
 62
     6
 10
521.141087
 20
250.954262
 11
521.141087
 21
249.825790
  0
ARC
  8
CSLAYER1
  6
CONTINUOUS
 62
     6
 10
520.307743
 20
249.825790
 40
0.833333
 50
269.999984
 51
359.999990
  0
LINE
  8
CSLAYER1
  6
CONTINUOUS
 62
     6
 10
520.307743
 20
248.992490
 11
519.179359
 21
248.992490
  0
ARC
  8
CSLAYER1
  6
CONTINUOUS
 62
     6
 10
521.974431
 20
248.159146
 40
2.916667
 50
163.398428
 51
196.601562
  0
LINE
  8
CSLAYER1
  6
CONTINUOUS
 62
     6
 10
519.179359
 20
247.325803
 11
520.307743
 21
247.325803
  0
ARC
  8
CSLAYER1
  6
CONTINUOUS
 62
     6
 10
520.307743
 20
246.492503
 40
0.833333
 50
0.057309
 51
89.999999
  0
LINE
  8
CSLAYER1
  6
CONTINUOUS
 62
     6
 10
521.141087
 20
246.492503
 11
521.141087
 21
245.364031
  0
ARC
  8
CSLAYER1
  6
CONTINUOUS
 62
     6
 10
521.974431
 20
248.159146
 40
2.916667
 50
253.398417
 51
286.601578
  0
CIRCLE
  8
CSLAYER1
  6
CONTINUOUS
 62
     6
 10
521.974424
 20
248.159123
 40
7.500000
  0
CIRCLE
  8
CSLAYER1
  6
CONTINUOUS
 62
     6
 10
521.974411
 20
248.159145
 40
5.250000
  0
ARC
  8
CSLAYER1
  6
CONTINUOUS
 62
     6
 10
521.974424
 20
211.159123
 40
30.000000
 50
94.631785
 51
265.368215
  0
LINE
  8
CSLAYER1
  6
CONTINUOUS
 62
     6
 10
517.287461
 20
195.861027
 11
517.908629
 21
197.888515
  0
ARC
  8
CSLAYER1
  6
CONTINUOUS
 62
     6
 10
515.049486
 20
199.130605
 40
3.117293
 50
-23.481547
 51
129.764151
  0
ARC
  8
CSLAYER1
  6
CONTINUOUS
 62
     6
 10
512.125218
 20
202.644912
 40
1.454544
 50
217.903413
 51
309.763730
  0
ARC
  8
CSLAYER1
  6
CONTINUOUS
 62
     6
 10
521.974424
 20
210.313126
 40
13.936877
 50
-37.903067
 51
217.903051
  0
ARC
  8
CSLAYER1
  6
CONTINUOUS
 62
     6
 10
531.823618
 20
202.644912
 40
1.454544
 50
230.236329
 51
322.096590
  0
ARC
  8
CSLAYER1
  6
CONTINUOUS
 62
     6
 10
528.899352
 20
199.130605
 40
3.117293
 50
50.235851
 51
203.481549
  0
LINE
  8
CSLAYER1
  6
CONTINUOUS
 62
     6
 10
526.040206
 20
197.888515
 11
526.661374
 21
195.861027
  0
CIRCLE
  8
CSLAYER1
  6
CONTINUOUS
 62
     6
 10
528.899352
 20
199.130605
 40
1.454544
  0
CIRCLE
  8
CSLAYER1
  6
CONTINUOUS
 62
     6
 10
515.049486
 20
199.130605
 40
1.454544
  0
CIRCLE
  8
CSLAYER1
  6
CONTINUOUS
 62
     6
 10
564.474424
 20
168.659123
 40
3.500000
  0
CIRCLE
  8
CSLAYER1
  6
CONTINUOUS
 62
     6
 10
521.974424
 20
211.159123
 40
7.500000
  0
CIRCLE
  8
CSLAYER1
  6
CONTINUOUS
 62
     6
 10
521.974424
 20
211.159123
 40
6.000000
  0
CIRCLE
  8
CSLAYER1
  6
CONTINUOUS
 62
     6
 10
521.974424
 20
211.159123
 40
16.000000
  0
CIRCLE
  8
CSLAYER1
  6
CONTINUOUS
 62
     6
 10
479.474424
 20
253.659123
 40
3.500000
  0
CIRCLE
  8
CSLAYER1
  6
CONTINUOUS
 62
     6
 10
564.474424
 20
253.659123
 40
3.500000
  0
LINE
  8
CSLAYER1
  6
CONTINUOUS
 62
     6
 10
450.885600
 20
340.159123
 11
413.885600
 21
340.159123
  0
LINE
  8
CSLAYER1
  6
CONTINUOUS
 62
     6
 10
413.885600
 20
352.159123
 11
450.885600
 21
352.159123
  0
LINE
  8
CSLAYER1
  6
CONTINUOUS
 62
     6
 10
450.885600
 20
352.159123
 11
450.885600
 21
340.159123
  0
ARC
  8
CSLAYER1
  6
CONTINUOUS
 62
     6
 10
291.685618
 20
169.059117
 40
0.100000
 50
0.000010
 51
90.000016
  0
LINE
  8
CSLAYER1
  6
CONTINUOUS
 62
     6
 10
291.785594
 20
169.059117
 11
291.785594
 21
168.559117
  0
ARC
  8
CSLAYER1
  6
CONTINUOUS
 62
     6
 10
291.685618
 20
168.559117
 40
0.100000
 50
270.000001
 51
359.942691
  0
LINE
  8
CSLAYER1
  6
CONTINUOUS
 62
     6
 10
289.481547
 20
168.459141
 11
289.037669
 21
169.159123
  0
LINE
  8
CSLAYER1
  6
CONTINUOUS
 62
     6
 10
288.537669
 20
169.159123
 11
288.981547
 21
168.459141
  0
LINE
  8
CSLAYER1
  6
CONTINUOUS
 62
     6
 10
216.885631
 20
121.159123
 11
216.885631
 21
31.159123
  0
ARC
  8
CSLAYER1
  6
CONTINUOUS
 62
     6
 10
211.764941
 20
36.279839
 40
0.120690
 50
270.000001
 51
359.942691
  0
LINE
  8
CSLAYER1
  6
CONTINUOUS
 62
     6
 10
211.764941
 20
36.159141
 11
211.161491
 21
36.159141
  0
ARC
  8
CSLAYER1
  6
CONTINUOUS
 62
     6
 10
211.161491
 20
36.279839
 40
0.120690
 50
180.000005
 51
270.000001
  0
LINE
  8
CSLAYER1
  6
CONTINUOUS
 62
     6
 10
211.040831
 20
36.279839
 11
211.040831
 21
43.038444
  0
ARC
  8
CSLAYER1
  6
CONTINUOUS
 62
     6
 10
211.161491
 20
43.038444
 40
0.120690
 50
90.000003
 51
180.000005
  0
LINE
  8
CSLAYER1
  6
CONTINUOUS
 62
     6
 10
211.161491
 20
43.159141
 11
211.764941
 21
43.159141
  0
ARC
  8
CSLAYER1
  6
CONTINUOUS
 62
     6
 10
211.764941
 20
43.038444
 40
0.120690
 50
0.000000
 51
90.000003
  0
ARC
  8
CSLAYER1
  6
CONTINUOUS
 62
     6
 10
210.799436
 20
42.714694
 40
0.241380
 50
0.000000
 51
95.000152
  0
LINE
  8
CSLAYER1
  6
CONTINUOUS
 62
     6
 10
210.778369
 20
42.955149
 11
210.018237
 21
42.888650
  0
ARC
  8
CSLAYER1
  6
CONTINUOUS
 62
     6
 10
210.123428
 20
41.686336
 40
1.206899
 50
95.000111
 51
163.742611
  0
ARC
  8
CSLAYER1
  6
CONTINUOUS
 62
     6
 10
217.075326
 20
39.659141
 40
8.448294
 50
163.742994
 51
196.257016
  0
ARC
  8
CSLAYER1
  6
CONTINUOUS
 62
     6
 10
210.123428
 20
37.631946
 40
1.206899
 50
196.257399
 51
264.999892
  0
LINE
  8
CSLAYER1
  6
CONTINUOUS
 62
     6
 10
210.018237
 20
36.429633
 11
210.778369
 21
36.363133
  0
ARC
  8
CSLAYER1
  6
CONTINUOUS
 62
     6
 10
210.799436
 20
36.603589
 40
0.241380
 50
264.999865
 51
359.942691
  0
LINE
  8
CSLAYER1
  6
CONTINUOUS
 62
     6
 10
211.040831
 20
38.939912
 11
211.885638
 21
39.475609
  0
LINE
  8
CSLAYER1
  6
CONTINUOUS
 62
     6
 10
211.885638
 20
40.079059
 11
211.040831
 21
39.543361
  0
LINE
  8
CSLAYER1
  6
CONTINUOUS
 62
     6
 10
211.885631
 20
51.159123
 11
209.885631
 21
51.159123
  0
LINE
  8
CSLAYER1
  6
CONTINUOUS
 62
     6
 10
209.885631
 20
51.159123
 11
209.885631
 21
91.198706
  0
ARC
  8
CSLAYER1
  6
CONTINUOUS
 62
     6
 10
210.123428
 20
92.381946
 40
1.206899
 50
196.257399
 51
264.999892
  0
ARC
  8
CSLAYER1
  6
CONTINUOUS
 62
     6
 10
217.075326
 20
94.409141
 40
8.448294
 50
163.742994
 51
196.257016
  0
ARC
  8
CSLAYER1
  6
CONTINUOUS
 62
     6
 10
210.123428
 20
96.436336
 40
1.206899
 50
95.000111
 51
163.742611
  0
LINE
  8
CSLAYER1
  6
CONTINUOUS
 62
     6
 10
210.018237
 20
97.638650
 11
210.778369
 21
97.705149
  0
ARC
  8
CSLAYER1
  6
CONTINUOUS
 62
     6
 10
210.799436
 20
97.464694
 40
0.241380
 50
0.000000
 51
95.000152
  0
ARC
  8
CSLAYER1
  6
CONTINUOUS
 62
     6
 10
211.161491
 20
97.788444
 40
0.120690
 50
90.000003
 51
180.000005
  0
LINE
  8
CSLAYER1
  6
CONTINUOUS
 62
     6
 10
211.161491
 20
97.909141
 11
211.764941
 21
97.909141
  0
ARC
  8
CSLAYER1
  6
CONTINUOUS
 62
     6
 10
211.764941
 20
97.788444
 40
0.120690
 50
0.000000
 51
90.000003
  0
LINE
  8
CSLAYER1
  6
CONTINUOUS
 62
     6
 10
211.040831
 20
97.788444
 11
211.040831
 21
91.029839
  0
ARC
  8
CSLAYER1
  6
CONTINUOUS
 62
     6
 10
211.161491
 20
91.029839
 40
0.120690
 50
180.000005
 51
270.000001
  0
LINE
  8
CSLAYER1
  6
CONTINUOUS
 62
     6
 10
211.161491
 20
90.909141
 11
211.764941
 21
90.909141
  0
ARC
  8
CSLAYER1
  6
CONTINUOUS
 62
     6
 10
211.764941
 20
91.029839
 40
0.120690
 50
270.000001
 51
359.942691
  0
ARC
  8
CSLAYER1
  6
CONTINUOUS
 62
     6
 10
210.799436
 20
91.353589
 40
0.241380
 50
264.999865
 51
359.942691
  0
LINE
  8
CSLAYER1
  6
CONTINUOUS
 62
     6
 10
210.778369
 20
91.113133
 11
210.018237
 21
91.179633
  0
LINE
  8
CSLAYER1
  6
CONTINUOUS
 62
     6
 10
209.488711
 20
91.355429
 11
209.185618
 21
91.163243
  0
LINE
  8
CSLAYER1
  6
CONTINUOUS
 62
     6
 10
209.185618
 20
91.622264
 11
209.185618
 21
88.959202
  0
ARC
  8
CSLAYER1
  6
CONTINUOUS
 62
     6
 10
209.285594
 20
88.959202
 40
0.100000
 50
180.000005
 51
270.000001
  0
LINE
  8
CSLAYER1
  6
CONTINUOUS
 62
     6
 10
209.285594
 20
88.859165
 11
209.785594
 21
88.859165
  0
ARC
  8
CSLAYER1
  6
CONTINUOUS
 62
     6
 10
209.785594
 20
88.959202
 40
0.100000
 50
270.000001
 51
359.942691
  0
ARC
  8
CSLAYER1
  6
CONTINUOUS
 62
     6
 10
208.985606
 20
89.227452
 40
0.200000
 50
264.999865
 51
359.942691
  0
LINE
  8
CSLAYER1
  6
CONTINUOUS
 62
     6
 10
208.968181
 20
89.028202
 11
208.338359
 21
89.083286
  0
ARC
  8
CSLAYER1
  6
CONTINUOUS
 62
     6
 10
208.425517
 20
90.079502
 40
1.000000
 50
196.257399
 51
264.999892
  0
ARC
  8
CSLAYER1
  6
CONTINUOUS
 62
     6
 10
214.185618
 20
91.759190
 40
7.000000
 50
163.742994
 51
196.257016
  0
ARC
  8
CSLAYER1
  6
CONTINUOUS
 62
     6
 10
208.425517
 20
93.438847
 40
1.000000
 50
95.000111
 51
163.742611
  0
LINE
  8
CSLAYER1
  6
CONTINUOUS
 62
     6
 10
208.338359
 20
94.435032
 11
208.627188
 21
94.460307
  0
LINE
  8
CSLAYER1
  6
CONTINUOUS
 62
     6
 10
207.731883
 20
94.159123
 11
189.885631
 21
94.159123
  0
LINE
  8
CSLAYER1
  6
CONTINUOUS
 62
     6
 10
189.885631
 20
94.159123
 11
189.885631
 21
58.159169
  0
LINE
  8
CSLAYER1
  6
CONTINUOUS
 62
     6
 10
189.885631
 20
58.159169
 11
207.732677
 21
58.159169
  0
ARC
  8
CSLAYER1
  6
CONTINUOUS
 62
     6
 10
208.425517
 20
58.879475
 40
1.000000
 50
196.257399
 51
264.999892
  0
LINE
  8
CSLAYER1
  6
CONTINUOUS
 62
     6
 10
208.338359
 20
57.883259
 11
208.968181
 21
57.828175
  0
ARC
  8
CSLAYER1
  6
CONTINUOUS
 62
     6
 10
208.985606
 20
58.027424
 40
0.200000
 50
264.999865
 51
359.942691
  0
LINE
  8
CSLAYER1
  6
CONTINUOUS
 62
     6
 10
209.185618
 20
57.759175
 11
209.185618
 21
63.359150
  0
ARC
  8
CSLAYER1
  6
CONTINUOUS
 62
     6
 10
209.285594
 20
63.359150
 40
0.100000
 50
90.000003
 51
180.000005
  0
LINE
  8
CSLAYER1
  6
CONTINUOUS
 62
     6
 10
209.285594
 20
63.459126
 11
209.785594
 21
63.459126
  0
ARC
  8
CSLAYER1
  6
CONTINUOUS
 62
     6
 10
209.785594
 20
63.359150
 40
0.100000
 50
0.000000
 51
90.000003
  0
ARC
  8
CSLAYER1
  6
CONTINUOUS
 62
     6
 10
208.985606
 20
63.090901
 40
0.200000
 50
0.000000
 51
95.000152
  0
LINE
  8
CSLAYER1
  6
CONTINUOUS
 62
     6
 10
208.968181
 20
63.290119
 11
208.338359
 21
63.235005
  0
ARC
  8
CSLAYER1
  6
CONTINUOUS
 62
     6
 10
208.425517
 20
62.238819
 40
1.000000
 50
95.000111
 51
163.742611
  0
ARC
  8
CSLAYER1
  6
CONTINUOUS
 62
     6
 10
214.185618
 20
60.559162
 40
7.000000
 50
163.742994
 51
196.257016
  0
ARC
  8
CSLAYER1
  6
CONTINUOUS
 62
     6
 10
209.285594
 20
57.759175
 40
0.100000
 50
180.000005
 51
270.000001
  0
LINE
  8
CSLAYER1
  6
CONTINUOUS
 62
     6
 10
209.285594
 20
57.659138
 11
209.785594
 21
57.659138
  0
ARC
  8
CSLAYER1
  6
CONTINUOUS
 62
     6
 10
209.785594
 20
57.759175
 40
0.100000
 50
270.000001
 51
359.942691
  0
LINE
  8
CSLAYER1
  6
CONTINUOUS
 62
     6
 10
209.185618
 20
59.963215
 11
209.885600
 21
60.407063
  0
LINE
  8
CSLAYER1
  6
CONTINUOUS
 62
     6
 10
209.885600
 20
60.907063
 11
209.185618
 21
60.463215
  0
LINE
  8
CSLAYER1
  6
CONTINUOUS
 62
     6
 10
189.885622
 20
58.159150
 11
188.885622
 21
58.159151
  0
ARC
  8
CSLAYER1
  6
CONTINUOUS
 62
     6
 10
182.885614
 20
40.659154
 40
18.500000
 50
71.075329
 51
86.901394
  0
LINE
  8
CSLAYER1
  6
CONTINUOUS
 62
     6
 10
183.885631
 20
59.132106
 11
183.885631
 21
93.186142
  0
ARC
  8
CSLAYER1
  6
CONTINUOUS
 62
     6
 10
182.885631
 20
92.365432
 40
1.293664
 50
39.376084
 51
140.623916
  0
LINE
  8
CSLAYER1
  6
CONTINUOUS
 62
     6
 10
181.885631
 20
93.186142
 11
181.885631
 21
59.132108
  0
ARC
  8
CSLAYER1
  6
CONTINUOUS
 62
     6
 10
182.885627
 20
59.952826
 40
1.293673
 50
219.376242
 51
320.623679
  0
LINE
  8
CSLAYER1
  6
CONTINUOUS
 62
     6
 10
183.885631
 20
57.364796
 11
181.885631
 21
57.364796
  0
LINE
  8
CSLAYER1
  6
CONTINUOUS
 62
     6
 10
181.885631
 20
57.364796
 11
181.485637
 21
57.064778
  0
LINE
  8
CSLAYER1
  6
CONTINUOUS
 62
     6
 10
181.485637
 20
57.064778
 11
181.485637
 21
55.259083
  0
LINE
  8
CSLAYER1
  6
CONTINUOUS
 62
     6
 10
181.485606
 20
55.759083
 11
180.885631
 21
55.759083
  0
LINE
  8
CSLAYER1
  6
CONTINUOUS
 62
     6
 10
180.885631
 20
55.759083
 11
180.885631
 21
53.159077
  0
LINE
  8
CSLAYER1
  6
CONTINUOUS
 62
     6
 10
179.385631
 20
53.159047
 11
179.385631
 21
57.159047
  0
LINE
  8
CSLAYER1
  6
CONTINUOUS
 62
     6
 10
179.385631
 20
57.159047
 11
181.611319
 21
57.159047
  0
LINE
  8
CSLAYER1
  6
CONTINUOUS
 62
     6
 10
181.881358
 20
57.147633
 11
183.881358
 21
57.147633
  0
LINE
  8
CSLAYER1
  6
CONTINUOUS
 62
     6
 10
183.881358
 20
57.147633
 11
184.285625
 21
56.844464
  0
LINE
  8
CSLAYER1
  6
CONTINUOUS
 62
     6
 10
184.285625
 20
57.064778
 11
183.885631
 21
57.364796
  0
LINE
  8
CSLAYER1
  6
CONTINUOUS
 62
     6
 10
184.159942
 20
57.159047
 11
186.385600
 21
57.159047
  0
LINE
  8
CSLAYER1
  6
CONTINUOUS
 62
     6
 10
186.385600
 20
57.159047
 11
186.385600
 21
53.159047
  0
LINE
  8
CSLAYER1
  6
CONTINUOUS
 62
     6
 10
184.885631
 20
53.159077
 11
184.885631
 21
55.759083
  0
LINE
  8
CSLAYER1
  6
CONTINUOUS
 62
     6
 10
184.885631
 20
55.759083
 11
184.285625
 21
55.759083
  0
LINE
  8
CSLAYER1
  6
CONTINUOUS
 62
     6
 10
184.285625
 20
55.259083
 11
184.285625
 21
57.064778
  0
CIRCLE
  8
CSLAYER1
  6
CONTINUOUS
 62
     6
 10
182.886729
 20
56.457020
 40
0.470497
  0
LINE
  8
CSLAYER1
  6
CONTINUOUS
 62
     6
 10
181.881358
 20
57.147633
 11
181.485637
 21
56.850850
  0
LINE
  8
CSLAYER1
  6
CONTINUOUS
 62
     6
 10
180.885631
 20
55.259083
 11
184.885631
 21
55.259083
  0
ARC
  8
CSLAYER1
  6
CONTINUOUS
 62
     6
 10
187.885631
 20
52.659047
 40
0.500000
 50
-90.000019
 51
89.999999
  0
LINE
  8
CSLAYER1
  6
CONTINUOUS
 62
     6
 10
188.635631
 20
52.159047
 11
188.635631
 21
51.159047
  0
LINE
  8
CSLAYER1
  6
CONTINUOUS
 62
     6
 10
188.635631
 20
51.159047
 11
177.135631
 21
51.159047
  0
LINE
  8
CSLAYER1
  6
CONTINUOUS
 62
     6
 10
177.135631
 20
51.159047
 11
177.135631
 21
52.159047
  0
LINE
  8
CSLAYER1
  6
CONTINUOUS
 62
     6
 10
177.135631
 20
52.159047
 11
188.635631
 21
52.159047
  0
LINE
  8
CSLAYER1
  6
CONTINUOUS
 62
     6
 10
188.885631
 20
53.159047
 11
176.885631
 21
53.159047
  0
LINE
  8
CSLAYER1
  6
CONTINUOUS
 62
     6
 10
176.885631
 20
53.159047
 11
176.885631
 21
58.159159
  0
ARC
  8
CSLAYER1
  6
CONTINUOUS
 62
     6
 10
182.885614
 20
40.659154
 40
18.500000
 50
93.098552
 51
108.924617
  0
LINE
  8
CSLAYER1
  6
CONTINUOUS
 62
     6
 10
176.885631
 20
58.159123
 11
172.885631
 21
58.159123
  0
LINE
  8
CSLAYER1
  6
CONTINUOUS
 62
     6
 10
172.885631
 20
58.159123
 11
171.885631
 21
59.159123
  0
LINE
  8
CSLAYER1
  6
CONTINUOUS
 62
     6
 10
171.885631
 20
59.159123
 11
171.885631
 21
93.159123
  0
LINE
  8
CSLAYER1
  6
CONTINUOUS
 62
     6
 10
171.885631
 20
93.159123
 11
172.885631
 21
94.159123
  0
LINE
  8
CSLAYER1
  6
CONTINUOUS
 62
     6
 10
172.885631
 20
94.159123
 11
176.885631
 21
94.159123
  0
LINE
  8
CSLAYER1
  6
CONTINUOUS
 62
     6
 10
176.885631
 20
94.159123
 11
176.885631
 21
99.159199
  0
LINE
  8
CSLAYER1
  6
CONTINUOUS
 62
     6
 10
176.885631
 20
99.159199
 11
188.885631
 21
99.159199
  0
LINE
  8
CSLAYER1
  6
CONTINUOUS
 62
     6
 10
188.885631
 20
99.159199
 11
188.885631
 21
94.159096
  0
LINE
  8
CSLAYER1
  6
CONTINUOUS
 62
     6
 10
188.885631
 20
94.159096
 11
189.885631
 21
94.159096
  0
ARC
  8
CSLAYER1
  6
CONTINUOUS
 62
     6
 10
182.885631
 20
111.659096
 40
18.500000
 50
273.098579
 51
288.924644
  0
LINE
  8
CSLAYER1
  6
CONTINUOUS
 62
     6
 10
183.885631
 20
94.953450
 11
181.885631
 21
94.953450
  0
LINE
  8
CSLAYER1
  6
CONTINUOUS
 62
     6
 10
181.885631
 20
94.953450
 11
181.485637
 21
95.253468
  0
LINE
  8
CSLAYER1
  6
CONTINUOUS
 62
     6
 10
181.485637
 20
95.253468
 11
181.485637
 21
97.059163
  0
LINE
  8
CSLAYER1
  6
CONTINUOUS
 62
     6
 10
181.485606
 20
96.559163
 11
180.885631
 21
96.559163
  0
LINE
  8
CSLAYER1
  6
CONTINUOUS
 62
     6
 10
180.885631
 20
96.559163
 11
180.885631
 21
99.159169
  0
LINE
  8
CSLAYER1
  6
CONTINUOUS
 62
     6
 10
179.385631
 20
99.159199
 11
179.385631
 21
95.159199
  0
LINE
  8
CSLAYER1
  6
CONTINUOUS
 62
     6
 10
179.385631
 20
95.159199
 11
181.611319
 21
95.159199
  0
LINE
  8
CSLAYER1
  6
CONTINUOUS
 62
     6
 10
181.881358
 20
95.170613
 11
183.881358
 21
95.170613
  0
LINE
  8
CSLAYER1
  6
CONTINUOUS
 62
     6
 10
183.881358
 20
95.170613
 11
184.285625
 21
95.473782
  0
LINE
  8
CSLAYER1
  6
CONTINUOUS
 62
     6
 10
184.285625
 20
95.253468
 11
183.885631
 21
94.953450
  0
LINE
  8
CSLAYER1
  6
CONTINUOUS
 62
     6
 10
184.159942
 20
95.159199
 11
186.385600
 21
95.159199
  0
LINE
  8
CSLAYER1
  6
CONTINUOUS
 62
     6
 10
186.385600
 20
95.159199
 11
186.385600
 21
99.159199
  0
LINE
  8
CSLAYER1
  6
CONTINUOUS
 62
     6
 10
184.885631
 20
99.159169
 11
184.885631
 21
96.559163
  0
LINE
  8
CSLAYER1
  6
CONTINUOUS
 62
     6
 10
184.885631
 20
96.559163
 11
184.285625
 21
96.559163
  0
LINE
  8
CSLAYER1
  6
CONTINUOUS
 62
     6
 10
184.285625
 20
97.059163
 11
184.285625
 21
95.253468
  0
CIRCLE
  8
CSLAYER1
  6
CONTINUOUS
 62
     6
 10
182.886729
 20
95.861226
 40
0.470497
  0
LINE
  8
CSLAYER1
  6
CONTINUOUS
 62
     6
 10
181.881358
 20
95.170613
 11
181.485637
 21
95.467396
  0
LINE
  8
CSLAYER1
  6
CONTINUOUS
 62
     6
 10
180.885631
 20
97.059163
 11
184.885631
 21
97.059163
  0
ARC
  8
CSLAYER1
  6
CONTINUOUS
 62
     6
 10
187.885631
 20
99.659199
 40
0.500000
 50
-89.999999
 51
90.000019
  0
LINE
  8
CSLAYER1
  6
CONTINUOUS
 62
     6
 10
188.635631
 20
100.159199
 11
188.635631
 21
101.159199
  0
LINE
  8
CSLAYER1
  6
CONTINUOUS
 62
     6
 10
188.635631
 20
101.159199
 11
177.135631
 21
101.159199
  0
LINE
  8
CSLAYER1
  6
CONTINUOUS
 62
     6
 10
177.135631
 20
101.159199
 11
177.135631
 21
100.159199
  0
LINE
  8
CSLAYER1
  6
CONTINUOUS
 62
     6
 10
177.135631
 20
100.159199
 11
188.635631
 21
100.159199
  0
ARC
  8
CSLAYER1
  6
CONTINUOUS
 62
     6
 10
182.885631
 20
111.659096
 40
18.500000
 50
251.075356
 51
266.901421
  0
LINE
  8
CSLAYER1
  6
CONTINUOUS
 62
     6
 10
172.885631
 20
94.159123
 11
172.885631
 21
65.730610
  0
LINE
  8
CSLAYER1
  6
CONTINUOUS
 62
     6
 10
172.885631
 20
65.730610
 11
176.885631
 21
65.730610
  0
LINE
  8
CSLAYER1
  6
CONTINUOUS
 62
     6
 10
176.885631
 20
65.730610
 11
176.885631
 21
61.487935
  0
LINE
  8
CSLAYER1
  6
CONTINUOUS
 62
     6
 10
176.885631
 20
61.487935
 11
172.885631
 21
61.487935
  0
LINE
  8
CSLAYER1
  6
CONTINUOUS
 62
     6
 10
172.885631
 20
61.487935
 11
172.885631
 21
58.159123
  0
LINE
  8
CSLAYER1
  6
CONTINUOUS
 62
     6
 10
172.885631
 20
61.487935
 11
171.885631
 21
62.487935
  0
ARC
  8
CSLAYER1
  6
CONTINUOUS
 62
     6
 10
181.172069
 20
66.259724
 40
7.000000
 50
184.334839
 51
196.257016
  0
LINE
  8
CSLAYER1
  6
CONTINUOUS
 62
     6
 10
172.885631
 20
65.730610
 11
171.885631
 21
66.730610
  0
ARC
  8
CSLAYER1
  6
CONTINUOUS
 62
     6
 10
175.411998
 20
64.580037
 40
1.000000
 50
196.257399
 51
264.999892
  0
LINE
  8
CSLAYER1
  6
CONTINUOUS
 62
     6
 10
175.324840
 20
63.583821
 11
175.954661
 21
63.528706
  0
ARC
  8
CSLAYER1
  6
CONTINUOUS
 62
     6
 10
175.972087
 20
63.727986
 40
0.200000
 50
264.999865
 51
359.942691
  0
ARC
  8
CSLAYER1
  6
CONTINUOUS
 62
     6
 10
176.272075
 20
63.459736
 40
0.100000
 50
179.999991
 51
269.942682
  0
LINE
  8
CSLAYER1
  6
CONTINUOUS
 62
     6
 10
176.272075
 20
63.359700
 11
176.772075
 21
63.359700
  0
ARC
  8
CSLAYER1
  6
CONTINUOUS
 62
     6
 10
176.772075
 20
63.459736
 40
0.100000
 50
270.000001
 51
359.942691
  0
LINE
  8
CSLAYER1
  6
CONTINUOUS
 62
     6
 10
176.172069
 20
63.459736
 11
176.172069
 21
65.730610
  0
ARC
  8
CSLAYER1
  6
CONTINUOUS
 62
     6
 10
177.885631
 20
52.659047
 40
0.500000
 50
90.057318
 51
269.999997
  0
LINE
  8
CSLAYER1
  6
CONTINUOUS
 62
     6
 10
188.885631
 20
53.159047
 11
188.885631
 21
58.159148
  0
LINE
  8
CSLAYER1
  6
CONTINUOUS
 62
     6
 10
211.040831
 20
93.689912
 11
211.885638
 21
94.225609
  0
LINE
  8
CSLAYER1
  6
CONTINUOUS
 62
     6
 10
211.885638
 20
94.829059
 11
211.040831
 21
94.293361
  0
LINE
  8
CSLAYER1
  6
CONTINUOUS
 62
     6
 10
209.885631
 20
97.619577
 11
209.885631
 21
101.159153
  0
LINE
  8
CSLAYER1
  6
CONTINUOUS
 62
     6
 10
209.885631
 20
101.159123
 11
211.885631
 21
101.159123
  0
ARC
  8
CSLAYER1
  6
CONTINUOUS
 62
     6
 10
177.885631
 20
99.659199
 40
0.500000
 50
90.000003
 51
269.942682
  0
LINE
  8
CSLAYER1
  6
CONTINUOUS
 62
     6
 10
243.267894
 20
71.771222
 11
243.232528
 21
71.681905
  0
LINE
  8
CSLAYER1
  6
CONTINUOUS
 62
     6
 10
243.232528
 20
71.681905
 11
243.200058
 21
71.589032
  0
LINE
  8
CSLAYER1
  6
CONTINUOUS
 62
     6
 10
243.200058
 20
71.589032
 11
243.170425
 21
71.493100
  0
LINE
  8
CSLAYER1
  6
CONTINUOUS
 62
     6
 10
243.170425
 20
71.493100
 11
243.143567
 21
71.394603
  0
LINE
  8
CSLAYER1
  6
CONTINUOUS
 62
     6
 10
243.143567
 20
71.394603
 11
243.119424
 21
71.294036
  0
LINE
  8
CSLAYER1
  6
CONTINUOUS
 62
     6
 10
243.119424
 20
71.294036
 11
243.097933
 21
71.191897
  0
LINE
  8
CSLAYER1
  6
CONTINUOUS
 62
     6
 10
243.097933
 20
71.191897
 11
243.079035
 21
71.088679
  0
LINE
  8
CSLAYER1
  6
CONTINUOUS
 62
     6
 10
243.079035
 20
71.088679
 11
243.062668
 21
70.984879
  0
LINE
  8
CSLAYER1
  6
CONTINUOUS
 62
     6
 10
243.062668
 20
70.984879
 11
243.048772
 21
70.880992
  0
LINE
  8
CSLAYER1
  6
CONTINUOUS
 62
     6
 10
243.048772
 20
70.880992
 11
243.037286
 21
70.777514
  0
LINE
  8
CSLAYER1
  6
CONTINUOUS
 62
     6
 10
243.037286
 20
70.777514
 11
243.028148
 21
70.674939
  0
LINE
  8
CSLAYER1
  6
CONTINUOUS
 62
     6
 10
243.028148
 20
70.674939
 11
243.021211
 21
70.571224
  0
LINE
  8
CSLAYER1
  6
CONTINUOUS
 62
     6
 10
243.021211
 20
70.571224
 11
243.016493
 21
70.467494
  0
LINE
  8
CSLAYER1
  6
CONTINUOUS
 62
     6
 10
243.016493
 20
70.467494
 11
243.013774
 21
70.363752
  0
LINE
  8
CSLAYER1
  6
CONTINUOUS
 62
     6
 10
243.013774
 20
70.363752
 11
243.012830
 21
70.259998
  0
LINE
  8
CSLAYER1
  6
CONTINUOUS
 62
     6
 10
243.012830
 20
70.259998
 11
243.013441
 21
70.156234
  0
LINE
  8
CSLAYER1
  6
CONTINUOUS
 62
     6
 10
243.013441
 20
70.156234
 11
243.015383
 21
70.052461
  0
LINE
  8
CSLAYER1
  6
CONTINUOUS
 62
     6
 10
243.015383
 20
70.052461
 11
243.018435
 21
69.948682
  0
LINE
  8
CSLAYER1
  6
CONTINUOUS
 62
     6
 10
243.018435
 20
69.948682
 11
243.022375
 21
69.844896
  0
LINE
  8
CSLAYER1
  6
CONTINUOUS
 62
     6
 10
243.022375
 20
69.844896
 11
243.026981
 21
69.741106
  0
LINE
  8
CSLAYER1
  6
CONTINUOUS
 62
     6
 10
243.026981
 20
69.741106
 11
243.032031
 21
69.637314
  0
LINE
  8
CSLAYER1
  6
CONTINUOUS
 62
     6
 10
243.032031
 20
69.637314
 11
243.037303
 21
69.533520
  0
ARC
  8
CSLAYER1
  6
CONTINUOUS
 62
     6
 10
243.429256
 20
70.225196
 40
0.794999
 50
240.461270
 51
300.461270
  0
ARC
  8
CSLAYER1
  6
CONTINUOUS
 62
     6
 10
244.224230
 20
70.231596
 40
0.794999
 50
240.461270
 51
300.461270
  0
ARC
  8
CSLAYER1
  6
CONTINUOUS
 62
     6
 10
244.235315
 20
68.854662
 40
0.794999
 50
60.461270
 51
120.461270
  0
LINE
  8
CSLAYER1
  6
CONTINUOUS
 62
     6
 10
243.779979
 20
69.386395
 11
244.124706
 21
67.629651
  0
LINE
  8
CSLAYER1
  6
CONTINUOUS
 62
     6
 10
244.597423
 20
67.726391
 11
244.137310
 21
69.469342
  0
LINE
  8
CSLAYER1
  6
CONTINUOUS
 62
     6
 10
244.627269
 20
69.546307
 11
244.622241
 21
69.633953
  0
LINE
  8
CSLAYER1
  6
CONTINUOUS
 62
     6
 10
244.622241
 20
69.633953
 11
244.617429
 21
69.721594
  0
LINE
  8
CSLAYER1
  6
CONTINUOUS
 62
     6
 10
244.617429
 20
69.721594
 11
244.613050
 21
69.809227
  0
LINE
  8
CSLAYER1
  6
CONTINUOUS
 62
     6
 10
244.613050
 20
69.809227
 11
244.609319
 21
69.896846
  0
LINE
  8
CSLAYER1
  6
CONTINUOUS
 62
     6
 10
244.609319
 20
69.896846
 11
244.606453
 21
69.984448
  0
LINE
  8
CSLAYER1
  6
CONTINUOUS
 62
     6
 10
244.606453
 20
69.984448
 11
244.604667
 21
70.072028
  0
LINE
  8
CSLAYER1
  6
CONTINUOUS
 62
     6
 10
244.604667
 20
70.072028
 11
244.604179
 21
70.159581
  0
LINE
  8
CSLAYER1
  6
CONTINUOUS
 62
     6
 10
244.604179
 20
70.159581
 11
244.605204
 21
70.247104
  0
LINE
  8
CSLAYER1
  6
CONTINUOUS
 62
     6
 10
244.605204
 20
70.247104
 11
244.607957
 21
70.334591
  0
LINE
  8
CSLAYER1
  6
CONTINUOUS
 62
     6
 10
244.607957
 20
70.334591
 11
244.612657
 21
70.422038
  0
LINE
  8
CSLAYER1
  6
CONTINUOUS
 62
     6
 10
244.612657
 20
70.422038
 11
244.619518
 21
70.509442
  0
LINE
  8
CSLAYER1
  6
CONTINUOUS
 62
     6
 10
244.619518
 20
70.509442
 11
244.626312
 21
70.576560
  0
LINE
  8
CSLAYER1
  6
CONTINUOUS
 62
     6
 10
244.626312
 20
70.576560
 11
244.634482
 21
70.644243
  0
LINE
  8
CSLAYER1
  6
CONTINUOUS
 62
     6
 10
244.634482
 20
70.644243
 11
244.644069
 21
70.712182
  0
LINE
  8
CSLAYER1
  6
CONTINUOUS
 62
     6
 10
244.644069
 20
70.712182
 11
244.655114
 21
70.780071
  0
LINE
  8
CSLAYER1
  6
CONTINUOUS
 62
     6
 10
244.655114
 20
70.780071
 11
244.667657
 21
70.847601
  0
LINE
  8
CSLAYER1
  6
CONTINUOUS
 62
     6
 10
244.667657
 20
70.847601
 11
244.681740
 21
70.914466
  0
LINE
  8
CSLAYER1
  6
CONTINUOUS
 62
     6
 10
244.681740
 20
70.914466
 11
244.697404
 21
70.980358
  0
LINE
  8
CSLAYER1
  6
CONTINUOUS
 62
     6
 10
244.697404
 20
70.980358
 11
244.714689
 21
71.044968
  0
LINE
  8
CSLAYER1
  6
CONTINUOUS
 62
     6
 10
244.714689
 20
71.044968
 11
244.733636
 21
71.107990
  0
LINE
  8
CSLAYER1
  6
CONTINUOUS
 62
     6
 10
244.733636
 20
71.107990
 11
244.754287
 21
71.169116
  0
LINE
  8
CSLAYER1
  6
CONTINUOUS
 62
     6
 10
244.754287
 20
71.169116
 11
244.776683
 21
71.228039
  0
LINE
  8
CSLAYER1
  6
CONTINUOUS
 62
     6
 10
244.776683
 20
71.228039
 11
244.806825
 21
71.301174
  0
LINE
  8
CSLAYER1
  6
CONTINUOUS
 62
     6
 10
244.806825
 20
71.301174
 11
244.839361
 21
71.376948
  0
LINE
  8
CSLAYER1
  6
CONTINUOUS
 62
     6
 10
244.839361
 20
71.376948
 11
244.874013
 21
71.454516
  0
LINE
  8
CSLAYER1
  6
CONTINUOUS
 62
     6
 10
244.874013
 20
71.454516
 11
244.910506
 21
71.533034
  0
LINE
  8
CSLAYER1
  6
CONTINUOUS
 62
     6
 10
244.910506
 20
71.533034
 11
244.948565
 21
71.611660
  0
LINE
  8
CSLAYER1
  6
CONTINUOUS
 62
     6
 10
244.948565
 20
71.611660
 11
244.987913
 21
71.689549
  0
LINE
  8
CSLAYER1
  6
CONTINUOUS
 62
     6
 10
244.987913
 20
71.689549
 11
245.028276
 21
71.765857
  0
LINE
  8
CSLAYER1
  6
CONTINUOUS
 62
     6
 10
245.028276
 20
71.765857
 11
245.069376
 21
71.839740
  0
LINE
  8
CSLAYER1
  6
CONTINUOUS
 62
     6
 10
245.069376
 20
71.839740
 11
245.110938
 21
71.910354
  0
LINE
  8
CSLAYER1
  6
CONTINUOUS
 62
     6
 10
245.110938
 20
71.910354
 11
245.152687
 21
71.976857
  0
LINE
  8
CSLAYER1
  6
CONTINUOUS
 62
     6
 10
245.152687
 20
71.976857
 11
245.194347
 21
72.038403
  0
ARC
  8
CSLAYER1
  6
CONTINUOUS
 62
     6
 10
244.525621
 20
71.608537
 40
0.794999
 50
32.735346
 51
92.735346
  0
ARC
  8
CSLAYER1
  6
CONTINUOUS
 62
     6
 10
244.449742
 20
73.196723
 40
0.794999
 50
212.735346
 51
272.735346
  0
ARC
  8
CSLAYER1
  6
CONTINUOUS
 62
     6
 10
243.818947
 20
71.972727
 40
0.794999
 50
32.735346
 51
92.735346
  0
LINE
  8
CSLAYER1
  6
CONTINUOUS
 62
     6
 10
243.780956
 20
72.766827
 11
243.730191
 21
72.689892
  0
LINE
  8
CSLAYER1
  6
CONTINUOUS
 62
     6
 10
243.730191
 20
72.689892
 11
243.679377
 21
72.607259
  0
LINE
  8
CSLAYER1
  6
CONTINUOUS
 62
     6
 10
243.679377
 20
72.607259
 11
243.628804
 21
72.519921
  0
LINE
  8
CSLAYER1
  6
CONTINUOUS
 62
     6
 10
243.628804
 20
72.519921
 11
243.578765
 21
72.428873
  0
LINE
  8
CSLAYER1
  6
CONTINUOUS
 62
     6
 10
243.578765
 20
72.428873
 11
243.529549
 21
72.335110
  0
LINE
  8
CSLAYER1
  6
CONTINUOUS
 62
     6
 10
243.529549
 20
72.335110
 11
243.481450
 21
72.239627
  0
LINE
  8
CSLAYER1
  6
CONTINUOUS
 62
     6
 10
243.481450
 20
72.239627
 11
243.434758
 21
72.143418
  0
LINE
  8
CSLAYER1
  6
CONTINUOUS
 62
     6
 10
243.434758
 20
72.143418
 11
243.389765
 21
72.047479
  0
LINE
  8
CSLAYER1
  6
CONTINUOUS
 62
     6
 10
243.389765
 20
72.047479
 11
243.346762
 21
71.952803
  0
LINE
  8
CSLAYER1
  6
CONTINUOUS
 62
     6
 10
243.346762
 20
71.952803
 11
243.306041
 21
71.860386
  0
LINE
  8
CSLAYER1
  6
CONTINUOUS
 62
     6
 10
243.306041
 20
71.860386
 11
243.267894
 21
71.771222
  0
LINE
  8
CSLAYER1
  6
CONTINUOUS
 62
     6
 10
243.406810
 20
69.452862
 11
243.570079
 21
67.644208
  0
ARC
  8
CSLAYER1
  6
CONTINUOUS
 62
     6
 10
246.027440
 20
68.953505
 40
0.795000
 50
252.897147
 51
312.897147
  0
ARC
  8
CSLAYER1
  6
CONTINUOUS
 62
     6
 10
246.802384
 20
69.130950
 40
0.795000
 50
252.897147
 51
312.897147
  0
ARC
  8
CSLAYER1
  6
CONTINUOUS
 62
     6
 10
247.109728
 20
67.788707
 40
0.795000
 50
72.897147
 51
132.897147
  0
LINE
  8
CSLAYER1
  6
CONTINUOUS
 62
     6
 10
246.521312
 20
68.361432
 11
246.967662
 21
66.733838
  0
LINE
  8
CSLAYER1
  6
CONTINUOUS
 62
     6
 10
246.499950
 20
66.780987
 11
246.229076
 21
68.104626
  0
LINE
  8
CSLAYER1
  6
CONTINUOUS
 62
     6
 10
245.793651
 20
68.193646
 11
245.775331
 21
68.270688
  0
LINE
  8
CSLAYER1
  6
CONTINUOUS
 62
     6
 10
245.775331
 20
68.270688
 11
245.757041
 21
68.347753
  0
LINE
  8
CSLAYER1
  6
CONTINUOUS
 62
     6
 10
245.757041
 20
68.347753
 11
245.738807
 21
68.424864
  0
LINE
  8
CSLAYER1
  6
CONTINUOUS
 62
     6
 10
245.738807
 20
68.424864
 11
245.720660
 21
68.502044
  0
LINE
  8
CSLAYER1
  6
CONTINUOUS
 62
     6
 10
245.720660
 20
68.502044
 11
245.702626
 21
68.579315
  0
LINE
  8
CSLAYER1
  6
CONTINUOUS
 62
     6
 10
245.702626
 20
68.579315
 11
245.684736
 21
68.656701
  0
LINE
  8
CSLAYER1
  6
CONTINUOUS
 62
     6
 10
245.684736
 20
68.656701
 11
245.667017
 21
68.734225
  0
LINE
  8
CSLAYER1
  6
CONTINUOUS
 62
     6
 10
245.667017
 20
68.734225
 11
245.649499
 21
68.811909
  0
LINE
  8
CSLAYER1
  6
CONTINUOUS
 62
     6
 10
245.649499
 20
68.811909
 11
245.632209
 21
68.889777
  0
LINE
  8
CSLAYER1
  6
CONTINUOUS
 62
     6
 10
245.632209
 20
68.889777
 11
245.615176
 21
68.967851
  0
LINE
  8
CSLAYER1
  6
CONTINUOUS
 62
     6
 10
245.615176
 20
68.967851
 11
245.598430
 21
69.046155
  0
LINE
  8
CSLAYER1
  6
CONTINUOUS
 62
     6
 10
245.598430
 20
69.046155
 11
245.580765
 21
69.130807
  0
LINE
  8
CSLAYER1
  6
CONTINUOUS
 62
     6
 10
245.580765
 20
69.130807
 11
245.563567
 21
69.216533
  0
LINE
  8
CSLAYER1
  6
CONTINUOUS
 62
     6
 10
245.563567
 20
69.216533
 11
245.547216
 21
69.302971
  0
LINE
  8
CSLAYER1
  6
CONTINUOUS
 62
     6
 10
245.547216
 20
69.302971
 11
245.532091
 21
69.389761
  0
LINE
  8
CSLAYER1
  6
CONTINUOUS
 62
     6
 10
245.532091
 20
69.389761
 11
245.518571
 21
69.476541
  0
LINE
  8
CSLAYER1
  6
CONTINUOUS
 62
     6
 10
245.518571
 20
69.476541
 11
245.507035
 21
69.562951
  0
LINE
  8
CSLAYER1
  6
CONTINUOUS
 62
     6
 10
245.507035
 20
69.562951
 11
245.497862
 21
69.648630
  0
LINE
  8
CSLAYER1
  6
CONTINUOUS
 62
     6
 10
245.497862
 20
69.648630
 11
245.491431
 21
69.733217
  0
LINE
  8
CSLAYER1
  6
CONTINUOUS
 62
     6
 10
245.491431
 20
69.733217
 11
245.488121
 21
69.816352
  0
LINE
  8
CSLAYER1
  6
CONTINUOUS
 62
     6
 10
245.488121
 20
69.816352
 11
245.488312
 21
69.897673
  0
LINE
  8
CSLAYER1
  6
CONTINUOUS
 62
     6
 10
245.488312
 20
69.897673
 11
245.492382
 21
69.976819
  0
LINE
  8
CSLAYER1
  6
CONTINUOUS
 62
     6
 10
245.492382
 20
69.976819
 11
245.499127
 21
70.050315
  0
LINE
  8
CSLAYER1
  6
CONTINUOUS
 62
     6
 10
245.499127
 20
70.050315
 11
245.508000
 21
70.126848
  0
LINE
  8
CSLAYER1
  6
CONTINUOUS
 62
     6
 10
245.508000
 20
70.126848
 11
245.518895
 21
70.205622
  0
LINE
  8
CSLAYER1
  6
CONTINUOUS
 62
     6
 10
245.518895
 20
70.205622
 11
245.531706
 21
70.285841
  0
LINE
  8
CSLAYER1
  6
CONTINUOUS
 62
     6
 10
245.531706
 20
70.285841
 11
245.546328
 21
70.366709
  0
LINE
  8
CSLAYER1
  6
CONTINUOUS
 62
     6
 10
245.546328
 20
70.366709
 11
245.562654
 21
70.447431
  0
LINE
  8
CSLAYER1
  6
CONTINUOUS
 62
     6
 10
245.562654
 20
70.447431
 11
245.580579
 21
70.527209
  0
LINE
  8
CSLAYER1
  6
CONTINUOUS
 62
     6
 10
245.580579
 20
70.527209
 11
245.599997
 21
70.605247
  0
LINE
  8
CSLAYER1
  6
CONTINUOUS
 62
     6
 10
245.599997
 20
70.605247
 11
245.620801
 21
70.680750
  0
LINE
  8
CSLAYER1
  6
CONTINUOUS
 62
     6
 10
245.620801
 20
70.680750
 11
245.642887
 21
70.752921
  0
LINE
  8
CSLAYER1
  6
CONTINUOUS
 62
     6
 10
245.642887
 20
70.752921
 11
245.666149
 21
70.820965
  0
ARC
  8
CSLAYER1
  6
CONTINUOUS
 62
     6
 10
246.194339
 20
71.415130
 40
0.795000
 50
228.366208
 51
288.366208
  0
ARC
  8
CSLAYER1
  6
CONTINUOUS
 62
     6
 10
245.916663
 20
70.066438
 40
0.795000
 50
48.366208
 51
108.366208
  0
ARC
  8
CSLAYER1
  6
CONTINUOUS
 62
     6
 10
246.695331
 20
69.906122
 40
0.795000
 50
48.366208
 51
108.366208
  0
LINE
  8
CSLAYER1
  6
CONTINUOUS
 62
     6
 10
247.223522
 20
70.500348
 11
247.206835
 21
70.452682
  0
LINE
  8
CSLAYER1
  6
CONTINUOUS
 62
     6
 10
247.206835
 20
70.452682
 11
247.190987
 21
70.402049
  0
LINE
  8
CSLAYER1
  6
CONTINUOUS
 62
     6
 10
247.190987
 20
70.402049
 11
247.176068
 21
70.349005
  0
LINE
  8
CSLAYER1
  6
CONTINUOUS
 62
     6
 10
247.176068
 20
70.349005
 11
247.162167
 21
70.294108
  0
LINE
  8
CSLAYER1
  6
CONTINUOUS
 62
     6
 10
247.162167
 20
70.294108
 11
247.149373
 21
70.237915
  0
LINE
  8
CSLAYER1
  6
CONTINUOUS
 62
     6
 10
247.149373
 20
70.237915
 11
247.137776
 21
70.180982
  0
LINE
  8
CSLAYER1
  6
CONTINUOUS
 62
     6
 10
247.137776
 20
70.180982
 11
247.127465
 21
70.123868
  0
LINE
  8
CSLAYER1
  6
CONTINUOUS
 62
     6
 10
247.127465
 20
70.123868
 11
247.118529
 21
70.067129
  0
LINE
  8
CSLAYER1
  6
CONTINUOUS
 62
     6
 10
247.118529
 20
70.067129
 11
247.111059
 21
70.011323
  0
LINE
  8
CSLAYER1
  6
CONTINUOUS
 62
     6
 10
247.111059
 20
70.011323
 11
247.105144
 21
69.957006
  0
LINE
  8
CSLAYER1
  6
CONTINUOUS
 62
     6
 10
247.105144
 20
69.957006
 11
247.100872
 21
69.904736
  0
LINE
  8
CSLAYER1
  6
CONTINUOUS
 62
     6
 10
247.100872
 20
69.904736
 11
247.098767
 21
69.854172
  0
LINE
  8
CSLAYER1
  6
CONTINUOUS
 62
     6
 10
247.098767
 20
69.854172
 11
247.098985
 21
69.802384
  0
LINE
  8
CSLAYER1
  6
CONTINUOUS
 62
     6
 10
247.098985
 20
69.802384
 11
247.101298
 21
69.749573
  0
LINE
  8
CSLAYER1
  6
CONTINUOUS
 62
     6
 10
247.101298
 20
69.749573
 11
247.105482
 21
69.695941
  0
LINE
  8
CSLAYER1
  6
CONTINUOUS
 62
     6
 10
247.105482
 20
69.695941
 11
247.111310
 21
69.641689
  0
LINE
  8
CSLAYER1
  6
CONTINUOUS
 62
     6
 10
247.111310
 20
69.641689
 11
247.118555
 21
69.587019
  0
LINE
  8
CSLAYER1
  6
CONTINUOUS
 62
     6
 10
247.118555
 20
69.587019
 11
247.126992
 21
69.532133
  0
LINE
  8
CSLAYER1
  6
CONTINUOUS
 62
     6
 10
247.126992
 20
69.532133
 11
247.136394
 21
69.477233
  0
LINE
  8
CSLAYER1
  6
CONTINUOUS
 62
     6
 10
247.136394
 20
69.477233
 11
247.146536
 21
69.422521
  0
LINE
  8
CSLAYER1
  6
CONTINUOUS
 62
     6
 10
247.146536
 20
69.422521
 11
247.157190
 21
69.368197
  0
LINE
  8
CSLAYER1
  6
CONTINUOUS
 62
     6
 10
247.157190
 20
69.368197
 11
247.168132
 21
69.314465
  0
LINE
  8
CSLAYER1
  6
CONTINUOUS
 62
     6
 10
247.168132
 20
69.314465
 11
247.182876
 21
69.244004
  0
LINE
  8
CSLAYER1
  6
CONTINUOUS
 62
     6
 10
247.182876
 20
69.244004
 11
247.197963
 21
69.173780
  0
LINE
  8
CSLAYER1
  6
CONTINUOUS
 62
     6
 10
247.197963
 20
69.173780
 11
247.213359
 21
69.103771
  0
LINE
  8
CSLAYER1
  6
CONTINUOUS
 62
     6
 10
247.213359
 20
69.103771
 11
247.229029
 21
69.033951
  0
LINE
  8
CSLAYER1
  6
CONTINUOUS
 62
     6
 10
247.229029
 20
69.033951
 11
247.244938
 21
68.964297
  0
LINE
  8
CSLAYER1
  6
CONTINUOUS
 62
     6
 10
247.244938
 20
68.964297
 11
247.261054
 21
68.894786
  0
LINE
  8
CSLAYER1
  6
CONTINUOUS
 62
     6
 10
247.261054
 20
68.894786
 11
247.277341
 21
68.825393
  0
LINE
  8
CSLAYER1
  6
CONTINUOUS
 62
     6
 10
247.277341
 20
68.825393
 11
247.293765
 21
68.756095
  0
LINE
  8
CSLAYER1
  6
CONTINUOUS
 62
     6
 10
247.293765
 20
68.756095
 11
247.310292
 21
68.686869
  0
LINE
  8
CSLAYER1
  6
CONTINUOUS
 62
     6
 10
247.310292
 20
68.686869
 11
247.326887
 21
68.617690
  0
LINE
  8
CSLAYER1
  6
CONTINUOUS
 62
     6
 10
247.326887
 20
68.617690
 11
247.343517
 21
68.548535
  0
LINE
  8
CSLAYER1
  6
CONTINUOUS
 62
     6
 10
246.988994
 20
68.314312
 11
247.463268
 21
66.790936
  0
ARC
  8
CSLAYER1
  6
CONTINUOUS
 62
     6
 10
250.885631
 20
76.159123
 40
4.000000
 50
205.580408
 51
211.043528
  0
LINE
  8
CSLAYER1
  6
CONTINUOUS
 62
     6
 10
247.513347
 20
74.580121
 11
247.681934
 21
74.288055
  0
ARC
  8
CSLAYER1
  6
CONTINUOUS
 62
     6
 10
250.885631
 20
76.159100
 40
2.120000
 50
-99.735526
 51
158.085512
  0
LINE
  8
CSLAYER1
  6
CONTINUOUS
 62
     6
 10
262.899005
 20
69.147129
 11
264.320669
 21
72.218002
  0
LINE
  8
CSLAYER1
  6
CONTINUOUS
 62
     6
 10
271.885631
 20
74.354228
 11
271.885631
 21
75.872916
  0
ARC
  8
CSLAYER1
  6
CONTINUOUS
 62
     6
 10
272.745562
 20
76.960373
 40
1.499994
 50
168.245911
 51
228.245911
  0
LINE
  8
CSLAYER1
  6
CONTINUOUS
 62
     6
 10
275.885631
 20
76.761752
 11
275.885631
 21
76.124140
  0
LINE
  8
CSLAYER1
  6
CONTINUOUS
 62
     6
 10
275.885602
 20
76.159065
 11
275.885660
 21
76.760418
  0
ARC
  8
CSLAYER1
  6
CONTINUOUS
 62
     6
 10
282.885609
 20
76.159085
 40
6.750000
 50
174.942367
 51
179.961149
  0
ARC
  8
CSLAYER1
  6
CONTINUOUS
 62
     6
 10
282.885609
 20
76.159085
 40
4.000000
 50
176.007555
 51
178.572301
  0
ARC
  8
CSLAYER1
  6
CONTINUOUS
 62
     6
 10
282.885609
 20
76.159085
 40
4.000000
 50
-129.735526
 51
128.465835
  0
ARC
  8
CSLAYER1
  6
CONTINUOUS
 62
     6
 10
282.885609
 20
76.159085
 40
6.750000
 50
-154.073524
 51
148.329015
  0
LINE
  8
CSLAYER1
  6
CONTINUOUS
 62
     6
 10
275.885631
 20
79.787483
 11
275.885631
 21
92.159123
  0
ARC
  8
CSLAYER1
  6
CONTINUOUS
 62
     6
 10
277.885631
 20
92.159123
 40
2.000000
 50
90.000000
 51
180.000000
  0
LINE
  8
CSLAYER1
  6
CONTINUOUS
 62
     6
 10
277.885631
 20
94.159123
 11
299.885631
 21
94.159123
  0
ARC
  8
CSLAYER1
  6
CONTINUOUS
 62
     6
 10
299.885631
 20
92.159123
 40
2.000000
 50
0.000000
 51
90.000000
  0
LINE
  8
CSLAYER1
  6
CONTINUOUS
 62
     6
 10
301.885631
 20
92.159123
 11
301.885631
 21
60.159123
  0
ARC
  8
CSLAYER1
  6
CONTINUOUS
 62
     6
 10
299.885631
 20
60.159123
 40
2.000000
 50
270.000000
 51
360.000000
  0
LINE
  8
CSLAYER1
  6
CONTINUOUS
 62
     6
 10
299.885631
 20
58.159123
 11
277.885631
 21
58.159123
  0
ARC
  8
CSLAYER1
  6
CONTINUOUS
 62
     6
 10
277.885631
 20
60.159123
 40
2.000000
 50
180.000000
 51
270.000000
  0
LINE
  8
CSLAYER1
  6
CONTINUOUS
 62
     6
 10
275.885631
 20
60.159123
 11
275.885631
 21
73.036150
  0
ARC
  8
CSLAYER1
  6
CONTINUOUS
 62
     6
 10
288.885627
 20
61.159111
 40
1.527778
 50
163.398423
 51
196.601584
  0
LINE
  8
CSLAYER1
  6
CONTINUOUS
 62
     6
 10
287.421542
 20
60.722597
 11
288.012601
 21
60.722597
  0
ARC
  8
CSLAYER1
  6
CONTINUOUS
 62
     6
 10
288.012601
 20
60.286107
 40
0.436508
 50
-0.000005
 51
89.999984
  0
LINE
  8
CSLAYER1
  6
CONTINUOUS
 62
     6
 10
288.449114
 20
60.286107
 11
288.449114
 21
59.695003
  0
ARC
  8
CSLAYER1
  6
CONTINUOUS
 62
     6
 10
288.885627
 20
61.159111
 40
1.527778
 50
253.398405
 51
286.601594
  0
LINE
  8
CSLAYER1
  6
CONTINUOUS
 62
     6
 10
289.322141
 20
59.695003
 11
289.322141
 21
60.286107
  0
ARC
  8
CSLAYER1
  6
CONTINUOUS
 62
     6
 10
289.758654
 20
60.286107
 40
0.436508
 50
89.999984
 51
179.999990
  0
LINE
  8
CSLAYER1
  6
CONTINUOUS
 62
     6
 10
289.758654
 20
60.722597
 11
290.349713
 21
60.722597
  0
ARC
  8
CSLAYER1
  6
CONTINUOUS
 62
     6
 10
288.885627
 20
61.159111
 40
1.527778
 50
-16.601572
 51
16.601562
  0
LINE
  8
CSLAYER1
  6
CONTINUOUS
 62
     6
 10
290.349713
 20
61.595624
 11
289.758654
 21
61.595624
  0
ARC
  8
CSLAYER1
  6
CONTINUOUS
 62
     6
 10
289.758654
 20
62.032115
 40
0.436508
 50
180.057309
 51
269.999999
  0
LINE
  8
CSLAYER1
  6
CONTINUOUS
 62
     6
 10
289.322141
 20
62.032115
 11
289.322141
 21
62.623219
  0
ARC
  8
CSLAYER1
  6
CONTINUOUS
 62
     6
 10
288.885627
 20
61.159111
 40
1.527778
 50
73.398417
 51
106.601578
  0
LINE
  8
CSLAYER1
  6
CONTINUOUS
 62
     6
 10
288.449114
 20
62.623219
 11
288.449114
 21
62.032115
  0
ARC
  8
CSLAYER1
  6
CONTINUOUS
 62
     6
 10
288.012601
 20
62.032115
 40
0.436508
 50
270.057346
 51
359.999995
  0
LINE
  8
CSLAYER1
  6
CONTINUOUS
 62
     6
 10
288.012601
 20
61.595624
 11
287.421542
 21
61.595624
  0
CIRCLE
  8
CSLAYER1
  6
CONTINUOUS
 62
     6
 10
288.885637
 20
61.159111
 40
2.750000
  0
LINE
  8
CSLAYER1
  6
CONTINUOUS
 62
     6
 10
277.571605
 20
39.765919
 11
309.528697
 21
39.765919
  0
ARC
  8
CSLAYER1
  6
CONTINUOUS
 62
     6
 10
314.671886
 20
38.587513
 40
1.000000
 50
90.000009
 51
173.999984
  0
LINE
  8
CSLAYER1
  6
CONTINUOUS
 62
     6
 10
313.677379
 20
38.692067
 11
312.979747
 21
32.054554
  0
ARC
  8
CSLAYER1
  6
CONTINUOUS
 62
     6
 10
311.985179
 20
32.159108
 40
1.000000
 50
270.000001
 51
354.000017
  0
LINE
  8
CSLAYER1
  6
CONTINUOUS
 62
     6
 10
311.985179
 20
31.159108
 11
275.786021
 21
31.159108
  0
ARC
  8
CSLAYER1
  6
CONTINUOUS
 62
     6
 10
275.786021
 20
32.159108
 40
1.000000
 50
186.000012
 51
270.000001
  0
LINE
  8
CSLAYER1
  6
CONTINUOUS
 62
     6
 10
274.791514
 20
32.054554
 11
274.093883
 21
38.692067
  0
ARC
  8
CSLAYER1
  6
CONTINUOUS
 62
     6
 10
273.099315
 20
38.587513
 40
1.000000
 50
6.000021
 51
90.000009
  0
ARC
  8
CSLAYER1
  6
CONTINUOUS
 62
     6
 10
273.148997
 20
34.115284
 40
1.000000
 50
6.000021
 51
90.000009
  0
LINE
  8
CSLAYER1
  6
CONTINUOUS
 62
     6
 10
274.143504
 20
34.219838
 11
274.791514
 21
28.054554
  0
ARC
  8
CSLAYER1
  6
CONTINUOUS
 62
     6
 10
275.786021
 20
28.159108
 40
1.000000
 50
186.000012
 51
270.000001
  0
LINE
  8
CSLAYER1
  6
CONTINUOUS
 62
     6
 10
275.786021
 20
27.159108
 11
311.985179
 21
27.159108
  0
ARC
  8
CSLAYER1
  6
CONTINUOUS
 62
     6
 10
311.985179
 20
28.159108
 40
1.000000
 50
270.000001
 51
354.000017
  0
LINE
  8
CSLAYER1
  6
CONTINUOUS
 62
     6
 10
312.979747
 20
28.054554
 11
313.627696
 21
34.219838
  0
ARC
  8
CSLAYER1
  6
CONTINUOUS
 62
     6
 10
314.622264
 20
34.115284
 40
1.000000
 50
90.000009
 51
173.999984
  0
LINE
  8
CSLAYER1
  6
CONTINUOUS
 62
     6
 10
314.885631
 20
32.159108
 11
313.410594
 21
32.159108
  0
LINE
  8
CSLAYER1
  6
CONTINUOUS
 62
     6
 10
274.360057
 20
32.159108
 11
271.885631
 21
32.159108
  0
LINE
  8
CSLAYER1
  6
CONTINUOUS
 62
     6
 10
288.449114
 20
89.695027
 11
288.449114
 21
90.286131
  0
ARC
  8
CSLAYER1
  6
CONTINUOUS
 62
     6
 10
288.012601
 20
90.286131
 40
0.436508
 50
0.000005
 51
89.942654
  0
LINE
  8
CSLAYER1
  6
CONTINUOUS
 62
     6
 10
288.012601
 20
90.722622
 11
287.421542
 21
90.722622
  0
ARC
  8
CSLAYER1
  6
CONTINUOUS
 62
     6
 10
288.885627
 20
91.159135
 40
1.527778
 50
163.398416
 51
196.601577
  0
LINE
  8
CSLAYER1
  6
CONTINUOUS
 62
     6
 10
287.421542
 20
91.595649
 11
288.012601
 21
91.595649
  0
ARC
  8
CSLAYER1
  6
CONTINUOUS
 62
     6
 10
288.012601
 20
92.032139
 40
0.436508
 50
-89.999984
 51
0.000005
  0
LINE
  8
CSLAYER1
  6
CONTINUOUS
 62
     6
 10
288.449114
 20
92.032139
 11
288.449114
 21
92.623243
  0
ARC
  8
CSLAYER1
  6
CONTINUOUS
 62
     6
 10
288.885627
 20
91.159135
 40
1.527778
 50
73.398406
 51
106.601595
  0
LINE
  8
CSLAYER1
  6
CONTINUOUS
 62
     6
 10
289.322141
 20
92.623243
 11
289.322141
 21
92.032139
  0
ARC
  8
CSLAYER1
  6
CONTINUOUS
 62
     6
 10
289.758654
 20
92.032139
 40
0.436508
 50
180.000010
 51
270.000016
  0
LINE
  8
CSLAYER1
  6
CONTINUOUS
 62
     6
 10
289.758654
 20
91.595649
 11
290.349713
 21
91.595649
  0
ARC
  8
CSLAYER1
  6
CONTINUOUS
 62
     6
 10
288.885627
 20
91.159135
 40
1.527778
 50
-16.601562
 51
16.601572
  0
LINE
  8
CSLAYER1
  6
CONTINUOUS
 62
     6
 10
290.349713
 20
90.722622
 11
289.758654
 21
90.722622
  0
ARC
  8
CSLAYER1
  6
CONTINUOUS
 62
     6
 10
289.758654
 20
90.286131
 40
0.436508
 50
90.000001
 51
179.942691
  0
LINE
  8
CSLAYER1
  6
CONTINUOUS
 62
     6
 10
289.322141
 20
90.286131
 11
289.322141
 21
89.695027
  0
ARC
  8
CSLAYER1
  6
CONTINUOUS
 62
     6
 10
288.885627
 20
91.159135
 40
1.527778
 50
253.398422
 51
286.601583
  0
CIRCLE
  8
CSLAYER1
  6
CONTINUOUS
 62
     6
 10
288.885637
 20
91.159135
 40
2.750000
  0
ENDSEC
  0
EOF
