  0
SECTION
  2
HEADER
  9
$ACADVER
  1
AC1006
  9
$INSBASE
 10
0.000000
 20
0.000000
 30
0.0
  9
$EXTMIN
 10
0.000000
 20
0.000000
  9
$EXTMAX
 10
594.000000
 20
420.000000
  9
$LIMMIN
 10
0.000000
 20
0.000000
  9
$LIMMAX
 10
594.000000
 20
420.000000
  9
$VIEWCTR
 10
297.000000
 20
210.000000
  9
$VIEWSIZE
 40
420.000000
  9
$SNAPMODE
 70
     0
  9
$SNAPUNIT
 10
1.0
 20
1.0
  9
$SNAPBASE
 10
0.0
 20
0.0
  9
$SNAPANG
 50
0.0
  9
$SNAPSTYLE
 70
     0
  9
$SNAPISOPAIR
 70
     0
  9
$GRIDMODE
 70
     0
  9
$GRIDUNIT
 10
0.0
 20
0.0
  9
$ORTHOMODE
 70
     0
  9
$REGENMODE
 70
     1
  9
$FILLMODE
 70
     1
  9
$QTEXTMODE
 70
     0
  9
$DRAGMODE
 70
     2
  9
$LTSCALE
 40
15.000000
  9
$OSMODE
 70
     0
  9
$ATTMODE
 70
     1
  9
$TEXTSIZE
 40
0.2
  9
$TRACEWID
 40
0.05
  9
$TEXTSTYLE
  7
STANDARD
  9
$CLAYER
  8
CSLAYER1
  9
$CELTYPE
  6
BYLAYER
  9
$CECOLOR
 62
   256
  9
$DIMSCALE
 40
1.0
  9
$DIMASZ
 40
0.18
  9
$DIMEXO
 40
0.0625
  9
$DIMDLI
 40
0.38
  9
$DIMRND
 40
0.0
  9
$DIMDLE
 40
0.0
  9
$DIMEXE
 40
0.18
  9
$DIMTP
 40
0.0
  9
$DIMTM
 40
0.0
  9
$DIMTXT
 40
0.18
  9
$DIMCEN
 40
0.09
  9
$DIMTSZ
 40
0.0
  9
$DIMTOL
 70
     0
  9
$DIMLIM
 70
     0
  9
$DIMTIH
 70
     1
  9
$DIMTOH
 70
     1
  9
$DIMSE1
 70
     0
  9
$DIMSE2
 70
     0
  9
$DIMTAD
 70
     0
  9
$DIMZIN
 70
     0
  9
$DIMBLK
  1

  9
$LUNITS
 70
     2
  9
$LUPREC
 70
     4
  9
$AXISMODE
 70
     0
  9
$AXISUNIT
 10
0.0
 20
0.0
  9
$SKETCHINC
 40
0.1
  9
$FILLETRAD
 40
0.0
  9
$AUNITS
 70
     0
  9
$AUPREC
 70
     0
  9
$MENU
  1
ACAD
  9
$ELEVATION
 40
0.0
  9
$THICKNESS
 40
0.0
  9
$VIEWDIR
 10
0.0
 20
0.0
 30
1.0
  9
$LIMCHECK
 70
     0
  9
$BLIPMODE
 70
     1
  9
$CHAMFERA
 40
0.0
  9
$CHAMFERB
 40
0.0
  9
$FASTZOOM
 70
     1
  9
$SKPOLY
 70
     0
  9
$TDCREATE
 40
0.000000
  9
$TDUPDATE
 40
0.000000
  9
$TDINDWG
 40
0.0
  9
$TDUSRTIMER
 40
0.0
  9
$USRTIMER
 70
     1
  9
$ANGBASE
 50
0.0
  9
$ANGDIR
 70
     0
  9
$PDMODE
 70
     0
  9
$PDSIZE
 40
0.0
  9
$PLINEWID
 40
0.0
  9
$COORDS
 70
     0
  9
$USERI1
 70
     0
  9
$USERI2
 70
     0
  9
$USERI3
 70
     0
  9
$USERI4
 70
     0
  9
$USERI5
 70
     0
  9
$USERR1
 40
0.0
  9
$USERR2
 40
0.0
  9
$USERR3
 40
0.0
  9
$USERR4
 40
0.0
  9
$USERR5
 40
0.0
  0
ENDSEC
  0
SECTION
  2
TABLES
  0
TABLE
  2
LTYPE
 70
     9
  0
LTYPE
  2
CONTINUOUS
 70
    64
  3
Solid line
 72
    65
 73
     0
 40
0.0
  0
LTYPE
  2
DASHED
 70
    64
  3
__ __ __ __ __ __ __ __ __ __ __ __ __ __ __
 72
    65
 73
     2
 40
0.75
 49
0.5
 49
-0.25
  0
LTYPE
  2
HIDDEN
 70
    64
  3
_ _ _ _ _ _ _ _ _ _ _ _ _ _ _ _ _ _ _ _ _ _ _
 72
    65
 73
     2
 40
0.375
 49
0.25
 49
-0.125
  0
LTYPE
  2
DOT
 70
    64
  3
...............................................
 72
    65
 73
     2
 40
0.25
 49
0.0
 49
-0.25
  0
LTYPE
  2
DASHDOT
 70
    64
  3
__ . __ . __ . __ . __ . __ . __ . __ . __ . __
 72
    65
 73
     4
 40
1.0
 49
0.5
 49
-0.25
 49
0.0
 49
-0.25
  0
LTYPE
  2
DIVIDE
 70
    64
  3
__ . . __ . . __ . . __ . . __ . . __ . . __
 72
    65
 73
     6
 40
1.25
 49
0.5
 49
-0.25
 49
0.0
 49
-0.25
 49
0.0
 49
-0.25
  0
LTYPE
  2
CENTER
 70
    64
  3
____ _ ____ _ ____ _ ____ _ ____ _ ____ _ ____ 
 72
    65
 73
     4
 40
2.0
 49
1.25
 49
-0.25
 49
0.25
 49
-0.25
  0
LTYPE
  2
PHANTOM
 70
    64
  3
______  __  __  ______  __  __  ______  __  __ 
 72
    65
 73
     6
 40
2.5
 49
1.25
 49
-0.25
 49
0.25
 49
-0.25
 49
0.25
 49
-0.25
  0
LTYPE
  2
BORDER
 70
    64
  3
__ __ . __ __ . __ __ . __ __ . __ __ . __ __ .
 72
    65
 73
     6
 40
1.75
 49
0.5
 49
-0.25
 49
0.5
 49
-0.25
 49
0.0
 49
-0.25
  0
ENDTAB
  0
TABLE
  2
LAYER
 70
    16
  0
LAYER
  2
CSLAYER1
 70
    64
 62
     7
  6
CONTINUOUS
  0
LAYER
  2
CSLAYER2
 70
    64
 62
     7
  6
CONTINUOUS
  0
LAYER
  2
CSLAYER3
 70
    64
 62
     7
  6
CONTINUOUS
  0
LAYER
  2
CSLAYER4
 70
    64
 62
     7
  6
CONTINUOUS
  0
LAYER
  2
CSLAYER5
 70
    64
 62
     7
  6
CONTINUOUS
  0
LAYER
  2
CSLAYER6
 70
    64
 62
     7
  6
CONTINUOUS
  0
LAYER
  2
CSLAYER7
 70
    64
 62
     7
  6
CONTINUOUS
  0
LAYER
  2
CSLAYER8
 70
    64
 62
     7
  6
CONTINUOUS
  0
LAYER
  2
CSLAYER9
 70
    64
 62
     7
  6
CONTINUOUS
  0
LAYER
  2
CSLAYER10
 70
    64
 62
     7
  6
CONTINUOUS
  0
LAYER
  2
CSLAYER11
 70
    64
 62
     7
  6
CONTINUOUS
  0
LAYER
  2
CSLAYER12
 70
    64
 62
     7
  6
CONTINUOUS
  0
LAYER
  2
CSLAYER13
 70
    64
 62
     7
  6
CONTINUOUS
  0
LAYER
  2
CSLAYER14
 70
    64
 62
     7
  6
CONTINUOUS
  0
LAYER
  2
CSLAYER15
 70
    64
 62
     7
  6
CONTINUOUS
  0
LAYER
  2
CSLAYER16
 70
    64
 62
     7
  6
CONTINUOUS
  0
ENDTAB
  0
TABLE
  2
STYLE
 70
     1
  0
STYLE
  2
JX_FONT
 70
     0
 40
1.0
 41
1.0
 50
0.0
 71
     0
 42
1.0
  3
monotxt
  4
bigfont
  0
ENDTAB
  0
TABLE
  2
VIEW
 70
     0
  0
ENDTAB
  0
ENDSEC
  0
SECTION
  2
BLOCKS
  0
ENDSEC
  0
SECTION
  2
ENTITIES
  0
LINE
  8
CSLAYER1
  6
CENTER
 62
     3
 10
83.737132
 20
148.934517
 11
83.737132
 21
277.159123
  0
ARC
  8
CSLAYER1
  6
CENTER
 62
     3
 10
83.737132
 20
221.159123
 40
36.500000
 50
45.074661
 51
74.925352
  0
LINE
  8
CSLAYER1
  6
CENTER
 62
     3
 10
97.237124
 20
244.541794
 11
106.737124
 21
260.996277
  0
LINE
  8
CSLAYER1
  6
CENTER
 62
     3
 10
116.737132
 20
263.659123
 11
135.737132
 21
263.659123
  0
LINE
  8
CSLAYER1
  6
CENTER
 62
     3
 10
126.237132
 20
254.159123
 11
126.237132
 21
273.159123
  0
LINE
  8
CSLAYER1
  6
CENTER
 62
     3
 10
139.737132
 20
221.159123
 11
27.737132
 21
221.159123
  0
ARC
  8
CSLAYER1
  6
CENTER
 62
     3
 10
83.737132
 20
221.159123
 40
36.500000
 50
165.074661
 51
194.925352
  0
LINE
  8
CSLAYER1
  6
CENTER
 62
     3
 10
41.237132
 20
254.159123
 11
41.237132
 21
273.159123
  0
LINE
  8
CSLAYER1
  6
CENTER
 62
     3
 10
50.737132
 20
263.659123
 11
31.737132
 21
263.659123
  0
LINE
  8
CSLAYER1
  6
CENTER
 62
     3
 10
41.237132
 20
188.159123
 11
41.237132
 21
169.159123
  0
LINE
  8
CSLAYER1
  6
CENTER
 62
     3
 10
50.737132
 20
178.659123
 11
31.737132
 21
178.659123
  0
ARC
  8
CSLAYER1
  6
CENTER
 62
     3
 10
83.737132
 20
221.159123
 40
36.500000
 50
285.074648
 51
314.925339
  0
LINE
  8
CSLAYER1
  6
CENTER
 62
     3
 10
97.237124
 20
197.776452
 11
106.737124
 21
181.321969
  0
LINE
  8
CSLAYER1
  6
CENTER
 62
     3
 10
116.737132
 20
178.659123
 11
135.737132
 21
178.659123
  0
LINE
  8
CSLAYER1
  6
CENTER
 62
     3
 10
126.237132
 20
188.159123
 11
126.237132
 21
169.159123
  0
LINE
  8
CSLAYER1
  6
CENTER
 62
     3
 10
185.627048
 20
189.549208
 11
200.078814
 21
189.549210
  0
LINE
  8
CSLAYER1
  6
CENTER
 62
     3
 10
230.885661
 20
180.559123
 11
230.885661
 21
155.501308
  0
LINE
  8
CSLAYER1
  6
CENTER
 62
     3
 10
268.885661
 20
173.459111
 11
268.885661
 21
184.159123
  0
LINE
  8
CSLAYER1
  6
CENTER
 62
     3
 10
273.885661
 20
189.159123
 11
273.885661
 21
253.159123
  0
LINE
  8
CSLAYER1
  6
CENTER
 62
     3
 10
273.885661
 20
292.159108
 11
273.885661
 21
314.765919
  0
LINE
  8
CSLAYER1
  6
CENTER
 62
     3
 10
200.078819
 20
327.909124
 11
185.627053
 21
327.909122
  0
LINE
  8
CSLAYER1
  6
CENTER
 62
     3
 10
185.627039
 20
252.769036
 11
200.078805
 21
252.769039
  0
LINE
  8
CSLAYER1
  6
CENTER
 62
     3
 10
161.585661
 20
221.159123
 11
436.885631
 21
221.159123
  0
LINE
  8
CSLAYER1
  6
CENTER
 62
     3
 10
394.885661
 20
263.659123
 11
375.885661
 21
263.659123
  0
LINE
  8
CSLAYER1
  6
CONTINUOUS
 62
     3
 10
358.885631
 20
266.159123
 11
358.885631
 21
259.564857
  0
ARC
  8
CSLAYER1
  6
CONTINUOUS
 62
     3
 10
356.885631
 20
259.564857
 40
2.000000
 50
270.000001
 51
359.942691
  0
LINE
  8
CSLAYER1
  6
CONTINUOUS
 62
     3
 10
356.885631
 20
257.564857
 11
328.885631
 21
257.564888
  0
ARC
  8
CSLAYER1
  6
CONTINUOUS
 62
     3
 10
328.885631
 20
259.564888
 40
2.000000
 50
180.000005
 51
270.000001
  0
LINE
  8
CSLAYER1
  6
CONTINUOUS
 62
     3
 10
326.885631
 20
259.564888
 11
326.885631
 21
266.159123
  0
LINE
  8
CSLAYER1
  6
CENTER
 62
     3
 10
375.885631
 20
303.659123
 11
394.885631
 21
303.659123
  0
ARC
  8
CSLAYER1
  6
CONTINUOUS
 62
     3
 10
356.885631
 20
322.659123
 40
2.000000
 50
270.000000
 51
360.000000
  0
LINE
  8
CSLAYER1
  6
CONTINUOUS
 62
     3
 10
356.885631
 20
320.659123
 11
328.885631
 21
320.659123
  0
ARC
  8
CSLAYER1
  6
CONTINUOUS
 62
     3
 10
328.885631
 20
322.659123
 40
2.000000
 50
180.000000
 51
270.000000
  0
LINE
  8
CSLAYER1
  6
CONTINUOUS
 62
     3
 10
326.885631
 20
322.659123
 11
326.885631
 21
369.659123
  0
ARC
  8
CSLAYER1
  6
CONTINUOUS
 62
     3
 10
328.885631
 20
369.659123
 40
2.000000
 50
90.000000
 51
180.000000
  0
LINE
  8
CSLAYER1
  6
CONTINUOUS
 62
     3
 10
328.885631
 20
371.659123
 11
356.885631
 21
371.659123
  0
ARC
  8
CSLAYER1
  6
CONTINUOUS
 62
     3
 10
356.885631
 20
369.659123
 40
2.000000
 50
0.000000
 51
90.000000
  0
LINE
  8
CSLAYER1
  6
CONTINUOUS
 62
     3
 10
358.885631
 20
369.659123
 11
358.885631
 21
322.659123
  0
LINE
  8
CSLAYER1
  6
CENTER
 62
     3
 10
375.885631
 20
388.659123
 11
394.885631
 21
388.659123
  0
LINE
  8
CSLAYER1
  6
CENTER
 62
     3
 10
436.885631
 20
346.159123
 11
161.585661
 21
346.159123
  0
LINE
  8
CSLAYER1
  6
CENTER
 62
     3
 10
185.627061
 20
382.659124
 11
200.078827
 21
382.659122
  0
LINE
  8
CSLAYER1
  6
CENTER
 62
     3
 10
273.885661
 20
377.552296
 11
273.885661
 21
400.159108
  0
LINE
  8
CSLAYER1
  6
CENTER
 62
     3
 10
464.974454
 20
263.659123
 11
483.974454
 21
263.659123
  0
LINE
  8
CSLAYER1
  6
CENTER
 62
     3
 10
474.474454
 20
254.159123
 11
474.474454
 21
273.159123
  0
LINE
  8
CSLAYER1
  6
CENTER
 62
     3
 10
503.474454
 20
258.159145
 11
530.474454
 21
258.159145
  0
LINE
  8
CSLAYER1
  6
CENTER
 62
     3
 10
549.974454
 20
263.659123
 11
568.974454
 21
263.659123
  0
LINE
  8
CSLAYER1
  6
CENTER
 62
     3
 10
559.474454
 20
254.159123
 11
559.474454
 21
273.159123
  0
LINE
  8
CSLAYER1
  6
CENTER
 62
     3
 10
516.974454
 20
277.159123
 11
516.974454
 21
165.159123
  0
LINE
  8
CSLAYER1
  6
CENTER
 62
     3
 10
530.474454
 20
184.159100
 11
503.474454
 21
184.159100
  0
LINE
  8
CSLAYER1
  6
CENTER
 62
     3
 10
483.974454
 20
178.659123
 11
464.974454
 21
178.659123
  0
LINE
  8
CSLAYER1
  6
CENTER
 62
     3
 10
474.474454
 20
188.159123
 11
474.474454
 21
169.159123
  0
LINE
  8
CSLAYER1
  6
CENTER
 62
     3
 10
549.974454
 20
178.659123
 11
568.974454
 21
178.659123
  0
LINE
  8
CSLAYER1
  6
CENTER
 62
     3
 10
559.474454
 20
169.159123
 11
559.474454
 21
188.159123
  0
LINE
  8
CSLAYER1
  6
CENTER
 62
     3
 10
572.974454
 20
221.159123
 11
460.974454
 21
221.159123
  0
LINE
  8
CSLAYER1
  6
CENTER
 62
     3
 10
394.885661
 20
178.659123
 11
375.885661
 21
178.659123
  0
LINE
  8
CSLAYER1
  6
CENTER
 62
     3
 10
375.885631
 20
128.659123
 11
394.885631
 21
128.659123
  0
LINE
  8
CSLAYER1
  6
CENTER
 62
     3
 10
436.885631
 20
86.159123
 11
161.585661
 21
86.159123
  0
LINE
  8
CSLAYER1
  6
CENTER
 62
     3
 10
185.627061
 20
104.409124
 11
200.078827
 21
104.409122
  0
LINE
  8
CSLAYER1
  6
CENTER
 62
     3
 10
230.885661
 20
93.159123
 11
230.885661
 21
79.159123
  0
LINE
  8
CSLAYER1
  6
CENTER
 62
     3
 10
262.885661
 20
76.409085
 11
262.885661
 21
95.909085
  0
LINE
  8
CSLAYER1
  6
CENTER
 62
     3
 10
263.135668
 20
101.159123
 11
274.635668
 21
101.159123
  0
LINE
  8
CSLAYER1
  6
CENTER
 62
     3
 10
274.635668
 20
71.159123
 11
263.135668
 21
71.159123
  0
LINE
  8
CSLAYER1
  6
CENTER
 62
     3
 10
268.885661
 20
65.159123
 11
268.885661
 21
107.159123
  0
LINE
  8
CSLAYER1
  6
CENTER
 62
     3
 10
273.885661
 20
117.552296
 11
273.885661
 21
140.159108
  0
LINE
  8
CSLAYER1
  6
CENTER
 62
     3
 10
273.885661
 20
54.765919
 11
273.885661
 21
32.159108
  0
LINE
  8
CSLAYER1
  6
CENTER
 62
     3
 10
200.078819
 20
49.659124
 11
185.627053
 21
49.659122
  0
LINE
  8
CSLAYER1
  6
CENTER
 62
     3
 10
375.885631
 20
43.659123
 11
394.885631
 21
43.659123
  0
TEXT
  8
CSLAYER1
 62
     3
 10
77.682816
 20
188.946625
 40
2.000000
 41
1.500000
  1
1
 50
0.000000
 51
10.000000
  7
JX_FONT
 72
     5
 11
79.682816
 21
188.946625
  0
TEXT
  8
CSLAYER1
 62
     3
 10
80.182800
 20
188.946625
 40
2.000000
 41
1.500000
  1
2
 50
0.000000
 51
10.000000
  7
JX_FONT
 72
     5
 11
82.182800
 21
188.946625
  0
TEXT
  8
CSLAYER1
 62
     3
 10
82.682800
 20
188.946625
 40
2.000000
 41
1.500000
  1
3
 50
0.000000
 51
10.000000
  7
JX_FONT
 72
     5
 11
84.682800
 21
188.946625
  0
TEXT
  8
CSLAYER1
 62
     3
 10
85.182800
 20
188.946625
 40
2.000000
 41
1.500000
  1
4
 50
0.000000
 51
10.000000
  7
JX_FONT
 72
     5
 11
87.182800
 21
188.946625
  0
TEXT
  8
CSLAYER1
 62
     3
 10
87.682800
 20
188.946625
 40
2.000000
 41
1.500000
  1
5
 50
0.000000
 51
10.000000
  7
JX_FONT
 72
     5
 11
89.682800
 21
188.946625
  0
TEXT
  8
CSLAYER1
 62
     3
 10
72.427597
 20
202.990967
 40
2.000000
 41
0.934615
  1
HEDS-5500
 50
90.000000
 51
10.000000
  7
JX_FONT
 72
     5
 11
72.427597
 21
219.190966
  0
TEXT
  8
CSLAYER1
 62
     3
 10
340.942383
 20
351.409119
 40
3.500000
 41
1.125000
  1
N P
 50
-90.000000
 51
10.000000
  7
JX_FONT
 72
     5
 11
340.942383
 21
340.909119
  0
LINE
  8
CSLAYER1
  6
CONTINUOUS
 62
     6
 10
77.871228
 20
149.026905
 11
79.984334
 21
153.144708
  0
LINE
  8
CSLAYER1
  6
CONTINUOUS
 62
     6
 10
79.269415
 20
153.506881
 11
77.040738
 21
149.592882
  0
LINE
  8
CSLAYER1
  6
CONTINUOUS
 62
     6
 10
78.815291
 20
148.682247
 11
80.695437
 21
152.775098
  0
LINE
  8
CSLAYER1
  6
CONTINUOUS
 62
     6
 10
81.315301
 20
152.452912
 11
78.653368
 21
153.836504
  0
ARC
  8
CSLAYER1
  6
CONTINUOUS
 62
     6
 10
62.247654
 20
162.363570
 40
18.489456
 50
332.536225
 51
359.942687
  0
LINE
  8
CSLAYER1
  6
CONTINUOUS
 62
     6
 10
80.737101
 20
162.363639
 11
80.737101
 21
164.099816
  0
ARC
  8
CSLAYER1
  6
CONTINUOUS
 62
     6
 10
81.487103
 20
162.800765
 40
1.500010
 50
77.905623
 51
120.000345
  0
ARC
  8
CSLAYER1
  6
CONTINUOUS
 62
     6
 10
81.487087
 20
165.398858
 40
1.500010
 50
240.000345
 51
278.069511
  0
LINE
  8
CSLAYER1
  6
CONTINUOUS
 62
     6
 10
81.042737
 20
162.328135
 11
82.453561
 21
161.594831
  0
ARC
  8
CSLAYER1
  6
CONTINUOUS
 62
     6
 10
72.347709
 20
166.847480
 40
11.389411
 50
332.536225
 51
359.942687
  0
LINE
  8
CSLAYER1
  6
CONTINUOUS
 62
     6
 10
83.737114
 20
166.836087
 11
83.737133
 21
167.767686
  0
ARC
  8
CSLAYER1
  6
CONTINUOUS
 62
     6
 10
84.134632
 20
168.456183
 40
0.795005
 50
240.000345
 51
300.000345
  0
ARC
  8
CSLAYER1
  6
CONTINUOUS
 62
     6
 10
84.134640
 20
167.079193
 40
0.795005
 50
60.000345
 51
120.000345
  0
ARC
  8
CSLAYER1
  6
CONTINUOUS
 62
     6
 10
83.339622
 20
167.079198
 40
0.795005
 50
60.000345
 51
120.000345
  0
ARC
  8
CSLAYER1
  6
CONTINUOUS
 62
     6
 10
82.544617
 20
167.079193
 40
0.795005
 50
60.000345
 51
120.000345
  0
ARC
  8
CSLAYER1
  6
CONTINUOUS
 62
     6
 10
82.544609
 20
168.456183
 40
0.795005
 50
240.000345
 51
300.000345
  0
LINE
  8
CSLAYER1
  6
CONTINUOUS
 62
     6
 10
82.147116
 20
167.767690
 11
82.147116
 21
166.847517
  0
ARC
  8
CSLAYER1
  6
CONTINUOUS
 62
     6
 10
72.347709
 20
166.847480
 40
9.799412
 50
332.536225
 51
359.942687
  0
LINE
  8
CSLAYER1
  6
CONTINUOUS
 62
     6
 10
81.369242
 20
162.153435
 11
80.188044
 21
160.079015
  0
LINE
  8
CSLAYER1
  6
CONTINUOUS
 62
     6
 10
80.628203
 20
159.779047
 11
81.748149
 21
161.961483
  0
LINE
  8
CSLAYER1
  6
CONTINUOUS
 62
     6
 10
82.125034
 20
161.765590
 11
81.128557
 21
159.596379
  0
ARC
  8
CSLAYER1
  6
CONTINUOUS
 62
     6
 10
62.247654
 20
162.363570
 40
21.489455
 50
332.536225
 51
359.942687
  0
ARC
  8
CSLAYER1
  6
CONTINUOUS
 62
     6
 10
105.226611
 20
162.363639
 40
21.489455
 50
180.000020
 51
207.463892
  0
LINE
  8
CSLAYER1
  6
CONTINUOUS
 62
     6
 10
83.737098
 20
162.342074
 11
83.737134
 21
164.099807
  0
ARC
  8
CSLAYER1
  6
CONTINUOUS
 62
     6
 10
84.487131
 20
165.398858
 40
1.500010
 50
240.000345
 51
255.551203
  0
ARC
  8
CSLAYER1
  6
CONTINUOUS
 62
     6
 10
84.487147
 20
162.800765
 40
1.500010
 50
107.291250
 51
120.000345
  0
ARC
  8
CSLAYER1
  6
CONTINUOUS
 62
     6
 10
82.987113
 20
162.800774
 40
1.500010
 50
60.000345
 51
72.708151
  0
LINE
  8
CSLAYER1
  6
CONTINUOUS
 62
     6
 10
83.737165
 20
166.334803
 11
83.737132
 21
176.159123
  0
LINE
  8
CSLAYER1
  6
CONTINUOUS
 62
     6
 10
83.737132
 20
176.159123
 11
83.737150
 21
168.952233
  0
ARC
  8
CSLAYER1
  6
CONTINUOUS
 62
     6
 10
83.339645
 20
169.640733
 40
0.795011
 50
239.999981
 51
299.999981
  0
ARC
  8
CSLAYER1
  6
CONTINUOUS
 62
     6
 10
83.339644
 20
168.263734
 40
0.795011
 50
59.999981
 51
119.999981
  0
ARC
  8
CSLAYER1
  6
CONTINUOUS
 62
     6
 10
84.134657
 20
169.640733
 40
0.795011
 50
239.999981
 51
299.999981
  0
ARC
  8
CSLAYER1
  6
CONTINUOUS
 62
     6
 10
84.929668
 20
169.640733
 40
0.795011
 50
239.999981
 51
299.999981
  0
ARC
  8
CSLAYER1
  6
CONTINUOUS
 62
     6
 10
84.929667
 20
168.263734
 40
0.795011
 50
59.999981
 51
119.999981
  0
LINE
  8
CSLAYER1
  6
CONTINUOUS
 62
     6
 10
85.327150
 20
168.952233
 11
85.327144
 21
175.159123
  0
LINE
  8
CSLAYER1
  6
CONTINUOUS
 62
     6
 10
86.737155
 20
175.159123
 11
86.737165
 21
166.334803
  0
ARC
  8
CSLAYER1
  6
CONTINUOUS
 62
     6
 10
85.987199
 20
167.633858
 40
1.500020
 50
244.594310
 51
299.999981
  0
ARC
  8
CSLAYER1
  6
CONTINUOUS
 62
     6
 10
85.987198
 20
165.035747
 40
1.500020
 50
59.999981
 51
115.648168
  0
ARC
  8
CSLAYER1
  6
CONTINUOUS
 62
     6
 10
95.126556
 20
166.847480
 40
9.799412
 50
179.999963
 51
207.463892
  0
LINE
  8
CSLAYER1
  6
CONTINUOUS
 62
     6
 10
86.431540
 20
162.328110
 11
85.020716
 21
161.594831
  0
ARC
  8
CSLAYER1
  6
CONTINUOUS
 62
     6
 10
95.126556
 20
166.847517
 40
11.389411
 50
180.000020
 51
207.463892
  0
ARC
  8
CSLAYER1
  6
CONTINUOUS
 62
     6
 10
84.929645
 20
167.079198
 40
0.795005
 50
60.000345
 51
120.000345
  0
LINE
  8
CSLAYER1
  6
CONTINUOUS
 62
     6
 10
85.327150
 20
167.767690
 11
85.327150
 21
166.847517
  0
ARC
  8
CSLAYER1
  6
CONTINUOUS
 62
     6
 10
85.987156
 20
162.800774
 40
1.500010
 50
60.000345
 51
102.094271
  0
LINE
  8
CSLAYER1
  6
CONTINUOUS
 62
     6
 10
86.737165
 20
164.099816
 11
86.737165
 21
162.363639
  0
ARC
  8
CSLAYER1
  6
CONTINUOUS
 62
     6
 10
105.226611
 20
162.363570
 40
18.489456
 50
179.999963
 51
207.463892
  0
LINE
  8
CSLAYER1
  6
CONTINUOUS
 62
     6
 10
88.820921
 20
153.836458
 11
86.158988
 21
152.452912
  0
LINE
  8
CSLAYER1
  6
CONTINUOUS
 62
     6
 10
86.800161
 20
152.793415
 11
88.455805
 21
148.934517
  0
LINE
  8
CSLAYER1
  6
CONTINUOUS
 62
     6
 10
89.469717
 20
149.296637
 11
87.489954
 21
153.144685
  0
LINE
  8
CSLAYER1
  6
CONTINUOUS
 62
     6
 10
88.176804
 20
153.501677
 11
90.353839
 21
149.911027
  0
LINE
  8
CSLAYER1
  6
CONTINUOUS
 62
     6
 10
86.775402
 20
159.922005
 11
85.726128
 21
161.961471
  0
LINE
  8
CSLAYER1
  6
CONTINUOUS
 62
     6
 10
86.090158
 20
162.150676
 11
87.243987
 21
160.247632
  0
LINE
  8
CSLAYER1
  6
CONTINUOUS
 62
     6
 10
86.238029
 20
159.730082
 11
85.360538
 21
161.775298
  0
ARC
  8
CSLAYER1
  6
CONTINUOUS
 62
     6
 10
81.487135
 20
167.633859
 40
1.500020
 50
239.999981
 51
295.402657
  0
LINE
  8
CSLAYER1
  6
CONTINUOUS
 62
     6
 10
80.737123
 20
166.334803
 11
80.737113
 21
175.159123
  0
LINE
  8
CSLAYER1
  6
CONTINUOUS
 62
     6
 10
80.027132
 20
175.159123
 11
87.447132
 21
175.159123
  0
LINE
  8
CSLAYER1
  6
CONTINUOUS
 62
     6
 10
87.447132
 20
175.159123
 11
87.447132
 21
176.159123
  0
LINE
  8
CSLAYER1
  6
CONTINUOUS
 62
     6
 10
87.447132
 20
176.159123
 11
80.027132
 21
176.159123
  0
LINE
  8
CSLAYER1
  6
CONTINUOUS
 62
     6
 10
80.027132
 20
176.159123
 11
80.027132
 21
175.159123
  0
LINE
  8
CSLAYER1
  6
CONTINUOUS
 62
     6
 10
82.147122
 20
175.159123
 11
82.147128
 21
168.952233
  0
ARC
  8
CSLAYER1
  6
CONTINUOUS
 62
     6
 10
82.544634
 20
169.640733
 40
0.795011
 50
239.999981
 51
299.999981
  0
LINE
  8
CSLAYER1
  6
CONTINUOUS
 62
     6
 10
81.735139
 20
171.159123
 11
41.237132
 21
171.159123
  0
LINE
  8
CSLAYER1
  6
CONTINUOUS
 62
     6
 10
45.404317
 20
172.423373
 11
57.562573
 21
180.548410
  0
ARC
  8
CSLAYER1
  6
CONTINUOUS
 62
     6
 10
60.896320
 20
175.559810
 40
6.000000
 50
63.393594
 51
123.753747
  0
LINE
  8
CSLAYER1
  6
CONTINUOUS
 62
     6
 10
70.737132
 20
195.159123
 11
96.737132
 21
195.159123
  0
ARC
  8
CSLAYER1
  6
CONTINUOUS
 62
     6
 10
96.737132
 20
197.159123
 40
2.000000
 50
270.000000
 51
360.000000
  0
LINE
  8
CSLAYER1
  6
CONTINUOUS
 62
     6
 10
98.737132
 20
197.159123
 11
98.737132
 21
221.159123
  0
ARC
  8
CSLAYER1
  6
CONTINUOUS
 62
     6
 10
83.737132
 20
221.159123
 40
15.000000
 50
-0.000000
 51
180.000000
  0
LINE
  8
CSLAYER1
  6
CONTINUOUS
 62
     6
 10
68.737132
 20
221.159123
 11
68.737132
 21
197.159123
  0
ARC
  8
CSLAYER1
  6
CONTINUOUS
 62
     6
 10
70.737132
 20
197.159123
 40
2.000000
 50
180.000000
 51
270.000000
  0
LINE
  8
CSLAYER1
  6
CONTINUOUS
 62
     6
 10
72.237132
 20
197.159123
 11
95.237132
 21
197.159123
  0
ARC
  8
CSLAYER1
  6
CONTINUOUS
 62
     6
 10
95.237132
 20
198.659123
 40
1.500000
 50
270.000000
 51
360.000000
  0
LINE
  8
CSLAYER1
  6
CONTINUOUS
 62
     6
 10
96.737132
 20
198.659123
 11
96.737132
 21
199.159123
  0
LINE
  8
CSLAYER1
  6
CONTINUOUS
 62
     6
 10
96.737132
 20
199.159123
 11
92.237132
 21
199.159123
  0
ARC
  8
CSLAYER1
  6
CONTINUOUS
 62
     6
 10
92.237132
 20
200.159123
 40
1.000000
 50
180.000000
 51
270.000000
  0
ARC
  8
CSLAYER1
  6
CONTINUOUS
 62
     6
 10
90.237132
 20
200.159123
 40
1.000000
 50
0.000000
 51
90.000000
  0
LINE
  8
CSLAYER1
  6
CONTINUOUS
 62
     6
 10
90.237132
 20
201.159123
 11
77.237132
 21
201.159123
  0
ARC
  8
CSLAYER1
  6
CONTINUOUS
 62
     6
 10
77.237132
 20
200.159123
 40
1.000000
 50
90.000000
 51
180.000000
  0
ARC
  8
CSLAYER1
  6
CONTINUOUS
 62
     6
 10
75.237132
 20
200.159123
 40
1.000000
 50
270.000000
 51
360.000000
  0
LINE
  8
CSLAYER1
  6
CONTINUOUS
 62
     6
 10
75.237132
 20
199.159123
 11
70.737132
 21
199.159123
  0
LINE
  8
CSLAYER1
  6
CONTINUOUS
 62
     6
 10
70.737132
 20
199.159123
 11
70.737132
 21
198.659123
  0
ARC
  8
CSLAYER1
  6
CONTINUOUS
 62
     6
 10
72.237132
 20
198.659123
 40
1.500000
 50
180.000000
 51
270.000000
  0
LINE
  8
CSLAYER1
  6
CONTINUOUS
 62
     6
 10
78.362132
 20
197.159123
 11
78.362132
 21
199.159123
  0
LINE
  8
CSLAYER1
  6
CONTINUOUS
 62
     6
 10
78.362132
 20
199.159123
 11
77.987132
 21
199.659123
  0
LINE
  8
CSLAYER1
  6
CONTINUOUS
 62
     6
 10
77.987132
 20
199.659123
 11
77.987132
 21
201.159123
  0
LINE
  8
CSLAYER1
  6
CONTINUOUS
 62
     6
 10
79.487132
 20
201.159123
 11
79.487132
 21
199.659123
  0
LINE
  8
CSLAYER1
  6
CONTINUOUS
 62
     6
 10
79.487132
 20
199.659123
 11
79.112132
 21
199.159123
  0
LINE
  8
CSLAYER1
  6
CONTINUOUS
 62
     6
 10
79.112132
 20
199.159123
 11
79.112132
 21
197.159123
  0
LINE
  8
CSLAYER1
  6
CONTINUOUS
 62
     6
 10
80.862132
 20
197.159123
 11
80.862132
 21
199.159123
  0
LINE
  8
CSLAYER1
  6
CONTINUOUS
 62
     6
 10
80.862132
 20
199.159123
 11
80.487132
 21
199.659123
  0
LINE
  8
CSLAYER1
  6
CONTINUOUS
 62
     6
 10
80.487132
 20
199.659123
 11
80.487132
 21
201.159123
  0
LINE
  8
CSLAYER1
  6
CONTINUOUS
 62
     6
 10
81.987132
 20
201.159123
 11
81.987132
 21
199.659123
  0
LINE
  8
CSLAYER1
  6
CONTINUOUS
 62
     6
 10
81.987132
 20
199.659123
 11
81.612132
 21
199.159123
  0
LINE
  8
CSLAYER1
  6
CONTINUOUS
 62
     6
 10
81.612132
 20
199.159123
 11
81.612132
 21
197.159123
  0
LINE
  8
CSLAYER1
  6
CONTINUOUS
 62
     6
 10
83.362132
 20
197.159123
 11
83.362132
 21
199.159123
  0
LINE
  8
CSLAYER1
  6
CONTINUOUS
 62
     6
 10
83.362132
 20
199.159123
 11
82.987132
 21
199.659123
  0
LINE
  8
CSLAYER1
  6
CONTINUOUS
 62
     6
 10
82.987132
 20
199.659123
 11
82.987132
 21
201.159123
  0
LINE
  8
CSLAYER1
  6
CONTINUOUS
 62
     6
 10
84.487132
 20
201.159123
 11
84.487132
 21
199.659123
  0
LINE
  8
CSLAYER1
  6
CONTINUOUS
 62
     6
 10
84.487132
 20
199.659123
 11
84.112132
 21
199.159123
  0
LINE
  8
CSLAYER1
  6
CONTINUOUS
 62
     6
 10
84.112132
 20
199.159123
 11
84.112132
 21
197.159123
  0
LINE
  8
CSLAYER1
  6
CONTINUOUS
 62
     6
 10
85.862132
 20
197.159123
 11
85.862132
 21
199.159123
  0
LINE
  8
CSLAYER1
  6
CONTINUOUS
 62
     6
 10
85.862132
 20
199.159123
 11
85.487132
 21
199.659123
  0
LINE
  8
CSLAYER1
  6
CONTINUOUS
 62
     6
 10
85.487132
 20
199.659123
 11
85.487132
 21
201.159123
  0
LINE
  8
CSLAYER1
  6
CONTINUOUS
 62
     6
 10
86.987132
 20
201.159123
 11
86.987132
 21
199.659123
  0
LINE
  8
CSLAYER1
  6
CONTINUOUS
 62
     6
 10
86.987132
 20
199.659123
 11
86.612132
 21
199.159123
  0
LINE
  8
CSLAYER1
  6
CONTINUOUS
 62
     6
 10
86.612132
 20
199.159123
 11
86.612132
 21
197.159123
  0
LINE
  8
CSLAYER1
  6
CONTINUOUS
 62
     6
 10
88.362132
 20
197.159123
 11
88.362132
 21
199.159123
  0
LINE
  8
CSLAYER1
  6
CONTINUOUS
 62
     6
 10
88.362132
 20
199.159123
 11
87.987132
 21
199.659123
  0
LINE
  8
CSLAYER1
  6
CONTINUOUS
 62
     6
 10
87.987132
 20
199.659123
 11
87.987132
 21
201.159123
  0
LINE
  8
CSLAYER1
  6
CONTINUOUS
 62
     6
 10
89.487132
 20
201.159123
 11
89.487132
 21
199.659123
  0
LINE
  8
CSLAYER1
  6
CONTINUOUS
 62
     6
 10
89.487132
 20
199.659123
 11
89.112132
 21
199.159123
  0
LINE
  8
CSLAYER1
  6
CONTINUOUS
 62
     6
 10
89.112132
 20
199.159123
 11
89.112132
 21
197.159123
  0
LINE
  8
CSLAYER1
  6
CONTINUOUS
 62
     6
 10
89.112132
 20
195.159123
 11
89.112132
 21
193.034123
  0
LINE
  8
CSLAYER1
  6
CONTINUOUS
 62
     6
 10
89.112132
 20
193.034123
 11
88.737132
 21
192.659123
  0
LINE
  8
CSLAYER1
  6
CONTINUOUS
 62
     6
 10
88.737132
 20
192.659123
 11
88.362132
 21
193.034123
  0
LINE
  8
CSLAYER1
  6
CONTINUOUS
 62
     6
 10
88.362132
 20
193.034123
 11
88.362132
 21
195.159123
  0
LINE
  8
CSLAYER1
  6
CONTINUOUS
 62
     6
 10
86.612132
 20
195.159123
 11
86.612132
 21
193.034123
  0
LINE
  8
CSLAYER1
  6
CONTINUOUS
 62
     6
 10
86.612132
 20
193.034123
 11
86.237132
 21
192.659123
  0
LINE
  8
CSLAYER1
  6
CONTINUOUS
 62
     6
 10
86.237132
 20
192.659123
 11
85.862132
 21
193.034123
  0
LINE
  8
CSLAYER1
  6
CONTINUOUS
 62
     6
 10
85.862132
 20
193.034123
 11
85.862132
 21
195.159123
  0
LINE
  8
CSLAYER1
  6
CONTINUOUS
 62
     6
 10
84.112132
 20
195.159123
 11
84.112132
 21
193.034123
  0
LINE
  8
CSLAYER1
  6
CONTINUOUS
 62
     6
 10
84.112132
 20
193.034123
 11
83.737132
 21
192.659123
  0
LINE
  8
CSLAYER1
  6
CONTINUOUS
 62
     6
 10
83.737132
 20
192.659123
 11
83.362132
 21
193.034123
  0
LINE
  8
CSLAYER1
  6
CONTINUOUS
 62
     6
 10
83.362132
 20
193.034123
 11
83.362132
 21
195.159123
  0
LINE
  8
CSLAYER1
  6
CONTINUOUS
 62
     6
 10
81.612132
 20
195.159123
 11
81.612132
 21
193.034123
  0
LINE
  8
CSLAYER1
  6
CONTINUOUS
 62
     6
 10
81.612132
 20
193.034123
 11
81.237132
 21
192.659123
  0
LINE
  8
CSLAYER1
  6
CONTINUOUS
 62
     6
 10
81.237132
 20
192.659123
 11
80.862132
 21
193.034123
  0
LINE
  8
CSLAYER1
  6
CONTINUOUS
 62
     6
 10
80.862132
 20
193.034123
 11
80.862132
 21
195.159123
  0
LINE
  8
CSLAYER1
  6
CONTINUOUS
 62
     6
 10
79.112132
 20
195.159123
 11
79.112132
 21
193.034123
  0
LINE
  8
CSLAYER1
  6
CONTINUOUS
 62
     6
 10
79.112132
 20
193.034123
 11
78.737132
 21
192.659123
  0
LINE
  8
CSLAYER1
  6
CONTINUOUS
 62
     6
 10
78.737132
 20
192.659123
 11
78.362132
 21
193.034123
  0
LINE
  8
CSLAYER1
  6
CONTINUOUS
 62
     6
 10
78.362132
 20
193.034123
 11
78.362132
 21
195.159123
  0
ARC
  8
CSLAYER1
  6
CONTINUOUS
 62
     6
 10
101.987133
 20
189.549209
 40
1.944444
 50
163.398428
 51
196.601562
  0
LINE
  8
CSLAYER1
  6
CONTINUOUS
 62
     6
 10
100.123752
 20
188.993647
 11
100.876008
 21
188.993647
  0
ARC
  8
CSLAYER1
  6
CONTINUOUS
 62
     6
 10
100.876008
 20
188.438113
 40
0.555556
 50
0.057309
 51
89.999999
  0
LINE
  8
CSLAYER1
  6
CONTINUOUS
 62
     6
 10
101.431571
 20
188.438113
 11
101.431571
 21
187.685799
  0
ARC
  8
CSLAYER1
  6
CONTINUOUS
 62
     6
 10
101.987133
 20
189.549209
 40
1.944444
 50
253.398417
 51
286.601578
  0
LINE
  8
CSLAYER1
  6
CONTINUOUS
 62
     6
 10
102.542696
 20
187.685799
 11
102.542696
 21
188.438113
  0
ARC
  8
CSLAYER1
  6
CONTINUOUS
 62
     6
 10
103.098258
 20
188.438113
 40
0.555556
 50
90.057346
 51
179.999995
  0
LINE
  8
CSLAYER1
  6
CONTINUOUS
 62
     6
 10
103.098258
 20
188.993647
 11
103.850514
 21
188.993647
  0
ARC
  8
CSLAYER1
  6
CONTINUOUS
 62
     6
 10
101.987133
 20
189.549209
 40
1.944444
 50
-16.601577
 51
16.601584
  0
LINE
  8
CSLAYER1
  6
CONTINUOUS
 62
     6
 10
103.850514
 20
190.104772
 11
103.098258
 21
190.104772
  0
ARC
  8
CSLAYER1
  6
CONTINUOUS
 62
     6
 10
103.098258
 20
190.660305
 40
0.555556
 50
179.999995
 51
269.999984
  0
LINE
  8
CSLAYER1
  6
CONTINUOUS
 62
     6
 10
102.542696
 20
190.660305
 11
102.542696
 21
191.412620
  0
ARC
  8
CSLAYER1
  6
CONTINUOUS
 62
     6
 10
101.987133
 20
189.549209
 40
1.944444
 50
73.398405
 51
106.601594
  0
LINE
  8
CSLAYER1
  6
CONTINUOUS
 62
     6
 10
101.431571
 20
191.412620
 11
101.431571
 21
190.660305
  0
ARC
  8
CSLAYER1
  6
CONTINUOUS
 62
     6
 10
100.876008
 20
190.660305
 40
0.555556
 50
269.999984
 51
359.999990
  0
LINE
  8
CSLAYER1
  6
CONTINUOUS
 62
     6
 10
100.876008
 20
190.104772
 11
100.123752
 21
190.104772
  0
CIRCLE
  8
CSLAYER1
  6
CONTINUOUS
 62
     6
 10
101.987120
 20
189.549209
 40
3.500000
  0
ARC
  8
CSLAYER1
  6
CONTINUOUS
 62
     6
 10
106.577944
 20
175.559810
 40
6.000000
 50
56.246253
 51
116.606406
  0
LINE
  8
CSLAYER1
  6
CONTINUOUS
 62
     6
 10
109.911692
 20
180.548410
 11
122.069948
 21
172.423373
  0
ARC
  8
CSLAYER1
  6
CONTINUOUS
 62
     6
 10
126.237132
 20
178.659123
 40
7.500000
 50
-123.753747
 51
33.753747
  0
LINE
  8
CSLAYER1
  6
CONTINUOUS
 62
     6
 10
132.472882
 20
182.826307
 11
124.349820
 21
194.981609
  0
LINE
  8
CSLAYER1
  6
CONTINUOUS
 62
     6
 10
124.177857
 20
198.346482
 11
127.752177
 21
198.159123
  0
ARC
  8
CSLAYER1
  6
CONTINUOUS
 62
     6
 10
127.752177
 20
197.159123
 40
1.000000
 50
0.000018
 51
89.999999
  0
LINE
  8
CSLAYER1
  6
CONTINUOUS
 62
     6
 10
128.737132
 20
197.159123
 11
128.737132
 21
196.159123
  0
ARC
  8
CSLAYER1
  6
CONTINUOUS
 62
     6
 10
127.737132
 20
196.159123
 40
1.000000
 50
270.000019
 51
360.000000
  0
LINE
  8
CSLAYER1
  6
CONTINUOUS
 62
     6
 10
127.737132
 20
195.159123
 11
120.182377
 21
194.763211
  0
ARC
  8
CSLAYER1
  6
CONTINUOUS
 62
     6
 10
129.336445
 20
198.318311
 40
6.000000
 50
153.393594
 51
177.151140
  0
LINE
  8
CSLAYER1
  6
CONTINUOUS
 62
     6
 10
124.336352
 20
201.750276
 11
131.757548
 21
202.139164
  0
ARC
  8
CSLAYER1
  6
CONTINUOUS
 62
     6
 10
131.737132
 20
203.138920
 40
1.000000
 50
271.169236
 51
359.999982
  0
LINE
  8
CSLAYER1
  6
CONTINUOUS
 62
     6
 10
132.737132
 20
203.138920
 11
132.737132
 21
239.179326
  0
ARC
  8
CSLAYER1
  6
CONTINUOUS
 62
     6
 10
131.737132
 20
239.179326
 40
1.000000
 50
0.000000
 51
88.830746
  0
LINE
  8
CSLAYER1
  6
CONTINUOUS
 62
     6
 10
131.757548
 20
240.179082
 11
124.336352
 21
240.567970
  0
ARC
  8
CSLAYER1
  6
CONTINUOUS
 62
     6
 10
129.336445
 20
243.999935
 40
6.000000
 50
182.848860
 51
206.606406
  0
ARC
  8
CSLAYER1
  6
CONTINUOUS
 62
     6
 10
124.266850
 20
242.274020
 40
1.700075
 50
93.000588
 51
142.810642
  0
LINE
  8
CSLAYER1
  6
CONTINUOUS
 62
     6
 10
124.177857
 20
243.971764
 11
127.752177
 21
244.159123
  0
ARC
  8
CSLAYER1
  6
CONTINUOUS
 62
     6
 10
127.752177
 20
245.159123
 40
1.000000
 50
270.000001
 51
359.999982
  0
LINE
  8
CSLAYER1
  6
CONTINUOUS
 62
     6
 10
128.737132
 20
245.159123
 11
128.737132
 21
246.159123
  0
ARC
  8
CSLAYER1
  6
CONTINUOUS
 62
     6
 10
127.737132
 20
246.159123
 40
1.000000
 50
0.000000
 51
89.999981
  0
LINE
  8
CSLAYER1
  6
CONTINUOUS
 62
     6
 10
127.737132
 20
247.159123
 11
120.182377
 21
247.555035
  0
LINE
  8
CSLAYER1
  6
CONTINUOUS
 62
     6
 10
124.347845
 20
247.333683
 11
132.472882
 21
259.491938
  0
ARC
  8
CSLAYER1
  6
CONTINUOUS
 62
     6
 10
126.237132
 20
263.659123
 40
7.500000
 50
-33.753747
 51
123.753747
  0
LINE
  8
CSLAYER1
  6
CONTINUOUS
 62
     6
 10
122.069948
 20
269.894873
 11
109.911692
 21
261.769836
  0
ARC
  8
CSLAYER1
  6
CONTINUOUS
 62
     6
 10
106.577944
 20
266.758435
 40
6.000000
 50
243.393594
 51
303.753747
  0
LINE
  8
CSLAYER1
  6
CONTINUOUS
 62
     6
 10
102.542696
 20
254.632447
 11
102.542696
 21
253.880132
  0
ARC
  8
CSLAYER1
  6
CONTINUOUS
 62
     6
 10
103.098258
 20
253.880132
 40
0.555556
 50
180.000005
 51
269.942654
  0
LINE
  8
CSLAYER1
  6
CONTINUOUS
 62
     6
 10
103.098258
 20
253.324599
 11
103.850514
 21
253.324599
  0
ARC
  8
CSLAYER1
  6
CONTINUOUS
 62
     6
 10
101.987133
 20
252.769037
 40
1.944444
 50
-16.601584
 51
16.601577
  0
LINE
  8
CSLAYER1
  6
CONTINUOUS
 62
     6
 10
103.850514
 20
252.213474
 11
103.098258
 21
252.213474
  0
ARC
  8
CSLAYER1
  6
CONTINUOUS
 62
     6
 10
103.098258
 20
251.657941
 40
0.555556
 50
90.000016
 51
180.000005
  0
LINE
  8
CSLAYER1
  6
CONTINUOUS
 62
     6
 10
102.542696
 20
251.657941
 11
102.542696
 21
250.905626
  0
ARC
  8
CSLAYER1
  6
CONTINUOUS
 62
     6
 10
101.987133
 20
252.769037
 40
1.944444
 50
253.398406
 51
286.601595
  0
LINE
  8
CSLAYER1
  6
CONTINUOUS
 62
     6
 10
101.431571
 20
250.905626
 11
101.431571
 21
251.657941
  0
ARC
  8
CSLAYER1
  6
CONTINUOUS
 62
     6
 10
100.876008
 20
251.657941
 40
0.555556
 50
0.000010
 51
90.000016
  0
LINE
  8
CSLAYER1
  6
CONTINUOUS
 62
     6
 10
100.876008
 20
252.213474
 11
100.123752
 21
252.213474
  0
ARC
  8
CSLAYER1
  6
CONTINUOUS
 62
     6
 10
101.987133
 20
252.769037
 40
1.944444
 50
163.398438
 51
196.601572
  0
LINE
  8
CSLAYER1
  6
CONTINUOUS
 62
     6
 10
100.123752
 20
253.324599
 11
100.876008
 21
253.324599
  0
ARC
  8
CSLAYER1
  6
CONTINUOUS
 62
     6
 10
100.876008
 20
253.880132
 40
0.555556
 50
270.000001
 51
359.942691
  0
LINE
  8
CSLAYER1
  6
CONTINUOUS
 62
     6
 10
101.431571
 20
253.880132
 11
101.431571
 21
254.632447
  0
ARC
  8
CSLAYER1
  6
CONTINUOUS
 62
     6
 10
101.987133
 20
252.769037
 40
1.944444
 50
73.398422
 51
106.601583
  0
CIRCLE
  8
CSLAYER1
  6
CONTINUOUS
 62
     6
 10
101.987120
 20
252.769037
 40
3.500000
  0
LINE
  8
CSLAYER1
  6
CONTINUOUS
 62
     6
 10
90.076406
 20
234.753740
 11
88.808551
 21
232.034816
  0
ARC
  8
CSLAYER1
  6
CONTINUOUS
 62
     6
 10
83.737132
 20
221.159123
 40
12.000000
 50
15.000000
 51
65.000000
  0
LINE
  8
CSLAYER1
  6
CONTINUOUS
 62
     6
 10
95.328242
 20
224.264951
 11
98.226020
 21
225.041409
  0
LINE
  8
CSLAYER1
  6
CONTINUOUS
 62
     6
 10
92.558377
 20
218.375576
 11
90.997124
 21
219.276966
  0
ARC
  8
CSLAYER1
  6
CONTINUOUS
 62
     6
 10
83.737132
 20
221.159123
 40
9.250000
 50
317.513110
 51
342.486890
  0
LINE
  8
CSLAYER1
  6
CONTINUOUS
 62
     6
 10
90.558377
 20
214.911474
 11
88.997124
 21
215.812864
  0
LINE
  8
CSLAYER1
  6
CONTINUOUS
 62
     6
 10
87.737132
 20
220.659123
 11
87.737132
 21
221.659123
  0
LINE
  8
CSLAYER1
  6
CONTINUOUS
 62
     6
 10
87.737132
 20
221.659123
 11
79.737132
 21
221.659123
  0
LINE
  8
CSLAYER1
  6
CONTINUOUS
 62
     6
 10
79.737132
 20
221.659123
 11
79.737132
 21
220.659123
  0
LINE
  8
CSLAYER1
  6
CONTINUOUS
 62
     6
 10
79.737132
 20
220.659123
 11
87.737132
 21
220.659123
  0
CIRCLE
  8
CSLAYER1
  6
CONTINUOUS
 62
     6
 10
83.737132
 20
221.159123
 40
30.000000
  0
CIRCLE
  8
CSLAYER1
  6
CONTINUOUS
 62
     6
 10
83.737132
 20
221.159123
 40
45.000000
  0
CIRCLE
  8
CSLAYER1
  6
CONTINUOUS
 62
     6
 10
83.737132
 20
221.159123
 40
7.500000
  0
LINE
  8
CSLAYER1
  6
CONTINUOUS
 62
     6
 10
76.477140
 20
219.276966
 11
74.915887
 21
218.375576
  0
ARC
  8
CSLAYER1
  6
CONTINUOUS
 62
     6
 10
83.737132
 20
221.159123
 40
9.250000
 50
197.513110
 51
222.486890
  0
LINE
  8
CSLAYER1
  6
CONTINUOUS
 62
     6
 10
76.915887
 20
214.911474
 11
78.477140
 21
215.812864
  0
LINE
  8
CSLAYER1
  6
CONTINUOUS
 62
     6
 10
72.146022
 20
224.264951
 11
69.248245
 21
225.041409
  0
ARC
  8
CSLAYER1
  6
CONTINUOUS
 62
     6
 10
83.737132
 20
221.159123
 40
12.000000
 50
115.000000
 51
165.000000
  0
LINE
  8
CSLAYER1
  6
CONTINUOUS
 62
     6
 10
78.665713
 20
232.034816
 11
77.397858
 21
234.753740
  0
ARC
  8
CSLAYER1
  6
CONTINUOUS
 62
     6
 10
83.737132
 20
221.159123
 40
9.250000
 50
77.513110
 51
102.486890
  0
LINE
  8
CSLAYER1
  6
CONTINUOUS
 62
     6
 10
85.737132
 20
230.190319
 11
85.737132
 21
228.387539
  0
LINE
  8
CSLAYER1
  6
CONTINUOUS
 62
     6
 10
81.737132
 20
228.387539
 11
81.737132
 21
230.190319
  0
LINE
  8
CSLAYER1
  6
CONTINUOUS
 62
     6
 10
49.100556
 20
221.714685
 11
48.348242
 21
221.714685
  0
ARC
  8
CSLAYER1
  6
CONTINUOUS
 62
     6
 10
48.348242
 20
222.270247
 40
0.555556
 50
179.999984
 51
269.999990
  0
LINE
  8
CSLAYER1
  6
CONTINUOUS
 62
     6
 10
47.792708
 20
222.270247
 11
47.792708
 21
223.022503
  0
ARC
  8
CSLAYER1
  6
CONTINUOUS
 62
     6
 10
47.237146
 20
221.159122
 40
1.944444
 50
73.398428
 51
106.601562
  0
LINE
  8
CSLAYER1
  6
CONTINUOUS
 62
     6
 10
46.681584
 20
223.022503
 11
46.681584
 21
222.270247
  0
ARC
  8
CSLAYER1
  6
CONTINUOUS
 62
     6
 10
46.126050
 20
222.270247
 40
0.555556
 50
270.057309
 51
359.999999
  0
LINE
  8
CSLAYER1
  6
CONTINUOUS
 62
     6
 10
46.126050
 20
221.714685
 11
45.373736
 21
221.714685
  0
ARC
  8
CSLAYER1
  6
CONTINUOUS
 62
     6
 10
47.237146
 20
221.159122
 40
1.944444
 50
163.398417
 51
196.601578
  0
LINE
  8
CSLAYER1
  6
CONTINUOUS
 62
     6
 10
45.373736
 20
220.603560
 11
46.126050
 21
220.603560
  0
ARC
  8
CSLAYER1
  6
CONTINUOUS
 62
     6
 10
46.126050
 20
220.047997
 40
0.555556
 50
0.057346
 51
89.999995
  0
LINE
  8
CSLAYER1
  6
CONTINUOUS
 62
     6
 10
46.681584
 20
220.047997
 11
46.681584
 21
219.295741
  0
ARC
  8
CSLAYER1
  6
CONTINUOUS
 62
     6
 10
47.237146
 20
221.159122
 40
1.944444
 50
253.398423
 51
286.601584
  0
LINE
  8
CSLAYER1
  6
CONTINUOUS
 62
     6
 10
47.792708
 20
219.295741
 11
47.792708
 21
220.047997
  0
ARC
  8
CSLAYER1
  6
CONTINUOUS
 62
     6
 10
48.348242
 20
220.047997
 40
0.555556
 50
89.999995
 51
179.999984
  0
LINE
  8
CSLAYER1
  6
CONTINUOUS
 62
     6
 10
48.348242
 20
220.603560
 11
49.100556
 21
220.603560
  0
ARC
  8
CSLAYER1
  6
CONTINUOUS
 62
     6
 10
47.237146
 20
221.159122
 40
1.944444
 50
-16.601595
 51
16.601594
  0
CIRCLE
  8
CSLAYER1
  6
CONTINUOUS
 62
     6
 10
47.237145
 20
221.159135
 40
3.500000
  0
LINE
  8
CSLAYER1
  6
CONTINUOUS
 62
     6
 10
43.137912
 20
240.567970
 11
35.716716
 21
240.179082
  0
ARC
  8
CSLAYER1
  6
CONTINUOUS
 62
     6
 10
35.737132
 20
239.179326
 40
1.000000
 50
91.169216
 51
180.000020
  0
LINE
  8
CSLAYER1
  6
CONTINUOUS
 62
     6
 10
34.737132
 20
239.179326
 11
34.737132
 21
203.138920
  0
ARC
  8
CSLAYER1
  6
CONTINUOUS
 62
     6
 10
35.737132
 20
203.138920
 40
1.000000
 50
180.000020
 51
268.830766
  0
LINE
  8
CSLAYER1
  6
CONTINUOUS
 62
     6
 10
35.716716
 20
202.139164
 11
43.137912
 21
201.750276
  0
ARC
  8
CSLAYER1
  6
CONTINUOUS
 62
     6
 10
38.137820
 20
198.318311
 40
6.000000
 50
2.848860
 51
26.606406
  0
ARC
  8
CSLAYER1
  6
CONTINUOUS
 62
     6
 10
43.207415
 20
200.044226
 40
1.700075
 50
273.000588
 51
322.810642
  0
LINE
  8
CSLAYER1
  6
CONTINUOUS
 62
     6
 10
43.296407
 20
198.346482
 11
39.722087
 21
198.159123
  0
ARC
  8
CSLAYER1
  6
CONTINUOUS
 62
     6
 10
39.722087
 20
197.159123
 40
1.000000
 50
90.000039
 51
180.000020
  0
LINE
  8
CSLAYER1
  6
CONTINUOUS
 62
     6
 10
38.737132
 20
197.159123
 11
38.737132
 21
196.159123
  0
ARC
  8
CSLAYER1
  6
CONTINUOUS
 62
     6
 10
39.737132
 20
196.159123
 40
1.000000
 50
180.000020
 51
270.000001
  0
LINE
  8
CSLAYER1
  6
CONTINUOUS
 62
     6
 10
39.737132
 20
195.159123
 11
47.291888
 21
194.763211
  0
LINE
  8
CSLAYER1
  6
CONTINUOUS
 62
     6
 10
43.126420
 20
194.984563
 11
35.001383
 21
182.826307
  0
ARC
  8
CSLAYER1
  6
CONTINUOUS
 62
     6
 10
41.237132
 20
178.659123
 40
7.500000
 50
146.246253
 51
303.753747
  0
CIRCLE
  8
CSLAYER1
  6
CONTINUOUS
 62
     6
 10
41.237132
 20
178.659123
 40
3.500000
  0
LINE
  8
CSLAYER1
  6
CONTINUOUS
 62
     6
 10
33.737132
 20
178.659123
 11
33.737132
 21
263.659123
  0
LINE
  8
CSLAYER1
  6
CONTINUOUS
 62
     6
 10
35.001383
 20
259.491938
 11
43.126420
 21
247.333683
  0
LINE
  8
CSLAYER1
  6
CONTINUOUS
 62
     6
 10
43.296407
 20
243.971764
 11
39.722087
 21
244.159123
  0
ARC
  8
CSLAYER1
  6
CONTINUOUS
 62
     6
 10
39.722087
 20
245.159123
 40
1.000000
 50
180.000020
 51
270.000001
  0
LINE
  8
CSLAYER1
  6
CONTINUOUS
 62
     6
 10
38.737132
 20
245.159123
 11
38.737132
 21
246.159123
  0
ARC
  8
CSLAYER1
  6
CONTINUOUS
 62
     6
 10
39.737132
 20
246.159123
 40
1.000000
 50
90.000039
 51
180.000020
  0
LINE
  8
CSLAYER1
  6
CONTINUOUS
 62
     6
 10
39.737132
 20
247.159123
 11
47.291888
 21
247.555035
  0
ARC
  8
CSLAYER1
  6
CONTINUOUS
 62
     6
 10
38.137820
 20
243.999935
 40
6.000000
 50
333.393594
 51
357.151140
  0
ARC
  8
CSLAYER1
  6
CONTINUOUS
 62
     6
 10
43.207415
 20
242.274020
 40
1.700075
 50
37.189358
 51
86.999412
  0
ARC
  8
CSLAYER1
  6
CONTINUOUS
 62
     6
 10
41.237132
 20
263.659123
 40
7.500000
 50
56.246253
 51
213.753747
  0
LINE
  8
CSLAYER1
  6
CONTINUOUS
 62
     6
 10
45.404317
 20
269.894873
 11
57.562573
 21
261.769836
  0
ARC
  8
CSLAYER1
  6
CONTINUOUS
 62
     6
 10
60.896320
 20
266.758435
 40
6.000000
 50
236.246253
 51
296.606406
  0
CIRCLE
  8
CSLAYER1
  6
CONTINUOUS
 62
     6
 10
41.237132
 20
263.659123
 40
3.500000
  0
LINE
  8
CSLAYER1
  6
CONTINUOUS
 62
     6
 10
41.237132
 20
271.159123
 11
126.237132
 21
271.159123
  0
CIRCLE
  8
CSLAYER1
  6
CONTINUOUS
 62
     6
 10
126.237132
 20
263.659123
 40
3.500000
  0
LINE
  8
CSLAYER1
  6
CONTINUOUS
 62
     6
 10
133.737132
 20
263.659123
 11
133.737132
 21
178.659123
  0
CIRCLE
  8
CSLAYER1
  6
CONTINUOUS
 62
     6
 10
126.237132
 20
178.659123
 40
3.500000
  0
LINE
  8
CSLAYER1
  6
CONTINUOUS
 62
     6
 10
126.237132
 20
171.159123
 11
85.739137
 21
171.159123
  0
ARC
  8
CSLAYER1
  6
CONTINUOUS
 62
     6
 10
124.266850
 20
200.044226
 40
1.700075
 50
217.189358
 51
266.999412
  0
LINE
  8
CSLAYER1
  6
CONTINUOUS
 62
     6
 10
167.585661
 20
196.959123
 11
167.585661
 21
234.159138
  0
ARC
  8
CSLAYER1
  6
CONTINUOUS
 62
     6
 10
169.585661
 20
234.159138
 40
2.000000
 50
89.999999
 51
179.999995
  0
LINE
  8
CSLAYER1
  6
CONTINUOUS
 62
     6
 10
169.585661
 20
236.159138
 11
185.885661
 21
236.159138
  0
LINE
  8
CSLAYER1
  6
CONTINUOUS
 62
     6
 10
185.885661
 20
233.528218
 11
171.409880
 21
233.528218
  0
LINE
  8
CSLAYER1
  6
CONTINUOUS
 62
     6
 10
171.409880
 20
234.753804
 11
171.409880
 21
225.041462
  0
LINE
  8
CSLAYER1
  6
CONTINUOUS
 62
     6
 10
171.409880
 20
225.041462
 11
167.585661
 21
225.041462
  0
LINE
  8
CSLAYER1
  6
CONTINUOUS
 62
     6
 10
171.409880
 20
230.098774
 11
185.885661
 21
230.098774
  0
LINE
  8
CSLAYER1
  6
CONTINUOUS
 62
     6
 10
183.185680
 20
233.528218
 11
183.185680
 21
236.159138
  0
LINE
  8
CSLAYER1
  6
CONTINUOUS
 62
     6
 10
177.393004
 20
232.230610
 11
171.409880
 21
232.230610
  0
LINE
  8
CSLAYER1
  6
CONTINUOUS
 62
     6
 10
171.409880
 20
231.194172
 11
177.393004
 21
231.194172
  0
LINE
  8
CSLAYER1
  6
CONTINUOUS
 62
     6
 10
177.393004
 20
231.194172
 11
177.393004
 21
232.230610
  0
LINE
  8
CSLAYER1
  6
CONTINUOUS
 62
     6
 10
171.409880
 20
234.753804
 11
167.676115
 21
234.753804
  0
LINE
  8
CSLAYER1
  6
CONTINUOUS
 62
     6
 10
185.885661
 20
251.159123
 11
188.781879
 21
251.159123
  0
ARC
  8
CSLAYER1
  6
CONTINUOUS
 62
     6
 10
190.123459
 20
250.741861
 40
1.206899
 50
196.257399
 51
264.999892
  0
LINE
  8
CSLAYER1
  6
CONTINUOUS
 62
     6
 10
190.018268
 20
249.539547
 11
190.778399
 21
249.473048
  0
ARC
  8
CSLAYER1
  6
CONTINUOUS
 62
     6
 10
190.799467
 20
249.713503
 40
0.241380
 50
264.999865
 51
359.942691
  0
LINE
  8
CSLAYER1
  6
CONTINUOUS
 62
     6
 10
191.040861
 20
249.389753
 11
191.040861
 21
256.148358
  0
ARC
  8
CSLAYER1
  6
CONTINUOUS
 62
     6
 10
191.161522
 20
256.148358
 40
0.120690
 50
90.000003
 51
180.000005
  0
LINE
  8
CSLAYER1
  6
CONTINUOUS
 62
     6
 10
191.161522
 20
256.269056
 11
191.764971
 21
256.269056
  0
ARC
  8
CSLAYER1
  6
CONTINUOUS
 62
     6
 10
191.764971
 20
256.148358
 40
0.120690
 50
0.000000
 51
90.000003
  0
ARC
  8
CSLAYER1
  6
CONTINUOUS
 62
     6
 10
190.799467
 20
255.824608
 40
0.241380
 50
0.000000
 51
95.000152
  0
LINE
  8
CSLAYER1
  6
CONTINUOUS
 62
     6
 10
190.778399
 20
256.065064
 11
190.018268
 21
255.998564
  0
ARC
  8
CSLAYER1
  6
CONTINUOUS
 62
     6
 10
190.123459
 20
254.796251
 40
1.206899
 50
95.000111
 51
163.742611
  0
ARC
  8
CSLAYER1
  6
CONTINUOUS
 62
     6
 10
197.075357
 20
252.769056
 40
8.448294
 50
163.742994
 51
196.257016
  0
ARC
  8
CSLAYER1
  6
CONTINUOUS
 62
     6
 10
191.161522
 20
249.389753
 40
0.120690
 50
180.000005
 51
270.000001
  0
LINE
  8
CSLAYER1
  6
CONTINUOUS
 62
     6
 10
191.161522
 20
249.269056
 11
191.764971
 21
249.269056
  0
ARC
  8
CSLAYER1
  6
CONTINUOUS
 62
     6
 10
191.764971
 20
249.389753
 40
0.120690
 50
270.000001
 51
359.942691
  0
LINE
  8
CSLAYER1
  6
CONTINUOUS
 62
     6
 10
191.040861
 20
252.049826
 11
191.885669
 21
252.585524
  0
LINE
  8
CSLAYER1
  6
CONTINUOUS
 62
     6
 10
191.885669
 20
253.188973
 11
191.040861
 21
252.653275
  0
LINE
  8
CSLAYER1
  6
CONTINUOUS
 62
     6
 10
185.885661
 20
251.159123
 11
185.885661
 21
191.159123
  0
LINE
  8
CSLAYER1
  6
CONTINUOUS
 62
     6
 10
185.885661
 20
191.159123
 11
188.781871
 21
191.159123
  0
ARC
  8
CSLAYER1
  6
CONTINUOUS
 62
     6
 10
190.123459
 20
191.576422
 40
1.206899
 50
95.000111
 51
163.742611
  0
LINE
  8
CSLAYER1
  6
CONTINUOUS
 62
     6
 10
190.018268
 20
192.778735
 11
190.778399
 21
192.845235
  0
ARC
  8
CSLAYER1
  6
CONTINUOUS
 62
     6
 10
190.799467
 20
192.604780
 40
0.241380
 50
0.000000
 51
95.000152
  0
ARC
  8
CSLAYER1
  6
CONTINUOUS
 62
     6
 10
191.161522
 20
192.928530
 40
0.120690
 50
90.000003
 51
180.000005
  0
LINE
  8
CSLAYER1
  6
CONTINUOUS
 62
     6
 10
191.161522
 20
193.049227
 11
191.764971
 21
193.049227
  0
ARC
  8
CSLAYER1
  6
CONTINUOUS
 62
     6
 10
191.764971
 20
192.928530
 40
0.120690
 50
0.000000
 51
90.000003
  0
LINE
  8
CSLAYER1
  6
CONTINUOUS
 62
     6
 10
191.040861
 20
192.928530
 11
191.040861
 21
186.169924
  0
ARC
  8
CSLAYER1
  6
CONTINUOUS
 62
     6
 10
191.161522
 20
186.169924
 40
0.120690
 50
180.000005
 51
270.000001
  0
LINE
  8
CSLAYER1
  6
CONTINUOUS
 62
     6
 10
191.161522
 20
186.049227
 11
191.764971
 21
186.049227
  0
ARC
  8
CSLAYER1
  6
CONTINUOUS
 62
     6
 10
191.764971
 20
186.169924
 40
0.120690
 50
270.000001
 51
359.942691
  0
ARC
  8
CSLAYER1
  6
CONTINUOUS
 62
     6
 10
190.799467
 20
186.493674
 40
0.241380
 50
264.999865
 51
359.942691
  0
LINE
  8
CSLAYER1
  6
CONTINUOUS
 62
     6
 10
190.778399
 20
186.253219
 11
190.018268
 21
186.319719
  0
ARC
  8
CSLAYER1
  6
CONTINUOUS
 62
     6
 10
190.123459
 20
187.522032
 40
1.206899
 50
196.257399
 51
264.999892
  0
ARC
  8
CSLAYER1
  6
CONTINUOUS
 62
     6
 10
197.075357
 20
189.549227
 40
8.448294
 50
163.742994
 51
196.257016
  0
LINE
  8
CSLAYER1
  6
CONTINUOUS
 62
     6
 10
191.040861
 20
189.433447
 11
191.885669
 21
189.969145
  0
LINE
  8
CSLAYER1
  6
CONTINUOUS
 62
     6
 10
191.885669
 20
189.365695
 11
191.040861
 21
188.829997
  0
LINE
  8
CSLAYER1
  6
CONTINUOUS
 62
     6
 10
185.885661
 20
194.959123
 11
169.585661
 21
194.959123
  0
ARC
  8
CSLAYER1
  6
CONTINUOUS
 62
     6
 10
169.585661
 20
196.959123
 40
2.000000
 50
180.000005
 51
270.000001
  0
LINE
  8
CSLAYER1
  6
CONTINUOUS
 62
     6
 10
179.565647
 20
194.959123
 11
179.565647
 21
192.459123
  0
LINE
  8
CSLAYER1
  6
CONTINUOUS
 62
     6
 10
179.565647
 20
192.459123
 11
180.205661
 21
192.459123
  0
LINE
  8
CSLAYER1
  6
CONTINUOUS
 62
     6
 10
180.205661
 20
192.459123
 11
180.205661
 21
194.959123
  0
LINE
  8
CSLAYER1
  6
CONTINUOUS
 62
     6
 10
191.885661
 20
176.159123
 11
191.885661
 21
266.159123
  0
LINE
  8
CSLAYER1
  6
CONTINUOUS
 62
     6
 10
191.885661
 20
266.159123
 11
251.885661
 21
266.159123
  0
LINE
  8
CSLAYER1
  6
CONTINUOUS
 62
     6
 10
251.885661
 20
266.159123
 11
251.885661
 21
176.159123
  0
LINE
  8
CSLAYER1
  6
CONTINUOUS
 62
     6
 10
251.885661
 20
176.159123
 11
191.885661
 21
176.159123
  0
LINE
  8
CSLAYER1
  6
CONTINUOUS
 62
     6
 10
196.885661
 20
176.159123
 11
196.885661
 21
266.159123
  0
LINE
  8
CSLAYER1
  6
CONTINUOUS
 62
     6
 10
196.885661
 20
301.159123
 11
196.885661
 21
391.159123
  0
LINE
  8
CSLAYER1
  6
CONTINUOUS
 62
     6
 10
191.885661
 20
391.159123
 11
191.885661
 21
301.159123
  0
LINE
  8
CSLAYER1
  6
CONTINUOUS
 62
     6
 10
191.885661
 20
301.159123
 11
251.885661
 21
301.159123
  0
LINE
  8
CSLAYER1
  6
CONTINUOUS
 62
     6
 10
251.885661
 20
301.159123
 11
251.885661
 21
391.159123
  0
LINE
  8
CSLAYER1
  6
CONTINUOUS
 62
     6
 10
251.885661
 20
391.159123
 11
191.885661
 21
391.159123
  0
LINE
  8
CSLAYER1
  6
CONTINUOUS
 62
     6
 10
191.885661
 20
376.159123
 11
185.885661
 21
376.159123
  0
LINE
  8
CSLAYER1
  6
CONTINUOUS
 62
     6
 10
185.885661
 20
376.159123
 11
185.885661
 21
316.159123
  0
LINE
  8
CSLAYER1
  6
CONTINUOUS
 62
     6
 10
185.885661
 20
316.159123
 11
191.885661
 21
316.159123
  0
LINE
  8
CSLAYER1
  6
CONTINUOUS
 62
     6
 10
185.885661
 20
331.159123
 11
169.585661
 21
331.159123
  0
ARC
  8
CSLAYER1
  6
CONTINUOUS
 62
     6
 10
169.585661
 20
333.159123
 40
2.000000
 50
180.000000
 51
270.000000
  0
LINE
  8
CSLAYER1
  6
CONTINUOUS
 62
     6
 10
167.585661
 20
333.159123
 11
167.585661
 21
359.159123
  0
ARC
  8
CSLAYER1
  6
CONTINUOUS
 62
     6
 10
169.585661
 20
359.159123
 40
2.000000
 50
90.000000
 51
180.000000
  0
LINE
  8
CSLAYER1
  6
CONTINUOUS
 62
     6
 10
169.585661
 20
361.159123
 11
185.885661
 21
361.159123
  0
LINE
  8
CSLAYER1
  6
CONTINUOUS
 62
     6
 10
185.885661
 20
358.204153
 11
171.409880
 21
358.204153
  0
LINE
  8
CSLAYER1
  6
CONTINUOUS
 62
     6
 10
171.409880
 20
360.648016
 11
171.409880
 21
352.498401
  0
LINE
  8
CSLAYER1
  6
CONTINUOUS
 62
     6
 10
171.409880
 20
352.498401
 11
167.585661
 21
352.498401
  0
LINE
  8
CSLAYER1
  6
CONTINUOUS
 62
     6
 10
171.409880
 20
354.644733
 11
185.885661
 21
354.644733
  0
ARC
  8
CSLAYER1
  6
CONTINUOUS
 62
     6
 10
190.123459
 20
380.631946
 40
1.206899
 50
196.257399
 51
264.999892
  0
ARC
  8
CSLAYER1
  6
CONTINUOUS
 62
     6
 10
197.075357
 20
382.659141
 40
8.448294
 50
163.742994
 51
196.257016
  0
ARC
  8
CSLAYER1
  6
CONTINUOUS
 62
     6
 10
190.123459
 20
384.686336
 40
1.206899
 50
95.000111
 51
163.742611
  0
LINE
  8
CSLAYER1
  6
CONTINUOUS
 62
     6
 10
190.018268
 20
385.888650
 11
190.778399
 21
385.955149
  0
ARC
  8
CSLAYER1
  6
CONTINUOUS
 62
     6
 10
190.799467
 20
385.714694
 40
0.241380
 50
0.000000
 51
95.000152
  0
ARC
  8
CSLAYER1
  6
CONTINUOUS
 62
     6
 10
191.161522
 20
386.038444
 40
0.120690
 50
90.000003
 51
180.000005
  0
LINE
  8
CSLAYER1
  6
CONTINUOUS
 62
     6
 10
191.161522
 20
386.159141
 11
191.764971
 21
386.159141
  0
ARC
  8
CSLAYER1
  6
CONTINUOUS
 62
     6
 10
191.764971
 20
386.038444
 40
0.120690
 50
0.000000
 51
90.000003
  0
LINE
  8
CSLAYER1
  6
CONTINUOUS
 62
     6
 10
191.040861
 20
386.038444
 11
191.040861
 21
379.279839
  0
ARC
  8
CSLAYER1
  6
CONTINUOUS
 62
     6
 10
191.161522
 20
379.279839
 40
0.120690
 50
180.000005
 51
270.000001
  0
LINE
  8
CSLAYER1
  6
CONTINUOUS
 62
     6
 10
191.161522
 20
379.159141
 11
191.764971
 21
379.159141
  0
ARC
  8
CSLAYER1
  6
CONTINUOUS
 62
     6
 10
191.764971
 20
379.279839
 40
0.120690
 50
270.000001
 51
359.942691
  0
ARC
  8
CSLAYER1
  6
CONTINUOUS
 62
     6
 10
190.799467
 20
379.603589
 40
0.241380
 50
264.999865
 51
359.942691
  0
LINE
  8
CSLAYER1
  6
CONTINUOUS
 62
     6
 10
190.778399
 20
379.363133
 11
190.018268
 21
379.429633
  0
LINE
  8
CSLAYER1
  6
CONTINUOUS
 62
     6
 10
191.040861
 20
381.939912
 11
191.885669
 21
382.475609
  0
LINE
  8
CSLAYER1
  6
CONTINUOUS
 62
     6
 10
191.885669
 20
383.079059
 11
191.040861
 21
382.543361
  0
LINE
  8
CSLAYER1
  6
CONTINUOUS
 62
     6
 10
171.409880
 20
360.648016
 11
168.250298
 21
360.648016
  0
LINE
  8
CSLAYER1
  6
CONTINUOUS
 62
     6
 10
167.585661
 20
339.819845
 11
171.409880
 21
339.819845
  0
LINE
  8
CSLAYER1
  6
CONTINUOUS
 62
     6
 10
171.409880
 20
339.819845
 11
171.409880
 21
331.670229
  0
LINE
  8
CSLAYER1
  6
CONTINUOUS
 62
     6
 10
171.409880
 20
331.670229
 11
168.250298
 21
331.670229
  0
LINE
  8
CSLAYER1
  6
CONTINUOUS
 62
     6
 10
171.409880
 20
334.114093
 11
185.885661
 21
334.114093
  0
LINE
  8
CSLAYER1
  6
CONTINUOUS
 62
     6
 10
185.885661
 20
337.673513
 11
171.409880
 21
337.673513
  0
LINE
  8
CSLAYER1
  6
CONTINUOUS
 62
     6
 10
171.409880
 20
336.038734
 11
177.393004
 21
336.038734
  0
LINE
  8
CSLAYER1
  6
CONTINUOUS
 62
     6
 10
177.393004
 20
336.038734
 11
177.393004
 21
335.010226
  0
LINE
  8
CSLAYER1
  6
CONTINUOUS
 62
     6
 10
177.393004
 20
335.010226
 11
171.409880
 21
335.010226
  0
ARC
  8
CSLAYER1
  6
CONTINUOUS
 62
     6
 10
253.099345
 20
383.730641
 40
1.000000
 50
270.000001
 51
353.999989
  0
LINE
  8
CSLAYER1
  6
CONTINUOUS
 62
     6
 10
254.093913
 20
383.626149
 11
254.791545
 21
390.263600
  0
ARC
  8
CSLAYER1
  6
CONTINUOUS
 62
     6
 10
255.786052
 20
390.159108
 40
1.000000
 50
90.000003
 51
173.999998
  0
LINE
  8
CSLAYER1
  6
CONTINUOUS
 62
     6
 10
255.786052
 20
391.159108
 11
291.985210
 21
391.159108
  0
ARC
  8
CSLAYER1
  6
CONTINUOUS
 62
     6
 10
291.985210
 20
390.159108
 40
1.000000
 50
6.000003
 51
90.000016
  0
LINE
  8
CSLAYER1
  6
CONTINUOUS
 62
     6
 10
292.979777
 20
390.263600
 11
293.677409
 21
383.626149
  0
ARC
  8
CSLAYER1
  6
CONTINUOUS
 62
     6
 10
294.671916
 20
383.730641
 40
1.000000
 50
186.000026
 51
270.000001
  0
ARC
  8
CSLAYER1
  6
CONTINUOUS
 62
     6
 10
294.622295
 20
388.202931
 40
1.000000
 50
186.000026
 51
270.000001
  0
LINE
  8
CSLAYER1
  6
CONTINUOUS
 62
     6
 10
293.627727
 20
388.098378
 11
292.979777
 21
394.263600
  0
ARC
  8
CSLAYER1
  6
CONTINUOUS
 62
     6
 10
291.985210
 20
394.159108
 40
1.000000
 50
6.000003
 51
90.000016
  0
LINE
  8
CSLAYER1
  6
CONTINUOUS
 62
     6
 10
291.985210
 20
395.159108
 11
255.786052
 21
395.159108
  0
ARC
  8
CSLAYER1
  6
CONTINUOUS
 62
     6
 10
255.786052
 20
394.159108
 40
1.000000
 50
90.000003
 51
173.999998
  0
LINE
  8
CSLAYER1
  6
CONTINUOUS
 62
     6
 10
254.791545
 20
394.263600
 11
254.143535
 21
388.098378
  0
ARC
  8
CSLAYER1
  6
CONTINUOUS
 62
     6
 10
253.149028
 20
388.202931
 40
1.000000
 50
270.000001
 51
353.999989
  0
LINE
  8
CSLAYER1
  6
CONTINUOUS
 62
     6
 10
254.360087
 20
390.159108
 11
251.885661
 21
390.159108
  0
LINE
  8
CSLAYER1
  6
CONTINUOUS
 62
     6
 10
257.571635
 20
382.552296
 11
289.528728
 21
382.552296
  0
LINE
  8
CSLAYER1
  6
CONTINUOUS
 62
     6
 10
293.410625
 20
390.159108
 11
294.885661
 21
390.159108
  0
LINE
  8
CSLAYER1
  6
CONTINUOUS
 62
     6
 10
294.885661
 20
391.159123
 11
380.885631
 21
391.159123
  0
LINE
  8
CSLAYER1
  6
CONTINUOUS
 62
     6
 10
379.885631
 20
391.159123
 11
379.885631
 21
301.159123
  0
LINE
  8
CSLAYER1
  6
CONTINUOUS
 62
     6
 10
380.885631
 20
301.159123
 11
294.885661
 21
301.159123
  0
LINE
  8
CSLAYER1
  6
CONTINUOUS
 62
     6
 10
294.885661
 20
301.159123
 11
294.885661
 21
391.159123
  0
LINE
  8
CSLAYER1
  6
CONTINUOUS
 62
     6
 10
289.528728
 20
309.765919
 11
257.571635
 21
309.765919
  0
LINE
  8
CSLAYER1
  6
CONTINUOUS
 62
     6
 10
254.093913
 20
308.692067
 11
254.791545
 21
302.054554
  0
ARC
  8
CSLAYER1
  6
CONTINUOUS
 62
     6
 10
255.786052
 20
302.159108
 40
1.000000
 50
186.000012
 51
270.000001
  0
LINE
  8
CSLAYER1
  6
CONTINUOUS
 62
     6
 10
255.786052
 20
301.159108
 11
291.985210
 21
301.159108
  0
ARC
  8
CSLAYER1
  6
CONTINUOUS
 62
     6
 10
291.985210
 20
302.159108
 40
1.000000
 50
270.000001
 51
354.000017
  0
LINE
  8
CSLAYER1
  6
CONTINUOUS
 62
     6
 10
292.979777
 20
302.054554
 11
293.677409
 21
308.692067
  0
ARC
  8
CSLAYER1
  6
CONTINUOUS
 62
     6
 10
294.671916
 20
308.587513
 40
1.000000
 50
90.000009
 51
173.999984
  0
ARC
  8
CSLAYER1
  6
CONTINUOUS
 62
     6
 10
294.622295
 20
304.115284
 40
1.000000
 50
90.000009
 51
173.999984
  0
LINE
  8
CSLAYER1
  6
CONTINUOUS
 62
     6
 10
293.627727
 20
304.219838
 11
292.979777
 21
298.054554
  0
ARC
  8
CSLAYER1
  6
CONTINUOUS
 62
     6
 10
291.985210
 20
298.159108
 40
1.000000
 50
270.000001
 51
354.000017
  0
LINE
  8
CSLAYER1
  6
CONTINUOUS
 62
     6
 10
291.985210
 20
297.159108
 11
255.786052
 21
297.159108
  0
ARC
  8
CSLAYER1
  6
CONTINUOUS
 62
     6
 10
255.786052
 20
298.159108
 40
1.000000
 50
186.000012
 51
270.000001
  0
LINE
  8
CSLAYER1
  6
CONTINUOUS
 62
     6
 10
254.791545
 20
298.054554
 11
254.143535
 21
304.219838
  0
ARC
  8
CSLAYER1
  6
CONTINUOUS
 62
     6
 10
253.149028
 20
304.115284
 40
1.000000
 50
6.000021
 51
90.000009
  0
LINE
  8
CSLAYER1
  6
CONTINUOUS
 62
     6
 10
254.360087
 20
302.159108
 11
251.885661
 21
302.159108
  0
ARC
  8
CSLAYER1
  6
CONTINUOUS
 62
     6
 10
253.099345
 20
308.587513
 40
1.000000
 50
6.000021
 51
90.000009
  0
LINE
  8
CSLAYER1
  6
CONTINUOUS
 62
     6
 10
293.410625
 20
302.159108
 11
294.885661
 21
302.159108
  0
LINE
  8
CSLAYER1
  6
CONTINUOUS
 62
     6
 10
294.885661
 20
266.159123
 11
380.885661
 21
266.159123
  0
LINE
  8
CSLAYER1
  6
CONTINUOUS
 62
     6
 10
379.885661
 20
266.159123
 11
379.885661
 21
176.159123
  0
LINE
  8
CSLAYER1
  6
CONTINUOUS
 62
     6
 10
380.885661
 20
176.159123
 11
294.885661
 21
176.159123
  0
LINE
  8
CSLAYER1
  6
CONTINUOUS
 62
     6
 10
294.885661
 20
176.159123
 11
294.885661
 21
266.159123
  0
LINE
  8
CSLAYER1
  6
CONTINUOUS
 62
     6
 10
294.885661
 20
265.047581
 11
251.885661
 21
265.047581
  0
ARC
  8
CSLAYER1
  6
CONTINUOUS
 62
     6
 10
255.885661
 20
246.159123
 40
1.000000
 50
90.000016
 51
180.000005
  0
LINE
  8
CSLAYER1
  6
CONTINUOUS
 62
     6
 10
254.885661
 20
246.159123
 11
254.885661
 21
245.159123
  0
ARC
  8
CSLAYER1
  6
CONTINUOUS
 62
     6
 10
255.885661
 20
245.159123
 40
1.000000
 50
180.000019
 51
270.000001
  0
LINE
  8
CSLAYER1
  6
CONTINUOUS
 62
     6
 10
255.885661
 20
244.159123
 11
291.885661
 21
244.159123
  0
ARC
  8
CSLAYER1
  6
CONTINUOUS
 62
     6
 10
291.885661
 20
245.159123
 40
1.000000
 50
270.000001
 51
359.942691
  0
LINE
  8
CSLAYER1
  6
CONTINUOUS
 62
     6
 10
292.885661
 20
245.159123
 11
292.885661
 21
246.159123
  0
ARC
  8
CSLAYER1
  6
CONTINUOUS
 62
     6
 10
291.885661
 20
246.159123
 40
1.000000
 50
0.000000
 51
90.000003
  0
LINE
  8
CSLAYER1
  6
CONTINUOUS
 62
     6
 10
291.885661
 20
247.159123
 11
255.885661
 21
247.159123
  0
LINE
  8
CSLAYER1
  6
CONTINUOUS
 62
     6
 10
255.885661
 20
240.159123
 11
291.885661
 21
240.159123
  0
ARC
  8
CSLAYER1
  6
CONTINUOUS
 62
     6
 10
291.885661
 20
239.159123
 40
1.000000
 50
0.000000
 51
90.000003
  0
LINE
  8
CSLAYER1
  6
CONTINUOUS
 62
     6
 10
292.885661
 20
239.159123
 11
292.885661
 21
238.159123
  0
ARC
  8
CSLAYER1
  6
CONTINUOUS
 62
     6
 10
291.885661
 20
238.159123
 40
1.000000
 50
270.000001
 51
359.942691
  0
LINE
  8
CSLAYER1
  6
CONTINUOUS
 62
     6
 10
291.885661
 20
237.159123
 11
287.114421
 21
237.159123
  0
ARC
  8
CSLAYER1
  6
CONTINUOUS
 62
     6
 10
287.114421
 20
236.159123
 40
1.000000
 50
90.000003
 51
228.590367
  0
ARC
  8
CSLAYER1
  6
CONTINUOUS
 62
     6
 10
273.885661
 20
221.159123
 40
19.000000
 50
-48.590366
 51
48.590386
  0
ARC
  8
CSLAYER1
  6
CONTINUOUS
 62
     6
 10
287.114421
 20
206.159123
 40
1.000000
 50
131.409643
 51
270.000001
  0
LINE
  8
CSLAYER1
  6
CONTINUOUS
 62
     6
 10
287.114421
 20
205.159123
 11
291.885661
 21
205.159123
  0
ARC
  8
CSLAYER1
  6
CONTINUOUS
 62
     6
 10
291.885661
 20
204.159123
 40
1.000000
 50
0.057309
 51
89.999999
  0
LINE
  8
CSLAYER1
  6
CONTINUOUS
 62
     6
 10
292.885661
 20
204.159123
 11
292.885661
 21
203.159123
  0
ARC
  8
CSLAYER1
  6
CONTINUOUS
 62
     6
 10
291.885661
 20
203.159123
 40
1.000000
 50
269.999997
 51
360.000000
  0
LINE
  8
CSLAYER1
  6
CONTINUOUS
 62
     6
 10
291.885661
 20
202.159123
 11
255.885661
 21
202.159123
  0
ARC
  8
CSLAYER1
  6
CONTINUOUS
 62
     6
 10
255.885661
 20
203.159123
 40
1.000000
 50
179.999995
 51
269.999984
  0
LINE
  8
CSLAYER1
  6
CONTINUOUS
 62
     6
 10
254.885661
 20
203.159123
 11
254.885661
 21
204.159123
  0
ARC
  8
CSLAYER1
  6
CONTINUOUS
 62
     6
 10
255.885661
 20
204.159123
 40
1.000000
 50
89.999999
 51
179.999981
  0
LINE
  8
CSLAYER1
  6
CONTINUOUS
 62
     6
 10
255.885661
 20
205.159123
 11
260.656901
 21
205.159123
  0
ARC
  8
CSLAYER1
  6
CONTINUOUS
 62
     6
 10
260.656901
 20
206.159123
 40
1.000000
 50
-89.999999
 51
48.590386
  0
ARC
  8
CSLAYER1
  6
CONTINUOUS
 62
     6
 10
273.885661
 20
221.159123
 40
19.000000
 50
131.409657
 51
228.590367
  0
ARC
  8
CSLAYER1
  6
CONTINUOUS
 62
     6
 10
260.656901
 20
236.159123
 40
1.000000
 50
-48.590366
 51
90.000019
  0
LINE
  8
CSLAYER1
  6
CONTINUOUS
 62
     6
 10
260.656901
 20
237.159123
 11
255.885661
 21
237.159123
  0
ARC
  8
CSLAYER1
  6
CONTINUOUS
 62
     6
 10
255.885661
 20
238.159123
 40
1.000000
 50
180.000019
 51
270.000001
  0
LINE
  8
CSLAYER1
  6
CONTINUOUS
 62
     6
 10
254.885661
 20
238.159123
 11
254.885661
 21
239.159123
  0
ARC
  8
CSLAYER1
  6
CONTINUOUS
 62
     6
 10
255.885661
 20
239.159123
 40
1.000000
 50
90.000016
 51
180.000005
  0
LINE
  8
CSLAYER1
  6
CONTINUOUS
 62
     6
 10
267.885661
 20
222.059117
 11
267.885661
 21
220.259129
  0
LINE
  8
CSLAYER1
  6
CONTINUOUS
 62
     6
 10
267.885661
 20
220.259129
 11
279.885661
 21
220.259129
  0
LINE
  8
CSLAYER1
  6
CONTINUOUS
 62
     6
 10
279.885661
 20
220.259129
 11
279.885661
 21
222.059117
  0
LINE
  8
CSLAYER1
  6
CONTINUOUS
 62
     6
 10
279.885661
 20
222.059117
 11
267.885661
 21
222.059117
  0
CIRCLE
  8
CSLAYER1
  6
CONTINUOUS
 62
     6
 10
273.885661
 20
221.159123
 40
12.000000
  0
CIRCLE
  8
CSLAYER1
  6
CONTINUOUS
 62
     6
 10
273.885661
 20
221.159123
 40
15.000000
  0
CIRCLE
  8
CSLAYER1
  6
CONTINUOUS
 62
     6
 10
273.885661
 20
221.159123
 40
16.000000
  0
LINE
  8
CSLAYER1
  6
CONTINUOUS
 62
     6
 10
191.764971
 20
324.409141
 11
191.161522
 21
324.409141
  0
ARC
  8
CSLAYER1
  6
CONTINUOUS
 62
     6
 10
191.161522
 20
324.529839
 40
0.120690
 50
180.000005
 51
270.000001
  0
LINE
  8
CSLAYER1
  6
CONTINUOUS
 62
     6
 10
191.040861
 20
324.529839
 11
191.040861
 21
331.288444
  0
ARC
  8
CSLAYER1
  6
CONTINUOUS
 62
     6
 10
191.161522
 20
331.288444
 40
0.120690
 50
90.000003
 51
180.000005
  0
LINE
  8
CSLAYER1
  6
CONTINUOUS
 62
     6
 10
191.161522
 20
331.409141
 11
191.764971
 21
331.409141
  0
ARC
  8
CSLAYER1
  6
CONTINUOUS
 62
     6
 10
191.764971
 20
331.288444
 40
0.120690
 50
0.000000
 51
90.000003
  0
ARC
  8
CSLAYER1
  6
CONTINUOUS
 62
     6
 10
190.799467
 20
330.964694
 40
0.241380
 50
0.000000
 51
95.000152
  0
LINE
  8
CSLAYER1
  6
CONTINUOUS
 62
     6
 10
190.778399
 20
331.205149
 11
190.018268
 21
331.138650
  0
ARC
  8
CSLAYER1
  6
CONTINUOUS
 62
     6
 10
190.123459
 20
329.936336
 40
1.206899
 50
95.000111
 51
163.742611
  0
ARC
  8
CSLAYER1
  6
CONTINUOUS
 62
     6
 10
197.075357
 20
327.909141
 40
8.448294
 50
163.742994
 51
196.257016
  0
ARC
  8
CSLAYER1
  6
CONTINUOUS
 62
     6
 10
190.123459
 20
325.881946
 40
1.206899
 50
196.257399
 51
264.999892
  0
LINE
  8
CSLAYER1
  6
CONTINUOUS
 62
     6
 10
190.018268
 20
324.679633
 11
190.778399
 21
324.613133
  0
ARC
  8
CSLAYER1
  6
CONTINUOUS
 62
     6
 10
190.799467
 20
324.853589
 40
0.241380
 50
264.999865
 51
359.942691
  0
ARC
  8
CSLAYER1
  6
CONTINUOUS
 62
     6
 10
191.764971
 20
324.529839
 40
0.120690
 50
270.000001
 51
359.942691
  0
LINE
  8
CSLAYER1
  6
CONTINUOUS
 62
     6
 10
191.040861
 20
327.189912
 11
191.885669
 21
327.725609
  0
LINE
  8
CSLAYER1
  6
CONTINUOUS
 62
     6
 10
191.885669
 20
328.329059
 11
191.040861
 21
327.793361
  0
LINE
  8
CSLAYER1
  6
CONTINUOUS
 62
     6
 10
255.885661
 20
198.159123
 11
291.885661
 21
198.159123
  0
ARC
  8
CSLAYER1
  6
CONTINUOUS
 62
     6
 10
291.885661
 20
197.159123
 40
1.000000
 50
0.057309
 51
89.999999
  0
LINE
  8
CSLAYER1
  6
CONTINUOUS
 62
     6
 10
292.885661
 20
197.159123
 11
292.885661
 21
196.159123
  0
ARC
  8
CSLAYER1
  6
CONTINUOUS
 62
     6
 10
291.885661
 20
196.159123
 40
1.000000
 50
269.999997
 51
360.000000
  0
LINE
  8
CSLAYER1
  6
CONTINUOUS
 62
     6
 10
291.885661
 20
195.159123
 11
255.885661
 21
195.159123
  0
ARC
  8
CSLAYER1
  6
CONTINUOUS
 62
     6
 10
255.885661
 20
196.159123
 40
1.000000
 50
179.999995
 51
269.999984
  0
LINE
  8
CSLAYER1
  6
CONTINUOUS
 62
     6
 10
254.885661
 20
196.159123
 11
254.885661
 21
197.159123
  0
ARC
  8
CSLAYER1
  6
CONTINUOUS
 62
     6
 10
255.885661
 20
197.159123
 40
1.000000
 50
89.999999
 51
179.999981
  0
LINE
  8
CSLAYER1
  6
CONTINUOUS
 62
     6
 10
255.885661
 20
181.159123
 11
281.885661
 21
181.159123
  0
LINE
  8
CSLAYER1
  6
CONTINUOUS
 62
     6
 10
281.885661
 20
181.159123
 11
281.885661
 21
177.159123
  0
LINE
  8
CSLAYER1
  6
CONTINUOUS
 62
     6
 10
281.885661
 20
177.159123
 11
294.885661
 21
177.159123
  0
LINE
  8
CSLAYER1
  6
CONTINUOUS
 62
     6
 10
281.885661
 20
179.159123
 11
255.885661
 21
179.159123
  0
LINE
  8
CSLAYER1
  6
CONTINUOUS
 62
     6
 10
256.135661
 20
179.159123
 11
256.135661
 21
178.659123
  0
ARC
  8
CSLAYER1
  6
CONTINUOUS
 62
     6
 10
258.135661
 20
178.659123
 40
2.000000
 50
180.000000
 51
270.000000
  0
LINE
  8
CSLAYER1
  6
CONTINUOUS
 62
     6
 10
258.135661
 20
176.659123
 11
267.224286
 21
176.659123
  0
ARC
  8
CSLAYER1
  6
CONTINUOUS
 62
     6
 10
268.885661
 20
183.459111
 40
7.000000
 50
253.743003
 51
286.257026
  0
ARC
  8
CSLAYER1
  6
CONTINUOUS
 62
     6
 10
270.565318
 20
177.699040
 40
1.000000
 50
286.257408
 51
354.999902
  0
LINE
  8
CSLAYER1
  6
CONTINUOUS
 62
     6
 10
271.561503
 20
177.611882
 11
271.616618
 21
178.241704
  0
ARC
  8
CSLAYER1
  6
CONTINUOUS
 62
     6
 10
271.417399
 20
178.259129
 40
0.200000
 50
-5.000126
 51
90.000019
  0
LINE
  8
CSLAYER1
  6
CONTINUOUS
 62
     6
 10
271.685649
 20
178.459141
 11
268.885661
 21
178.459111
  0
LINE
  8
CSLAYER1
  6
CONTINUOUS
 62
     6
 10
268.885661
 20
178.459111
 11
266.085673
 21
178.459111
  0
ARC
  8
CSLAYER1
  6
CONTINUOUS
 62
     6
 10
266.085673
 20
178.559117
 40
0.100000
 50
180.000005
 51
270.000001
  0
LINE
  8
CSLAYER1
  6
CONTINUOUS
 62
     6
 10
265.985637
 20
178.559117
 11
265.985637
 21
179.059117
  0
ARC
  8
CSLAYER1
  6
CONTINUOUS
 62
     6
 10
266.085673
 20
179.059117
 40
0.100000
 50
90.000003
 51
180.000005
  0
ARC
  8
CSLAYER1
  6
CONTINUOUS
 62
     6
 10
266.353923
 20
178.259129
 40
0.200000
 50
90.000003
 51
185.000154
  0
LINE
  8
CSLAYER1
  6
CONTINUOUS
 62
     6
 10
266.154674
 20
178.241704
 11
266.209758
 21
177.611882
  0
ARC
  8
CSLAYER1
  6
CONTINUOUS
 62
     6
 10
267.205974
 20
177.699040
 40
1.000000
 50
185.000113
 51
253.742620
  0
LINE
  8
CSLAYER1
  6
CONTINUOUS
 62
     6
 10
265.314284
 20
176.659123
 11
265.149166
 21
175.641079
  0
LINE
  8
CSLAYER1
  6
CONTINUOUS
 62
     6
 10
265.149166
 20
175.641079
 11
265.091031
 21
175.318652
  0
LINE
  8
CSLAYER1
  6
CONTINUOUS
 62
     6
 10
265.091031
 20
175.318652
 11
265.026178
 21
174.986843
  0
LINE
  8
CSLAYER1
  6
CONTINUOUS
 62
     6
 10
265.026178
 20
174.986843
 11
264.955802
 21
174.649046
  0
LINE
  8
CSLAYER1
  6
CONTINUOUS
 62
     6
 10
264.955802
 20
174.649046
 11
264.881099
 21
174.308659
  0
LINE
  8
CSLAYER1
  6
CONTINUOUS
 62
     6
 10
264.881099
 20
174.308659
 11
264.803263
 21
173.969075
  0
LINE
  8
CSLAYER1
  6
CONTINUOUS
 62
     6
 10
264.803263
 20
173.969075
 11
264.723489
 21
173.633689
  0
LINE
  8
CSLAYER1
  6
CONTINUOUS
 62
     6
 10
264.723489
 20
173.633689
 11
264.642973
 21
173.305898
  0
LINE
  8
CSLAYER1
  6
CONTINUOUS
 62
     6
 10
264.642973
 20
173.305898
 11
264.562908
 21
172.989097
  0
LINE
  8
CSLAYER1
  6
CONTINUOUS
 62
     6
 10
264.562908
 20
172.989097
 11
264.484491
 21
172.686680
  0
LINE
  8
CSLAYER1
  6
CONTINUOUS
 62
     6
 10
264.484491
 20
172.686680
 11
264.401119
 21
172.386930
  0
LINE
  8
CSLAYER1
  6
CONTINUOUS
 62
     6
 10
264.401119
 20
172.386930
 11
264.307206
 21
172.081406
  0
LINE
  8
CSLAYER1
  6
CONTINUOUS
 62
     6
 10
264.307206
 20
172.081406
 11
264.203620
 21
171.771367
  0
LINE
  8
CSLAYER1
  6
CONTINUOUS
 62
     6
 10
264.203620
 20
171.771367
 11
264.091232
 21
171.458071
  0
LINE
  8
CSLAYER1
  6
CONTINUOUS
 62
     6
 10
264.091232
 20
171.458071
 11
263.970910
 21
171.142780
  0
LINE
  8
CSLAYER1
  6
CONTINUOUS
 62
     6
 10
263.970910
 20
171.142780
 11
263.843523
 21
170.826752
  0
LINE
  8
CSLAYER1
  6
CONTINUOUS
 62
     6
 10
263.843523
 20
170.826752
 11
263.709941
 21
170.511246
  0
LINE
  8
CSLAYER1
  6
CONTINUOUS
 62
     6
 10
263.709941
 20
170.511246
 11
263.571032
 21
170.197522
  0
LINE
  8
CSLAYER1
  6
CONTINUOUS
 62
     6
 10
263.571032
 20
170.197522
 11
263.427665
 21
169.886840
  0
LINE
  8
CSLAYER1
  6
CONTINUOUS
 62
     6
 10
263.427665
 20
169.886840
 11
263.280710
 21
169.580458
  0
LINE
  8
CSLAYER1
  6
CONTINUOUS
 62
     6
 10
263.280710
 20
169.580458
 11
263.131036
 21
169.279637
  0
LINE
  8
CSLAYER1
  6
CONTINUOUS
 62
     6
 10
263.131036
 20
169.279637
 11
263.003692
 21
169.032017
  0
LINE
  8
CSLAYER1
  6
CONTINUOUS
 62
     6
 10
263.003692
 20
169.032017
 11
262.873540
 21
168.785983
  0
LINE
  8
CSLAYER1
  6
CONTINUOUS
 62
     6
 10
262.873540
 20
168.785983
 11
262.740861
 21
168.541377
  0
LINE
  8
CSLAYER1
  6
CONTINUOUS
 62
     6
 10
262.740861
 20
168.541377
 11
262.605936
 21
168.298040
  0
LINE
  8
CSLAYER1
  6
CONTINUOUS
 62
     6
 10
262.605936
 20
168.298040
 11
262.469046
 21
168.055813
  0
LINE
  8
CSLAYER1
  6
CONTINUOUS
 62
     6
 10
262.469046
 20
168.055813
 11
262.330471
 21
167.814538
  0
LINE
  8
CSLAYER1
  6
CONTINUOUS
 62
     6
 10
262.330471
 20
167.814538
 11
262.190493
 21
167.574056
  0
LINE
  8
CSLAYER1
  6
CONTINUOUS
 62
     6
 10
262.190493
 20
167.574056
 11
262.049391
 21
167.334209
  0
LINE
  8
CSLAYER1
  6
CONTINUOUS
 62
     6
 10
262.049391
 20
167.334209
 11
261.907447
 21
167.094837
  0
LINE
  8
CSLAYER1
  6
CONTINUOUS
 62
     6
 10
261.907447
 20
167.094837
 11
261.764942
 21
166.855783
  0
LINE
  8
CSLAYER1
  6
CONTINUOUS
 62
     6
 10
261.764942
 20
166.855783
 11
261.622156
 21
166.616887
  0
ARC
  8
CSLAYER1
  6
CONTINUOUS
 62
     6
 10
261.612490
 20
167.816855
 40
1.200008
 50
210.461486
 51
270.461486
  0
ARC
  8
CSLAYER1
  6
CONTINUOUS
 62
     6
 10
260.568454
 20
168.408469
 40
1.200008
 50
210.461486
 51
270.461486
  0
LINE
  8
CSLAYER1
  6
CONTINUOUS
 62
     6
 10
259.534051
 20
167.800114
 11
259.669333
 21
168.026036
  0
LINE
  8
CSLAYER1
  6
CONTINUOUS
 62
     6
 10
259.669333
 20
168.026036
 11
259.804339
 21
168.252112
  0
LINE
  8
CSLAYER1
  6
CONTINUOUS
 62
     6
 10
259.804339
 20
168.252112
 11
259.938796
 21
168.478498
  0
LINE
  8
CSLAYER1
  6
CONTINUOUS
 62
     6
 10
259.938796
 20
168.478498
 11
260.072426
 21
168.705348
  0
LINE
  8
CSLAYER1
  6
CONTINUOUS
 62
     6
 10
260.072426
 20
168.705348
 11
260.204956
 21
168.932816
  0
LINE
  8
CSLAYER1
  6
CONTINUOUS
 62
     6
 10
260.204956
 20
168.932816
 11
260.336109
 21
169.161058
  0
LINE
  8
CSLAYER1
  6
CONTINUOUS
 62
     6
 10
260.336109
 20
169.161058
 11
260.465611
 21
169.390228
  0
LINE
  8
CSLAYER1
  6
CONTINUOUS
 62
     6
 10
260.465611
 20
169.390228
 11
260.593187
 21
169.620480
  0
LINE
  8
CSLAYER1
  6
CONTINUOUS
 62
     6
 10
260.593187
 20
169.620480
 11
260.718561
 21
169.851970
  0
LINE
  8
CSLAYER1
  6
CONTINUOUS
 62
     6
 10
260.718561
 20
169.851970
 11
260.841458
 21
170.084851
  0
LINE
  8
CSLAYER1
  6
CONTINUOUS
 62
     6
 10
260.841458
 20
170.084851
 11
260.961603
 21
170.319279
  0
LINE
  8
CSLAYER1
  6
CONTINUOUS
 62
     6
 10
260.961603
 20
170.319279
 11
261.095844
 21
170.590085
  0
LINE
  8
CSLAYER1
  6
CONTINUOUS
 62
     6
 10
261.095844
 20
170.590085
 11
261.227707
 21
170.865850
  0
LINE
  8
CSLAYER1
  6
CONTINUOUS
 62
     6
 10
261.227707
 20
170.865850
 11
261.356415
 21
171.145443
  0
LINE
  8
CSLAYER1
  6
CONTINUOUS
 62
     6
 10
261.356415
 20
171.145443
 11
261.481189
 21
171.427733
  0
LINE
  8
CSLAYER1
  6
CONTINUOUS
 62
     6
 10
261.481189
 20
171.427733
 11
261.601252
 21
171.711589
  0
LINE
  8
CSLAYER1
  6
CONTINUOUS
 62
     6
 10
261.601252
 20
171.711589
 11
261.715827
 21
171.995879
  0
LINE
  8
CSLAYER1
  6
CONTINUOUS
 62
     6
 10
261.715827
 20
171.995879
 11
261.824136
 21
172.279472
  0
LINE
  8
CSLAYER1
  6
CONTINUOUS
 62
     6
 10
261.824136
 20
172.279472
 11
261.925401
 21
172.561237
  0
LINE
  8
CSLAYER1
  6
CONTINUOUS
 62
     6
 10
261.925401
 20
172.561237
 11
262.018846
 21
172.840043
  0
LINE
  8
CSLAYER1
  6
CONTINUOUS
 62
     6
 10
262.018846
 20
172.840043
 11
262.103692
 21
173.114758
  0
LINE
  8
CSLAYER1
  6
CONTINUOUS
 62
     6
 10
262.103692
 20
173.114758
 11
262.179162
 21
173.384251
  0
LINE
  8
CSLAYER1
  6
CONTINUOUS
 62
     6
 10
262.179162
 20
173.384251
 11
262.253702
 21
173.669690
  0
LINE
  8
CSLAYER1
  6
CONTINUOUS
 62
     6
 10
262.253702
 20
173.669690
 11
262.329710
 21
173.968869
  0
LINE
  8
CSLAYER1
  6
CONTINUOUS
 62
     6
 10
262.329710
 20
173.968869
 11
262.406054
 21
174.278534
  0
LINE
  8
CSLAYER1
  6
CONTINUOUS
 62
     6
 10
262.406054
 20
174.278534
 11
262.481600
 21
174.595434
  0
LINE
  8
CSLAYER1
  6
CONTINUOUS
 62
     6
 10
262.481600
 20
174.595434
 11
262.555216
 21
174.916316
  0
LINE
  8
CSLAYER1
  6
CONTINUOUS
 62
     6
 10
262.555216
 20
174.916316
 11
262.625768
 21
175.237927
  0
LINE
  8
CSLAYER1
  6
CONTINUOUS
 62
     6
 10
262.625768
 20
175.237927
 11
262.692125
 21
175.557015
  0
LINE
  8
CSLAYER1
  6
CONTINUOUS
 62
     6
 10
262.692125
 20
175.557015
 11
262.753154
 21
175.870326
  0
LINE
  8
CSLAYER1
  6
CONTINUOUS
 62
     6
 10
262.753154
 20
175.870326
 11
262.807720
 21
176.174609
  0
LINE
  8
CSLAYER1
  6
CONTINUOUS
 62
     6
 10
262.807720
 20
176.174609
 11
262.885661
 21
176.659123
  0
LINE
  8
CSLAYER1
  6
CONTINUOUS
 62
     6
 10
262.757261
 20
175.893229
 11
262.709014
 21
175.805395
  0
LINE
  8
CSLAYER1
  6
CONTINUOUS
 62
     6
 10
262.709014
 20
175.805395
 11
262.599127
 21
175.613586
  0
LINE
  8
CSLAYER1
  6
CONTINUOUS
 62
     6
 10
262.599127
 20
175.613586
 11
262.480873
 21
175.414099
  0
LINE
  8
CSLAYER1
  6
CONTINUOUS
 62
     6
 10
262.480873
 20
175.414099
 11
262.355835
 21
175.209119
  0
LINE
  8
CSLAYER1
  6
CONTINUOUS
 62
     6
 10
262.355835
 20
175.209119
 11
262.225593
 21
175.000834
  0
LINE
  8
CSLAYER1
  6
CONTINUOUS
 62
     6
 10
262.225593
 20
175.000834
 11
262.091731
 21
174.791428
  0
LINE
  8
CSLAYER1
  6
CONTINUOUS
 62
     6
 10
262.091731
 20
174.791428
 11
261.955829
 21
174.583088
  0
LINE
  8
CSLAYER1
  6
CONTINUOUS
 62
     6
 10
261.955829
 20
174.583088
 11
261.819468
 21
174.378001
  0
LINE
  8
CSLAYER1
  6
CONTINUOUS
 62
     6
 10
261.819468
 20
174.378001
 11
261.684232
 21
174.178351
  0
LINE
  8
CSLAYER1
  6
CONTINUOUS
 62
     6
 10
261.684232
 20
174.178351
 11
261.551701
 21
173.986326
  0
LINE
  8
CSLAYER1
  6
CONTINUOUS
 62
     6
 10
261.551701
 20
173.986326
 11
261.423456
 21
173.804112
  0
LINE
  8
CSLAYER1
  6
CONTINUOUS
 62
     6
 10
261.423456
 20
173.804112
 11
261.318376
 21
173.659933
  0
LINE
  8
CSLAYER1
  6
CONTINUOUS
 62
     6
 10
261.318376
 20
173.659933
 11
261.206485
 21
173.512883
  0
LINE
  8
CSLAYER1
  6
CONTINUOUS
 62
     6
 10
261.206485
 20
173.512883
 11
261.088917
 21
173.363861
  0
LINE
  8
CSLAYER1
  6
CONTINUOUS
 62
     6
 10
261.088917
 20
173.363861
 11
260.966803
 21
173.213767
  0
LINE
  8
CSLAYER1
  6
CONTINUOUS
 62
     6
 10
260.966803
 20
173.213767
 11
260.841277
 21
173.063499
  0
LINE
  8
CSLAYER1
  6
CONTINUOUS
 62
     6
 10
260.841277
 20
173.063499
 11
260.713472
 21
172.913956
  0
LINE
  8
CSLAYER1
  6
CONTINUOUS
 62
     6
 10
260.713472
 20
172.913956
 11
260.584519
 21
172.766038
  0
LINE
  8
CSLAYER1
  6
CONTINUOUS
 62
     6
 10
260.584519
 20
172.766038
 11
260.455552
 21
172.620643
  0
LINE
  8
CSLAYER1
  6
CONTINUOUS
 62
     6
 10
260.455552
 20
172.620643
 11
260.327703
 21
172.478671
  0
LINE
  8
CSLAYER1
  6
CONTINUOUS
 62
     6
 10
260.327703
 20
172.478671
 11
260.202104
 21
172.341021
  0
LINE
  8
CSLAYER1
  6
CONTINUOUS
 62
     6
 10
260.202104
 20
172.341021
 11
260.079889
 21
172.208592
  0
LINE
  8
CSLAYER1
  6
CONTINUOUS
 62
     6
 10
260.079889
 20
172.208592
 11
259.934913
 21
172.056432
  0
LINE
  8
CSLAYER1
  6
CONTINUOUS
 62
     6
 10
259.934913
 20
172.056432
 11
259.781738
 21
171.902481
  0
LINE
  8
CSLAYER1
  6
CONTINUOUS
 62
     6
 10
259.781738
 20
171.902481
 11
259.622329
 21
171.747048
  0
LINE
  8
CSLAYER1
  6
CONTINUOUS
 62
     6
 10
259.622329
 20
171.747048
 11
259.458652
 21
171.590440
  0
LINE
  8
CSLAYER1
  6
CONTINUOUS
 62
     6
 10
259.458652
 20
171.590440
 11
259.292672
 21
171.432966
  0
LINE
  8
CSLAYER1
  6
CONTINUOUS
 62
     6
 10
259.292672
 20
171.432966
 11
259.126354
 21
171.274935
  0
LINE
  8
CSLAYER1
  6
CONTINUOUS
 62
     6
 10
259.126354
 20
171.274935
 11
258.961664
 21
171.116655
  0
LINE
  8
CSLAYER1
  6
CONTINUOUS
 62
     6
 10
258.961664
 20
171.116655
 11
258.800567
 21
170.958435
  0
LINE
  8
CSLAYER1
  6
CONTINUOUS
 62
     6
 10
258.800567
 20
170.958435
 11
258.645028
 21
170.800583
  0
LINE
  8
CSLAYER1
  6
CONTINUOUS
 62
     6
 10
258.645028
 20
170.800583
 11
258.497012
 21
170.643407
  0
LINE
  8
CSLAYER1
  6
CONTINUOUS
 62
     6
 10
258.497012
 20
170.643407
 11
258.358484
 21
170.487217
  0
LINE
  8
CSLAYER1
  6
CONTINUOUS
 62
     6
 10
258.358484
 20
170.487217
 11
258.232569
 21
170.340635
  0
LINE
  8
CSLAYER1
  6
CONTINUOUS
 62
     6
 10
258.232569
 20
170.340635
 11
258.101760
 21
170.190457
  0
LINE
  8
CSLAYER1
  6
CONTINUOUS
 62
     6
 10
258.101760
 20
170.190457
 11
257.966157
 21
170.038237
  0
LINE
  8
CSLAYER1
  6
CONTINUOUS
 62
     6
 10
257.966157
 20
170.038237
 11
257.825864
 21
169.885532
  0
LINE
  8
CSLAYER1
  6
CONTINUOUS
 62
     6
 10
257.825864
 20
169.885532
 11
257.680981
 21
169.733899
  0
LINE
  8
CSLAYER1
  6
CONTINUOUS
 62
     6
 10
257.680981
 20
169.733899
 11
257.531610
 21
169.584892
  0
LINE
  8
CSLAYER1
  6
CONTINUOUS
 62
     6
 10
257.531610
 20
169.584892
 11
257.377854
 21
169.440068
  0
LINE
  8
CSLAYER1
  6
CONTINUOUS
 62
     6
 10
257.377854
 20
169.440068
 11
257.219813
 21
169.300983
  0
LINE
  8
CSLAYER1
  6
CONTINUOUS
 62
     6
 10
257.219813
 20
169.300983
 11
257.057589
 21
169.169193
  0
LINE
  8
CSLAYER1
  6
CONTINUOUS
 62
     6
 10
257.057589
 20
169.169193
 11
256.891285
 21
169.046253
  0
LINE
  8
CSLAYER1
  6
CONTINUOUS
 62
     6
 10
256.891285
 20
169.046253
 11
256.721002
 21
168.933720
  0
LINE
  8
CSLAYER1
  6
CONTINUOUS
 62
     6
 10
256.721002
 20
168.933720
 11
256.628268
 21
168.878294
  0
LINE
  8
CSLAYER1
  6
CONTINUOUS
 62
     6
 10
256.628268
 20
168.878294
 11
256.533676
 21
168.825617
  0
LINE
  8
CSLAYER1
  6
CONTINUOUS
 62
     6
 10
256.533676
 20
168.825617
 11
256.437411
 21
168.775416
  0
LINE
  8
CSLAYER1
  6
CONTINUOUS
 62
     6
 10
256.437411
 20
168.775416
 11
256.339660
 21
168.727415
  0
LINE
  8
CSLAYER1
  6
CONTINUOUS
 62
     6
 10
256.339660
 20
168.727415
 11
256.240608
 21
168.681338
  0
LINE
  8
CSLAYER1
  6
CONTINUOUS
 62
     6
 10
256.240608
 20
168.681338
 11
256.140442
 21
168.636912
  0
LINE
  8
CSLAYER1
  6
CONTINUOUS
 62
     6
 10
256.140442
 20
168.636912
 11
256.039346
 21
168.593861
  0
LINE
  8
CSLAYER1
  6
CONTINUOUS
 62
     6
 10
256.039346
 20
168.593861
 11
255.937507
 21
168.551909
  0
LINE
  8
CSLAYER1
  6
CONTINUOUS
 62
     6
 10
255.937507
 20
168.551909
 11
255.835110
 21
168.510783
  0
LINE
  8
CSLAYER1
  6
CONTINUOUS
 62
     6
 10
255.835110
 20
168.510783
 11
255.732342
 21
168.470206
  0
LINE
  8
CSLAYER1
  6
CONTINUOUS
 62
     6
 10
255.732342
 20
168.470206
 11
255.629388
 21
168.429905
  0
ARC
  8
CSLAYER1
  6
CONTINUOUS
 62
     6
 10
255.752120
 20
169.518877
 40
1.095863
 50
203.568976
 51
263.568976
  0
ARC
  8
CSLAYER1
  6
CONTINUOUS
 62
     6
 10
254.870419
 20
170.169660
 40
1.095863
 50
203.568976
 51
263.568976
  0
LINE
  8
CSLAYER1
  6
CONTINUOUS
 62
     6
 10
253.865991
 20
169.731480
 11
254.119103
 21
169.911447
  0
LINE
  8
CSLAYER1
  6
CONTINUOUS
 62
     6
 10
254.119103
 20
169.911447
 11
254.371964
 21
170.091767
  0
LINE
  8
CSLAYER1
  6
CONTINUOUS
 62
     6
 10
254.371964
 20
170.091767
 11
254.624324
 21
170.272793
  0
LINE
  8
CSLAYER1
  6
CONTINUOUS
 62
     6
 10
254.624324
 20
170.272793
 11
254.875932
 21
170.454877
  0
LINE
  8
CSLAYER1
  6
CONTINUOUS
 62
     6
 10
254.875932
 20
170.454877
 11
255.126537
 21
170.638372
  0
LINE
  8
CSLAYER1
  6
CONTINUOUS
 62
     6
 10
255.126537
 20
170.638372
 11
255.375890
 21
170.823631
  0
LINE
  8
CSLAYER1
  6
CONTINUOUS
 62
     6
 10
255.375890
 20
170.823631
 11
255.623739
 21
171.011006
  0
LINE
  8
CSLAYER1
  6
CONTINUOUS
 62
     6
 10
255.623739
 20
171.011006
 11
255.869834
 21
171.200851
  0
LINE
  8
CSLAYER1
  6
CONTINUOUS
 62
     6
 10
255.869834
 20
171.200851
 11
256.113924
 21
171.393519
  0
LINE
  8
CSLAYER1
  6
CONTINUOUS
 62
     6
 10
256.113924
 20
171.393519
 11
256.355758
 21
171.589361
  0
LINE
  8
CSLAYER1
  6
CONTINUOUS
 62
     6
 10
256.355758
 20
171.589361
 11
256.595086
 21
171.788731
  0
LINE
  8
CSLAYER1
  6
CONTINUOUS
 62
     6
 10
256.595086
 20
171.788731
 11
256.752351
 21
171.923028
  0
LINE
  8
CSLAYER1
  6
CONTINUOUS
 62
     6
 10
256.752351
 20
171.923028
 11
256.909400
 21
172.060052
  0
LINE
  8
CSLAYER1
  6
CONTINUOUS
 62
     6
 10
256.909400
 20
172.060052
 11
257.065491
 21
172.199612
  0
LINE
  8
CSLAYER1
  6
CONTINUOUS
 62
     6
 10
257.065491
 20
172.199612
 11
257.219881
 21
172.341514
  0
LINE
  8
CSLAYER1
  6
CONTINUOUS
 62
     6
 10
257.219881
 20
172.341514
 11
257.371825
 21
172.485567
  0
LINE
  8
CSLAYER1
  6
CONTINUOUS
 62
     6
 10
257.371825
 20
172.485567
 11
257.520582
 21
172.631577
  0
LINE
  8
CSLAYER1
  6
CONTINUOUS
 62
     6
 10
257.520582
 20
172.631577
 11
257.665408
 21
172.779352
  0
LINE
  8
CSLAYER1
  6
CONTINUOUS
 62
     6
 10
257.665408
 20
172.779352
 11
257.805561
 21
172.928699
  0
LINE
  8
CSLAYER1
  6
CONTINUOUS
 62
     6
 10
257.805561
 20
172.928699
 11
257.940297
 21
173.079427
  0
LINE
  8
CSLAYER1
  6
CONTINUOUS
 62
     6
 10
257.940297
 20
173.079427
 11
258.068872
 21
173.231342
  0
LINE
  8
CSLAYER1
  6
CONTINUOUS
 62
     6
 10
258.068872
 20
173.231342
 11
258.190545
 21
173.384251
  0
LINE
  8
CSLAYER1
  6
CONTINUOUS
 62
     6
 10
258.190545
 20
173.384251
 11
258.305000
 21
173.535577
  0
LINE
  8
CSLAYER1
  6
CONTINUOUS
 62
     6
 10
258.305000
 20
173.535577
 11
258.420301
 21
173.692831
  0
LINE
  8
CSLAYER1
  6
CONTINUOUS
 62
     6
 10
258.420301
 20
173.692831
 11
258.535914
 21
173.854889
  0
LINE
  8
CSLAYER1
  6
CONTINUOUS
 62
     6
 10
258.535914
 20
173.854889
 11
258.651307
 21
174.020629
  0
LINE
  8
CSLAYER1
  6
CONTINUOUS
 62
     6
 10
258.651307
 20
174.020629
 11
258.765947
 21
174.188928
  0
LINE
  8
CSLAYER1
  6
CONTINUOUS
 62
     6
 10
258.765947
 20
174.188928
 11
258.879301
 21
174.358664
  0
LINE
  8
CSLAYER1
  6
CONTINUOUS
 62
     6
 10
258.879301
 20
174.358664
 11
258.990836
 21
174.528715
  0
LINE
  8
CSLAYER1
  6
CONTINUOUS
 62
     6
 10
258.990836
 20
174.528715
 11
259.100021
 21
174.697957
  0
LINE
  8
CSLAYER1
  6
CONTINUOUS
 62
     6
 10
259.100021
 20
174.697957
 11
259.206320
 21
174.865269
  0
LINE
  8
CSLAYER1
  6
CONTINUOUS
 62
     6
 10
259.206320
 20
174.865269
 11
259.309203
 21
175.029528
  0
LINE
  8
CSLAYER1
  6
CONTINUOUS
 62
     6
 10
259.309203
 20
175.029528
 11
259.408136
 21
175.189610
  0
LINE
  8
CSLAYER1
  6
CONTINUOUS
 62
     6
 10
259.408136
 20
175.189610
 11
259.494610
 21
175.327836
  0
LINE
  8
CSLAYER1
  6
CONTINUOUS
 62
     6
 10
259.494610
 20
175.327836
 11
259.586562
 21
175.470294
  0
LINE
  8
CSLAYER1
  6
CONTINUOUS
 62
     6
 10
259.586562
 20
175.470294
 11
259.682762
 21
175.615774
  0
LINE
  8
CSLAYER1
  6
CONTINUOUS
 62
     6
 10
259.682762
 20
175.615774
 11
259.781981
 21
175.763064
  0
LINE
  8
CSLAYER1
  6
CONTINUOUS
 62
     6
 10
259.781981
 20
175.763064
 11
259.882989
 21
175.910954
  0
LINE
  8
CSLAYER1
  6
CONTINUOUS
 62
     6
 10
259.882989
 20
175.910954
 11
259.984557
 21
176.058233
  0
LINE
  8
CSLAYER1
  6
CONTINUOUS
 62
     6
 10
259.984557
 20
176.058233
 11
260.085455
 21
176.203689
  0
LINE
  8
CSLAYER1
  6
CONTINUOUS
 62
     6
 10
260.085455
 20
176.203689
 11
260.184454
 21
176.346113
  0
LINE
  8
CSLAYER1
  6
CONTINUOUS
 62
     6
 10
260.184454
 20
176.346113
 11
260.280323
 21
176.484293
  0
LINE
  8
CSLAYER1
  6
CONTINUOUS
 62
     6
 10
260.280323
 20
176.484293
 11
260.400865
 21
176.659123
  0
LINE
  8
CSLAYER1
  6
CONTINUOUS
 62
     6
 10
255.885661
 20
177.159123
 11
255.885661
 21
181.159123
  0
LINE
  8
CSLAYER1
  6
CONTINUOUS
 62
     6
 10
255.885661
 20
177.159123
 11
251.885661
 21
177.159123
  0
ARC
  8
CSLAYER1
  6
CONTINUOUS
 62
     6
 10
253.323323
 20
169.321545
 40
1.080690
 50
210.945197
 51
270.945197
  0
ARC
  8
CSLAYER1
  6
CONTINUOUS
 62
     6
 10
252.414286
 20
167.685292
 40
1.080690
 50
30.945197
 51
90.945197
  0
LINE
  8
CSLAYER1
  6
CONTINUOUS
 62
     6
 10
252.396478
 20
168.765812
 11
252.251776
 21
168.626466
  0
LINE
  8
CSLAYER1
  6
CONTINUOUS
 62
     6
 10
252.251776
 20
168.626466
 11
252.097861
 21
168.476716
  0
LINE
  8
CSLAYER1
  6
CONTINUOUS
 62
     6
 10
252.097861
 20
168.476716
 11
251.936510
 21
168.318888
  0
LINE
  8
CSLAYER1
  6
CONTINUOUS
 62
     6
 10
251.936510
 20
168.318888
 11
251.769500
 21
168.155306
  0
LINE
  8
CSLAYER1
  6
CONTINUOUS
 62
     6
 10
251.769500
 20
168.155306
 11
251.598605
 21
167.988295
  0
LINE
  8
CSLAYER1
  6
CONTINUOUS
 62
     6
 10
251.598605
 20
167.988295
 11
251.425602
 21
167.820179
  0
LINE
  8
CSLAYER1
  6
CONTINUOUS
 62
     6
 10
251.425602
 20
167.820179
 11
251.252267
 21
167.653284
  0
LINE
  8
CSLAYER1
  6
CONTINUOUS
 62
     6
 10
251.252267
 20
167.653284
 11
251.080375
 21
167.489935
  0
LINE
  8
CSLAYER1
  6
CONTINUOUS
 62
     6
 10
251.080375
 20
167.489935
 11
250.911702
 21
167.332456
  0
LINE
  8
CSLAYER1
  6
CONTINUOUS
 62
     6
 10
250.911702
 20
167.332456
 11
250.748025
 21
167.183171
  0
LINE
  8
CSLAYER1
  6
CONTINUOUS
 62
     6
 10
250.748025
 20
167.183171
 11
250.591119
 21
167.044407
  0
LINE
  8
CSLAYER1
  6
CONTINUOUS
 62
     6
 10
250.591119
 20
167.044407
 11
250.449888
 21
166.921610
  0
LINE
  8
CSLAYER1
  6
CONTINUOUS
 62
     6
 10
250.449888
 20
166.921610
 11
250.303705
 21
166.793724
  0
LINE
  8
CSLAYER1
  6
CONTINUOUS
 62
     6
 10
250.303705
 20
166.793724
 11
250.153712
 21
166.661217
  0
LINE
  8
CSLAYER1
  6
CONTINUOUS
 62
     6
 10
250.153712
 20
166.661217
 11
250.001050
 21
166.524558
  0
LINE
  8
CSLAYER1
  6
CONTINUOUS
 62
     6
 10
250.001050
 20
166.524558
 11
249.846863
 21
166.384213
  0
LINE
  8
CSLAYER1
  6
CONTINUOUS
 62
     6
 10
249.846863
 20
166.384213
 11
249.692293
 21
166.240650
  0
LINE
  8
CSLAYER1
  6
CONTINUOUS
 62
     6
 10
249.692293
 20
166.240650
 11
249.538482
 21
166.094338
  0
LINE
  8
CSLAYER1
  6
CONTINUOUS
 62
     6
 10
249.538482
 20
166.094338
 11
249.386571
 21
165.945743
  0
LINE
  8
CSLAYER1
  6
CONTINUOUS
 62
     6
 10
249.386571
 20
165.945743
 11
249.237704
 21
165.795333
  0
LINE
  8
CSLAYER1
  6
CONTINUOUS
 62
     6
 10
249.237704
 20
165.795333
 11
249.093022
 21
165.643577
  0
LINE
  8
CSLAYER1
  6
CONTINUOUS
 62
     6
 10
249.093022
 20
165.643577
 11
248.953668
 21
165.490941
  0
LINE
  8
CSLAYER1
  6
CONTINUOUS
 62
     6
 10
248.953668
 20
165.490941
 11
248.898144
 21
165.427997
  0
LINE
  8
CSLAYER1
  6
CONTINUOUS
 62
     6
 10
248.898144
 20
165.427997
 11
248.843216
 21
165.364497
  0
LINE
  8
CSLAYER1
  6
CONTINUOUS
 62
     6
 10
248.843216
 20
165.364497
 11
248.788825
 21
165.300495
  0
LINE
  8
CSLAYER1
  6
CONTINUOUS
 62
     6
 10
248.788825
 20
165.300495
 11
248.734912
 21
165.236049
  0
LINE
  8
CSLAYER1
  6
CONTINUOUS
 62
     6
 10
248.734912
 20
165.236049
 11
248.681416
 21
165.171213
  0
LINE
  8
CSLAYER1
  6
CONTINUOUS
 62
     6
 10
248.681416
 20
165.171213
 11
248.628278
 21
165.106043
  0
LINE
  8
CSLAYER1
  6
CONTINUOUS
 62
     6
 10
248.628278
 20
165.106043
 11
248.575438
 21
165.040595
  0
LINE
  8
CSLAYER1
  6
CONTINUOUS
 62
     6
 10
248.575438
 20
165.040595
 11
248.522837
 21
164.974925
  0
LINE
  8
CSLAYER1
  6
CONTINUOUS
 62
     6
 10
248.522837
 20
164.974925
 11
248.470415
 21
164.909087
  0
LINE
  8
CSLAYER1
  6
CONTINUOUS
 62
     6
 10
248.470415
 20
164.909087
 11
248.418112
 21
164.843139
  0
LINE
  8
CSLAYER1
  6
CONTINUOUS
 62
     6
 10
248.418112
 20
164.843139
 11
248.289557
 21
164.680721
  0
LINE
  8
CSLAYER1
  6
CONTINUOUS
 62
     6
 10
248.289557
 20
164.680721
 11
248.318295
 21
164.633866
  0
LINE
  8
CSLAYER1
  6
CONTINUOUS
 62
     6
 10
248.318295
 20
164.633866
 11
248.358887
 21
164.573985
  0
LINE
  8
CSLAYER1
  6
CONTINUOUS
 62
     6
 10
248.358887
 20
164.573985
 11
248.403169
 21
164.514117
  0
LINE
  8
CSLAYER1
  6
CONTINUOUS
 62
     6
 10
248.403169
 20
164.514117
 11
248.450620
 21
164.454844
  0
LINE
  8
CSLAYER1
  6
CONTINUOUS
 62
     6
 10
248.450620
 20
164.454844
 11
248.500719
 21
164.396746
  0
LINE
  8
CSLAYER1
  6
CONTINUOUS
 62
     6
 10
248.500719
 20
164.396746
 11
248.552943
 21
164.340406
  0
LINE
  8
CSLAYER1
  6
CONTINUOUS
 62
     6
 10
248.552943
 20
164.340406
 11
248.606772
 21
164.286402
  0
LINE
  8
CSLAYER1
  6
CONTINUOUS
 62
     6
 10
248.606772
 20
164.286402
 11
248.661682
 21
164.235317
  0
LINE
  8
CSLAYER1
  6
CONTINUOUS
 62
     6
 10
248.661682
 20
164.235317
 11
248.717153
 21
164.187731
  0
LINE
  8
CSLAYER1
  6
CONTINUOUS
 62
     6
 10
248.717153
 20
164.187731
 11
248.772664
 21
164.144226
  0
LINE
  8
CSLAYER1
  6
CONTINUOUS
 62
     6
 10
248.772664
 20
164.144226
 11
248.827691
 21
164.105381
  0
LINE
  8
CSLAYER1
  6
CONTINUOUS
 62
     6
 10
248.827691
 20
164.105381
 11
248.884177
 21
164.071087
  0
LINE
  8
CSLAYER1
  6
CONTINUOUS
 62
     6
 10
248.884177
 20
164.071087
 11
248.944779
 21
164.040120
  0
LINE
  8
CSLAYER1
  6
CONTINUOUS
 62
     6
 10
248.944779
 20
164.040120
 11
249.008940
 21
164.012131
  0
LINE
  8
CSLAYER1
  6
CONTINUOUS
 62
     6
 10
249.008940
 20
164.012131
 11
249.076102
 21
163.986770
  0
LINE
  8
CSLAYER1
  6
CONTINUOUS
 62
     6
 10
249.076102
 20
163.986770
 11
249.145708
 21
163.963688
  0
LINE
  8
CSLAYER1
  6
CONTINUOUS
 62
     6
 10
249.145708
 20
163.963688
 11
249.217202
 21
163.942534
  0
LINE
  8
CSLAYER1
  6
CONTINUOUS
 62
     6
 10
249.217202
 20
163.942534
 11
249.290027
 21
163.922960
  0
LINE
  8
CSLAYER1
  6
CONTINUOUS
 62
     6
 10
249.290027
 20
163.922960
 11
249.363625
 21
163.904615
  0
LINE
  8
CSLAYER1
  6
CONTINUOUS
 62
     6
 10
249.363625
 20
163.904615
 11
249.437440
 21
163.887149
  0
LINE
  8
CSLAYER1
  6
CONTINUOUS
 62
     6
 10
249.437440
 20
163.887149
 11
249.510914
 21
163.870214
  0
LINE
  8
CSLAYER1
  6
CONTINUOUS
 62
     6
 10
249.510914
 20
163.870214
 11
249.583490
 21
163.853459
  0
LINE
  8
CSLAYER1
  6
CONTINUOUS
 62
     6
 10
249.583490
 20
163.853459
 11
249.657714
 21
163.835859
  0
LINE
  8
CSLAYER1
  6
CONTINUOUS
 62
     6
 10
249.657714
 20
163.835859
 11
249.731450
 21
163.817834
  0
LINE
  8
CSLAYER1
  6
CONTINUOUS
 62
     6
 10
249.731450
 20
163.817834
 11
249.804746
 21
163.799428
  0
LINE
  8
CSLAYER1
  6
CONTINUOUS
 62
     6
 10
249.804746
 20
163.799428
 11
249.877652
 21
163.780683
  0
LINE
  8
CSLAYER1
  6
CONTINUOUS
 62
     6
 10
249.877652
 20
163.780683
 11
249.950216
 21
163.761640
  0
LINE
  8
CSLAYER1
  6
CONTINUOUS
 62
     6
 10
249.950216
 20
163.761640
 11
250.022487
 21
163.742344
  0
LINE
  8
CSLAYER1
  6
CONTINUOUS
 62
     6
 10
250.022487
 20
163.742344
 11
250.094514
 21
163.722835
  0
LINE
  8
CSLAYER1
  6
CONTINUOUS
 62
     6
 10
250.094514
 20
163.722835
 11
250.166346
 21
163.703157
  0
LINE
  8
CSLAYER1
  6
CONTINUOUS
 62
     6
 10
250.166346
 20
163.703157
 11
250.238031
 21
163.683351
  0
LINE
  8
CSLAYER1
  6
CONTINUOUS
 62
     6
 10
250.238031
 20
163.683351
 11
250.309619
 21
163.663461
  0
LINE
  8
CSLAYER1
  6
CONTINUOUS
 62
     6
 10
250.309619
 20
163.663461
 11
250.390238
 21
163.640998
  0
LINE
  8
CSLAYER1
  6
CONTINUOUS
 62
     6
 10
250.390238
 20
163.640998
 11
250.517494
 21
163.813148
  0
LINE
  8
CSLAYER1
  6
CONTINUOUS
 62
     6
 10
250.517494
 20
163.813148
 11
250.612274
 21
163.940311
  0
LINE
  8
CSLAYER1
  6
CONTINUOUS
 62
     6
 10
250.612274
 20
163.940311
 11
250.707925
 21
164.066542
  0
LINE
  8
CSLAYER1
  6
CONTINUOUS
 62
     6
 10
250.707925
 20
164.066542
 11
250.804884
 21
164.191378
  0
LINE
  8
CSLAYER1
  6
CONTINUOUS
 62
     6
 10
250.804884
 20
164.191378
 11
250.903586
 21
164.314353
  0
LINE
  8
CSLAYER1
  6
CONTINUOUS
 62
     6
 10
250.903586
 20
164.314353
 11
251.004467
 21
164.435001
  0
LINE
  8
CSLAYER1
  6
CONTINUOUS
 62
     6
 10
251.004467
 20
164.435001
 11
251.107964
 21
164.552858
  0
LINE
  8
CSLAYER1
  6
CONTINUOUS
 62
     6
 10
251.107964
 20
164.552858
 11
251.214511
 21
164.667458
  0
LINE
  8
CSLAYER1
  6
CONTINUOUS
 62
     6
 10
251.214511
 20
164.667458
 11
251.324545
 21
164.778336
  0
LINE
  8
CSLAYER1
  6
CONTINUOUS
 62
     6
 10
251.324545
 20
164.778336
 11
251.438502
 21
164.885027
  0
LINE
  8
CSLAYER1
  6
CONTINUOUS
 62
     6
 10
251.438502
 20
164.885027
 11
251.556817
 21
164.987065
  0
LINE
  8
CSLAYER1
  6
CONTINUOUS
 62
     6
 10
251.556817
 20
164.987065
 11
251.708242
 21
165.106103
  0
LINE
  8
CSLAYER1
  6
CONTINUOUS
 62
     6
 10
251.708242
 20
165.106103
 11
251.866482
 21
165.220615
  0
LINE
  8
CSLAYER1
  6
CONTINUOUS
 62
     6
 10
251.866482
 20
165.220615
 11
252.029602
 21
165.331555
  0
LINE
  8
CSLAYER1
  6
CONTINUOUS
 62
     6
 10
252.029602
 20
165.331555
 11
252.195671
 21
165.439874
  0
LINE
  8
CSLAYER1
  6
CONTINUOUS
 62
     6
 10
252.195671
 20
165.439874
 11
252.362752
 21
165.546523
  0
LINE
  8
CSLAYER1
  6
CONTINUOUS
 62
     6
 10
252.362752
 20
165.546523
 11
252.528913
 21
165.652456
  0
LINE
  8
CSLAYER1
  6
CONTINUOUS
 62
     6
 10
252.528913
 20
165.652456
 11
252.692220
 21
165.758623
  0
LINE
  8
CSLAYER1
  6
CONTINUOUS
 62
     6
 10
252.692220
 20
165.758623
 11
252.850738
 21
165.865978
  0
LINE
  8
CSLAYER1
  6
CONTINUOUS
 62
     6
 10
252.850738
 20
165.865978
 11
253.002534
 21
165.975472
  0
LINE
  8
CSLAYER1
  6
CONTINUOUS
 62
     6
 10
253.002534
 20
165.975472
 11
253.145673
 21
166.088058
  0
LINE
  8
CSLAYER1
  6
CONTINUOUS
 62
     6
 10
253.145673
 20
166.088058
 11
253.278222
 21
166.204686
  0
LINE
  8
CSLAYER1
  6
CONTINUOUS
 62
     6
 10
253.278222
 20
166.204686
 11
253.381227
 21
166.307701
  0
LINE
  8
CSLAYER1
  6
CONTINUOUS
 62
     6
 10
253.381227
 20
166.307701
 11
253.482891
 21
166.421137
  0
LINE
  8
CSLAYER1
  6
CONTINUOUS
 62
     6
 10
253.482891
 20
166.421137
 11
253.582645
 21
166.543304
  0
LINE
  8
CSLAYER1
  6
CONTINUOUS
 62
     6
 10
253.582645
 20
166.543304
 11
253.679924
 21
166.672513
  0
LINE
  8
CSLAYER1
  6
CONTINUOUS
 62
     6
 10
253.679924
 20
166.672513
 11
253.774158
 21
166.807073
  0
LINE
  8
CSLAYER1
  6
CONTINUOUS
 62
     6
 10
253.774158
 20
166.807073
 11
253.864783
 21
166.945295
  0
LINE
  8
CSLAYER1
  6
CONTINUOUS
 62
     6
 10
253.864783
 20
166.945295
 11
253.951229
 21
167.085488
  0
LINE
  8
CSLAYER1
  6
CONTINUOUS
 62
     6
 10
253.951229
 20
167.085488
 11
254.032930
 21
167.225962
  0
LINE
  8
CSLAYER1
  6
CONTINUOUS
 62
     6
 10
254.032930
 20
167.225962
 11
254.109319
 21
167.365029
  0
LINE
  8
CSLAYER1
  6
CONTINUOUS
 62
     6
 10
254.109319
 20
167.365029
 11
254.179828
 21
167.500997
  0
LINE
  8
CSLAYER1
  6
CONTINUOUS
 62
     6
 10
254.179828
 20
167.500997
 11
254.285088
 21
167.716537
  0
ARC
  8
CSLAYER1
  6
CONTINUOUS
 62
     6
 10
253.358977
 20
167.160459
 40
1.080690
 50
30.945197
 51
90.945197
  0
ARC
  8
CSLAYER1
  6
CONTINUOUS
 62
     6
 10
254.624930
 20
167.991726
 40
1.095863
 50
23.568976
 51
83.568976
  0
LINE
  8
CSLAYER1
  6
CONTINUOUS
 62
     6
 10
258.528153
 20
166.109273
 11
258.657163
 21
166.266672
  0
LINE
  8
CSLAYER1
  6
CONTINUOUS
 62
     6
 10
258.657163
 20
166.266672
 11
258.778344
 21
166.414586
  0
ARC
  8
CSLAYER1
  6
CONTINUOUS
 62
     6
 10
259.824754
 20
166.925487
 40
1.164461
 50
206.024005
 51
266.024005
  0
ARC
  8
CSLAYER1
  6
CONTINUOUS
 62
     6
 10
258.697616
 20
165.252925
 40
1.164461
 50
26.024005
 51
86.024005
  0
LINE
  8
CSLAYER1
  6
CONTINUOUS
 62
     6
 10
258.528153
 20
166.109273
 11
258.393351
 21
165.943961
  0
LINE
  8
CSLAYER1
  6
CONTINUOUS
 62
     6
 10
258.393351
 20
165.943961
 11
258.254794
 21
165.772309
  0
LINE
  8
CSLAYER1
  6
CONTINUOUS
 62
     6
 10
258.254794
 20
165.772309
 11
258.114519
 21
165.595887
  0
LINE
  8
CSLAYER1
  6
CONTINUOUS
 62
     6
 10
258.114519
 20
165.595887
 11
257.974561
 21
165.416269
  0
LINE
  8
CSLAYER1
  6
CONTINUOUS
 62
     6
 10
257.974561
 20
165.416269
 11
257.836958
 21
165.235026
  0
LINE
  8
CSLAYER1
  6
CONTINUOUS
 62
     6
 10
257.836958
 20
165.235026
 11
257.703746
 21
165.053729
  0
LINE
  8
CSLAYER1
  6
CONTINUOUS
 62
     6
 10
257.703746
 20
165.053729
 11
257.576962
 21
164.873952
  0
LINE
  8
CSLAYER1
  6
CONTINUOUS
 62
     6
 10
257.576962
 20
164.873952
 11
257.458643
 21
164.697266
  0
LINE
  8
CSLAYER1
  6
CONTINUOUS
 62
     6
 10
257.458643
 20
164.697266
 11
257.350824
 21
164.525242
  0
LINE
  8
CSLAYER1
  6
CONTINUOUS
 62
     6
 10
257.350824
 20
164.525242
 11
257.253185
 21
164.361481
  0
LINE
  8
CSLAYER1
  6
CONTINUOUS
 62
     6
 10
257.253185
 20
164.361481
 11
257.153556
 21
164.192214
  0
LINE
  8
CSLAYER1
  6
CONTINUOUS
 62
     6
 10
257.153556
 20
164.192214
 11
257.051730
 21
164.018743
  0
LINE
  8
CSLAYER1
  6
CONTINUOUS
 62
     6
 10
257.051730
 20
164.018743
 11
256.947500
 21
163.842370
  0
LINE
  8
CSLAYER1
  6
CONTINUOUS
 62
     6
 10
256.947500
 20
163.842370
 11
256.840660
 21
163.664397
  0
LINE
  8
CSLAYER1
  6
CONTINUOUS
 62
     6
 10
256.840660
 20
163.664397
 11
256.731002
 21
163.486128
  0
LINE
  8
CSLAYER1
  6
CONTINUOUS
 62
     6
 10
256.731002
 20
163.486128
 11
256.618322
 21
163.308863
  0
LINE
  8
CSLAYER1
  6
CONTINUOUS
 62
     6
 10
256.618322
 20
163.308863
 11
256.502411
 21
163.133905
  0
LINE
  8
CSLAYER1
  6
CONTINUOUS
 62
     6
 10
256.502411
 20
163.133905
 11
256.383064
 21
162.962557
  0
LINE
  8
CSLAYER1
  6
CONTINUOUS
 62
     6
 10
256.383064
 20
162.962557
 11
256.260074
 21
162.796121
  0
LINE
  8
CSLAYER1
  6
CONTINUOUS
 62
     6
 10
256.260074
 20
162.796121
 11
256.133233
 21
162.635899
  0
LINE
  8
CSLAYER1
  6
CONTINUOUS
 62
     6
 10
256.133233
 20
162.635899
 11
256.034412
 21
162.519386
  0
LINE
  8
CSLAYER1
  6
CONTINUOUS
 62
     6
 10
256.034412
 20
162.519386
 11
255.932200
 21
162.405627
  0
LINE
  8
CSLAYER1
  6
CONTINUOUS
 62
     6
 10
255.932200
 20
162.405627
 11
255.826936
 21
162.294346
  0
LINE
  8
CSLAYER1
  6
CONTINUOUS
 62
     6
 10
255.826936
 20
162.294346
 11
255.718959
 21
162.185268
  0
LINE
  8
CSLAYER1
  6
CONTINUOUS
 62
     6
 10
255.718959
 20
162.185268
 11
255.608608
 21
162.078117
  0
LINE
  8
CSLAYER1
  6
CONTINUOUS
 62
     6
 10
255.608608
 20
162.078117
 11
255.496222
 21
161.972619
  0
LINE
  8
CSLAYER1
  6
CONTINUOUS
 62
     6
 10
255.496222
 20
161.972619
 11
255.382141
 21
161.868497
  0
LINE
  8
CSLAYER1
  6
CONTINUOUS
 62
     6
 10
255.382141
 20
161.868497
 11
255.266704
 21
161.765477
  0
LINE
  8
CSLAYER1
  6
CONTINUOUS
 62
     6
 10
255.266704
 20
161.765477
 11
255.150249
 21
161.663282
  0
LINE
  8
CSLAYER1
  6
CONTINUOUS
 62
     6
 10
255.150249
 20
161.663282
 11
255.054222
 21
161.579954
  0
LINE
  8
CSLAYER1
  6
CONTINUOUS
 62
     6
 10
255.054222
 20
161.579954
 11
255.123370
 21
161.545426
  0
LINE
  8
CSLAYER1
  6
CONTINUOUS
 62
     6
 10
255.123370
 20
161.545426
 11
255.207846
 21
161.497809
  0
LINE
  8
CSLAYER1
  6
CONTINUOUS
 62
     6
 10
255.207846
 20
161.497809
 11
255.293778
 21
161.444059
  0
LINE
  8
CSLAYER1
  6
CONTINUOUS
 62
     6
 10
255.293778
 20
161.444059
 11
255.379898
 21
161.384835
  0
LINE
  8
CSLAYER1
  6
CONTINUOUS
 62
     6
 10
255.379898
 20
161.384835
 11
255.464933
 21
161.320797
  0
LINE
  8
CSLAYER1
  6
CONTINUOUS
 62
     6
 10
255.464933
 20
161.320797
 11
255.547616
 21
161.252606
  0
LINE
  8
CSLAYER1
  6
CONTINUOUS
 62
     6
 10
255.547616
 20
161.252606
 11
255.626675
 21
161.180923
  0
LINE
  8
CSLAYER1
  6
CONTINUOUS
 62
     6
 10
255.626675
 20
161.180923
 11
255.700841
 21
161.106407
  0
LINE
  8
CSLAYER1
  6
CONTINUOUS
 62
     6
 10
255.700841
 20
161.106407
 11
255.768844
 21
161.029720
  0
LINE
  8
CSLAYER1
  6
CONTINUOUS
 62
     6
 10
255.768844
 20
161.029720
 11
255.829414
 21
160.951521
  0
LINE
  8
CSLAYER1
  6
CONTINUOUS
 62
     6
 10
255.829414
 20
160.951521
 11
255.881280
 21
160.872471
  0
LINE
  8
CSLAYER1
  6
CONTINUOUS
 62
     6
 10
255.881280
 20
160.872471
 11
255.897187
 21
160.844865
  0
LINE
  8
CSLAYER1
  6
CONTINUOUS
 62
     6
 10
255.897187
 20
160.844865
 11
255.912840
 21
160.816171
  0
LINE
  8
CSLAYER1
  6
CONTINUOUS
 62
     6
 10
255.912840
 20
160.816171
 11
255.928282
 21
160.786558
  0
LINE
  8
CSLAYER1
  6
CONTINUOUS
 62
     6
 10
255.928282
 20
160.786558
 11
255.943555
 21
160.756192
  0
LINE
  8
CSLAYER1
  6
CONTINUOUS
 62
     6
 10
255.943555
 20
160.756192
 11
255.958701
 21
160.725240
  0
LINE
  8
CSLAYER1
  6
CONTINUOUS
 62
     6
 10
255.958701
 20
160.725240
 11
255.973761
 21
160.693870
  0
LINE
  8
CSLAYER1
  6
CONTINUOUS
 62
     6
 10
255.973761
 20
160.693870
 11
255.988778
 21
160.662248
  0
LINE
  8
CSLAYER1
  6
CONTINUOUS
 62
     6
 10
255.988778
 20
160.662248
 11
256.003793
 21
160.630543
  0
LINE
  8
CSLAYER1
  6
CONTINUOUS
 62
     6
 10
256.003793
 20
160.630543
 11
256.018849
 21
160.598921
  0
LINE
  8
CSLAYER1
  6
CONTINUOUS
 62
     6
 10
256.018849
 20
160.598921
 11
256.033987
 21
160.567549
  0
LINE
  8
CSLAYER1
  6
CONTINUOUS
 62
     6
 10
256.033987
 20
160.567549
 11
256.049249
 21
160.536595
  0
LINE
  8
CSLAYER1
  6
CONTINUOUS
 62
     6
 10
256.049249
 20
160.536595
 11
256.090070
 21
160.458458
  0
LINE
  8
CSLAYER1
  6
CONTINUOUS
 62
     6
 10
256.090070
 20
160.458458
 11
256.133406
 21
160.381926
  0
LINE
  8
CSLAYER1
  6
CONTINUOUS
 62
     6
 10
256.133406
 20
160.381926
 11
256.179004
 21
160.306837
  0
LINE
  8
CSLAYER1
  6
CONTINUOUS
 62
     6
 10
256.179004
 20
160.306837
 11
256.226614
 21
160.233033
  0
LINE
  8
CSLAYER1
  6
CONTINUOUS
 62
     6
 10
256.226614
 20
160.233033
 11
256.275984
 21
160.160351
  0
LINE
  8
CSLAYER1
  6
CONTINUOUS
 62
     6
 10
256.275984
 20
160.160351
 11
256.326863
 21
160.088633
  0
LINE
  8
CSLAYER1
  6
CONTINUOUS
 62
     6
 10
256.326863
 20
160.088633
 11
256.378999
 21
160.017716
  0
LINE
  8
CSLAYER1
  6
CONTINUOUS
 62
     6
 10
256.378999
 20
160.017716
 11
256.432141
 21
159.947442
  0
LINE
  8
CSLAYER1
  6
CONTINUOUS
 62
     6
 10
256.432141
 20
159.947442
 11
256.486037
 21
159.877649
  0
LINE
  8
CSLAYER1
  6
CONTINUOUS
 62
     6
 10
256.486037
 20
159.877649
 11
256.540436
 21
159.808177
  0
LINE
  8
CSLAYER1
  6
CONTINUOUS
 62
     6
 10
256.540436
 20
159.808177
 11
256.592509
 21
159.742134
  0
LINE
  8
CSLAYER1
  6
CONTINUOUS
 62
     6
 10
256.592509
 20
159.742134
 11
256.719856
 21
159.851435
  0
LINE
  8
CSLAYER1
  6
CONTINUOUS
 62
     6
 10
256.719856
 20
159.851435
 11
256.856571
 21
159.969468
  0
LINE
  8
CSLAYER1
  6
CONTINUOUS
 62
     6
 10
256.856571
 20
159.969468
 11
256.992459
 21
160.088172
  0
LINE
  8
CSLAYER1
  6
CONTINUOUS
 62
     6
 10
256.992459
 20
160.088172
 11
257.127105
 21
160.207883
  0
LINE
  8
CSLAYER1
  6
CONTINUOUS
 62
     6
 10
257.127105
 20
160.207883
 11
257.260096
 21
160.328938
  0
LINE
  8
CSLAYER1
  6
CONTINUOUS
 62
     6
 10
257.260096
 20
160.328938
 11
257.391019
 21
160.451671
  0
LINE
  8
CSLAYER1
  6
CONTINUOUS
 62
     6
 10
257.391019
 20
160.451671
 11
257.519459
 21
160.576419
  0
LINE
  8
CSLAYER1
  6
CONTINUOUS
 62
     6
 10
257.519459
 20
160.576419
 11
257.645002
 21
160.703517
  0
LINE
  8
CSLAYER1
  6
CONTINUOUS
 62
     6
 10
257.645002
 20
160.703517
 11
257.767235
 21
160.833300
  0
LINE
  8
CSLAYER1
  6
CONTINUOUS
 62
     6
 10
257.767235
 20
160.833300
 11
257.885745
 21
160.966106
  0
LINE
  8
CSLAYER1
  6
CONTINUOUS
 62
     6
 10
257.885745
 20
160.966106
 11
258.000116
 21
161.102269
  0
LINE
  8
CSLAYER1
  6
CONTINUOUS
 62
     6
 10
258.000116
 20
161.102269
 11
258.136612
 21
161.276495
  0
LINE
  8
CSLAYER1
  6
CONTINUOUS
 62
     6
 10
258.136612
 20
161.276495
 11
258.268955
 21
161.457171
  0
LINE
  8
CSLAYER1
  6
CONTINUOUS
 62
     6
 10
258.268955
 20
161.457171
 11
258.397427
 21
161.642941
  0
LINE
  8
CSLAYER1
  6
CONTINUOUS
 62
     6
 10
258.397427
 20
161.642941
 11
258.522308
 21
161.832449
  0
LINE
  8
CSLAYER1
  6
CONTINUOUS
 62
     6
 10
258.522308
 20
161.832449
 11
258.643880
 21
162.024337
  0
LINE
  8
CSLAYER1
  6
CONTINUOUS
 62
     6
 10
258.643880
 20
162.024337
 11
258.762425
 21
162.217250
  0
LINE
  8
CSLAYER1
  6
CONTINUOUS
 62
     6
 10
258.762425
 20
162.217250
 11
258.878223
 21
162.409830
  0
LINE
  8
CSLAYER1
  6
CONTINUOUS
 62
     6
 10
258.878223
 20
162.409830
 11
258.991555
 21
162.600721
  0
LINE
  8
CSLAYER1
  6
CONTINUOUS
 62
     6
 10
258.991555
 20
162.600721
 11
259.102704
 21
162.788566
  0
LINE
  8
CSLAYER1
  6
CONTINUOUS
 62
     6
 10
259.102704
 20
162.788566
 11
259.211950
 21
162.972009
  0
LINE
  8
CSLAYER1
  6
CONTINUOUS
 62
     6
 10
259.211950
 20
162.972009
 11
259.319574
 21
163.149693
  0
LINE
  8
CSLAYER1
  6
CONTINUOUS
 62
     6
 10
259.319574
 20
163.149693
 11
259.424900
 21
163.315380
  0
LINE
  8
CSLAYER1
  6
CONTINUOUS
 62
     6
 10
259.424900
 20
163.315380
 11
259.539629
 21
163.485269
  0
LINE
  8
CSLAYER1
  6
CONTINUOUS
 62
     6
 10
259.539629
 20
163.485269
 11
259.661929
 21
163.657932
  0
LINE
  8
CSLAYER1
  6
CONTINUOUS
 62
     6
 10
259.661929
 20
163.657932
 11
259.789971
 21
163.831942
  0
LINE
  8
CSLAYER1
  6
CONTINUOUS
 62
     6
 10
259.789971
 20
163.831942
 11
259.921923
 21
164.005872
  0
LINE
  8
CSLAYER1
  6
CONTINUOUS
 62
     6
 10
259.921923
 20
164.005872
 11
260.055955
 21
164.178293
  0
LINE
  8
CSLAYER1
  6
CONTINUOUS
 62
     6
 10
260.055955
 20
164.178293
 11
260.190236
 21
164.347778
  0
LINE
  8
CSLAYER1
  6
CONTINUOUS
 62
     6
 10
260.190236
 20
164.347778
 11
260.322935
 21
164.512900
  0
LINE
  8
CSLAYER1
  6
CONTINUOUS
 62
     6
 10
260.322935
 20
164.512900
 11
260.452221
 21
164.672230
  0
LINE
  8
CSLAYER1
  6
CONTINUOUS
 62
     6
 10
260.452221
 20
164.672230
 11
260.576263
 21
164.824342
  0
LINE
  8
CSLAYER1
  6
CONTINUOUS
 62
     6
 10
260.576263
 20
164.824342
 11
260.745520
 21
165.031943
  0
ARC
  8
CSLAYER1
  6
CONTINUOUS
 62
     6
 10
259.663270
 20
164.602171
 40
1.164461
 50
21.658505
 51
86.024005
  0
ARC
  8
CSLAYER1
  6
CONTINUOUS
 62
     6
 10
260.587785
 20
166.008531
 40
1.200008
 50
30.461486
 51
90.461486
  0
LINE
  8
CSLAYER1
  6
CONTINUOUS
 62
     6
 10
255.819271
 20
160.964616
 11
253.376275
 21
158.569981
  0
LINE
  8
CSLAYER1
  6
CONTINUOUS
 62
     6
 10
252.761926
 20
158.782628
 11
255.507773
 21
161.285466
  0
LINE
  8
CSLAYER1
  6
CONTINUOUS
 62
     6
 10
256.099741
 20
160.441379
 11
253.848810
 21
158.002873
  0
LINE
  8
CSLAYER1
  6
CONTINUOUS
 62
     6
 10
247.421930
 20
160.861912
 11
249.648052
 21
163.838150
  0
LINE
  8
CSLAYER1
  6
CONTINUOUS
 62
     6
 10
249.082219
 20
163.984742
 11
246.736688
 21
161.310856
  0
LINE
  8
CSLAYER1
  6
CONTINUOUS
 62
     6
 10
246.193231
 20
161.830662
 11
248.665001
 21
164.232470
  0
LINE
  8
CSLAYER1
  6
CONTINUOUS
 62
     6
 10
233.482896
 20
158.742722
 11
231.553753
 21
157.739988
  0
ARC
  8
CSLAYER1
  6
CONTINUOUS
 62
     6
 10
245.372671
 20
164.922609
 40
15.574134
 50
201.503298
 51
207.463892
  0
ARC
  8
CSLAYER1
  6
CONTINUOUS
 62
     6
 10
216.398652
 20
164.938252
 40
15.574134
 50
332.536225
 51
359.942687
  0
ARC
  8
CSLAYER1
  6
CONTINUOUS
 62
     6
 10
245.372671
 20
164.922609
 40
13.399933
 50
179.999963
 51
207.463892
  0
LINE
  8
CSLAYER1
  6
CONTINUOUS
 62
     6
 10
232.832999
 20
158.404931
 11
234.431211
 21
155.501308
  0
LINE
  8
CSLAYER1
  6
CONTINUOUS
 62
     6
 10
233.908118
 20
156.169897
 11
232.349810
 21
158.153775
  0
LINE
  8
CSLAYER1
  6
CONTINUOUS
 62
     6
 10
231.956338
 20
157.949301
 11
233.341410
 21
155.893818
  0
LINE
  8
CSLAYER1
  6
CONTINUOUS
 62
     6
 10
230.217569
 20
157.755664
 11
228.288427
 21
158.758399
  0
ARC
  8
CSLAYER1
  6
CONTINUOUS
 62
     6
 10
216.398652
 20
164.938252
 40
13.399933
 50
332.536225
 51
359.942687
  0
LINE
  8
CSLAYER1
  6
CONTINUOUS
 62
     6
 10
229.798578
 20
164.938252
 11
229.798578
 21
166.196568
  0
ARC
  8
CSLAYER1
  6
CONTINUOUS
 62
     6
 10
230.342113
 20
165.255102
 40
1.087108
 50
60.000362
 51
120.000362
  0
ARC
  8
CSLAYER1
  6
CONTINUOUS
 62
     6
 10
231.429221
 20
165.255108
 40
1.087108
 50
60.000362
 51
120.000362
  0
LINE
  8
CSLAYER1
  6
CONTINUOUS
 62
     6
 10
231.972811
 20
166.196568
 11
231.972811
 21
164.938252
  0
ARC
  8
CSLAYER1
  6
CONTINUOUS
 62
     6
 10
230.342101
 20
167.138027
 40
1.087108
 50
240.000362
 51
300.000362
  0
ARC
  8
CSLAYER1
  6
CONTINUOUS
 62
     6
 10
230.342138
 20
168.757808
 40
1.087115
 50
239.999981
 51
299.999981
  0
ARC
  8
CSLAYER1
  6
CONTINUOUS
 62
     6
 10
231.429253
 20
168.757808
 40
1.087115
 50
239.999981
 51
299.999981
  0
ARC
  8
CSLAYER1
  6
CONTINUOUS
 62
     6
 10
231.429252
 20
166.874869
 40
1.087115
 50
59.999981
 51
119.999981
  0
LINE
  8
CSLAYER1
  6
CONTINUOUS
 62
     6
 10
231.972811
 20
167.816356
 11
231.972811
 21
175.159123
  0
LINE
  8
CSLAYER1
  6
CONTINUOUS
 62
     6
 10
229.798578
 20
175.159123
 11
229.798578
 21
167.816356
  0
LINE
  8
CSLAYER1
  6
CONTINUOUS
 62
     6
 10
227.175661
 20
175.159123
 11
227.175661
 21
176.159123
  0
LINE
  8
CSLAYER1
  6
CONTINUOUS
 62
     6
 10
227.175661
 20
175.159123
 11
234.595661
 21
175.159123
  0
LINE
  8
CSLAYER1
  6
CONTINUOUS
 62
     6
 10
234.595661
 20
175.159123
 11
234.595661
 21
176.159123
  0
LINE
  8
CSLAYER1
  6
CONTINUOUS
 62
     6
 10
228.938324
 20
158.420608
 11
227.340113
 21
155.516935
  0
LINE
  8
CSLAYER1
  6
CONTINUOUS
 62
     6
 10
227.863206
 20
156.185542
 11
229.421512
 21
158.169418
  0
LINE
  8
CSLAYER1
  6
CONTINUOUS
 62
     6
 10
229.814984
 20
157.964894
 11
228.429914
 21
155.909495
  0
LINE
  8
CSLAYER1
  6
CONTINUOUS
 62
     6
 10
251.885661
 20
131.159123
 11
191.885661
 21
131.159123
  0
LINE
  8
CSLAYER1
  6
CONTINUOUS
 62
     6
 10
191.885661
 20
131.159123
 11
191.885661
 21
41.159123
  0
LINE
  8
CSLAYER1
  6
CONTINUOUS
 62
     6
 10
191.885661
 20
41.159123
 11
251.885661
 21
41.159123
  0
LINE
  8
CSLAYER1
  6
CONTINUOUS
 62
     6
 10
251.885661
 20
41.159123
 11
251.885661
 21
83.099655
  0
ARC
  8
CSLAYER1
  6
CONTINUOUS
 62
     6
 10
252.903933
 20
84.142101
 40
1.500006
 50
183.178280
 51
243.178280
  0
LINE
  8
CSLAYER1
  6
CONTINUOUS
 62
     6
 10
251.406200
 20
84.058991
 11
251.551626
 21
84.161930
  0
LINE
  8
CSLAYER1
  6
CONTINUOUS
 62
     6
 10
251.551626
 20
84.161930
 11
251.697221
 21
84.264587
  0
LINE
  8
CSLAYER1
  6
CONTINUOUS
 62
     6
 10
251.697221
 20
84.264587
 11
251.843154
 21
84.366678
  0
LINE
  8
CSLAYER1
  6
CONTINUOUS
 62
     6
 10
251.843154
 20
84.366678
 11
251.989594
 21
84.467921
  0
LINE
  8
CSLAYER1
  6
CONTINUOUS
 62
     6
 10
251.989594
 20
84.467921
 11
252.136709
 21
84.568034
  0
LINE
  8
CSLAYER1
  6
CONTINUOUS
 62
     6
 10
252.136709
 20
84.568034
 11
252.284669
 21
84.666734
  0
LINE
  8
CSLAYER1
  6
CONTINUOUS
 62
     6
 10
252.284669
 20
84.666734
 11
252.433642
 21
84.763737
  0
LINE
  8
CSLAYER1
  6
CONTINUOUS
 62
     6
 10
252.433642
 20
84.763737
 11
252.583798
 21
84.858763
  0
LINE
  8
CSLAYER1
  6
CONTINUOUS
 62
     6
 10
252.583798
 20
84.858763
 11
252.735304
 21
84.951527
  0
LINE
  8
CSLAYER1
  6
CONTINUOUS
 62
     6
 10
252.735304
 20
84.951527
 11
252.888331
 21
85.041748
  0
LINE
  8
CSLAYER1
  6
CONTINUOUS
 62
     6
 10
252.888331
 20
85.041748
 11
253.043047
 21
85.129143
  0
LINE
  8
CSLAYER1
  6
CONTINUOUS
 62
     6
 10
253.043047
 20
85.129143
 11
253.259538
 21
85.244974
  0
LINE
  8
CSLAYER1
  6
CONTINUOUS
 62
     6
 10
253.259538
 20
85.244974
 11
253.481533
 21
85.356514
  0
LINE
  8
CSLAYER1
  6
CONTINUOUS
 62
     6
 10
253.481533
 20
85.356514
 11
253.707992
 21
85.463157
  0
LINE
  8
CSLAYER1
  6
CONTINUOUS
 62
     6
 10
253.707992
 20
85.463157
 11
253.937872
 21
85.564294
  0
LINE
  8
CSLAYER1
  6
CONTINUOUS
 62
     6
 10
253.937872
 20
85.564294
 11
254.170132
 21
85.659319
  0
LINE
  8
CSLAYER1
  6
CONTINUOUS
 62
     6
 10
254.170132
 20
85.659319
 11
254.403731
 21
85.747624
  0
LINE
  8
CSLAYER1
  6
CONTINUOUS
 62
     6
 10
254.403731
 20
85.747624
 11
254.637627
 21
85.828603
  0
LINE
  8
CSLAYER1
  6
CONTINUOUS
 62
     6
 10
254.637627
 20
85.828603
 11
254.870779
 21
85.901648
  0
LINE
  8
CSLAYER1
  6
CONTINUOUS
 62
     6
 10
254.870779
 20
85.901648
 11
255.102146
 21
85.966152
  0
LINE
  8
CSLAYER1
  6
CONTINUOUS
 62
     6
 10
255.102146
 20
85.966152
 11
255.330685
 21
86.021509
  0
LINE
  8
CSLAYER1
  6
CONTINUOUS
 62
     6
 10
255.330685
 20
86.021509
 11
255.555356
 21
86.067111
  0
LINE
  8
CSLAYER1
  6
CONTINUOUS
 62
     6
 10
255.555356
 20
86.067111
 11
255.799599
 21
86.110116
  0
LINE
  8
CSLAYER1
  6
CONTINUOUS
 62
     6
 10
255.799599
 20
86.110116
 11
256.052644
 21
86.151351
  0
LINE
  8
CSLAYER1
  6
CONTINUOUS
 62
     6
 10
256.052644
 20
86.151351
 11
256.312704
 21
86.189927
  0
LINE
  8
CSLAYER1
  6
CONTINUOUS
 62
     6
 10
256.312704
 20
86.189927
 11
256.577993
 21
86.224952
  0
LINE
  8
CSLAYER1
  6
CONTINUOUS
 62
     6
 10
256.577993
 20
86.224952
 11
256.846721
 21
86.255536
  0
LINE
  8
CSLAYER1
  6
CONTINUOUS
 62
     6
 10
256.846721
 20
86.255536
 11
257.117101
 21
86.280789
  0
LINE
  8
CSLAYER1
  6
CONTINUOUS
 62
     6
 10
257.117101
 20
86.280789
 11
257.387346
 21
86.299820
  0
LINE
  8
CSLAYER1
  6
CONTINUOUS
 62
     6
 10
257.387346
 20
86.299820
 11
257.655668
 21
86.311739
  0
LINE
  8
CSLAYER1
  6
CONTINUOUS
 62
     6
 10
257.655668
 20
86.311739
 11
257.920280
 21
86.315656
  0
LINE
  8
CSLAYER1
  6
CONTINUOUS
 62
     6
 10
257.920280
 20
86.315656
 11
258.179393
 21
86.310679
  0
LINE
  8
CSLAYER1
  6
CONTINUOUS
 62
     6
 10
258.179393
 20
86.310679
 11
258.431221
 21
86.295919
  0
LINE
  8
CSLAYER1
  6
CONTINUOUS
 62
     6
 10
258.431221
 20
86.295919
 11
258.620366
 21
86.280647
  0
LINE
  8
CSLAYER1
  6
CONTINUOUS
 62
     6
 10
258.620366
 20
86.280647
 11
258.814106
 21
86.264821
  0
LINE
  8
CSLAYER1
  6
CONTINUOUS
 62
     6
 10
258.814106
 20
86.264821
 11
259.011408
 21
86.248354
  0
LINE
  8
CSLAYER1
  6
CONTINUOUS
 62
     6
 10
259.011408
 20
86.248354
 11
259.211237
 21
86.231153
  0
LINE
  8
CSLAYER1
  6
CONTINUOUS
 62
     6
 10
259.211237
 20
86.231153
 11
259.412558
 21
86.213129
  0
LINE
  8
CSLAYER1
  6
CONTINUOUS
 62
     6
 10
259.412558
 20
86.213129
 11
259.614336
 21
86.194192
  0
LINE
  8
CSLAYER1
  6
CONTINUOUS
 62
     6
 10
259.614336
 20
86.194192
 11
259.815538
 21
86.174252
  0
LINE
  8
CSLAYER1
  6
CONTINUOUS
 62
     6
 10
259.815538
 20
86.174252
 11
260.015128
 21
86.153219
  0
LINE
  8
CSLAYER1
  6
CONTINUOUS
 62
     6
 10
260.015128
 20
86.153219
 11
260.212072
 21
86.131002
  0
LINE
  8
CSLAYER1
  6
CONTINUOUS
 62
     6
 10
260.212072
 20
86.131002
 11
260.405336
 21
86.107511
  0
LINE
  8
CSLAYER1
  6
CONTINUOUS
 62
     6
 10
260.405336
 20
86.107511
 11
260.593885
 21
86.082657
  0
LINE
  8
CSLAYER1
  6
CONTINUOUS
 62
     6
 10
260.593885
 20
86.082657
 11
260.742505
 21
86.063006
  0
LINE
  8
CSLAYER1
  6
CONTINUOUS
 62
     6
 10
260.742505
 20
86.063006
 11
260.895223
 21
86.044390
  0
LINE
  8
CSLAYER1
  6
CONTINUOUS
 62
     6
 10
260.895223
 20
86.044390
 11
261.051097
 21
86.026953
  0
LINE
  8
CSLAYER1
  6
CONTINUOUS
 62
     6
 10
261.051097
 20
86.026953
 11
261.209185
 21
86.010841
  0
LINE
  8
CSLAYER1
  6
CONTINUOUS
 62
     6
 10
261.209185
 20
86.010841
 11
261.368547
 21
85.996199
  0
LINE
  8
CSLAYER1
  6
CONTINUOUS
 62
     6
 10
261.368547
 20
85.996199
 11
261.528242
 21
85.983171
  0
LINE
  8
CSLAYER1
  6
CONTINUOUS
 62
     6
 10
261.528242
 20
85.983171
 11
261.687328
 21
85.971903
  0
LINE
  8
CSLAYER1
  6
CONTINUOUS
 62
     6
 10
261.687328
 20
85.971903
 11
261.844864
 21
85.962540
  0
LINE
  8
CSLAYER1
  6
CONTINUOUS
 62
     6
 10
261.844864
 20
85.962540
 11
261.999910
 21
85.955227
  0
LINE
  8
CSLAYER1
  6
CONTINUOUS
 62
     6
 10
261.999910
 20
85.955227
 11
262.151523
 21
85.950109
  0
LINE
  8
CSLAYER1
  6
CONTINUOUS
 62
     6
 10
262.151523
 20
85.950109
 11
262.298764
 21
85.947331
  0
LINE
  8
CSLAYER1
  6
CONTINUOUS
 62
     6
 10
262.298764
 20
85.947331
 11
262.442738
 21
85.946738
  0
LINE
  8
CSLAYER1
  6
CONTINUOUS
 62
     6
 10
262.442738
 20
85.946738
 11
262.592723
 21
85.947934
  0
LINE
  8
CSLAYER1
  6
CONTINUOUS
 62
     6
 10
262.592723
 20
85.947934
 11
262.747165
 21
85.950840
  0
LINE
  8
CSLAYER1
  6
CONTINUOUS
 62
     6
 10
262.747165
 20
85.950840
 11
262.904506
 21
85.955376
  0
LINE
  8
CSLAYER1
  6
CONTINUOUS
 62
     6
 10
262.904506
 20
85.955376
 11
263.063192
 21
85.961463
  0
LINE
  8
CSLAYER1
  6
CONTINUOUS
 62
     6
 10
263.063192
 20
85.961463
 11
263.221667
 21
85.969021
  0
LINE
  8
CSLAYER1
  6
CONTINUOUS
 62
     6
 10
263.221667
 20
85.969021
 11
263.378376
 21
85.977970
  0
LINE
  8
CSLAYER1
  6
CONTINUOUS
 62
     6
 10
263.378376
 20
85.977970
 11
263.531763
 21
85.988230
  0
LINE
  8
CSLAYER1
  6
CONTINUOUS
 62
     6
 10
263.531763
 20
85.988230
 11
263.680273
 21
85.999724
  0
LINE
  8
CSLAYER1
  6
CONTINUOUS
 62
     6
 10
263.680273
 20
85.999724
 11
263.822350
 21
86.012369
  0
LINE
  8
CSLAYER1
  6
CONTINUOUS
 62
     6
 10
263.822350
 20
86.012369
 11
263.956439
 21
86.026088
  0
ARC
  8
CSLAYER1
  6
CONTINUOUS
 62
     6
 10
264.063157
 20
84.528665
 40
1.500000
 50
-88.640300
 51
91.359720
  0
LINE
  8
CSLAYER1
  6
CONTINUOUS
 62
     6
 10
264.098778
 20
83.029473
 11
263.949098
 21
83.014235
  0
LINE
  8
CSLAYER1
  6
CONTINUOUS
 62
     6
 10
263.949098
 20
83.014235
 11
263.790377
 21
83.000201
  0
LINE
  8
CSLAYER1
  6
CONTINUOUS
 62
     6
 10
263.790377
 20
83.000201
 11
263.624409
 21
82.987453
  0
LINE
  8
CSLAYER1
  6
CONTINUOUS
 62
     6
 10
263.624409
 20
82.987453
 11
263.452986
 21
82.976075
  0
LINE
  8
CSLAYER1
  6
CONTINUOUS
 62
     6
 10
263.452986
 20
82.976075
 11
263.277903
 21
82.966149
  0
LINE
  8
CSLAYER1
  6
CONTINUOUS
 62
     6
 10
263.277903
 20
82.966149
 11
263.100952
 21
82.957759
  0
LINE
  8
CSLAYER1
  6
CONTINUOUS
 62
     6
 10
263.100952
 20
82.957759
 11
262.923927
 21
82.950987
  0
LINE
  8
CSLAYER1
  6
CONTINUOUS
 62
     6
 10
262.923927
 20
82.950987
 11
262.748622
 21
82.945917
  0
LINE
  8
CSLAYER1
  6
CONTINUOUS
 62
     6
 10
262.748622
 20
82.945917
 11
262.576830
 21
82.942632
  0
LINE
  8
CSLAYER1
  6
CONTINUOUS
 62
     6
 10
262.576830
 20
82.942632
 11
262.410343
 21
82.941215
  0
LINE
  8
CSLAYER1
  6
CONTINUOUS
 62
     6
 10
262.410343
 20
82.941215
 11
262.250956
 21
82.941748
  0
LINE
  8
CSLAYER1
  6
CONTINUOUS
 62
     6
 10
262.250956
 20
82.941748
 11
262.085810
 21
82.944683
  0
LINE
  8
CSLAYER1
  6
CONTINUOUS
 62
     6
 10
262.085810
 20
82.944683
 11
261.915004
 21
82.950198
  0
LINE
  8
CSLAYER1
  6
CONTINUOUS
 62
     6
 10
261.915004
 20
82.950198
 11
261.739780
 21
82.958161
  0
LINE
  8
CSLAYER1
  6
CONTINUOUS
 62
     6
 10
261.739780
 20
82.958161
 11
261.561376
 21
82.968443
  0
LINE
  8
CSLAYER1
  6
CONTINUOUS
 62
     6
 10
261.561376
 20
82.968443
 11
261.381033
 21
82.980913
  0
LINE
  8
CSLAYER1
  6
CONTINUOUS
 62
     6
 10
261.381033
 20
82.980913
 11
261.199990
 21
82.995441
  0
LINE
  8
CSLAYER1
  6
CONTINUOUS
 62
     6
 10
261.199990
 20
82.995441
 11
261.019489
 21
83.011896
  0
LINE
  8
CSLAYER1
  6
CONTINUOUS
 62
     6
 10
261.019489
 20
83.011896
 11
260.840767
 21
83.030149
  0
LINE
  8
CSLAYER1
  6
CONTINUOUS
 62
     6
 10
260.840767
 20
83.030149
 11
260.665067
 21
83.050068
  0
LINE
  8
CSLAYER1
  6
CONTINUOUS
 62
     6
 10
260.665067
 20
83.050068
 11
260.493627
 21
83.071524
  0
LINE
  8
CSLAYER1
  6
CONTINUOUS
 62
     6
 10
260.493627
 20
83.071524
 11
260.327688
 21
83.094387
  0
LINE
  8
CSLAYER1
  6
CONTINUOUS
 62
     6
 10
260.327688
 20
83.094387
 11
260.161604
 21
83.117193
  0
LINE
  8
CSLAYER1
  6
CONTINUOUS
 62
     6
 10
260.161604
 20
83.117193
 11
259.990474
 21
83.138528
  0
LINE
  8
CSLAYER1
  6
CONTINUOUS
 62
     6
 10
259.990474
 20
83.138528
 11
259.815385
 21
83.158511
  0
LINE
  8
CSLAYER1
  6
CONTINUOUS
 62
     6
 10
259.815385
 20
83.158511
 11
259.637425
 21
83.177263
  0
LINE
  8
CSLAYER1
  6
CONTINUOUS
 62
     6
 10
259.637425
 20
83.177263
 11
259.457683
 21
83.194902
  0
LINE
  8
CSLAYER1
  6
CONTINUOUS
 62
     6
 10
259.457683
 20
83.194902
 11
259.277245
 21
83.211551
  0
LINE
  8
CSLAYER1
  6
CONTINUOUS
 62
     6
 10
259.277245
 20
83.211551
 11
259.097199
 21
83.227328
  0
LINE
  8
CSLAYER1
  6
CONTINUOUS
 62
     6
 10
259.097199
 20
83.227328
 11
258.918634
 21
83.242353
  0
LINE
  8
CSLAYER1
  6
CONTINUOUS
 62
     6
 10
258.918634
 20
83.242353
 11
258.742637
 21
83.256748
  0
LINE
  8
CSLAYER1
  6
CONTINUOUS
 62
     6
 10
258.742637
 20
83.256748
 11
258.570296
 21
83.270631
  0
LINE
  8
CSLAYER1
  6
CONTINUOUS
 62
     6
 10
258.570296
 20
83.270631
 11
258.402698
 21
83.284124
  0
LINE
  8
CSLAYER1
  6
CONTINUOUS
 62
     6
 10
258.402698
 20
83.284124
 11
258.211907
 21
83.295394
  0
LINE
  8
CSLAYER1
  6
CONTINUOUS
 62
     6
 10
258.211907
 20
83.295394
 11
258.015167
 21
83.299318
  0
LINE
  8
CSLAYER1
  6
CONTINUOUS
 62
     6
 10
258.015167
 20
83.299318
 11
257.813900
 21
83.296539
  0
LINE
  8
CSLAYER1
  6
CONTINUOUS
 62
     6
 10
257.813900
 20
83.296539
 11
257.609530
 21
83.287696
  0
LINE
  8
CSLAYER1
  6
CONTINUOUS
 62
     6
 10
257.609530
 20
83.287696
 11
257.403479
 21
83.273431
  0
LINE
  8
CSLAYER1
  6
CONTINUOUS
 62
     6
 10
257.403479
 20
83.273431
 11
257.197170
 21
83.254383
  0
LINE
  8
CSLAYER1
  6
CONTINUOUS
 62
     6
 10
257.197170
 20
83.254383
 11
256.992026
 21
83.231195
  0
LINE
  8
CSLAYER1
  6
CONTINUOUS
 62
     6
 10
256.992026
 20
83.231195
 11
256.789470
 21
83.204506
  0
LINE
  8
CSLAYER1
  6
CONTINUOUS
 62
     6
 10
256.789470
 20
83.204506
 11
256.590926
 21
83.174957
  0
LINE
  8
CSLAYER1
  6
CONTINUOUS
 62
     6
 10
256.590926
 20
83.174957
 11
256.397814
 21
83.143190
  0
LINE
  8
CSLAYER1
  6
CONTINUOUS
 62
     6
 10
256.397814
 20
83.143190
 11
256.211560
 21
83.109844
  0
LINE
  8
CSLAYER1
  6
CONTINUOUS
 62
     6
 10
256.211560
 20
83.109844
 11
256.050029
 21
83.076469
  0
LINE
  8
CSLAYER1
  6
CONTINUOUS
 62
     6
 10
256.050029
 20
83.076469
 11
255.885809
 21
83.036150
  0
LINE
  8
CSLAYER1
  6
CONTINUOUS
 62
     6
 10
255.885809
 20
83.036150
 11
255.719619
 21
82.989342
  0
LINE
  8
CSLAYER1
  6
CONTINUOUS
 62
     6
 10
255.719619
 20
82.989342
 11
255.552177
 21
82.936495
  0
LINE
  8
CSLAYER1
  6
CONTINUOUS
 62
     6
 10
255.552177
 20
82.936495
 11
255.384201
 21
82.878062
  0
LINE
  8
CSLAYER1
  6
CONTINUOUS
 62
     6
 10
255.384201
 20
82.878062
 11
255.216409
 21
82.814495
  0
LINE
  8
CSLAYER1
  6
CONTINUOUS
 62
     6
 10
255.216409
 20
82.814495
 11
255.049519
 21
82.746246
  0
LINE
  8
CSLAYER1
  6
CONTINUOUS
 62
     6
 10
255.049519
 20
82.746246
 11
254.884250
 21
82.673767
  0
LINE
  8
CSLAYER1
  6
CONTINUOUS
 62
     6
 10
254.884250
 20
82.673767
 11
254.721321
 21
82.597510
  0
LINE
  8
CSLAYER1
  6
CONTINUOUS
 62
     6
 10
254.721321
 20
82.597510
 11
254.561448
 21
82.517929
  0
LINE
  8
CSLAYER1
  6
CONTINUOUS
 62
     6
 10
254.561448
 20
82.517929
 11
254.405351
 21
82.435474
  0
LINE
  8
CSLAYER1
  6
CONTINUOUS
 62
     6
 10
254.405351
 20
82.435474
 11
254.276646
 21
82.363681
  0
LINE
  8
CSLAYER1
  6
CONTINUOUS
 62
     6
 10
254.276646
 20
82.363681
 11
254.149457
 21
82.289351
  0
LINE
  8
CSLAYER1
  6
CONTINUOUS
 62
     6
 10
254.149457
 20
82.289351
 11
254.023631
 21
82.212737
  0
LINE
  8
CSLAYER1
  6
CONTINUOUS
 62
     6
 10
254.023631
 20
82.212737
 11
253.899018
 21
82.134094
  0
LINE
  8
CSLAYER1
  6
CONTINUOUS
 62
     6
 10
253.899018
 20
82.134094
 11
253.775466
 21
82.053674
  0
LINE
  8
CSLAYER1
  6
CONTINUOUS
 62
     6
 10
253.775466
 20
82.053674
 11
253.652823
 21
81.971731
  0
LINE
  8
CSLAYER1
  6
CONTINUOUS
 62
     6
 10
253.652823
 20
81.971731
 11
253.530937
 21
81.888520
  0
LINE
  8
CSLAYER1
  6
CONTINUOUS
 62
     6
 10
253.530937
 20
81.888520
 11
253.409658
 21
81.804294
  0
LINE
  8
CSLAYER1
  6
CONTINUOUS
 62
     6
 10
253.409658
 20
81.804294
 11
253.288833
 21
81.719307
  0
LINE
  8
CSLAYER1
  6
CONTINUOUS
 62
     6
 10
253.288833
 20
81.719307
 11
253.168312
 21
81.633812
  0
LINE
  8
CSLAYER1
  6
CONTINUOUS
 62
     6
 10
253.168312
 20
81.633812
 11
253.047942
 21
81.548063
  0
ARC
  8
CSLAYER1
  6
CONTINUOUS
 62
     6
 10
251.550280
 20
81.464847
 40
1.500006
 50
3.178280
 51
63.178280
  0
ARC
  8
CSLAYER1
  6
CONTINUOUS
 62
     6
 10
253.724805
 20
82.886639
 40
1.500006
 50
183.178280
 51
243.178280
  0
LINE
  8
CSLAYER1
  6
CONTINUOUS
 62
     6
 10
251.885661
 20
82.159123
 11
249.820170
 21
82.159123
  0
ARC
  8
CSLAYER1
  6
CONTINUOUS
 62
     6
 10
249.018501
 20
80.891319
 40
1.500000
 50
18.366208
 51
78.366208
  0
ARC
  8
CSLAYER1
  6
CONTINUOUS
 62
     6
 10
250.744577
 20
82.833138
 40
1.500000
 50
198.366208
 51
258.366208
  0
LINE
  8
CSLAYER1
  6
CONTINUOUS
 62
     6
 10
249.320976
 20
82.360558
 11
249.218775
 21
82.271319
  0
LINE
  8
CSLAYER1
  6
CONTINUOUS
 62
     6
 10
249.218775
 20
82.271319
 11
249.114600
 21
82.174226
  0
LINE
  8
CSLAYER1
  6
CONTINUOUS
 62
     6
 10
249.114600
 20
82.174226
 11
249.009376
 21
82.070480
  0
LINE
  8
CSLAYER1
  6
CONTINUOUS
 62
     6
 10
249.009376
 20
82.070480
 11
248.904026
 21
81.961283
  0
LINE
  8
CSLAYER1
  6
CONTINUOUS
 62
     6
 10
248.904026
 20
81.961283
 11
248.799474
 21
81.847836
  0
LINE
  8
CSLAYER1
  6
CONTINUOUS
 62
     6
 10
248.799474
 20
81.847836
 11
248.696645
 21
81.731338
  0
LINE
  8
CSLAYER1
  6
CONTINUOUS
 62
     6
 10
248.696645
 20
81.731338
 11
248.596462
 21
81.612993
  0
LINE
  8
CSLAYER1
  6
CONTINUOUS
 62
     6
 10
248.596462
 20
81.612993
 11
248.499850
 21
81.494000
  0
LINE
  8
CSLAYER1
  6
CONTINUOUS
 62
     6
 10
248.499850
 20
81.494000
 11
248.407732
 21
81.375560
  0
LINE
  8
CSLAYER1
  6
CONTINUOUS
 62
     6
 10
248.407732
 20
81.375560
 11
248.321032
 21
81.258875
  0
LINE
  8
CSLAYER1
  6
CONTINUOUS
 62
     6
 10
248.321032
 20
81.258875
 11
248.240675
 21
81.145146
  0
LINE
  8
CSLAYER1
  6
CONTINUOUS
 62
     6
 10
248.240675
 20
81.145146
 11
248.159358
 21
81.019660
  0
LINE
  8
CSLAYER1
  6
CONTINUOUS
 62
     6
 10
248.159358
 20
81.019660
 11
248.082329
 21
80.886961
  0
LINE
  8
CSLAYER1
  6
CONTINUOUS
 62
     6
 10
248.082329
 20
80.886961
 11
248.009308
 21
80.747996
  0
LINE
  8
CSLAYER1
  6
CONTINUOUS
 62
     6
 10
248.009308
 20
80.747996
 11
247.940017
 21
80.603713
  0
LINE
  8
CSLAYER1
  6
CONTINUOUS
 62
     6
 10
247.940017
 20
80.603713
 11
247.874177
 21
80.455058
  0
LINE
  8
CSLAYER1
  6
CONTINUOUS
 62
     6
 10
247.874177
 20
80.455058
 11
247.811508
 21
80.302980
  0
LINE
  8
CSLAYER1
  6
CONTINUOUS
 62
     6
 10
247.811508
 20
80.302980
 11
247.751732
 21
80.148425
  0
LINE
  8
CSLAYER1
  6
CONTINUOUS
 62
     6
 10
247.751732
 20
80.148425
 11
247.694570
 21
79.992341
  0
LINE
  8
CSLAYER1
  6
CONTINUOUS
 62
     6
 10
247.694570
 20
79.992341
 11
247.639742
 21
79.835675
  0
LINE
  8
CSLAYER1
  6
CONTINUOUS
 62
     6
 10
247.639742
 20
79.835675
 11
247.586969
 21
79.679374
  0
LINE
  8
CSLAYER1
  6
CONTINUOUS
 62
     6
 10
247.586969
 20
79.679374
 11
247.535974
 21
79.524386
  0
LINE
  8
CSLAYER1
  6
CONTINUOUS
 62
     6
 10
247.535974
 20
79.524386
 11
247.489467
 21
79.380639
  0
LINE
  8
CSLAYER1
  6
CONTINUOUS
 62
     6
 10
247.489467
 20
79.380639
 11
247.443643
 21
79.236996
  0
LINE
  8
CSLAYER1
  6
CONTINUOUS
 62
     6
 10
247.443643
 20
79.236996
 11
247.398435
 21
79.093448
  0
LINE
  8
CSLAYER1
  6
CONTINUOUS
 62
     6
 10
247.398435
 20
79.093448
 11
247.353773
 21
78.949984
  0
LINE
  8
CSLAYER1
  6
CONTINUOUS
 62
     6
 10
247.353773
 20
78.949984
 11
247.309590
 21
78.806594
  0
LINE
  8
CSLAYER1
  6
CONTINUOUS
 62
     6
 10
247.309590
 20
78.806594
 11
247.265817
 21
78.663266
  0
LINE
  8
CSLAYER1
  6
CONTINUOUS
 62
     6
 10
247.265817
 20
78.663266
 11
247.222386
 21
78.519991
  0
LINE
  8
CSLAYER1
  6
CONTINUOUS
 62
     6
 10
247.222386
 20
78.519991
 11
247.179229
 21
78.376759
  0
LINE
  8
CSLAYER1
  6
CONTINUOUS
 62
     6
 10
247.179229
 20
78.376759
 11
247.136276
 21
78.233557
  0
LINE
  8
CSLAYER1
  6
CONTINUOUS
 62
     6
 10
247.136276
 20
78.233557
 11
247.093460
 21
78.090377
  0
LINE
  8
CSLAYER1
  6
CONTINUOUS
 62
     6
 10
247.093460
 20
78.090377
 11
247.050713
 21
77.947207
  0
ARC
  8
CSLAYER1
  6
CONTINUOUS
 62
     6
 10
248.149574
 20
78.968268
 40
1.500000
 50
222.897147
 51
282.897147
  0
ARC
  8
CSLAYER1
  6
CONTINUOUS
 62
     6
 10
248.819179
 20
76.043951
 40
1.500000
 50
42.897147
 51
102.897147
  0
LINE
  8
CSLAYER1
  6
CONTINUOUS
 62
     6
 10
249.918011
 20
77.064962
 11
249.956078
 21
77.193650
  0
LINE
  8
CSLAYER1
  6
CONTINUOUS
 62
     6
 10
249.956078
 20
77.193650
 11
249.994224
 21
77.322345
  0
LINE
  8
CSLAYER1
  6
CONTINUOUS
 62
     6
 10
249.994224
 20
77.322345
 11
250.032527
 21
77.451053
  0
LINE
  8
CSLAYER1
  6
CONTINUOUS
 62
     6
 10
250.032527
 20
77.451053
 11
250.071065
 21
77.579781
  0
LINE
  8
CSLAYER1
  6
CONTINUOUS
 62
     6
 10
250.071065
 20
77.579781
 11
250.109917
 21
77.708534
  0
LINE
  8
CSLAYER1
  6
CONTINUOUS
 62
     6
 10
250.109917
 20
77.708534
 11
250.149161
 21
77.837319
  0
LINE
  8
CSLAYER1
  6
CONTINUOUS
 62
     6
 10
250.149161
 20
77.837319
 11
250.188875
 21
77.966144
  0
LINE
  8
CSLAYER1
  6
CONTINUOUS
 62
     6
 10
250.188875
 20
77.966144
 11
250.229138
 21
78.095013
  0
LINE
  8
CSLAYER1
  6
CONTINUOUS
 62
     6
 10
250.229138
 20
78.095013
 11
250.270029
 21
78.223934
  0
LINE
  8
CSLAYER1
  6
CONTINUOUS
 62
     6
 10
250.270029
 20
78.223934
 11
250.311625
 21
78.352913
  0
LINE
  8
CSLAYER1
  6
CONTINUOUS
 62
     6
 10
250.311625
 20
78.352913
 11
250.354005
 21
78.481957
  0
LINE
  8
CSLAYER1
  6
CONTINUOUS
 62
     6
 10
250.354005
 20
78.481957
 11
250.386818
 21
78.580078
  0
LINE
  8
CSLAYER1
  6
CONTINUOUS
 62
     6
 10
250.386818
 20
78.580078
 11
250.420657
 21
78.678894
  0
LINE
  8
CSLAYER1
  6
CONTINUOUS
 62
     6
 10
250.420657
 20
78.678894
 11
250.455701
 21
78.777863
  0
LINE
  8
CSLAYER1
  6
CONTINUOUS
 62
     6
 10
250.455701
 20
78.777863
 11
250.492130
 21
78.876440
  0
LINE
  8
CSLAYER1
  6
CONTINUOUS
 62
     6
 10
250.492130
 20
78.876440
 11
250.530123
 21
78.974083
  0
LINE
  8
CSLAYER1
  6
CONTINUOUS
 62
     6
 10
250.530123
 20
78.974083
 11
250.569859
 21
79.070249
  0
LINE
  8
CSLAYER1
  6
CONTINUOUS
 62
     6
 10
250.569859
 20
79.070249
 11
250.611518
 21
79.164395
  0
LINE
  8
CSLAYER1
  6
CONTINUOUS
 62
     6
 10
250.611518
 20
79.164395
 11
250.655278
 21
79.255978
  0
LINE
  8
CSLAYER1
  6
CONTINUOUS
 62
     6
 10
250.655278
 20
79.255978
 11
250.701320
 21
79.344455
  0
LINE
  8
CSLAYER1
  6
CONTINUOUS
 62
     6
 10
250.701320
 20
79.344455
 11
250.749821
 21
79.429282
  0
LINE
  8
CSLAYER1
  6
CONTINUOUS
 62
     6
 10
250.749821
 20
79.429282
 11
250.800961
 21
79.509918
  0
LINE
  8
CSLAYER1
  6
CONTINUOUS
 62
     6
 10
250.800961
 20
79.509918
 11
250.857253
 21
79.591298
  0
LINE
  8
CSLAYER1
  6
CONTINUOUS
 62
     6
 10
250.857253
 20
79.591298
 11
250.918162
 21
79.674471
  0
LINE
  8
CSLAYER1
  6
CONTINUOUS
 62
     6
 10
250.918162
 20
79.674471
 11
250.983015
 21
79.758612
  0
LINE
  8
CSLAYER1
  6
CONTINUOUS
 62
     6
 10
250.983015
 20
79.758612
 11
251.051143
 21
79.842895
  0
LINE
  8
CSLAYER1
  6
CONTINUOUS
 62
     6
 10
251.051143
 20
79.842895
 11
251.121872
 21
79.926493
  0
LINE
  8
CSLAYER1
  6
CONTINUOUS
 62
     6
 10
251.121872
 20
79.926493
 11
251.194532
 21
80.008580
  0
LINE
  8
CSLAYER1
  6
CONTINUOUS
 62
     6
 10
251.194532
 20
80.008580
 11
251.268450
 21
80.088331
  0
LINE
  8
CSLAYER1
  6
CONTINUOUS
 62
     6
 10
251.268450
 20
80.088331
 11
251.342954
 21
80.164919
  0
LINE
  8
CSLAYER1
  6
CONTINUOUS
 62
     6
 10
251.342954
 20
80.164919
 11
251.417374
 21
80.237518
  0
LINE
  8
CSLAYER1
  6
CONTINUOUS
 62
     6
 10
251.417374
 20
80.237518
 11
251.491037
 21
80.305303
  0
LINE
  8
CSLAYER1
  6
CONTINUOUS
 62
     6
 10
251.491037
 20
80.305303
 11
251.563271
 21
80.367447
  0
ARC
  8
CSLAYER1
  6
CONTINUOUS
 62
     6
 10
250.139610
 20
79.894768
 40
1.500000
 50
18.366208
 51
78.366208
  0
LINE
  8
CSLAYER1
  6
CONTINUOUS
 62
     6
 10
249.099282
 20
82.159123
 11
246.891894
 21
82.159123
  0
LINE
  8
CSLAYER1
  6
CONTINUOUS
 62
     6
 10
246.879961
 20
82.138184
 11
246.961760
 21
82.281708
  0
LINE
  8
CSLAYER1
  6
CONTINUOUS
 62
     6
 10
246.961760
 20
82.281708
 11
247.046003
 21
82.423754
  0
LINE
  8
CSLAYER1
  6
CONTINUOUS
 62
     6
 10
247.046003
 20
82.423754
 11
247.133038
 21
82.564111
  0
LINE
  8
CSLAYER1
  6
CONTINUOUS
 62
     6
 10
247.133038
 20
82.564111
 11
247.223214
 21
82.702568
  0
LINE
  8
CSLAYER1
  6
CONTINUOUS
 62
     6
 10
247.223214
 20
82.702568
 11
247.316881
 21
82.838914
  0
LINE
  8
CSLAYER1
  6
CONTINUOUS
 62
     6
 10
247.316881
 20
82.838914
 11
247.391302
 21
82.942176
  0
LINE
  8
CSLAYER1
  6
CONTINUOUS
 62
     6
 10
247.391302
 20
82.942176
 11
247.468504
 21
83.045062
  0
LINE
  8
CSLAYER1
  6
CONTINUOUS
 62
     6
 10
247.468504
 20
83.045062
 11
247.548263
 21
83.147031
  0
LINE
  8
CSLAYER1
  6
CONTINUOUS
 62
     6
 10
247.548263
 20
83.147031
 11
247.630356
 21
83.247543
  0
LINE
  8
CSLAYER1
  6
CONTINUOUS
 62
     6
 10
247.630356
 20
83.247543
 11
247.714560
 21
83.346055
  0
LINE
  8
CSLAYER1
  6
CONTINUOUS
 62
     6
 10
247.714560
 20
83.346055
 11
247.800651
 21
83.442027
  0
LINE
  8
CSLAYER1
  6
CONTINUOUS
 62
     6
 10
247.800651
 20
83.442027
 11
247.888408
 21
83.534918
  0
LINE
  8
CSLAYER1
  6
CONTINUOUS
 62
     6
 10
247.888408
 20
83.534918
 11
247.977605
 21
83.624185
  0
LINE
  8
CSLAYER1
  6
CONTINUOUS
 62
     6
 10
247.977605
 20
83.624185
 11
248.068020
 21
83.709289
  0
LINE
  8
CSLAYER1
  6
CONTINUOUS
 62
     6
 10
248.068020
 20
83.709289
 11
248.159430
 21
83.789688
  0
LINE
  8
CSLAYER1
  6
CONTINUOUS
 62
     6
 10
248.159430
 20
83.789688
 11
248.251612
 21
83.864840
  0
LINE
  8
CSLAYER1
  6
CONTINUOUS
 62
     6
 10
248.251612
 20
83.864840
 11
248.369861
 21
83.955907
  0
LINE
  8
CSLAYER1
  6
CONTINUOUS
 62
     6
 10
248.369861
 20
83.955907
 11
248.494508
 21
84.049028
  0
LINE
  8
CSLAYER1
  6
CONTINUOUS
 62
     6
 10
248.494508
 20
84.049028
 11
248.624308
 21
84.143084
  0
LINE
  8
CSLAYER1
  6
CONTINUOUS
 62
     6
 10
248.624308
 20
84.143084
 11
248.758013
 21
84.236957
  0
LINE
  8
CSLAYER1
  6
CONTINUOUS
 62
     6
 10
248.758013
 20
84.236957
 11
248.894376
 21
84.329527
  0
LINE
  8
CSLAYER1
  6
CONTINUOUS
 62
     6
 10
248.894376
 20
84.329527
 11
249.032152
 21
84.419677
  0
LINE
  8
CSLAYER1
  6
CONTINUOUS
 62
     6
 10
249.032152
 20
84.419677
 11
249.170093
 21
84.506288
  0
LINE
  8
CSLAYER1
  6
CONTINUOUS
 62
     6
 10
249.170093
 20
84.506288
 11
249.306952
 21
84.588240
  0
LINE
  8
CSLAYER1
  6
CONTINUOUS
 62
     6
 10
249.306952
 20
84.588240
 11
249.441483
 21
84.664415
  0
LINE
  8
CSLAYER1
  6
CONTINUOUS
 62
     6
 10
249.441483
 20
84.664415
 11
249.572439
 21
84.733695
  0
LINE
  8
CSLAYER1
  6
CONTINUOUS
 62
     6
 10
249.572439
 20
84.733695
 11
249.698573
 21
84.794960
  0
ARC
  8
CSLAYER1
  6
CONTINUOUS
 62
     6
 10
248.200335
 20
84.723428
 40
1.499998
 50
2.735346
 51
62.735346
  0
ARC
  8
CSLAYER1
  6
CONTINUOUS
 62
     6
 10
249.574637
 20
87.390124
 40
1.499998
 50
182.735346
 51
242.735346
  0
ARC
  8
CSLAYER1
  6
CONTINUOUS
 62
     6
 10
247.389197
 20
85.985192
 40
1.499998
 50
2.735346
 51
62.735346
  0
LINE
  8
CSLAYER1
  6
CONTINUOUS
 62
     6
 10
248.076271
 20
87.318600
 11
247.920741
 21
87.240779
  0
LINE
  8
CSLAYER1
  6
CONTINUOUS
 62
     6
 10
247.920741
 20
87.240779
 11
247.759754
 21
87.153693
  0
LINE
  8
CSLAYER1
  6
CONTINUOUS
 62
     6
 10
247.759754
 20
87.153693
 11
247.594723
 21
87.058692
  0
LINE
  8
CSLAYER1
  6
CONTINUOUS
 62
     6
 10
247.594723
 20
87.058692
 11
247.427064
 21
86.957126
  0
LINE
  8
CSLAYER1
  6
CONTINUOUS
 62
     6
 10
247.427064
 20
86.957126
 11
247.258190
 21
86.850346
  0
LINE
  8
CSLAYER1
  6
CONTINUOUS
 62
     6
 10
247.258190
 20
86.850346
 11
247.089517
 21
86.739703
  0
LINE
  8
CSLAYER1
  6
CONTINUOUS
 62
     6
 10
247.089517
 20
86.739703
 11
246.922459
 21
86.626546
  0
LINE
  8
CSLAYER1
  6
CONTINUOUS
 62
     6
 10
246.922459
 20
86.626546
 11
246.758431
 21
86.512226
  0
LINE
  8
CSLAYER1
  6
CONTINUOUS
 62
     6
 10
246.758431
 20
86.512226
 11
246.598847
 21
86.398093
  0
LINE
  8
CSLAYER1
  6
CONTINUOUS
 62
     6
 10
246.598847
 20
86.398093
 11
246.445123
 21
86.285499
  0
LINE
  8
CSLAYER1
  6
CONTINUOUS
 62
     6
 10
246.445123
 20
86.285499
 11
246.298672
 21
86.175792
  0
LINE
  8
CSLAYER1
  6
CONTINUOUS
 62
     6
 10
246.298672
 20
86.175792
 11
246.156622
 21
86.063211
  0
LINE
  8
CSLAYER1
  6
CONTINUOUS
 62
     6
 10
246.156622
 20
86.063211
 11
246.015951
 21
85.942088
  0
LINE
  8
CSLAYER1
  6
CONTINUOUS
 62
     6
 10
246.015951
 20
85.942088
 11
245.877028
 21
85.813289
  0
LINE
  8
CSLAYER1
  6
CONTINUOUS
 62
     6
 10
245.877028
 20
85.813289
 11
245.740220
 21
85.677681
  0
LINE
  8
CSLAYER1
  6
CONTINUOUS
 62
     6
 10
245.740220
 20
85.677681
 11
245.605895
 21
85.536132
  0
LINE
  8
CSLAYER1
  6
CONTINUOUS
 62
     6
 10
245.605895
 20
85.536132
 11
245.474422
 21
85.389509
  0
LINE
  8
CSLAYER1
  6
CONTINUOUS
 62
     6
 10
245.474422
 20
85.389509
 11
245.346167
 21
85.238679
  0
LINE
  8
CSLAYER1
  6
CONTINUOUS
 62
     6
 10
245.346167
 20
85.238679
 11
245.221499
 21
85.084509
  0
LINE
  8
CSLAYER1
  6
CONTINUOUS
 62
     6
 10
245.221499
 20
85.084509
 11
245.100786
 21
84.927866
  0
LINE
  8
CSLAYER1
  6
CONTINUOUS
 62
     6
 10
245.100786
 20
84.927866
 11
244.984395
 21
84.769617
  0
LINE
  8
CSLAYER1
  6
CONTINUOUS
 62
     6
 10
244.984395
 20
84.769617
 11
244.872695
 21
84.610630
  0
LINE
  8
CSLAYER1
  6
CONTINUOUS
 62
     6
 10
244.872695
 20
84.610630
 11
244.763515
 21
84.447703
  0
LINE
  8
CSLAYER1
  6
CONTINUOUS
 62
     6
 10
244.763515
 20
84.447703
 11
244.657949
 21
84.282658
  0
LINE
  8
CSLAYER1
  6
CONTINUOUS
 62
     6
 10
244.657949
 20
84.282658
 11
244.555635
 21
84.115707
  0
LINE
  8
CSLAYER1
  6
CONTINUOUS
 62
     6
 10
244.555635
 20
84.115707
 11
244.456213
 21
83.947062
  0
LINE
  8
CSLAYER1
  6
CONTINUOUS
 62
     6
 10
244.456213
 20
83.947062
 11
244.359319
 21
83.776935
  0
LINE
  8
CSLAYER1
  6
CONTINUOUS
 62
     6
 10
244.359319
 20
83.776935
 11
244.264594
 21
83.605538
  0
LINE
  8
CSLAYER1
  6
CONTINUOUS
 62
     6
 10
244.264594
 20
83.605538
 11
244.171676
 21
83.433081
  0
LINE
  8
CSLAYER1
  6
CONTINUOUS
 62
     6
 10
244.171676
 20
83.433081
 11
244.080203
 21
83.259778
  0
LINE
  8
CSLAYER1
  6
CONTINUOUS
 62
     6
 10
244.080203
 20
83.259778
 11
243.989815
 21
83.085839
  0
LINE
  8
CSLAYER1
  6
CONTINUOUS
 62
     6
 10
243.989815
 20
83.085839
 11
243.900149
 21
82.911477
  0
LINE
  8
CSLAYER1
  6
CONTINUOUS
 62
     6
 10
243.900149
 20
82.911477
 11
243.810844
 21
82.736903
  0
ARC
  8
CSLAYER1
  6
CONTINUOUS
 62
     6
 10
245.103825
 20
83.497341
 40
1.499998
 50
210.461270
 51
270.461270
  0
ARC
  8
CSLAYER1
  6
CONTINUOUS
 62
     6
 10
245.127977
 20
80.497442
 40
1.499998
 50
30.461270
 51
90.461270
  0
LINE
  8
CSLAYER1
  6
CONTINUOUS
 62
     6
 10
246.420928
 20
81.257829
 11
246.495398
 21
81.405787
  0
LINE
  8
CSLAYER1
  6
CONTINUOUS
 62
     6
 10
246.495398
 20
81.405787
 11
246.570216
 21
81.553533
  0
LINE
  8
CSLAYER1
  6
CONTINUOUS
 62
     6
 10
246.570216
 20
81.553533
 11
246.645732
 21
81.700857
  0
LINE
  8
CSLAYER1
  6
CONTINUOUS
 62
     6
 10
246.645732
 20
81.700857
 11
246.722296
 21
81.847548
  0
LINE
  8
CSLAYER1
  6
CONTINUOUS
 62
     6
 10
246.722296
 20
81.847548
 11
246.800256
 21
81.993394
  0
LINE
  8
CSLAYER1
  6
CONTINUOUS
 62
     6
 10
246.800256
 20
81.993394
 11
246.879961
 21
82.138184
  0
LINE
  8
CSLAYER1
  6
CONTINUOUS
 62
     6
 10
245.633486
 20
81.909694
 11
244.655258
 21
78.312225
  0
LINE
  8
CSLAYER1
  6
CONTINUOUS
 62
     6
 10
243.791569
 20
78.600110
 11
244.957026
 21
82.004543
  0
LINE
  8
CSLAYER1
  6
CONTINUOUS
 62
     6
 10
244.426207
 20
82.159123
 11
230.885661
 21
82.159123
  0
ARC
  8
CSLAYER1
  6
CONTINUOUS
 62
     6
 10
230.885661
 20
86.159123
 40
4.000000
 50
234.043961
 51
270.000000
  0
LINE
  8
CSLAYER1
  6
CONTINUOUS
 62
     6
 10
228.565054
 20
82.932762
 11
228.500363
 21
82.870738
  0
LINE
  8
CSLAYER1
  6
CONTINUOUS
 62
     6
 10
228.500363
 20
82.870738
 11
228.436487
 21
82.805213
  0
LINE
  8
CSLAYER1
  6
CONTINUOUS
 62
     6
 10
228.436487
 20
82.805213
 11
228.373636
 21
82.736584
  0
LINE
  8
CSLAYER1
  6
CONTINUOUS
 62
     6
 10
228.373636
 20
82.736584
 11
228.312021
 21
82.665250
  0
LINE
  8
CSLAYER1
  6
CONTINUOUS
 62
     6
 10
228.312021
 20
82.665250
 11
228.251851
 21
82.591608
  0
LINE
  8
CSLAYER1
  6
CONTINUOUS
 62
     6
 10
228.251851
 20
82.591608
 11
228.193336
 21
82.516057
  0
LINE
  8
CSLAYER1
  6
CONTINUOUS
 62
     6
 10
228.193336
 20
82.516057
 11
228.136685
 21
82.438993
  0
LINE
  8
CSLAYER1
  6
CONTINUOUS
 62
     6
 10
228.136685
 20
82.438993
 11
228.082110
 21
82.360816
  0
LINE
  8
CSLAYER1
  6
CONTINUOUS
 62
     6
 10
228.082110
 20
82.360816
 11
228.029818
 21
82.281922
  0
LINE
  8
CSLAYER1
  6
CONTINUOUS
 62
     6
 10
228.029818
 20
82.281922
 11
227.980021
 21
82.202710
  0
LINE
  8
CSLAYER1
  6
CONTINUOUS
 62
     6
 10
227.980021
 20
82.202710
 11
227.939972
 21
82.135651
  0
LINE
  8
CSLAYER1
  6
CONTINUOUS
 62
     6
 10
227.939972
 20
82.135651
 11
227.901290
 21
82.067829
  0
LINE
  8
CSLAYER1
  6
CONTINUOUS
 62
     6
 10
227.901290
 20
82.067829
 11
227.863840
 21
81.999320
  0
LINE
  8
CSLAYER1
  6
CONTINUOUS
 62
     6
 10
227.863840
 20
81.999320
 11
227.827483
 21
81.930200
  0
LINE
  8
CSLAYER1
  6
CONTINUOUS
 62
     6
 10
227.827483
 20
81.930200
 11
227.792085
 21
81.860547
  0
LINE
  8
CSLAYER1
  6
CONTINUOUS
 62
     6
 10
227.792085
 20
81.860547
 11
227.757507
 21
81.790435
  0
LINE
  8
CSLAYER1
  6
CONTINUOUS
 62
     6
 10
227.757507
 20
81.790435
 11
227.723614
 21
81.719942
  0
LINE
  8
CSLAYER1
  6
CONTINUOUS
 62
     6
 10
227.723614
 20
81.719942
 11
227.690267
 21
81.649144
  0
LINE
  8
CSLAYER1
  6
CONTINUOUS
 62
     6
 10
227.690267
 20
81.649144
 11
227.657331
 21
81.578117
  0
LINE
  8
CSLAYER1
  6
CONTINUOUS
 62
     6
 10
227.657331
 20
81.578117
 11
227.624669
 21
81.506937
  0
LINE
  8
CSLAYER1
  6
CONTINUOUS
 62
     6
 10
227.624669
 20
81.506937
 11
227.592143
 21
81.435681
  0
ARC
  8
CSLAYER1
  6
CONTINUOUS
 62
     6
 10
226.926779
 20
81.000605
 40
0.795003
 50
33.178280
 51
93.178280
  0
ARC
  8
CSLAYER1
  6
CONTINUOUS
 62
     6
 10
227.548096
 20
82.229447
 40
0.795003
 50
213.178280
 51
273.178280
  0
ARC
  8
CSLAYER1
  6
CONTINUOUS
 62
     6
 10
226.838624
 20
82.588165
 40
0.795003
 50
213.178280
 51
273.178280
  0
LINE
  8
CSLAYER1
  6
CONTINUOUS
 62
     6
 10
226.173198
 20
82.153119
 11
226.212669
 21
82.238905
  0
LINE
  8
CSLAYER1
  6
CONTINUOUS
 62
     6
 10
226.212669
 20
82.238905
 11
226.252292
 21
82.324607
  0
LINE
  8
CSLAYER1
  6
CONTINUOUS
 62
     6
 10
226.252292
 20
82.324607
 11
226.292221
 21
82.410138
  0
LINE
  8
CSLAYER1
  6
CONTINUOUS
 62
     6
 10
226.292221
 20
82.410138
 11
226.332606
 21
82.495415
  0
LINE
  8
CSLAYER1
  6
CONTINUOUS
 62
     6
 10
226.332606
 20
82.495415
 11
226.373601
 21
82.580351
  0
LINE
  8
CSLAYER1
  6
CONTINUOUS
 62
     6
 10
226.373601
 20
82.580351
 11
226.415358
 21
82.664863
  0
LINE
  8
CSLAYER1
  6
CONTINUOUS
 62
     6
 10
226.415358
 20
82.664863
 11
226.458030
 21
82.748865
  0
LINE
  8
CSLAYER1
  6
CONTINUOUS
 62
     6
 10
226.458030
 20
82.748865
 11
226.501769
 21
82.832272
  0
LINE
  8
CSLAYER1
  6
CONTINUOUS
 62
     6
 10
226.501769
 20
82.832272
 11
226.546727
 21
82.915000
  0
LINE
  8
CSLAYER1
  6
CONTINUOUS
 62
     6
 10
226.546727
 20
82.915000
 11
226.593056
 21
82.996963
  0
LINE
  8
CSLAYER1
  6
CONTINUOUS
 62
     6
 10
226.593056
 20
82.996963
 11
226.640910
 21
83.078076
  0
LINE
  8
CSLAYER1
  6
CONTINUOUS
 62
     6
 10
226.640910
 20
83.078076
 11
226.709583
 21
83.188612
  0
LINE
  8
CSLAYER1
  6
CONTINUOUS
 62
     6
 10
226.709583
 20
83.188612
 11
226.781919
 21
83.298637
  0
LINE
  8
CSLAYER1
  6
CONTINUOUS
 62
     6
 10
226.781919
 20
83.298637
 11
226.857602
 21
83.407597
  0
LINE
  8
CSLAYER1
  6
CONTINUOUS
 62
     6
 10
226.857602
 20
83.407597
 11
226.936314
 21
83.514936
  0
LINE
  8
CSLAYER1
  6
CONTINUOUS
 62
     6
 10
226.936314
 20
83.514936
 11
227.017739
 21
83.620101
  0
LINE
  8
CSLAYER1
  6
CONTINUOUS
 62
     6
 10
227.017739
 20
83.620101
 11
227.101558
 21
83.722536
  0
LINE
  8
CSLAYER1
  6
CONTINUOUS
 62
     6
 10
227.101558
 20
83.722536
 11
227.187455
 21
83.821687
  0
LINE
  8
CSLAYER1
  6
CONTINUOUS
 62
     6
 10
227.187455
 20
83.821687
 11
227.275114
 21
83.917000
  0
LINE
  8
CSLAYER1
  6
CONTINUOUS
 62
     6
 10
227.275114
 20
83.917000
 11
227.364216
 21
84.007919
  0
LINE
  8
CSLAYER1
  6
CONTINUOUS
 62
     6
 10
227.364216
 20
84.007919
 11
227.454444
 21
84.093890
  0
LINE
  8
CSLAYER1
  6
CONTINUOUS
 62
     6
 10
227.454444
 20
84.093890
 11
227.545482
 21
84.174359
  0
LINE
  8
CSLAYER1
  6
CONTINUOUS
 62
     6
 10
227.545482
 20
84.174359
 11
227.646192
 21
84.258822
  0
LINE
  8
CSLAYER1
  6
CONTINUOUS
 62
     6
 10
227.646192
 20
84.258822
 11
227.751410
 21
84.344806
  0
LINE
  8
CSLAYER1
  6
CONTINUOUS
 62
     6
 10
227.751410
 20
84.344806
 11
227.860554
 21
84.431428
  0
LINE
  8
CSLAYER1
  6
CONTINUOUS
 62
     6
 10
227.860554
 20
84.431428
 11
227.973038
 21
84.517806
  0
LINE
  8
CSLAYER1
  6
CONTINUOUS
 62
     6
 10
227.973038
 20
84.517806
 11
228.088277
 21
84.603057
  0
LINE
  8
CSLAYER1
  6
CONTINUOUS
 62
     6
 10
228.088277
 20
84.603057
 11
228.205688
 21
84.686298
  0
LINE
  8
CSLAYER1
  6
CONTINUOUS
 62
     6
 10
228.205688
 20
84.686298
 11
228.324686
 21
84.766648
  0
LINE
  8
CSLAYER1
  6
CONTINUOUS
 62
     6
 10
228.324686
 20
84.766648
 11
228.444685
 21
84.843224
  0
LINE
  8
CSLAYER1
  6
CONTINUOUS
 62
     6
 10
228.444685
 20
84.843224
 11
228.565102
 21
84.915144
  0
LINE
  8
CSLAYER1
  6
CONTINUOUS
 62
     6
 10
228.565102
 20
84.915144
 11
228.685353
 21
84.981525
  0
LINE
  8
CSLAYER1
  6
CONTINUOUS
 62
     6
 10
228.685353
 20
84.981525
 11
228.804851
 21
85.041485
  0
LINE
  8
CSLAYER1
  6
CONTINUOUS
 62
     6
 10
228.804851
 20
85.041485
 11
228.895715
 21
85.084598
  0
LINE
  8
CSLAYER1
  6
CONTINUOUS
 62
     6
 10
228.895715
 20
85.084598
 11
228.988834
 21
85.128676
  0
LINE
  8
CSLAYER1
  6
CONTINUOUS
 62
     6
 10
228.988834
 20
85.128676
 11
229.083758
 21
85.173402
  0
LINE
  8
CSLAYER1
  6
CONTINUOUS
 62
     6
 10
229.083758
 20
85.173402
 11
229.180036
 21
85.218462
  0
LINE
  8
CSLAYER1
  6
CONTINUOUS
 62
     6
 10
229.180036
 20
85.218462
 11
229.277218
 21
85.263539
  0
LINE
  8
CSLAYER1
  6
CONTINUOUS
 62
     6
 10
229.277218
 20
85.263539
 11
229.374851
 21
85.308318
  0
LINE
  8
CSLAYER1
  6
CONTINUOUS
 62
     6
 10
229.374851
 20
85.308318
 11
229.472485
 21
85.352484
  0
LINE
  8
CSLAYER1
  6
CONTINUOUS
 62
     6
 10
229.472485
 20
85.352484
 11
229.569670
 21
85.395722
  0
LINE
  8
CSLAYER1
  6
CONTINUOUS
 62
     6
 10
229.569670
 20
85.395722
 11
229.665953
 21
85.437715
  0
LINE
  8
CSLAYER1
  6
CONTINUOUS
 62
     6
 10
229.665953
 20
85.437715
 11
229.760885
 21
85.478147
  0
LINE
  8
CSLAYER1
  6
CONTINUOUS
 62
     6
 10
229.760885
 20
85.478147
 11
229.854014
 21
85.516705
  0
LINE
  8
CSLAYER1
  6
CONTINUOUS
 62
     6
 10
229.854014
 20
85.516705
 11
229.927438
 21
85.547070
  0
LINE
  8
CSLAYER1
  6
CONTINUOUS
 62
     6
 10
229.927438
 20
85.547070
 11
230.002467
 21
85.578995
  0
LINE
  8
CSLAYER1
  6
CONTINUOUS
 62
     6
 10
230.002467
 20
85.578995
 11
230.078633
 21
85.612298
  0
LINE
  8
CSLAYER1
  6
CONTINUOUS
 62
     6
 10
230.078633
 20
85.612298
 11
230.155464
 21
85.646796
  0
LINE
  8
CSLAYER1
  6
CONTINUOUS
 62
     6
 10
230.155464
 20
85.646796
 11
230.232491
 21
85.682306
  0
LINE
  8
CSLAYER1
  6
CONTINUOUS
 62
     6
 10
230.232491
 20
85.682306
 11
230.309242
 21
85.718646
  0
LINE
  8
CSLAYER1
  6
CONTINUOUS
 62
     6
 10
230.309242
 20
85.718646
 11
230.385247
 21
85.755632
  0
LINE
  8
CSLAYER1
  6
CONTINUOUS
 62
     6
 10
230.385247
 20
85.755632
 11
230.460036
 21
85.793082
  0
LINE
  8
CSLAYER1
  6
CONTINUOUS
 62
     6
 10
230.460036
 20
85.793082
 11
230.533139
 21
85.830812
  0
LINE
  8
CSLAYER1
  6
CONTINUOUS
 62
     6
 10
230.533139
 20
85.830812
 11
230.604085
 21
85.868640
  0
LINE
  8
CSLAYER1
  6
CONTINUOUS
 62
     6
 10
230.604085
 20
85.868640
 11
230.672404
 21
85.906384
  0
LINE
  8
CSLAYER1
  6
CONTINUOUS
 62
     6
 10
230.672404
 20
85.906384
 11
230.738644
 21
85.944265
  0
LINE
  8
CSLAYER1
  6
CONTINUOUS
 62
     6
 10
230.738644
 20
85.944265
 11
230.807170
 21
85.984560
  0
LINE
  8
CSLAYER1
  6
CONTINUOUS
 62
     6
 10
230.807170
 20
85.984560
 11
230.877287
 21
86.026821
  0
LINE
  8
CSLAYER1
  6
CONTINUOUS
 62
     6
 10
230.877287
 20
86.026821
 11
230.948304
 21
86.070598
  0
LINE
  8
CSLAYER1
  6
CONTINUOUS
 62
     6
 10
230.948304
 20
86.070598
 11
231.019527
 21
86.115444
  0
LINE
  8
CSLAYER1
  6
CONTINUOUS
 62
     6
 10
231.019527
 20
86.115444
 11
231.090263
 21
86.160909
  0
LINE
  8
CSLAYER1
  6
CONTINUOUS
 62
     6
 10
231.090263
 20
86.160909
 11
231.159820
 21
86.206544
  0
LINE
  8
CSLAYER1
  6
CONTINUOUS
 62
     6
 10
231.159820
 20
86.206544
 11
231.227504
 21
86.251901
  0
LINE
  8
CSLAYER1
  6
CONTINUOUS
 62
     6
 10
231.227504
 20
86.251901
 11
231.292624
 21
86.296532
  0
LINE
  8
CSLAYER1
  6
CONTINUOUS
 62
     6
 10
231.292624
 20
86.296532
 11
231.354485
 21
86.339987
  0
LINE
  8
CSLAYER1
  6
CONTINUOUS
 62
     6
 10
231.354485
 20
86.339987
 11
231.412395
 21
86.381817
  0
ARC
  8
CSLAYER1
  6
CONTINUOUS
 62
     6
 10
231.858195
 20
85.722790
 40
0.795000
 50
-58.640300
 51
121.359720
  0
LINE
  8
CSLAYER1
  6
CONTINUOUS
 62
     6
 10
232.271831
 20
85.044110
 11
232.207167
 21
84.997451
  0
LINE
  8
CSLAYER1
  6
CONTINUOUS
 62
     6
 10
232.207167
 20
84.997451
 11
232.138034
 21
84.948948
  0
LINE
  8
CSLAYER1
  6
CONTINUOUS
 62
     6
 10
232.138034
 20
84.948948
 11
232.065234
 21
84.899115
  0
LINE
  8
CSLAYER1
  6
CONTINUOUS
 62
     6
 10
232.065234
 20
84.899115
 11
231.989567
 21
84.848466
  0
LINE
  8
CSLAYER1
  6
CONTINUOUS
 62
     6
 10
231.989567
 20
84.848466
 11
231.911836
 21
84.797513
  0
LINE
  8
CSLAYER1
  6
CONTINUOUS
 62
     6
 10
231.911836
 20
84.797513
 11
231.832840
 21
84.746770
  0
LINE
  8
CSLAYER1
  6
CONTINUOUS
 62
     6
 10
231.832840
 20
84.746770
 11
231.753381
 21
84.696750
  0
LINE
  8
CSLAYER1
  6
CONTINUOUS
 62
     6
 10
231.753381
 20
84.696750
 11
231.674261
 21
84.647967
  0
LINE
  8
CSLAYER1
  6
CONTINUOUS
 62
     6
 10
231.674261
 20
84.647967
 11
231.596280
 21
84.600934
  0
LINE
  8
CSLAYER1
  6
CONTINUOUS
 62
     6
 10
231.596280
 20
84.600934
 11
231.520239
 21
84.556165
  0
LINE
  8
CSLAYER1
  6
CONTINUOUS
 62
     6
 10
231.520239
 20
84.556165
 11
231.446940
 21
84.514172
  0
LINE
  8
CSLAYER1
  6
CONTINUOUS
 62
     6
 10
231.446940
 20
84.514172
 11
231.370361
 21
84.471755
  0
LINE
  8
CSLAYER1
  6
CONTINUOUS
 62
     6
 10
231.370361
 20
84.471755
 11
231.290501
 21
84.429023
  0
LINE
  8
CSLAYER1
  6
CONTINUOUS
 62
     6
 10
231.290501
 20
84.429023
 11
231.207964
 21
84.386244
  0
LINE
  8
CSLAYER1
  6
CONTINUOUS
 62
     6
 10
231.207964
 20
84.386244
 11
231.123353
 21
84.343686
  0
LINE
  8
CSLAYER1
  6
CONTINUOUS
 62
     6
 10
231.123353
 20
84.343686
 11
231.037272
 21
84.301619
  0
LINE
  8
CSLAYER1
  6
CONTINUOUS
 62
     6
 10
231.037272
 20
84.301619
 11
230.950325
 21
84.260311
  0
LINE
  8
CSLAYER1
  6
CONTINUOUS
 62
     6
 10
230.950325
 20
84.260311
 11
230.863115
 21
84.220031
  0
LINE
  8
CSLAYER1
  6
CONTINUOUS
 62
     6
 10
230.863115
 20
84.220031
 11
230.776246
 21
84.181047
  0
LINE
  8
CSLAYER1
  6
CONTINUOUS
 62
     6
 10
230.776246
 20
84.181047
 11
230.690322
 21
84.143630
  0
LINE
  8
CSLAYER1
  6
CONTINUOUS
 62
     6
 10
230.690322
 20
84.143630
 11
230.605947
 21
84.108046
  0
LINE
  8
CSLAYER1
  6
CONTINUOUS
 62
     6
 10
230.605947
 20
84.108046
 11
230.523723
 21
84.074566
  0
LINE
  8
CSLAYER1
  6
CONTINUOUS
 62
     6
 10
230.523723
 20
84.074566
 11
230.441448
 21
84.041022
  0
LINE
  8
CSLAYER1
  6
CONTINUOUS
 62
     6
 10
230.441448
 20
84.041022
 11
230.357247
 21
84.005465
  0
LINE
  8
CSLAYER1
  6
CONTINUOUS
 62
     6
 10
230.357247
 20
84.005465
 11
230.271587
 21
83.968239
  0
LINE
  8
CSLAYER1
  6
CONTINUOUS
 62
     6
 10
230.271587
 20
83.968239
 11
230.184935
 21
83.929686
  0
LINE
  8
CSLAYER1
  6
CONTINUOUS
 62
     6
 10
230.184935
 20
83.929686
 11
230.097760
 21
83.890151
  0
LINE
  8
CSLAYER1
  6
CONTINUOUS
 62
     6
 10
230.097760
 20
83.890151
 11
230.010528
 21
83.849976
  0
LINE
  8
CSLAYER1
  6
CONTINUOUS
 62
     6
 10
230.010528
 20
83.849976
 11
229.923708
 21
83.809506
  0
LINE
  8
CSLAYER1
  6
CONTINUOUS
 62
     6
 10
229.923708
 20
83.809506
 11
229.837766
 21
83.769082
  0
LINE
  8
CSLAYER1
  6
CONTINUOUS
 62
     6
 10
229.837766
 20
83.769082
 11
229.753170
 21
83.729050
  0
LINE
  8
CSLAYER1
  6
CONTINUOUS
 62
     6
 10
229.753170
 20
83.729050
 11
229.589885
 21
83.651532
  0
LINE
  8
CSLAYER1
  6
CONTINUOUS
 62
     6
 10
229.589885
 20
83.651532
 11
229.499327
 21
83.606145
  0
LINE
  8
CSLAYER1
  6
CONTINUOUS
 62
     6
 10
229.499327
 20
83.606145
 11
229.407984
 21
83.555810
  0
LINE
  8
CSLAYER1
  6
CONTINUOUS
 62
     6
 10
229.407984
 20
83.555810
 11
229.316341
 21
83.501199
  0
LINE
  8
CSLAYER1
  6
CONTINUOUS
 62
     6
 10
229.316341
 20
83.501199
 11
229.224880
 21
83.442982
  0
LINE
  8
CSLAYER1
  6
CONTINUOUS
 62
     6
 10
229.224880
 20
83.442982
 11
229.134084
 21
83.381831
  0
LINE
  8
CSLAYER1
  6
CONTINUOUS
 62
     6
 10
229.134084
 20
83.381831
 11
229.044437
 21
83.318416
  0
LINE
  8
CSLAYER1
  6
CONTINUOUS
 62
     6
 10
229.044437
 20
83.318416
 11
228.956422
 21
83.253410
  0
LINE
  8
CSLAYER1
  6
CONTINUOUS
 62
     6
 10
228.956422
 20
83.253410
 11
228.870523
 21
83.187482
  0
LINE
  8
CSLAYER1
  6
CONTINUOUS
 62
     6
 10
228.870523
 20
83.187482
 11
228.787223
 21
83.121305
  0
LINE
  8
CSLAYER1
  6
CONTINUOUS
 62
     6
 10
228.787223
 20
83.121305
 11
228.707004
 21
83.055550
  0
LINE
  8
CSLAYER1
  6
CONTINUOUS
 62
     6
 10
228.707004
 20
83.055550
 11
228.630351
 21
82.990887
  0
LINE
  8
CSLAYER1
  6
CONTINUOUS
 62
     6
 10
228.630351
 20
82.990887
 11
228.565054
 21
82.932762
  0
ARC
  8
CSLAYER1
  6
CONTINUOUS
 62
     6
 10
230.885661
 20
86.159100
 40
3.710000
 50
-124.666466
 51
179.299504
  0
LINE
  8
CSLAYER1
  6
CONTINUOUS
 62
     6
 10
227.085760
 20
86.160387
 11
226.879944
 21
86.058823
  0
LINE
  8
CSLAYER1
  6
CONTINUOUS
 62
     6
 10
226.879944
 20
86.058823
 11
226.676297
 21
85.951050
  0
LINE
  8
CSLAYER1
  6
CONTINUOUS
 62
     6
 10
226.676297
 20
85.951050
 11
226.476092
 21
85.836876
  0
LINE
  8
CSLAYER1
  6
CONTINUOUS
 62
     6
 10
226.476092
 20
85.836876
 11
226.280597
 21
85.716107
  0
LINE
  8
CSLAYER1
  6
CONTINUOUS
 62
     6
 10
226.280597
 20
85.716107
 11
226.091085
 21
85.588550
  0
LINE
  8
CSLAYER1
  6
CONTINUOUS
 62
     6
 10
226.091085
 20
85.588550
 11
225.908824
 21
85.454011
  0
LINE
  8
CSLAYER1
  6
CONTINUOUS
 62
     6
 10
225.908824
 20
85.454011
 11
225.735087
 21
85.312298
  0
LINE
  8
CSLAYER1
  6
CONTINUOUS
 62
     6
 10
225.735087
 20
85.312298
 11
225.627701
 21
85.216629
  0
LINE
  8
CSLAYER1
  6
CONTINUOUS
 62
     6
 10
225.627701
 20
85.216629
 11
225.523358
 21
85.117332
  0
LINE
  8
CSLAYER1
  6
CONTINUOUS
 62
     6
 10
225.523358
 20
85.117332
 11
225.421752
 21
85.014771
  0
LINE
  8
CSLAYER1
  6
CONTINUOUS
 62
     6
 10
225.421752
 20
85.014771
 11
225.322580
 21
84.909308
  0
LINE
  8
CSLAYER1
  6
CONTINUOUS
 62
     6
 10
225.322580
 20
84.909308
 11
225.225538
 21
84.801305
  0
LINE
  8
CSLAYER1
  6
CONTINUOUS
 62
     6
 10
225.225538
 20
84.801305
 11
225.130321
 21
84.691126
  0
LINE
  8
CSLAYER1
  6
CONTINUOUS
 62
     6
 10
225.130321
 20
84.691126
 11
225.036626
 21
84.579134
  0
LINE
  8
CSLAYER1
  6
CONTINUOUS
 62
     6
 10
225.036626
 20
84.579134
 11
224.944147
 21
84.465691
  0
LINE
  8
CSLAYER1
  6
CONTINUOUS
 62
     6
 10
224.944147
 20
84.465691
 11
224.852581
 21
84.351159
  0
LINE
  8
CSLAYER1
  6
CONTINUOUS
 62
     6
 10
224.852581
 20
84.351159
 11
224.761623
 21
84.235902
  0
LINE
  8
CSLAYER1
  6
CONTINUOUS
 62
     6
 10
224.761623
 20
84.235902
 11
224.670970
 21
84.120282
  0
ARC
  8
CSLAYER1
  6
CONTINUOUS
 62
     6
 10
225.426029
 20
84.369190
 40
0.794997
 50
198.245911
 51
258.245911
  0
ARC
  8
CSLAYER1
  6
CONTINUOUS
 62
     6
 10
225.102129
 20
82.812536
 40
0.794997
 50
18.245911
 51
78.245911
  0
ARC
  8
CSLAYER1
  6
CONTINUOUS
 62
     6
 10
226.019105
 20
83.839773
 40
0.794997
 50
198.245911
 51
258.245911
  0
LINE
  8
CSLAYER1
  6
CONTINUOUS
 62
     6
 10
225.857127
 20
83.061444
 11
225.932476
 21
83.157302
  0
LINE
  8
CSLAYER1
  6
CONTINUOUS
 62
     6
 10
225.932476
 20
83.157302
 11
226.008071
 21
83.252864
  0
LINE
  8
CSLAYER1
  6
CONTINUOUS
 62
     6
 10
226.008071
 20
83.252864
 11
226.084161
 21
83.347834
  0
LINE
  8
CSLAYER1
  6
CONTINUOUS
 62
     6
 10
226.084161
 20
83.347834
 11
226.160993
 21
83.441919
  0
LINE
  8
CSLAYER1
  6
CONTINUOUS
 62
     6
 10
226.160993
 20
83.441919
 11
226.238813
 21
83.534821
  0
LINE
  8
CSLAYER1
  6
CONTINUOUS
 62
     6
 10
226.238813
 20
83.534821
 11
226.317869
 21
83.626245
  0
LINE
  8
CSLAYER1
  6
CONTINUOUS
 62
     6
 10
226.317869
 20
83.626245
 11
226.398407
 21
83.715896
  0
LINE
  8
CSLAYER1
  6
CONTINUOUS
 62
     6
 10
226.398407
 20
83.715896
 11
226.480676
 21
83.803477
  0
LINE
  8
CSLAYER1
  6
CONTINUOUS
 62
     6
 10
226.480676
 20
83.803477
 11
226.564923
 21
83.888695
  0
LINE
  8
CSLAYER1
  6
CONTINUOUS
 62
     6
 10
226.564923
 20
83.888695
 11
226.651394
 21
83.971252
  0
LINE
  8
CSLAYER1
  6
CONTINUOUS
 62
     6
 10
226.651394
 20
83.971252
 11
226.740336
 21
84.050854
  0
LINE
  8
CSLAYER1
  6
CONTINUOUS
 62
     6
 10
226.740336
 20
84.050854
 11
226.889506
 21
84.173096
  0
LINE
  8
CSLAYER1
  6
CONTINUOUS
 62
     6
 10
226.889506
 20
84.173096
 11
227.046198
 21
84.289178
  0
LINE
  8
CSLAYER1
  6
CONTINUOUS
 62
     6
 10
227.046198
 20
84.289178
 11
227.209272
 21
84.399238
  0
LINE
  8
CSLAYER1
  6
CONTINUOUS
 62
     6
 10
227.209272
 20
84.399238
 11
227.377586
 21
84.503413
  0
LINE
  8
CSLAYER1
  6
CONTINUOUS
 62
     6
 10
227.377586
 20
84.503413
 11
227.549999
 21
84.601843
  0
LINE
  8
CSLAYER1
  6
CONTINUOUS
 62
     6
 10
227.549999
 20
84.601843
 11
227.725370
 21
84.694664
  0
LINE
  8
CSLAYER1
  6
CONTINUOUS
 62
     6
 10
227.725370
 20
84.694664
 11
227.902557
 21
84.782015
  0
LINE
  8
CSLAYER1
  6
CONTINUOUS
 62
     6
 10
227.902557
 20
84.782015
 11
228.080418
 21
84.864034
  0
LINE
  8
CSLAYER1
  6
CONTINUOUS
 62
     6
 10
228.080418
 20
84.864034
 11
228.257813
 21
84.940859
  0
LINE
  8
CSLAYER1
  6
CONTINUOUS
 62
     6
 10
228.257813
 20
84.940859
 11
228.433601
 21
85.012629
  0
LINE
  8
CSLAYER1
  6
CONTINUOUS
 62
     6
 10
228.433601
 20
85.012629
 11
228.606639
 21
85.079480
  0
LINE
  8
CSLAYER1
  6
CONTINUOUS
 62
     6
 10
228.606639
 20
85.079480
 11
228.735342
 21
85.129151
  0
LINE
  8
CSLAYER1
  6
CONTINUOUS
 62
     6
 10
228.735342
 20
85.129151
 11
228.866754
 21
85.182119
  0
LINE
  8
CSLAYER1
  6
CONTINUOUS
 62
     6
 10
228.866754
 20
85.182119
 11
229.000187
 21
85.237781
  0
LINE
  8
CSLAYER1
  6
CONTINUOUS
 62
     6
 10
229.000187
 20
85.237781
 11
229.134954
 21
85.295538
  0
LINE
  8
CSLAYER1
  6
CONTINUOUS
 62
     6
 10
229.134954
 20
85.295538
 11
229.270367
 21
85.354790
  0
LINE
  8
CSLAYER1
  6
CONTINUOUS
 62
     6
 10
229.270367
 20
85.354790
 11
229.405739
 21
85.414935
  0
LINE
  8
CSLAYER1
  6
CONTINUOUS
 62
     6
 10
229.405739
 20
85.414935
 11
229.540381
 21
85.475374
  0
LINE
  8
CSLAYER1
  6
CONTINUOUS
 62
     6
 10
229.540381
 20
85.475374
 11
229.673606
 21
85.535505
  0
LINE
  8
CSLAYER1
  6
CONTINUOUS
 62
     6
 10
229.673606
 20
85.535505
 11
229.804726
 21
85.594728
  0
LINE
  8
CSLAYER1
  6
CONTINUOUS
 62
     6
 10
229.804726
 20
85.594728
 11
229.933054
 21
85.652444
  0
LINE
  8
CSLAYER1
  6
CONTINUOUS
 62
     6
 10
229.933054
 20
85.652444
 11
230.057902
 21
85.708050
  0
LINE
  8
CSLAYER1
  6
CONTINUOUS
 62
     6
 10
230.057902
 20
85.708050
 11
230.180926
 21
85.763516
  0
LINE
  8
CSLAYER1
  6
CONTINUOUS
 62
     6
 10
230.180926
 20
85.763516
 11
230.308255
 21
85.822832
  0
LINE
  8
CSLAYER1
  6
CONTINUOUS
 62
     6
 10
230.308255
 20
85.822832
 11
230.438657
 21
85.885218
  0
LINE
  8
CSLAYER1
  6
CONTINUOUS
 62
     6
 10
230.438657
 20
85.885218
 11
230.570899
 21
85.949897
  0
LINE
  8
CSLAYER1
  6
CONTINUOUS
 62
     6
 10
230.570899
 20
85.949897
 11
230.703750
 21
86.016090
  0
LINE
  8
CSLAYER1
  6
CONTINUOUS
 62
     6
 10
230.703750
 20
86.016090
 11
230.835976
 21
86.083018
  0
LINE
  8
CSLAYER1
  6
CONTINUOUS
 62
     6
 10
230.835976
 20
86.083018
 11
230.966347
 21
86.149903
  0
LINE
  8
CSLAYER1
  6
CONTINUOUS
 62
     6
 10
230.966347
 20
86.149903
 11
231.093629
 21
86.215966
  0
LINE
  8
CSLAYER1
  6
CONTINUOUS
 62
     6
 10
231.093629
 20
86.215966
 11
231.216590
 21
86.280429
  0
LINE
  8
CSLAYER1
  6
CONTINUOUS
 62
     6
 10
231.216590
 20
86.280429
 11
231.333998
 21
86.342513
  0
LINE
  8
CSLAYER1
  6
CONTINUOUS
 62
     6
 10
231.333998
 20
86.342513
 11
231.444621
 21
86.401440
  0
ARC
  8
CSLAYER1
  6
CONTINUOUS
 62
     6
 10
231.089030
 20
87.112530
 40
0.795000
 50
-63.433378
 51
116.566642
  0
LINE
  8
CSLAYER1
  6
CONTINUOUS
 62
     6
 10
230.733500
 20
87.823590
 11
230.625706
 21
87.766267
  0
LINE
  8
CSLAYER1
  6
CONTINUOUS
 62
     6
 10
230.625706
 20
87.766267
 11
230.511521
 21
87.705998
  0
LINE
  8
CSLAYER1
  6
CONTINUOUS
 62
     6
 10
230.511521
 20
87.705998
 11
230.392092
 21
87.643501
  0
LINE
  8
CSLAYER1
  6
CONTINUOUS
 62
     6
 10
230.392092
 20
87.643501
 11
230.268568
 21
87.579496
  0
LINE
  8
CSLAYER1
  6
CONTINUOUS
 62
     6
 10
230.268568
 20
87.579496
 11
230.142097
 21
87.514702
  0
LINE
  8
CSLAYER1
  6
CONTINUOUS
 62
     6
 10
230.142097
 20
87.514702
 11
230.013828
 21
87.449837
  0
LINE
  8
CSLAYER1
  6
CONTINUOUS
 62
     6
 10
230.013828
 20
87.449837
 11
229.884909
 21
87.385622
  0
LINE
  8
CSLAYER1
  6
CONTINUOUS
 62
     6
 10
229.884909
 20
87.385622
 11
229.756487
 21
87.322776
  0
LINE
  8
CSLAYER1
  6
CONTINUOUS
 62
     6
 10
229.756487
 20
87.322776
 11
229.629712
 21
87.262017
  0
LINE
  8
CSLAYER1
  6
CONTINUOUS
 62
     6
 10
229.629712
 20
87.262017
 11
229.505731
 21
87.204066
  0
LINE
  8
CSLAYER1
  6
CONTINUOUS
 62
     6
 10
229.505731
 20
87.204066
 11
229.385692
 21
87.149640
  0
LINE
  8
CSLAYER1
  6
CONTINUOUS
 62
     6
 10
229.385692
 20
87.149640
 11
229.257845
 21
87.092413
  0
LINE
  8
CSLAYER1
  6
CONTINUOUS
 62
     6
 10
229.257845
 20
87.092413
 11
229.126714
 21
87.033341
  0
LINE
  8
CSLAYER1
  6
CONTINUOUS
 62
     6
 10
229.126714
 20
87.033341
 11
228.992945
 21
86.972968
  0
LINE
  8
CSLAYER1
  6
CONTINUOUS
 62
     6
 10
228.992945
 20
86.972968
 11
228.857184
 21
86.911838
  0
LINE
  8
CSLAYER1
  6
CONTINUOUS
 62
     6
 10
228.857184
 20
86.911838
 11
228.720077
 21
86.850495
  0
LINE
  8
CSLAYER1
  6
CONTINUOUS
 62
     6
 10
228.720077
 20
86.850495
 11
228.582269
 21
86.789483
  0
LINE
  8
CSLAYER1
  6
CONTINUOUS
 62
     6
 10
228.582269
 20
86.789483
 11
228.444406
 21
86.729347
  0
LINE
  8
CSLAYER1
  6
CONTINUOUS
 62
     6
 10
228.444406
 20
86.729347
 11
228.307133
 21
86.670630
  0
LINE
  8
CSLAYER1
  6
CONTINUOUS
 62
     6
 10
228.307133
 20
86.670630
 11
228.171096
 21
86.613876
  0
LINE
  8
CSLAYER1
  6
CONTINUOUS
 62
     6
 10
228.171096
 20
86.613876
 11
228.036942
 21
86.559630
  0
LINE
  8
CSLAYER1
  6
CONTINUOUS
 62
     6
 10
228.036942
 20
86.559630
 11
227.905314
 21
86.508435
  0
LINE
  8
CSLAYER1
  6
CONTINUOUS
 62
     6
 10
227.905314
 20
86.508435
 11
227.703524
 21
86.429768
  0
LINE
  8
CSLAYER1
  6
CONTINUOUS
 62
     6
 10
227.703524
 20
86.429768
 11
227.498821
 21
86.345667
  0
LINE
  8
CSLAYER1
  6
CONTINUOUS
 62
     6
 10
227.498821
 20
86.345667
 11
227.292476
 21
86.255938
  0
LINE
  8
CSLAYER1
  6
CONTINUOUS
 62
     6
 10
227.292476
 20
86.255938
 11
227.085760
 21
86.160387
  0
ARC
  8
CSLAYER1
  6
CONTINUOUS
 62
     6
 10
230.885661
 20
86.159123
 40
4.000000
 50
90.000000
 51
181.434347
  0
LINE
  8
CSLAYER1
  6
CONTINUOUS
 62
     6
 10
230.885661
 20
90.159123
 11
251.885661
 21
90.159123
  0
LINE
  8
CSLAYER1
  6
CONTINUOUS
 62
     6
 10
252.096475
 20
89.189968
 11
252.356002
 21
89.280174
  0
LINE
  8
CSLAYER1
  6
CONTINUOUS
 62
     6
 10
252.356002
 20
89.280174
 11
252.616459
 21
89.365102
  0
LINE
  8
CSLAYER1
  6
CONTINUOUS
 62
     6
 10
252.616459
 20
89.365102
 11
252.878000
 21
89.443871
  0
LINE
  8
CSLAYER1
  6
CONTINUOUS
 62
     6
 10
252.878000
 20
89.443871
 11
253.140781
 21
89.515603
  0
LINE
  8
CSLAYER1
  6
CONTINUOUS
 62
     6
 10
253.140781
 20
89.515603
 11
253.404955
 21
89.579417
  0
LINE
  8
CSLAYER1
  6
CONTINUOUS
 62
     6
 10
253.404955
 20
89.579417
 11
253.670679
 21
89.634434
  0
LINE
  8
CSLAYER1
  6
CONTINUOUS
 62
     6
 10
253.670679
 20
89.634434
 11
254.088259
 21
89.702092
  0
LINE
  8
CSLAYER1
  6
CONTINUOUS
 62
     6
 10
254.088259
 20
89.702092
 11
254.512997
 21
89.749986
  0
LINE
  8
CSLAYER1
  6
CONTINUOUS
 62
     6
 10
254.512997
 20
89.749986
 11
254.943000
 21
89.779630
  0
LINE
  8
CSLAYER1
  6
CONTINUOUS
 62
     6
 10
254.943000
 20
89.779630
 11
255.376373
 21
89.792539
  0
LINE
  8
CSLAYER1
  6
CONTINUOUS
 62
     6
 10
255.376373
 20
89.792539
 11
255.811222
 21
89.790227
  0
LINE
  8
CSLAYER1
  6
CONTINUOUS
 62
     6
 10
255.811222
 20
89.790227
 11
256.245655
 21
89.774210
  0
LINE
  8
CSLAYER1
  6
CONTINUOUS
 62
     6
 10
256.245655
 20
89.774210
 11
256.677777
 21
89.746001
  0
LINE
  8
CSLAYER1
  6
CONTINUOUS
 62
     6
 10
256.677777
 20
89.746001
 11
257.105695
 21
89.707117
  0
LINE
  8
CSLAYER1
  6
CONTINUOUS
 62
     6
 10
257.105695
 20
89.707117
 11
257.527514
 21
89.659070
  0
LINE
  8
CSLAYER1
  6
CONTINUOUS
 62
     6
 10
257.527514
 20
89.659070
 11
257.941342
 21
89.603377
  0
LINE
  8
CSLAYER1
  6
CONTINUOUS
 62
     6
 10
257.941342
 20
89.603377
 11
258.345283
 21
89.541550
  0
LINE
  8
CSLAYER1
  6
CONTINUOUS
 62
     6
 10
258.345283
 20
89.541550
 11
258.608661
 21
89.501026
  0
LINE
  8
CSLAYER1
  6
CONTINUOUS
 62
     6
 10
258.608661
 20
89.501026
 11
258.879047
 21
89.463104
  0
LINE
  8
CSLAYER1
  6
CONTINUOUS
 62
     6
 10
258.879047
 20
89.463104
 11
259.154873
 21
89.427504
  0
LINE
  8
CSLAYER1
  6
CONTINUOUS
 62
     6
 10
259.154873
 20
89.427504
 11
259.434572
 21
89.393946
  0
LINE
  8
CSLAYER1
  6
CONTINUOUS
 62
     6
 10
259.434572
 20
89.393946
 11
259.716574
 21
89.362150
  0
LINE
  8
CSLAYER1
  6
CONTINUOUS
 62
     6
 10
259.716574
 20
89.362150
 11
259.999312
 21
89.331836
  0
LINE
  8
CSLAYER1
  6
CONTINUOUS
 62
     6
 10
259.999312
 20
89.331836
 11
260.281218
 21
89.302725
  0
LINE
  8
CSLAYER1
  6
CONTINUOUS
 62
     6
 10
260.281218
 20
89.302725
 11
260.560722
 21
89.274535
  0
LINE
  8
CSLAYER1
  6
CONTINUOUS
 62
     6
 10
260.560722
 20
89.274535
 11
260.836257
 21
89.246989
  0
LINE
  8
CSLAYER1
  6
CONTINUOUS
 62
     6
 10
260.836257
 20
89.246989
 11
261.106255
 21
89.219805
  0
LINE
  8
CSLAYER1
  6
CONTINUOUS
 62
     6
 10
261.106255
 20
89.219805
 11
261.369147
 21
89.192703
  0
LINE
  8
CSLAYER1
  6
CONTINUOUS
 62
     6
 10
261.369147
 20
89.192703
 11
261.616635
 21
89.168391
  0
LINE
  8
CSLAYER1
  6
CONTINUOUS
 62
     6
 10
261.616635
 20
89.168391
 11
261.873893
 21
89.146122
  0
LINE
  8
CSLAYER1
  6
CONTINUOUS
 62
     6
 10
261.873893
 20
89.146122
 11
262.138365
 21
89.125803
  0
LINE
  8
CSLAYER1
  6
CONTINUOUS
 62
     6
 10
262.138365
 20
89.125803
 11
262.407496
 21
89.107342
  0
LINE
  8
CSLAYER1
  6
CONTINUOUS
 62
     6
 10
262.407496
 20
89.107342
 11
262.678732
 21
89.090647
  0
LINE
  8
CSLAYER1
  6
CONTINUOUS
 62
     6
 10
262.678732
 20
89.090647
 11
262.949518
 21
89.075628
  0
LINE
  8
CSLAYER1
  6
CONTINUOUS
 62
     6
 10
262.949518
 20
89.075628
 11
263.217299
 21
89.062190
  0
LINE
  8
CSLAYER1
  6
CONTINUOUS
 62
     6
 10
263.217299
 20
89.062190
 11
263.479521
 21
89.050243
  0
LINE
  8
CSLAYER1
  6
CONTINUOUS
 62
     6
 10
263.479521
 20
89.050243
 11
263.733628
 21
89.039695
  0
LINE
  8
CSLAYER1
  6
CONTINUOUS
 62
     6
 10
263.733628
 20
89.039695
 11
263.977066
 21
89.030454
  0
LINE
  8
CSLAYER1
  6
CONTINUOUS
 62
     6
 10
263.977066
 20
89.030454
 11
264.207280
 21
89.022427
  0
ARC
  8
CSLAYER1
  6
CONTINUOUS
 62
     6
 10
264.117409
 20
87.525142
 40
1.500000
 50
-93.433378
 51
86.566642
  0
LINE
  8
CSLAYER1
  6
CONTINUOUS
 62
     6
 10
264.027608
 20
86.027751
 11
263.791258
 21
86.035825
  0
LINE
  8
CSLAYER1
  6
CONTINUOUS
 62
     6
 10
263.791258
 20
86.035825
 11
263.540841
 21
86.045141
  0
LINE
  8
CSLAYER1
  6
CONTINUOUS
 62
     6
 10
263.540841
 20
86.045141
 11
263.279107
 21
86.055809
  0
LINE
  8
CSLAYER1
  6
CONTINUOUS
 62
     6
 10
263.279107
 20
86.055809
 11
263.008804
 21
86.067939
  0
LINE
  8
CSLAYER1
  6
CONTINUOUS
 62
     6
 10
263.008804
 20
86.067939
 11
262.732678
 21
86.081639
  0
LINE
  8
CSLAYER1
  6
CONTINUOUS
 62
     6
 10
262.732678
 20
86.081639
 11
262.453479
 21
86.097020
  0
LINE
  8
CSLAYER1
  6
CONTINUOUS
 62
     6
 10
262.453479
 20
86.097020
 11
262.173954
 21
86.114192
  0
LINE
  8
CSLAYER1
  6
CONTINUOUS
 62
     6
 10
262.173954
 20
86.114192
 11
261.896851
 21
86.133263
  0
LINE
  8
CSLAYER1
  6
CONTINUOUS
 62
     6
 10
261.896851
 20
86.133263
 11
261.624918
 21
86.154343
  0
LINE
  8
CSLAYER1
  6
CONTINUOUS
 62
     6
 10
261.624918
 20
86.154343
 11
261.360903
 21
86.177542
  0
LINE
  8
CSLAYER1
  6
CONTINUOUS
 62
     6
 10
261.360903
 20
86.177542
 11
261.107554
 21
86.202970
  0
LINE
  8
CSLAYER1
  6
CONTINUOUS
 62
     6
 10
261.107554
 20
86.202970
 11
260.851092
 21
86.229890
  0
LINE
  8
CSLAYER1
  6
CONTINUOUS
 62
     6
 10
260.851092
 20
86.229890
 11
260.586954
 21
86.256647
  0
LINE
  8
CSLAYER1
  6
CONTINUOUS
 62
     6
 10
260.586954
 20
86.256647
 11
260.316831
 21
86.283573
  0
LINE
  8
CSLAYER1
  6
CONTINUOUS
 62
     6
 10
260.316831
 20
86.283573
 11
260.042413
 21
86.311002
  0
LINE
  8
CSLAYER1
  6
CONTINUOUS
 62
     6
 10
260.042413
 20
86.311002
 11
259.765389
 21
86.339266
  0
LINE
  8
CSLAYER1
  6
CONTINUOUS
 62
     6
 10
259.765389
 20
86.339266
 11
259.487450
 21
86.368697
  0
LINE
  8
CSLAYER1
  6
CONTINUOUS
 62
     6
 10
259.487450
 20
86.368697
 11
259.210286
 21
86.399627
  0
LINE
  8
CSLAYER1
  6
CONTINUOUS
 62
     6
 10
259.210286
 20
86.399627
 11
258.935588
 21
86.432390
  0
LINE
  8
CSLAYER1
  6
CONTINUOUS
 62
     6
 10
258.935588
 20
86.432390
 11
258.665044
 21
86.467317
  0
LINE
  8
CSLAYER1
  6
CONTINUOUS
 62
     6
 10
258.665044
 20
86.467317
 11
258.400347
 21
86.504742
  0
LINE
  8
CSLAYER1
  6
CONTINUOUS
 62
     6
 10
258.400347
 20
86.504742
 11
258.143185
 21
86.544996
  0
LINE
  8
CSLAYER1
  6
CONTINUOUS
 62
     6
 10
258.143185
 20
86.544996
 11
257.797371
 21
86.599004
  0
LINE
  8
CSLAYER1
  6
CONTINUOUS
 62
     6
 10
257.797371
 20
86.599004
 11
257.442426
 21
86.647570
  0
LINE
  8
CSLAYER1
  6
CONTINUOUS
 62
     6
 10
257.442426
 20
86.647570
 11
257.080084
 21
86.689390
  0
LINE
  8
CSLAYER1
  6
CONTINUOUS
 62
     6
 10
257.080084
 20
86.689390
 11
256.712079
 21
86.723164
  0
LINE
  8
CSLAYER1
  6
CONTINUOUS
 62
     6
 10
256.712079
 20
86.723164
 11
256.340148
 21
86.747589
  0
LINE
  8
CSLAYER1
  6
CONTINUOUS
 62
     6
 10
256.340148
 20
86.747589
 11
255.966023
 21
86.761362
  0
LINE
  8
CSLAYER1
  6
CONTINUOUS
 62
     6
 10
255.966023
 20
86.761362
 11
255.591440
 21
86.763181
  0
LINE
  8
CSLAYER1
  6
CONTINUOUS
 62
     6
 10
255.591440
 20
86.763181
 11
255.218134
 21
86.751744
  0
LINE
  8
CSLAYER1
  6
CONTINUOUS
 62
     6
 10
255.218134
 20
86.751744
 11
254.847840
 21
86.725749
  0
LINE
  8
CSLAYER1
  6
CONTINUOUS
 62
     6
 10
254.847840
 20
86.725749
 11
254.482292
 21
86.683893
  0
LINE
  8
CSLAYER1
  6
CONTINUOUS
 62
     6
 10
254.482292
 20
86.683893
 11
254.123225
 21
86.624874
  0
LINE
  8
CSLAYER1
  6
CONTINUOUS
 62
     6
 10
254.123225
 20
86.624874
 11
253.902796
 21
86.578712
  0
LINE
  8
CSLAYER1
  6
CONTINUOUS
 62
     6
 10
253.902796
 20
86.578712
 11
253.683617
 21
86.525388
  0
LINE
  8
CSLAYER1
  6
CONTINUOUS
 62
     6
 10
253.683617
 20
86.525388
 11
253.465564
 21
86.465620
  0
LINE
  8
CSLAYER1
  6
CONTINUOUS
 62
     6
 10
253.465564
 20
86.465620
 11
253.248511
 21
86.400123
  0
LINE
  8
CSLAYER1
  6
CONTINUOUS
 62
     6
 10
253.248511
 20
86.400123
 11
253.032334
 21
86.329612
  0
LINE
  8
CSLAYER1
  6
CONTINUOUS
 62
     6
 10
253.032334
 20
86.329612
 11
252.816906
 21
86.254805
  0
LINE
  8
CSLAYER1
  6
CONTINUOUS
 62
     6
 10
252.816906
 20
86.254805
 11
252.602104
 21
86.176418
  0
LINE
  8
CSLAYER1
  6
CONTINUOUS
 62
     6
 10
252.602104
 20
86.176418
 11
252.387802
 21
86.095166
  0
LINE
  8
CSLAYER1
  6
CONTINUOUS
 62
     6
 10
252.387802
 20
86.095166
 11
252.173875
 21
86.011765
  0
LINE
  8
CSLAYER1
  6
CONTINUOUS
 62
     6
 10
252.173875
 20
86.011765
 11
251.960198
 21
85.926933
  0
LINE
  8
CSLAYER1
  6
CONTINUOUS
 62
     6
 10
251.960198
 20
85.926933
 11
251.746647
 21
85.841384
  0
ARC
  8
CSLAYER1
  6
CONTINUOUS
 62
     6
 10
250.278154
 20
86.146929
 40
1.499994
 50
-11.754089
 51
48.245911
  0
ARC
  8
CSLAYER1
  6
CONTINUOUS
 62
     6
 10
252.275951
 20
88.384950
 40
1.499994
 50
168.245911
 51
228.245911
  0
LINE
  8
CSLAYER1
  6
CONTINUOUS
 62
     6
 10
250.807358
 20
88.690552
 11
251.064562
 21
88.793954
  0
LINE
  8
CSLAYER1
  6
CONTINUOUS
 62
     6
 10
251.064562
 20
88.793954
 11
251.321920
 21
88.896476
  0
LINE
  8
CSLAYER1
  6
CONTINUOUS
 62
     6
 10
251.321920
 20
88.896476
 11
251.579589
 21
88.997239
  0
LINE
  8
CSLAYER1
  6
CONTINUOUS
 62
     6
 10
251.579589
 20
88.997239
 11
251.837722
 21
89.095363
  0
LINE
  8
CSLAYER1
  6
CONTINUOUS
 62
     6
 10
251.837722
 20
89.095363
 11
252.096475
 21
89.189968
  0
LINE
  8
CSLAYER1
  6
CONTINUOUS
 62
     6
 10
251.885661
 20
89.095363
 11
251.885661
 21
131.159123
  0
LINE
  8
CSLAYER1
  6
CONTINUOUS
 62
     6
 10
251.885661
 20
130.159108
 11
254.360087
 21
130.159108
  0
ARC
  8
CSLAYER1
  6
CONTINUOUS
 62
     6
 10
255.786052
 20
130.159108
 40
1.000000
 50
90.000003
 51
173.999998
  0
LINE
  8
CSLAYER1
  6
CONTINUOUS
 62
     6
 10
255.786052
 20
131.159108
 11
291.985210
 21
131.159108
  0
ARC
  8
CSLAYER1
  6
CONTINUOUS
 62
     6
 10
291.985210
 20
130.159108
 40
1.000000
 50
6.000003
 51
90.000016
  0
LINE
  8
CSLAYER1
  6
CONTINUOUS
 62
     6
 10
292.979777
 20
130.263600
 11
293.677409
 21
123.626149
  0
ARC
  8
CSLAYER1
  6
CONTINUOUS
 62
     6
 10
294.671916
 20
123.730641
 40
1.000000
 50
186.000026
 51
270.000001
  0
ARC
  8
CSLAYER1
  6
CONTINUOUS
 62
     6
 10
294.622295
 20
128.202931
 40
1.000000
 50
186.000026
 51
270.000001
  0
LINE
  8
CSLAYER1
  6
CONTINUOUS
 62
     6
 10
293.627727
 20
128.098378
 11
292.979777
 21
134.263600
  0
ARC
  8
CSLAYER1
  6
CONTINUOUS
 62
     6
 10
291.985210
 20
134.159108
 40
1.000000
 50
6.000003
 51
90.000016
  0
LINE
  8
CSLAYER1
  6
CONTINUOUS
 62
     6
 10
291.985210
 20
135.159108
 11
255.786052
 21
135.159108
  0
ARC
  8
CSLAYER1
  6
CONTINUOUS
 62
     6
 10
255.786052
 20
134.159108
 40
1.000000
 50
90.000003
 51
173.999998
  0
LINE
  8
CSLAYER1
  6
CONTINUOUS
 62
     6
 10
254.791545
 20
134.263600
 11
254.143535
 21
128.098378
  0
ARC
  8
CSLAYER1
  6
CONTINUOUS
 62
     6
 10
253.149028
 20
128.202931
 40
1.000000
 50
270.000001
 51
353.999989
  0
LINE
  8
CSLAYER1
  6
CONTINUOUS
 62
     6
 10
254.791545
 20
130.263600
 11
254.093913
 21
123.626149
  0
ARC
  8
CSLAYER1
  6
CONTINUOUS
 62
     6
 10
253.099345
 20
123.730641
 40
1.000000
 50
270.000001
 51
353.999989
  0
LINE
  8
CSLAYER1
  6
CONTINUOUS
 62
     6
 10
257.571635
 20
122.552296
 11
289.528728
 21
122.552296
  0
LINE
  8
CSLAYER1
  6
CONTINUOUS
 62
     6
 10
293.410625
 20
130.159108
 11
294.885661
 21
130.159108
  0
LINE
  8
CSLAYER1
  6
CONTINUOUS
 62
     6
 10
294.885661
 20
131.159123
 11
294.885661
 21
41.159123
  0
LINE
  8
CSLAYER1
  6
CONTINUOUS
 62
     6
 10
294.885661
 20
41.159123
 11
380.885631
 21
41.159123
  0
LINE
  8
CSLAYER1
  6
CONTINUOUS
 62
     6
 10
379.885631
 20
41.159123
 11
379.885631
 21
131.159123
  0
LINE
  8
CSLAYER1
  6
CONTINUOUS
 62
     6
 10
380.885631
 20
131.159123
 11
294.885661
 21
131.159123
  0
ARC
  8
CSLAYER1
  6
CONTINUOUS
 62
     6
 10
271.685649
 20
178.559117
 40
0.100000
 50
270.000001
 51
359.942691
  0
LINE
  8
CSLAYER1
  6
CONTINUOUS
 62
     6
 10
271.785625
 20
178.559117
 11
271.785625
 21
179.059117
  0
ARC
  8
CSLAYER1
  6
CONTINUOUS
 62
     6
 10
271.685649
 20
179.059117
 40
0.100000
 50
0.000010
 51
90.000016
  0
LINE
  8
CSLAYER1
  6
CONTINUOUS
 62
     6
 10
269.481578
 20
178.459141
 11
269.037700
 21
179.159123
  0
LINE
  8
CSLAYER1
  6
CONTINUOUS
 62
     6
 10
268.537700
 20
179.159123
 11
268.981578
 21
178.459141
  0
LINE
  8
CSLAYER1
  6
CONTINUOUS
 62
     6
 10
196.885661
 20
131.159123
 11
196.885661
 21
41.159123
  0
ARC
  8
CSLAYER1
  6
CONTINUOUS
 62
     6
 10
191.764971
 20
46.279839
 40
0.120690
 50
270.000001
 51
359.942691
  0
LINE
  8
CSLAYER1
  6
CONTINUOUS
 62
     6
 10
191.764971
 20
46.159141
 11
191.161522
 21
46.159141
  0
ARC
  8
CSLAYER1
  6
CONTINUOUS
 62
     6
 10
191.161522
 20
46.279839
 40
0.120690
 50
180.000005
 51
270.000001
  0
LINE
  8
CSLAYER1
  6
CONTINUOUS
 62
     6
 10
191.040861
 20
46.279839
 11
191.040861
 21
53.038444
  0
ARC
  8
CSLAYER1
  6
CONTINUOUS
 62
     6
 10
191.161522
 20
53.038444
 40
0.120690
 50
90.000003
 51
180.000005
  0
LINE
  8
CSLAYER1
  6
CONTINUOUS
 62
     6
 10
191.161522
 20
53.159141
 11
191.764971
 21
53.159141
  0
ARC
  8
CSLAYER1
  6
CONTINUOUS
 62
     6
 10
191.764971
 20
53.038444
 40
0.120690
 50
0.000000
 51
90.000003
  0
ARC
  8
CSLAYER1
  6
CONTINUOUS
 62
     6
 10
190.799467
 20
52.714694
 40
0.241380
 50
0.000000
 51
95.000152
  0
LINE
  8
CSLAYER1
  6
CONTINUOUS
 62
     6
 10
190.778399
 20
52.955149
 11
190.018268
 21
52.888650
  0
ARC
  8
CSLAYER1
  6
CONTINUOUS
 62
     6
 10
190.123459
 20
51.686336
 40
1.206899
 50
95.000111
 51
163.742611
  0
ARC
  8
CSLAYER1
  6
CONTINUOUS
 62
     6
 10
197.075357
 20
49.659141
 40
8.448294
 50
163.742994
 51
196.257016
  0
ARC
  8
CSLAYER1
  6
CONTINUOUS
 62
     6
 10
190.123459
 20
47.631946
 40
1.206899
 50
196.257399
 51
264.999892
  0
LINE
  8
CSLAYER1
  6
CONTINUOUS
 62
     6
 10
190.018268
 20
46.429633
 11
190.778399
 21
46.363133
  0
ARC
  8
CSLAYER1
  6
CONTINUOUS
 62
     6
 10
190.799467
 20
46.603589
 40
0.241380
 50
264.999865
 51
359.942691
  0
LINE
  8
CSLAYER1
  6
CONTINUOUS
 62
     6
 10
191.040861
 20
48.939912
 11
191.885669
 21
49.475609
  0
LINE
  8
CSLAYER1
  6
CONTINUOUS
 62
     6
 10
191.885669
 20
50.079059
 11
191.040861
 21
49.543361
  0
LINE
  8
CSLAYER1
  6
CONTINUOUS
 62
     6
 10
191.885661
 20
56.159123
 11
185.885661
 21
56.159123
  0
LINE
  8
CSLAYER1
  6
CONTINUOUS
 62
     6
 10
185.885661
 20
56.159123
 11
185.885661
 21
116.159123
  0
LINE
  8
CSLAYER1
  6
CONTINUOUS
 62
     6
 10
185.885661
 20
116.159123
 11
191.885661
 21
116.159123
  0
LINE
  8
CSLAYER1
  6
CONTINUOUS
 62
     6
 10
191.764971
 20
107.909141
 11
191.161522
 21
107.909141
  0
ARC
  8
CSLAYER1
  6
CONTINUOUS
 62
     6
 10
191.161522
 20
107.788444
 40
0.120690
 50
90.000003
 51
180.000005
  0
LINE
  8
CSLAYER1
  6
CONTINUOUS
 62
     6
 10
191.040861
 20
107.788444
 11
191.040861
 21
101.029839
  0
ARC
  8
CSLAYER1
  6
CONTINUOUS
 62
     6
 10
191.161522
 20
101.029839
 40
0.120690
 50
180.000005
 51
270.000001
  0
LINE
  8
CSLAYER1
  6
CONTINUOUS
 62
     6
 10
191.161522
 20
100.909141
 11
191.764971
 21
100.909141
  0
ARC
  8
CSLAYER1
  6
CONTINUOUS
 62
     6
 10
191.764971
 20
101.029839
 40
0.120690
 50
270.000001
 51
359.942691
  0
ARC
  8
CSLAYER1
  6
CONTINUOUS
 62
     6
 10
190.799467
 20
101.353589
 40
0.241380
 50
264.999865
 51
359.942691
  0
LINE
  8
CSLAYER1
  6
CONTINUOUS
 62
     6
 10
190.778399
 20
101.113133
 11
190.018268
 21
101.179633
  0
ARC
  8
CSLAYER1
  6
CONTINUOUS
 62
     6
 10
190.123459
 20
102.381946
 40
1.206899
 50
196.257399
 51
264.999892
  0
ARC
  8
CSLAYER1
  6
CONTINUOUS
 62
     6
 10
197.075357
 20
104.409141
 40
8.448294
 50
163.742994
 51
196.257016
  0
ARC
  8
CSLAYER1
  6
CONTINUOUS
 62
     6
 10
190.123459
 20
106.436336
 40
1.206899
 50
95.000111
 51
163.742611
  0
LINE
  8
CSLAYER1
  6
CONTINUOUS
 62
     6
 10
190.018268
 20
107.638650
 11
190.778399
 21
107.705149
  0
ARC
  8
CSLAYER1
  6
CONTINUOUS
 62
     6
 10
190.799467
 20
107.464694
 40
0.241380
 50
0.000000
 51
95.000152
  0
ARC
  8
CSLAYER1
  6
CONTINUOUS
 62
     6
 10
191.764971
 20
107.788444
 40
0.120690
 50
0.000000
 51
90.000003
  0
LINE
  8
CSLAYER1
  6
CONTINUOUS
 62
     6
 10
191.885669
 20
104.829059
 11
191.040861
 21
104.293361
  0
LINE
  8
CSLAYER1
  6
CONTINUOUS
 62
     6
 10
191.040861
 20
103.689912
 11
191.885669
 21
104.225609
  0
LINE
  8
CSLAYER1
  6
CONTINUOUS
 62
     6
 10
189.488741
 20
101.355429
 11
189.185649
 21
101.163243
  0
LINE
  8
CSLAYER1
  6
CONTINUOUS
 62
     6
 10
185.885661
 20
101.159123
 11
169.585661
 21
101.159123
  0
ARC
  8
CSLAYER1
  6
CONTINUOUS
 62
     6
 10
169.585661
 20
99.159123
 40
2.000000
 50
90.000000
 51
180.000000
  0
LINE
  8
CSLAYER1
  6
CONTINUOUS
 62
     6
 10
167.585661
 20
99.159123
 11
167.585661
 21
73.159123
  0
ARC
  8
CSLAYER1
  6
CONTINUOUS
 62
     6
 10
169.585661
 20
73.159123
 40
2.000000
 50
180.000000
 51
270.000000
  0
LINE
  8
CSLAYER1
  6
CONTINUOUS
 62
     6
 10
169.585661
 20
71.159123
 11
185.885661
 21
71.159123
  0
LINE
  8
CSLAYER1
  6
CONTINUOUS
 62
     6
 10
185.885661
 20
73.659123
 11
182.885661
 21
73.659123
  0
LINE
  8
CSLAYER1
  6
CONTINUOUS
 62
     6
 10
182.885661
 20
73.659123
 11
182.885661
 21
71.159123
  0
LINE
  8
CSLAYER1
  6
CONTINUOUS
 62
     6
 10
182.885661
 20
77.159123
 11
182.885661
 21
95.159123
  0
LINE
  8
CSLAYER1
  6
CONTINUOUS
 62
     6
 10
182.885661
 20
95.159123
 11
185.885661
 21
95.159123
  0
LINE
  8
CSLAYER1
  6
CONTINUOUS
 62
     6
 10
182.885661
 20
93.409123
 11
175.785661
 21
93.409123
  0
LINE
  8
CSLAYER1
  6
CONTINUOUS
 62
     6
 10
175.785661
 20
93.409123
 11
175.785661
 21
78.909123
  0
LINE
  8
CSLAYER1
  6
CONTINUOUS
 62
     6
 10
175.785661
 20
78.909123
 11
182.885661
 21
78.909123
  0
LINE
  8
CSLAYER1
  6
CONTINUOUS
 62
     6
 10
182.885661
 20
77.159123
 11
185.885661
 21
77.159123
  0
LINE
  8
CSLAYER1
  6
CONTINUOUS
 62
     6
 10
180.205661
 20
80.759123
 11
179.565661
 21
80.759123
  0
LINE
  8
CSLAYER1
  6
CONTINUOUS
 62
     6
 10
179.565661
 20
80.759123
 11
179.565661
 21
81.399123
  0
LINE
  8
CSLAYER1
  6
CONTINUOUS
 62
     6
 10
179.565661
 20
81.399123
 11
180.205661
 21
81.399123
  0
LINE
  8
CSLAYER1
  6
CONTINUOUS
 62
     6
 10
180.205661
 20
81.399123
 11
180.205661
 21
80.759123
  0
LINE
  8
CSLAYER1
  6
CONTINUOUS
 62
     6
 10
180.205661
 20
83.299123
 11
179.565661
 21
83.299123
  0
LINE
  8
CSLAYER1
  6
CONTINUOUS
 62
     6
 10
179.565661
 20
83.299123
 11
179.565661
 21
83.939123
  0
LINE
  8
CSLAYER1
  6
CONTINUOUS
 62
     6
 10
179.565661
 20
83.939123
 11
180.205661
 21
83.939123
  0
LINE
  8
CSLAYER1
  6
CONTINUOUS
 62
     6
 10
180.205661
 20
83.939123
 11
180.205661
 21
83.299123
  0
LINE
  8
CSLAYER1
  6
CONTINUOUS
 62
     6
 10
180.205661
 20
85.839123
 11
179.565661
 21
85.839123
  0
LINE
  8
CSLAYER1
  6
CONTINUOUS
 62
     6
 10
179.565661
 20
85.839123
 11
179.565661
 21
86.479123
  0
LINE
  8
CSLAYER1
  6
CONTINUOUS
 62
     6
 10
179.565661
 20
86.479123
 11
180.205661
 21
86.479123
  0
LINE
  8
CSLAYER1
  6
CONTINUOUS
 62
     6
 10
180.205661
 20
86.479123
 11
180.205661
 21
85.839123
  0
LINE
  8
CSLAYER1
  6
CONTINUOUS
 62
     6
 10
180.205661
 20
88.379123
 11
180.205661
 21
89.019123
  0
LINE
  8
CSLAYER1
  6
CONTINUOUS
 62
     6
 10
180.205661
 20
89.019123
 11
179.565661
 21
89.019123
  0
LINE
  8
CSLAYER1
  6
CONTINUOUS
 62
     6
 10
179.565661
 20
89.019123
 11
179.565661
 21
88.379123
  0
LINE
  8
CSLAYER1
  6
CONTINUOUS
 62
     6
 10
179.565661
 20
88.379123
 11
180.205661
 21
88.379123
  0
LINE
  8
CSLAYER1
  6
CONTINUOUS
 62
     6
 10
180.205661
 20
90.919123
 11
180.205661
 21
91.559123
  0
LINE
  8
CSLAYER1
  6
CONTINUOUS
 62
     6
 10
180.205661
 20
91.559123
 11
179.565661
 21
91.559123
  0
LINE
  8
CSLAYER1
  6
CONTINUOUS
 62
     6
 10
179.565661
 20
91.559123
 11
179.565661
 21
90.919123
  0
LINE
  8
CSLAYER1
  6
CONTINUOUS
 62
     6
 10
179.565661
 20
90.919123
 11
180.205661
 21
90.919123
  0
LINE
  8
CSLAYER1
  6
CONTINUOUS
 62
     6
 10
182.885661
 20
98.659123
 11
185.885661
 21
98.659123
  0
LINE
  8
CSLAYER1
  6
CONTINUOUS
 62
     6
 10
182.885661
 20
98.659123
 11
182.885661
 21
101.159123
  0
LINE
  8
CSLAYER1
  6
CONTINUOUS
 62
     6
 10
223.434789
 20
82.143418
 11
223.389796
 21
82.047479
  0
LINE
  8
CSLAYER1
  6
CONTINUOUS
 62
     6
 10
223.389796
 20
82.047479
 11
223.346793
 21
81.952803
  0
LINE
  8
CSLAYER1
  6
CONTINUOUS
 62
     6
 10
223.346793
 20
81.952803
 11
223.306072
 21
81.860386
  0
LINE
  8
CSLAYER1
  6
CONTINUOUS
 62
     6
 10
223.306072
 20
81.860386
 11
223.267924
 21
81.771222
  0
LINE
  8
CSLAYER1
  6
CONTINUOUS
 62
     6
 10
223.267924
 20
81.771222
 11
223.232558
 21
81.681905
  0
LINE
  8
CSLAYER1
  6
CONTINUOUS
 62
     6
 10
223.232558
 20
81.681905
 11
223.200089
 21
81.589032
  0
LINE
  8
CSLAYER1
  6
CONTINUOUS
 62
     6
 10
223.200089
 20
81.589032
 11
223.170456
 21
81.493100
  0
LINE
  8
CSLAYER1
  6
CONTINUOUS
 62
     6
 10
223.170456
 20
81.493100
 11
223.143598
 21
81.394603
  0
LINE
  8
CSLAYER1
  6
CONTINUOUS
 62
     6
 10
223.143598
 20
81.394603
 11
223.119454
 21
81.294036
  0
LINE
  8
CSLAYER1
  6
CONTINUOUS
 62
     6
 10
223.119454
 20
81.294036
 11
223.097964
 21
81.191897
  0
LINE
  8
CSLAYER1
  6
CONTINUOUS
 62
     6
 10
223.097964
 20
81.191897
 11
223.079066
 21
81.088679
  0
LINE
  8
CSLAYER1
  6
CONTINUOUS
 62
     6
 10
223.079066
 20
81.088679
 11
223.062699
 21
80.984879
  0
LINE
  8
CSLAYER1
  6
CONTINUOUS
 62
     6
 10
223.062699
 20
80.984879
 11
223.048803
 21
80.880992
  0
LINE
  8
CSLAYER1
  6
CONTINUOUS
 62
     6
 10
223.048803
 20
80.880992
 11
223.037316
 21
80.777514
  0
LINE
  8
CSLAYER1
  6
CONTINUOUS
 62
     6
 10
223.037316
 20
80.777514
 11
223.028178
 21
80.674939
  0
LINE
  8
CSLAYER1
  6
CONTINUOUS
 62
     6
 10
223.028178
 20
80.674939
 11
223.021241
 21
80.571224
  0
LINE
  8
CSLAYER1
  6
CONTINUOUS
 62
     6
 10
223.021241
 20
80.571224
 11
223.016524
 21
80.467494
  0
LINE
  8
CSLAYER1
  6
CONTINUOUS
 62
     6
 10
223.016524
 20
80.467494
 11
223.013804
 21
80.363752
  0
LINE
  8
CSLAYER1
  6
CONTINUOUS
 62
     6
 10
223.013804
 20
80.363752
 11
223.012861
 21
80.259998
  0
LINE
  8
CSLAYER1
  6
CONTINUOUS
 62
     6
 10
223.012861
 20
80.259998
 11
223.013471
 21
80.156234
  0
LINE
  8
CSLAYER1
  6
CONTINUOUS
 62
     6
 10
223.013471
 20
80.156234
 11
223.015413
 21
80.052461
  0
LINE
  8
CSLAYER1
  6
CONTINUOUS
 62
     6
 10
223.015413
 20
80.052461
 11
223.018465
 21
79.948682
  0
LINE
  8
CSLAYER1
  6
CONTINUOUS
 62
     6
 10
223.018465
 20
79.948682
 11
223.022405
 21
79.844896
  0
LINE
  8
CSLAYER1
  6
CONTINUOUS
 62
     6
 10
223.022405
 20
79.844896
 11
223.027011
 21
79.741106
  0
LINE
  8
CSLAYER1
  6
CONTINUOUS
 62
     6
 10
223.027011
 20
79.741106
 11
223.032061
 21
79.637314
  0
LINE
  8
CSLAYER1
  6
CONTINUOUS
 62
     6
 10
223.032061
 20
79.637314
 11
223.037333
 21
79.533520
  0
ARC
  8
CSLAYER1
  6
CONTINUOUS
 62
     6
 10
223.429287
 20
80.225196
 40
0.794999
 50
240.461270
 51
300.461270
  0
ARC
  8
CSLAYER1
  6
CONTINUOUS
 62
     6
 10
224.235346
 20
78.854662
 40
0.794999
 50
60.461270
 51
120.461270
  0
LINE
  8
CSLAYER1
  6
CONTINUOUS
 62
     6
 10
224.627299
 20
79.546307
 11
224.622271
 21
79.633953
  0
LINE
  8
CSLAYER1
  6
CONTINUOUS
 62
     6
 10
224.622271
 20
79.633953
 11
224.617460
 21
79.721594
  0
LINE
  8
CSLAYER1
  6
CONTINUOUS
 62
     6
 10
224.617460
 20
79.721594
 11
224.613080
 21
79.809227
  0
LINE
  8
CSLAYER1
  6
CONTINUOUS
 62
     6
 10
224.613080
 20
79.809227
 11
224.609350
 21
79.896846
  0
LINE
  8
CSLAYER1
  6
CONTINUOUS
 62
     6
 10
224.609350
 20
79.896846
 11
224.606483
 21
79.984448
  0
LINE
  8
CSLAYER1
  6
CONTINUOUS
 62
     6
 10
224.606483
 20
79.984448
 11
224.604698
 21
80.072028
  0
LINE
  8
CSLAYER1
  6
CONTINUOUS
 62
     6
 10
224.604698
 20
80.072028
 11
224.604209
 21
80.159581
  0
LINE
  8
CSLAYER1
  6
CONTINUOUS
 62
     6
 10
224.604209
 20
80.159581
 11
224.605234
 21
80.247104
  0
LINE
  8
CSLAYER1
  6
CONTINUOUS
 62
     6
 10
224.605234
 20
80.247104
 11
224.607988
 21
80.334591
  0
LINE
  8
CSLAYER1
  6
CONTINUOUS
 62
     6
 10
224.607988
 20
80.334591
 11
224.612687
 21
80.422038
  0
LINE
  8
CSLAYER1
  6
CONTINUOUS
 62
     6
 10
224.612687
 20
80.422038
 11
224.619548
 21
80.509442
  0
LINE
  8
CSLAYER1
  6
CONTINUOUS
 62
     6
 10
224.619548
 20
80.509442
 11
224.626343
 21
80.576560
  0
LINE
  8
CSLAYER1
  6
CONTINUOUS
 62
     6
 10
224.626343
 20
80.576560
 11
224.634513
 21
80.644243
  0
LINE
  8
CSLAYER1
  6
CONTINUOUS
 62
     6
 10
224.634513
 20
80.644243
 11
224.644100
 21
80.712182
  0
LINE
  8
CSLAYER1
  6
CONTINUOUS
 62
     6
 10
224.644100
 20
80.712182
 11
224.655144
 21
80.780071
  0
LINE
  8
CSLAYER1
  6
CONTINUOUS
 62
     6
 10
224.655144
 20
80.780071
 11
224.667688
 21
80.847601
  0
LINE
  8
CSLAYER1
  6
CONTINUOUS
 62
     6
 10
224.667688
 20
80.847601
 11
224.681771
 21
80.914466
  0
LINE
  8
CSLAYER1
  6
CONTINUOUS
 62
     6
 10
224.681771
 20
80.914466
 11
224.697434
 21
80.980358
  0
LINE
  8
CSLAYER1
  6
CONTINUOUS
 62
     6
 10
224.697434
 20
80.980358
 11
224.714719
 21
81.044968
  0
LINE
  8
CSLAYER1
  6
CONTINUOUS
 62
     6
 10
224.714719
 20
81.044968
 11
224.733667
 21
81.107990
  0
LINE
  8
CSLAYER1
  6
CONTINUOUS
 62
     6
 10
224.733667
 20
81.107990
 11
224.754318
 21
81.169116
  0
LINE
  8
CSLAYER1
  6
CONTINUOUS
 62
     6
 10
224.754318
 20
81.169116
 11
224.776713
 21
81.228039
  0
LINE
  8
CSLAYER1
  6
CONTINUOUS
 62
     6
 10
224.776713
 20
81.228039
 11
224.806856
 21
81.301174
  0
LINE
  8
CSLAYER1
  6
CONTINUOUS
 62
     6
 10
224.806856
 20
81.301174
 11
224.839391
 21
81.376948
  0
LINE
  8
CSLAYER1
  6
CONTINUOUS
 62
     6
 10
224.839391
 20
81.376948
 11
224.874043
 21
81.454516
  0
LINE
  8
CSLAYER1
  6
CONTINUOUS
 62
     6
 10
224.874043
 20
81.454516
 11
224.910537
 21
81.533034
  0
LINE
  8
CSLAYER1
  6
CONTINUOUS
 62
     6
 10
224.910537
 20
81.533034
 11
224.948596
 21
81.611660
  0
LINE
  8
CSLAYER1
  6
CONTINUOUS
 62
     6
 10
224.948596
 20
81.611660
 11
224.987944
 21
81.689549
  0
LINE
  8
CSLAYER1
  6
CONTINUOUS
 62
     6
 10
224.987944
 20
81.689549
 11
225.028306
 21
81.765857
  0
LINE
  8
CSLAYER1
  6
CONTINUOUS
 62
     6
 10
225.028306
 20
81.765857
 11
225.069406
 21
81.839740
  0
LINE
  8
CSLAYER1
  6
CONTINUOUS
 62
     6
 10
225.069406
 20
81.839740
 11
225.110969
 21
81.910354
  0
LINE
  8
CSLAYER1
  6
CONTINUOUS
 62
     6
 10
225.110969
 20
81.910354
 11
225.152718
 21
81.976857
  0
LINE
  8
CSLAYER1
  6
CONTINUOUS
 62
     6
 10
225.152718
 20
81.976857
 11
225.194377
 21
82.038403
  0
ARC
  8
CSLAYER1
  6
CONTINUOUS
 62
     6
 10
224.525652
 20
81.608537
 40
0.794999
 50
32.735346
 51
92.735346
  0
ARC
  8
CSLAYER1
  6
CONTINUOUS
 62
     6
 10
224.449773
 20
83.196723
 40
0.794999
 50
212.735346
 51
272.735346
  0
ARC
  8
CSLAYER1
  6
CONTINUOUS
 62
     6
 10
223.818977
 20
81.972727
 40
0.794999
 50
32.735346
 51
92.735346
  0
LINE
  8
CSLAYER1
  6
CONTINUOUS
 62
     6
 10
223.780986
 20
82.766827
 11
223.730222
 21
82.689892
  0
LINE
  8
CSLAYER1
  6
CONTINUOUS
 62
     6
 10
223.730222
 20
82.689892
 11
223.679408
 21
82.607259
  0
LINE
  8
CSLAYER1
  6
CONTINUOUS
 62
     6
 10
223.679408
 20
82.607259
 11
223.628835
 21
82.519921
  0
LINE
  8
CSLAYER1
  6
CONTINUOUS
 62
     6
 10
223.628835
 20
82.519921
 11
223.578795
 21
82.428873
  0
LINE
  8
CSLAYER1
  6
CONTINUOUS
 62
     6
 10
223.578795
 20
82.428873
 11
223.529580
 21
82.335110
  0
LINE
  8
CSLAYER1
  6
CONTINUOUS
 62
     6
 10
223.529580
 20
82.335110
 11
223.481481
 21
82.239627
  0
LINE
  8
CSLAYER1
  6
CONTINUOUS
 62
     6
 10
223.481481
 20
82.239627
 11
223.434789
 21
82.143418
  0
LINE
  8
CSLAYER1
  6
CONTINUOUS
 62
     6
 10
224.093124
 20
79.636836
 11
224.597453
 21
77.726391
  0
LINE
  8
CSLAYER1
  6
CONTINUOUS
 62
     6
 10
224.124736
 20
77.629651
 11
223.757499
 21
79.501110
  0
LINE
  8
CSLAYER1
  6
CONTINUOUS
 62
     6
 10
223.408863
 20
79.430459
 11
223.570109
 21
77.644208
  0
ARC
  8
CSLAYER1
  6
CONTINUOUS
 62
     6
 10
226.027470
 20
78.953505
 40
0.795000
 50
252.897147
 51
312.897147
  0
ARC
  8
CSLAYER1
  6
CONTINUOUS
 62
     6
 10
227.109758
 20
77.788707
 40
0.795000
 50
72.897147
 51
132.897147
  0
LINE
  8
CSLAYER1
  6
CONTINUOUS
 62
     6
 10
227.343547
 20
78.548535
 11
227.326918
 21
78.617690
  0
LINE
  8
CSLAYER1
  6
CONTINUOUS
 62
     6
 10
227.326918
 20
78.617690
 11
227.310322
 21
78.686869
  0
LINE
  8
CSLAYER1
  6
CONTINUOUS
 62
     6
 10
227.310322
 20
78.686869
 11
227.293795
 21
78.756095
  0
LINE
  8
CSLAYER1
  6
CONTINUOUS
 62
     6
 10
227.293795
 20
78.756095
 11
227.277371
 21
78.825393
  0
LINE
  8
CSLAYER1
  6
CONTINUOUS
 62
     6
 10
227.277371
 20
78.825393
 11
227.261084
 21
78.894786
  0
LINE
  8
CSLAYER1
  6
CONTINUOUS
 62
     6
 10
227.261084
 20
78.894786
 11
227.244969
 21
78.964297
  0
LINE
  8
CSLAYER1
  6
CONTINUOUS
 62
     6
 10
227.244969
 20
78.964297
 11
227.229059
 21
79.033951
  0
LINE
  8
CSLAYER1
  6
CONTINUOUS
 62
     6
 10
227.229059
 20
79.033951
 11
227.213389
 21
79.103771
  0
LINE
  8
CSLAYER1
  6
CONTINUOUS
 62
     6
 10
227.213389
 20
79.103771
 11
227.197994
 21
79.173780
  0
LINE
  8
CSLAYER1
  6
CONTINUOUS
 62
     6
 10
227.197994
 20
79.173780
 11
227.182906
 21
79.244004
  0
LINE
  8
CSLAYER1
  6
CONTINUOUS
 62
     6
 10
227.182906
 20
79.244004
 11
227.168162
 21
79.314465
  0
LINE
  8
CSLAYER1
  6
CONTINUOUS
 62
     6
 10
227.168162
 20
79.314465
 11
227.157221
 21
79.368197
  0
LINE
  8
CSLAYER1
  6
CONTINUOUS
 62
     6
 10
227.157221
 20
79.368197
 11
227.146566
 21
79.422521
  0
LINE
  8
CSLAYER1
  6
CONTINUOUS
 62
     6
 10
227.146566
 20
79.422521
 11
227.136425
 21
79.477233
  0
LINE
  8
CSLAYER1
  6
CONTINUOUS
 62
     6
 10
227.136425
 20
79.477233
 11
227.127022
 21
79.532133
  0
LINE
  8
CSLAYER1
  6
CONTINUOUS
 62
     6
 10
227.127022
 20
79.532133
 11
227.118586
 21
79.587019
  0
LINE
  8
CSLAYER1
  6
CONTINUOUS
 62
     6
 10
227.118586
 20
79.587019
 11
227.111340
 21
79.641689
  0
LINE
  8
CSLAYER1
  6
CONTINUOUS
 62
     6
 10
227.111340
 20
79.641689
 11
227.105513
 21
79.695941
  0
LINE
  8
CSLAYER1
  6
CONTINUOUS
 62
     6
 10
227.105513
 20
79.695941
 11
227.101329
 21
79.749573
  0
LINE
  8
CSLAYER1
  6
CONTINUOUS
 62
     6
 10
227.101329
 20
79.749573
 11
227.099015
 21
79.802384
  0
LINE
  8
CSLAYER1
  6
CONTINUOUS
 62
     6
 10
227.099015
 20
79.802384
 11
227.098798
 21
79.854172
  0
LINE
  8
CSLAYER1
  6
CONTINUOUS
 62
     6
 10
227.098798
 20
79.854172
 11
227.100902
 21
79.904736
  0
LINE
  8
CSLAYER1
  6
CONTINUOUS
 62
     6
 10
227.100902
 20
79.904736
 11
227.105174
 21
79.957006
  0
LINE
  8
CSLAYER1
  6
CONTINUOUS
 62
     6
 10
227.105174
 20
79.957006
 11
227.111090
 21
80.011323
  0
LINE
  8
CSLAYER1
  6
CONTINUOUS
 62
     6
 10
227.111090
 20
80.011323
 11
227.118560
 21
80.067129
  0
LINE
  8
CSLAYER1
  6
CONTINUOUS
 62
     6
 10
227.118560
 20
80.067129
 11
227.127495
 21
80.123868
  0
LINE
  8
CSLAYER1
  6
CONTINUOUS
 62
     6
 10
227.127495
 20
80.123868
 11
227.137806
 21
80.180982
  0
LINE
  8
CSLAYER1
  6
CONTINUOUS
 62
     6
 10
227.137806
 20
80.180982
 11
227.149403
 21
80.237915
  0
LINE
  8
CSLAYER1
  6
CONTINUOUS
 62
     6
 10
227.149403
 20
80.237915
 11
227.162197
 21
80.294108
  0
LINE
  8
CSLAYER1
  6
CONTINUOUS
 62
     6
 10
227.162197
 20
80.294108
 11
227.176098
 21
80.349005
  0
LINE
  8
CSLAYER1
  6
CONTINUOUS
 62
     6
 10
227.176098
 20
80.349005
 11
227.191018
 21
80.402049
  0
LINE
  8
CSLAYER1
  6
CONTINUOUS
 62
     6
 10
227.191018
 20
80.402049
 11
227.206865
 21
80.452682
  0
LINE
  8
CSLAYER1
  6
CONTINUOUS
 62
     6
 10
227.206865
 20
80.452682
 11
227.223552
 21
80.500348
  0
ARC
  8
CSLAYER1
  6
CONTINUOUS
 62
     6
 10
226.695361
 20
79.906122
 40
0.795000
 50
48.366208
 51
108.366208
  0
ARC
  8
CSLAYER1
  6
CONTINUOUS
 62
     6
 10
226.194369
 20
81.415130
 40
0.795000
 50
228.366208
 51
288.366208
  0
ARC
  8
CSLAYER1
  6
CONTINUOUS
 62
     6
 10
225.916693
 20
80.066438
 40
0.795000
 50
48.366208
 51
108.366208
  0
LINE
  8
CSLAYER1
  6
CONTINUOUS
 62
     6
 10
225.666179
 20
80.820965
 11
225.642918
 21
80.752921
  0
LINE
  8
CSLAYER1
  6
CONTINUOUS
 62
     6
 10
225.642918
 20
80.752921
 11
225.620832
 21
80.680750
  0
LINE
  8
CSLAYER1
  6
CONTINUOUS
 62
     6
 10
225.620832
 20
80.680750
 11
225.600027
 21
80.605247
  0
LINE
  8
CSLAYER1
  6
CONTINUOUS
 62
     6
 10
225.600027
 20
80.605247
 11
225.580609
 21
80.527209
  0
LINE
  8
CSLAYER1
  6
CONTINUOUS
 62
     6
 10
225.580609
 20
80.527209
 11
225.562685
 21
80.447431
  0
LINE
  8
CSLAYER1
  6
CONTINUOUS
 62
     6
 10
225.562685
 20
80.447431
 11
225.546358
 21
80.366709
  0
LINE
  8
CSLAYER1
  6
CONTINUOUS
 62
     6
 10
225.546358
 20
80.366709
 11
225.531737
 21
80.285841
  0
LINE
  8
CSLAYER1
  6
CONTINUOUS
 62
     6
 10
225.531737
 20
80.285841
 11
225.518925
 21
80.205622
  0
LINE
  8
CSLAYER1
  6
CONTINUOUS
 62
     6
 10
225.518925
 20
80.205622
 11
225.508030
 21
80.126848
  0
LINE
  8
CSLAYER1
  6
CONTINUOUS
 62
     6
 10
225.508030
 20
80.126848
 11
225.499157
 21
80.050315
  0
LINE
  8
CSLAYER1
  6
CONTINUOUS
 62
     6
 10
225.499157
 20
80.050315
 11
225.492412
 21
79.976819
  0
LINE
  8
CSLAYER1
  6
CONTINUOUS
 62
     6
 10
225.492412
 20
79.976819
 11
225.488342
 21
79.897673
  0
LINE
  8
CSLAYER1
  6
CONTINUOUS
 62
     6
 10
225.488342
 20
79.897673
 11
225.488151
 21
79.816352
  0
LINE
  8
CSLAYER1
  6
CONTINUOUS
 62
     6
 10
225.488151
 20
79.816352
 11
225.491461
 21
79.733217
  0
LINE
  8
CSLAYER1
  6
CONTINUOUS
 62
     6
 10
225.491461
 20
79.733217
 11
225.497892
 21
79.648630
  0
LINE
  8
CSLAYER1
  6
CONTINUOUS
 62
     6
 10
225.497892
 20
79.648630
 11
225.507065
 21
79.562951
  0
LINE
  8
CSLAYER1
  6
CONTINUOUS
 62
     6
 10
225.507065
 20
79.562951
 11
225.518601
 21
79.476541
  0
LINE
  8
CSLAYER1
  6
CONTINUOUS
 62
     6
 10
225.518601
 20
79.476541
 11
225.532122
 21
79.389761
  0
LINE
  8
CSLAYER1
  6
CONTINUOUS
 62
     6
 10
225.532122
 20
79.389761
 11
225.547247
 21
79.302971
  0
LINE
  8
CSLAYER1
  6
CONTINUOUS
 62
     6
 10
225.547247
 20
79.302971
 11
225.563597
 21
79.216533
  0
LINE
  8
CSLAYER1
  6
CONTINUOUS
 62
     6
 10
225.563597
 20
79.216533
 11
225.580795
 21
79.130807
  0
LINE
  8
CSLAYER1
  6
CONTINUOUS
 62
     6
 10
225.580795
 20
79.130807
 11
225.598460
 21
79.046155
  0
LINE
  8
CSLAYER1
  6
CONTINUOUS
 62
     6
 10
225.598460
 20
79.046155
 11
225.615207
 21
78.967851
  0
LINE
  8
CSLAYER1
  6
CONTINUOUS
 62
     6
 10
225.615207
 20
78.967851
 11
225.632239
 21
78.889777
  0
LINE
  8
CSLAYER1
  6
CONTINUOUS
 62
     6
 10
225.632239
 20
78.889777
 11
225.649529
 21
78.811909
  0
LINE
  8
CSLAYER1
  6
CONTINUOUS
 62
     6
 10
225.649529
 20
78.811909
 11
225.667048
 21
78.734225
  0
LINE
  8
CSLAYER1
  6
CONTINUOUS
 62
     6
 10
225.667048
 20
78.734225
 11
225.684767
 21
78.656701
  0
LINE
  8
CSLAYER1
  6
CONTINUOUS
 62
     6
 10
225.684767
 20
78.656701
 11
225.702657
 21
78.579315
  0
LINE
  8
CSLAYER1
  6
CONTINUOUS
 62
     6
 10
225.702657
 20
78.579315
 11
225.720690
 21
78.502044
  0
LINE
  8
CSLAYER1
  6
CONTINUOUS
 62
     6
 10
225.720690
 20
78.502044
 11
225.738838
 21
78.424864
  0
LINE
  8
CSLAYER1
  6
CONTINUOUS
 62
     6
 10
225.738838
 20
78.424864
 11
225.757071
 21
78.347753
  0
LINE
  8
CSLAYER1
  6
CONTINUOUS
 62
     6
 10
225.757071
 20
78.347753
 11
225.775362
 21
78.270688
  0
LINE
  8
CSLAYER1
  6
CONTINUOUS
 62
     6
 10
225.775362
 20
78.270688
 11
225.793681
 21
78.193646
  0
LINE
  8
CSLAYER1
  6
CONTINUOUS
 62
     6
 10
226.213560
 20
78.180591
 11
226.499980
 21
76.780987
  0
LINE
  8
CSLAYER1
  6
CONTINUOUS
 62
     6
 10
226.967692
 20
76.733838
 11
226.528292
 21
78.336089
  0
LINE
  8
CSLAYER1
  6
CONTINUOUS
 62
     6
 10
226.912864
 20
78.558940
 11
227.463298
 21
76.790936
  0
ARC
  8
CSLAYER1
  6
CONTINUOUS
 62
     6
 10
230.885661
 20
86.159123
 40
4.000000
 50
205.580408
 51
211.043528
  0
LINE
  8
CSLAYER1
  6
CONTINUOUS
 62
     6
 10
227.513377
 20
84.580121
 11
227.681964
 21
84.288055
  0
ARC
  8
CSLAYER1
  6
CONTINUOUS
 62
     6
 10
230.885661
 20
86.159100
 40
2.120000
 50
-99.735526
 51
158.085512
  0
LINE
  8
CSLAYER1
  6
CONTINUOUS
 62
     6
 10
242.899036
 20
79.147129
 11
244.320700
 21
82.218002
  0
LINE
  8
CSLAYER1
  6
CONTINUOUS
 62
     6
 10
247.724484
 20
77.529762
 11
246.872116
 21
74.972588
  0
LINE
  8
CSLAYER1
  6
CONTINUOUS
 62
     6
 10
247.591882
 20
74.454308
 11
248.385455
 21
77.486931
  0
LINE
  8
CSLAYER1
  6
CONTINUOUS
 62
     6
 10
249.224086
 20
77.488268
 11
248.455573
 21
74.080054
  0
ARC
  8
CSLAYER1
  6
CONTINUOUS
 62
     6
 10
257.885661
 20
70.159123
 40
2.000000
 50
180.000000
 51
270.000000
  0
LINE
  8
CSLAYER1
  6
CONTINUOUS
 62
     6
 10
257.885661
 20
68.159123
 11
279.885661
 21
68.159123
  0
ARC
  8
CSLAYER1
  6
CONTINUOUS
 62
     6
 10
279.885661
 20
70.159123
 40
2.000000
 50
270.000000
 51
360.000000
  0
LINE
  8
CSLAYER1
  6
CONTINUOUS
 62
     6
 10
281.885661
 20
70.159123
 11
281.885661
 21
102.159123
  0
ARC
  8
CSLAYER1
  6
CONTINUOUS
 62
     6
 10
279.885661
 20
102.159123
 40
2.000000
 50
0.000000
 51
90.000000
  0
LINE
  8
CSLAYER1
  6
CONTINUOUS
 62
     6
 10
279.885661
 20
104.159123
 11
257.885661
 21
104.159123
  0
ARC
  8
CSLAYER1
  6
CONTINUOUS
 62
     6
 10
257.885661
 20
102.159123
 40
2.000000
 50
90.000000
 51
180.000000
  0
LINE
  8
CSLAYER1
  6
CONTINUOUS
 62
     6
 10
255.885661
 20
102.159123
 11
255.885661
 21
89.787483
  0
ARC
  8
CSLAYER1
  6
CONTINUOUS
 62
     6
 10
262.885640
 20
86.159085
 40
6.750000
 50
-154.073524
 51
148.329015
  0
LINE
  8
CSLAYER1
  6
CONTINUOUS
 62
     6
 10
255.885661
 20
83.036150
 11
255.885661
 21
70.159123
  0
ARC
  8
CSLAYER1
  6
CONTINUOUS
 62
     6
 10
268.885658
 20
71.159111
 40
1.527778
 50
163.398423
 51
196.601584
  0
LINE
  8
CSLAYER1
  6
CONTINUOUS
 62
     6
 10
267.421572
 20
71.595624
 11
268.012631
 21
71.595624
  0
ARC
  8
CSLAYER1
  6
CONTINUOUS
 62
     6
 10
268.012631
 20
72.032115
 40
0.436508
 50
270.057346
 51
359.999995
  0
LINE
  8
CSLAYER1
  6
CONTINUOUS
 62
     6
 10
268.449144
 20
72.032115
 11
268.449144
 21
72.623219
  0
ARC
  8
CSLAYER1
  6
CONTINUOUS
 62
     6
 10
268.885658
 20
71.159111
 40
1.527778
 50
73.398417
 51
106.601578
  0
LINE
  8
CSLAYER1
  6
CONTINUOUS
 62
     6
 10
269.322171
 20
72.623219
 11
269.322171
 21
72.032115
  0
ARC
  8
CSLAYER1
  6
CONTINUOUS
 62
     6
 10
269.758684
 20
72.032115
 40
0.436508
 50
180.057309
 51
269.999999
  0
LINE
  8
CSLAYER1
  6
CONTINUOUS
 62
     6
 10
269.758684
 20
71.595624
 11
270.349743
 21
71.595624
  0
ARC
  8
CSLAYER1
  6
CONTINUOUS
 62
     6
 10
268.885658
 20
71.159111
 40
1.527778
 50
-16.601572
 51
16.601562
  0
LINE
  8
CSLAYER1
  6
CONTINUOUS
 62
     6
 10
270.349743
 20
70.722597
 11
269.758684
 21
70.722597
  0
ARC
  8
CSLAYER1
  6
CONTINUOUS
 62
     6
 10
269.758684
 20
70.286107
 40
0.436508
 50
89.999984
 51
179.999990
  0
LINE
  8
CSLAYER1
  6
CONTINUOUS
 62
     6
 10
269.322171
 20
70.286107
 11
269.322171
 21
69.695003
  0
ARC
  8
CSLAYER1
  6
CONTINUOUS
 62
     6
 10
268.885658
 20
71.159111
 40
1.527778
 50
253.398405
 51
286.601594
  0
LINE
  8
CSLAYER1
  6
CONTINUOUS
 62
     6
 10
268.449144
 20
69.695003
 11
268.449144
 21
70.286107
  0
ARC
  8
CSLAYER1
  6
CONTINUOUS
 62
     6
 10
268.012631
 20
70.286107
 40
0.436508
 50
-0.000005
 51
89.999984
  0
LINE
  8
CSLAYER1
  6
CONTINUOUS
 62
     6
 10
268.012631
 20
70.722597
 11
267.421572
 21
70.722597
  0
CIRCLE
  8
CSLAYER1
  6
CONTINUOUS
 62
     6
 10
268.885668
 20
71.159111
 40
2.750000
  0
ARC
  8
CSLAYER1
  6
CONTINUOUS
 62
     6
 10
262.885640
 20
86.159085
 40
4.000000
 50
-129.735526
 51
128.465835
  0
ARC
  8
CSLAYER1
  6
CONTINUOUS
 62
     6
 10
262.885640
 20
86.159085
 40
4.000000
 50
176.007555
 51
178.572301
  0
ARC
  8
CSLAYER1
  6
CONTINUOUS
 62
     6
 10
262.885640
 20
86.159085
 40
6.750000
 50
174.942367
 51
179.961149
  0
LINE
  8
CSLAYER1
  6
CONTINUOUS
 62
     6
 10
255.885690
 20
86.760418
 11
255.885633
 21
86.159065
  0
LINE
  8
CSLAYER1
  6
CONTINUOUS
 62
     6
 10
255.885661
 20
86.124140
 11
255.885661
 21
86.761752
  0
LINE
  8
CSLAYER1
  6
CONTINUOUS
 62
     6
 10
251.885661
 20
85.872916
 11
251.885661
 21
84.354228
  0
ARC
  8
CSLAYER1
  6
CONTINUOUS
 62
     6
 10
252.745593
 20
86.960373
 40
1.499994
 50
168.245911
 51
228.245911
  0
ARC
  8
CSLAYER1
  6
CONTINUOUS
 62
     6
 10
268.885658
 20
101.159135
 40
1.527778
 50
163.398416
 51
196.601577
  0
LINE
  8
CSLAYER1
  6
CONTINUOUS
 62
     6
 10
267.421572
 20
101.595649
 11
268.012631
 21
101.595649
  0
ARC
  8
CSLAYER1
  6
CONTINUOUS
 62
     6
 10
268.012631
 20
102.032139
 40
0.436508
 50
-89.999984
 51
0.000005
  0
LINE
  8
CSLAYER1
  6
CONTINUOUS
 62
     6
 10
268.449144
 20
102.032139
 11
268.449144
 21
102.623243
  0
ARC
  8
CSLAYER1
  6
CONTINUOUS
 62
     6
 10
268.885658
 20
101.159135
 40
1.527778
 50
73.398406
 51
106.601595
  0
LINE
  8
CSLAYER1
  6
CONTINUOUS
 62
     6
 10
269.322171
 20
102.623243
 11
269.322171
 21
102.032139
  0
ARC
  8
CSLAYER1
  6
CONTINUOUS
 62
     6
 10
269.758684
 20
102.032139
 40
0.436508
 50
180.000010
 51
270.000016
  0
LINE
  8
CSLAYER1
  6
CONTINUOUS
 62
     6
 10
269.758684
 20
101.595649
 11
270.349743
 21
101.595649
  0
ARC
  8
CSLAYER1
  6
CONTINUOUS
 62
     6
 10
268.885658
 20
101.159135
 40
1.527778
 50
-16.601562
 51
16.601572
  0
LINE
  8
CSLAYER1
  6
CONTINUOUS
 62
     6
 10
270.349743
 20
100.722622
 11
269.758684
 21
100.722622
  0
ARC
  8
CSLAYER1
  6
CONTINUOUS
 62
     6
 10
269.758684
 20
100.286131
 40
0.436508
 50
90.000001
 51
179.942691
  0
LINE
  8
CSLAYER1
  6
CONTINUOUS
 62
     6
 10
269.322171
 20
100.286131
 11
269.322171
 21
99.695027
  0
ARC
  8
CSLAYER1
  6
CONTINUOUS
 62
     6
 10
268.885658
 20
101.159135
 40
1.527778
 50
253.398422
 51
286.601583
  0
LINE
  8
CSLAYER1
  6
CONTINUOUS
 62
     6
 10
268.449144
 20
99.695027
 11
268.449144
 21
100.286131
  0
ARC
  8
CSLAYER1
  6
CONTINUOUS
 62
     6
 10
268.012631
 20
100.286131
 40
0.436508
 50
0.000005
 51
89.942654
  0
LINE
  8
CSLAYER1
  6
CONTINUOUS
 62
     6
 10
268.012631
 20
100.722622
 11
267.421572
 21
100.722622
  0
CIRCLE
  8
CSLAYER1
  6
CONTINUOUS
 62
     6
 10
268.885668
 20
101.159135
 40
2.750000
  0
LINE
  8
CSLAYER1
  6
CONTINUOUS
 62
     6
 10
257.571635
 20
49.765919
 11
289.528728
 21
49.765919
  0
ARC
  8
CSLAYER1
  6
CONTINUOUS
 62
     6
 10
294.671916
 20
48.587513
 40
1.000000
 50
90.000009
 51
173.999984
  0
LINE
  8
CSLAYER1
  6
CONTINUOUS
 62
     6
 10
293.677409
 20
48.692067
 11
292.979777
 21
42.054554
  0
ARC
  8
CSLAYER1
  6
CONTINUOUS
 62
     6
 10
291.985210
 20
42.159108
 40
1.000000
 50
270.000001
 51
354.000017
  0
LINE
  8
CSLAYER1
  6
CONTINUOUS
 62
     6
 10
291.985210
 20
41.159108
 11
255.786052
 21
41.159108
  0
ARC
  8
CSLAYER1
  6
CONTINUOUS
 62
     6
 10
255.786052
 20
42.159108
 40
1.000000
 50
186.000012
 51
270.000001
  0
LINE
  8
CSLAYER1
  6
CONTINUOUS
 62
     6
 10
254.791545
 20
42.054554
 11
254.093913
 21
48.692067
  0
ARC
  8
CSLAYER1
  6
CONTINUOUS
 62
     6
 10
253.099345
 20
48.587513
 40
1.000000
 50
6.000021
 51
90.000009
  0
ARC
  8
CSLAYER1
  6
CONTINUOUS
 62
     6
 10
253.149028
 20
44.115284
 40
1.000000
 50
6.000021
 51
90.000009
  0
LINE
  8
CSLAYER1
  6
CONTINUOUS
 62
     6
 10
254.143535
 20
44.219838
 11
254.791545
 21
38.054554
  0
ARC
  8
CSLAYER1
  6
CONTINUOUS
 62
     6
 10
255.786052
 20
38.159108
 40
1.000000
 50
186.000012
 51
270.000001
  0
LINE
  8
CSLAYER1
  6
CONTINUOUS
 62
     6
 10
255.786052
 20
37.159108
 11
291.985210
 21
37.159108
  0
ARC
  8
CSLAYER1
  6
CONTINUOUS
 62
     6
 10
291.985210
 20
38.159108
 40
1.000000
 50
270.000001
 51
354.000017
  0
LINE
  8
CSLAYER1
  6
CONTINUOUS
 62
     6
 10
292.979777
 20
38.054554
 11
293.627727
 21
44.219838
  0
ARC
  8
CSLAYER1
  6
CONTINUOUS
 62
     6
 10
294.622295
 20
44.115284
 40
1.000000
 50
90.000009
 51
173.999984
  0
LINE
  8
CSLAYER1
  6
CONTINUOUS
 62
     6
 10
294.885661
 20
42.159108
 11
293.410625
 21
42.159108
  0
LINE
  8
CSLAYER1
  6
CONTINUOUS
 62
     6
 10
254.360087
 20
42.159108
 11
251.885661
 21
42.159108
  0
LINE
  8
CSLAYER1
  6
CONTINUOUS
 62
     6
 10
380.885539
 20
36.159123
 11
390.885600
 21
36.159123
  0
LINE
  8
CSLAYER1
  6
CONTINUOUS
 62
     6
 10
390.885631
 20
36.159123
 11
390.885631
 21
136.159123
  0
LINE
  8
CSLAYER1
  6
CONTINUOUS
 62
     6
 10
390.885600
 20
136.159123
 11
380.885539
 21
136.159123
  0
LINE
  8
CSLAYER1
  6
CONTINUOUS
 62
     6
 10
380.885631
 20
136.159123
 11
380.885631
 21
113.220372
  0
LINE
  8
CSLAYER1
  6
CONTINUOUS
 62
     6
 10
390.885631
 20
116.159123
 11
393.885631
 21
116.159123
  0
LINE
  8
CSLAYER1
  6
CONTINUOUS
 62
     6
 10
393.885631
 20
116.159123
 11
393.885631
 21
56.159123
  0
LINE
  8
CSLAYER1
  6
CONTINUOUS
 62
     6
 10
393.885631
 20
56.159123
 11
390.885631
 21
56.159123
  0
LINE
  8
CSLAYER1
  6
CONTINUOUS
 62
     6
 10
380.885631
 20
59.097905
 11
380.885631
 21
36.159123
  0
LINE
  8
CSLAYER1
  6
CONTINUOUS
 62
     6
 10
386.885631
 20
46.159123
 11
386.885631
 21
126.159123
  0
LINE
  8
CSLAYER1
  6
CONTINUOUS
 62
     6
 10
390.885631
 20
171.159123
 11
380.885570
 21
171.159123
  0
LINE
  8
CSLAYER1
  6
CONTINUOUS
 62
     6
 10
380.885661
 20
171.159123
 11
380.885661
 21
194.097905
  0
LINE
  8
CSLAYER1
  6
CONTINUOUS
 62
     6
 10
390.885661
 20
191.159123
 11
393.885661
 21
191.159123
  0
LINE
  8
CSLAYER1
  6
CONTINUOUS
 62
     6
 10
393.885661
 20
191.159123
 11
393.885661
 21
251.159123
  0
LINE
  8
CSLAYER1
  6
CONTINUOUS
 62
     6
 10
393.885661
 20
251.159123
 11
390.885661
 21
251.159123
  0
LINE
  8
CSLAYER1
  6
CONTINUOUS
 62
     6
 10
380.885661
 20
248.220372
 11
380.885661
 21
271.159123
  0
LINE
  8
CSLAYER1
  6
CONTINUOUS
 62
     6
 10
380.885570
 20
271.159123
 11
390.885631
 21
271.159123
  0
LINE
  8
CSLAYER1
  6
CONTINUOUS
 62
     6
 10
390.885661
 20
271.159123
 11
390.885661
 21
171.159123
  0
LINE
  8
CSLAYER1
  6
CONTINUOUS
 62
     6
 10
386.885661
 20
181.159123
 11
386.885661
 21
261.159123
  0
LINE
  8
CSLAYER1
  6
CONTINUOUS
 62
     6
 10
393.885661
 20
227.159123
 11
430.885661
 21
227.159123
  0
LINE
  8
CSLAYER1
  6
CONTINUOUS
 62
     6
 10
430.885661
 20
227.159123
 11
430.885661
 21
215.159123
  0
LINE
  8
CSLAYER1
  6
CONTINUOUS
 62
     6
 10
430.885661
 20
215.159123
 11
393.885661
 21
215.159123
  0
LINE
  8
CSLAYER1
  6
CONTINUOUS
 62
     6
 10
390.885631
 20
296.159123
 11
390.885631
 21
396.159123
  0
LINE
  8
CSLAYER1
  6
CONTINUOUS
 62
     6
 10
390.885600
 20
396.159123
 11
380.885539
 21
396.159123
  0
LINE
  8
CSLAYER1
  6
CONTINUOUS
 62
     6
 10
380.885631
 20
396.159123
 11
380.885631
 21
373.220372
  0
LINE
  8
CSLAYER1
  6
CONTINUOUS
 62
     6
 10
390.885631
 20
376.159123
 11
393.885631
 21
376.159123
  0
LINE
  8
CSLAYER1
  6
CONTINUOUS
 62
     6
 10
393.885631
 20
376.159123
 11
393.885631
 21
316.159123
  0
LINE
  8
CSLAYER1
  6
CONTINUOUS
 62
     6
 10
393.885631
 20
316.159123
 11
390.885631
 21
316.159123
  0
LINE
  8
CSLAYER1
  6
CONTINUOUS
 62
     6
 10
380.885631
 20
319.097905
 11
380.885631
 21
296.159123
  0
LINE
  8
CSLAYER1
  6
CONTINUOUS
 62
     6
 10
380.885539
 20
296.159123
 11
390.885600
 21
296.159123
  0
LINE
  8
CSLAYER1
  6
CONTINUOUS
 62
     6
 10
386.885631
 20
306.159123
 11
386.885631
 21
386.159123
  0
LINE
  8
CSLAYER1
  6
CONTINUOUS
 62
     6
 10
393.885631
 20
352.159123
 11
430.885631
 21
352.159123
  0
LINE
  8
CSLAYER1
  6
CONTINUOUS
 62
     6
 10
430.885631
 20
352.159123
 11
430.885631
 21
340.159123
  0
LINE
  8
CSLAYER1
  6
CONTINUOUS
 62
     6
 10
430.885631
 20
340.159123
 11
393.885631
 21
340.159123
  0
ARC
  8
CSLAYER1
  6
CONTINUOUS
 62
     6
 10
474.474454
 20
263.659123
 40
7.500000
 50
90.000000
 51
180.000000
  0
LINE
  8
CSLAYER1
  6
CONTINUOUS
 62
     6
 10
474.474454
 20
271.159123
 11
559.474454
 21
271.159123
  0
ARC
  8
CSLAYER1
  6
CONTINUOUS
 62
     6
 10
559.474454
 20
263.659123
 40
7.500000
 50
0.000000
 51
90.000000
  0
LINE
  8
CSLAYER1
  6
CONTINUOUS
 62
     6
 10
566.974454
 20
263.659123
 11
566.974454
 21
178.659123
  0
ARC
  8
CSLAYER1
  6
CONTINUOUS
 62
     6
 10
559.474454
 20
178.659123
 40
7.500000
 50
270.000000
 51
360.000000
  0
LINE
  8
CSLAYER1
  6
CONTINUOUS
 62
     6
 10
559.474454
 20
171.159123
 11
474.474454
 21
171.159123
  0
ARC
  8
CSLAYER1
  6
CONTINUOUS
 62
     6
 10
474.474454
 20
178.659123
 40
7.500000
 50
180.000000
 51
270.000000
  0
LINE
  8
CSLAYER1
  6
CONTINUOUS
 62
     6
 10
466.974454
 20
178.659123
 11
466.974454
 21
263.659123
  0
CIRCLE
  8
CSLAYER1
  6
CONTINUOUS
 62
     6
 10
474.474454
 20
263.659123
 40
3.500000
  0
ARC
  8
CSLAYER1
  6
CONTINUOUS
 62
     6
 10
516.974448
 20
258.159146
 40
2.916667
 50
163.398416
 51
196.601577
  0
LINE
  8
CSLAYER1
  6
CONTINUOUS
 62
     6
 10
514.179376
 20
257.325803
 11
515.307761
 21
257.325803
  0
ARC
  8
CSLAYER1
  6
CONTINUOUS
 62
     6
 10
515.307761
 20
256.492503
 40
0.833333
 50
0.000005
 51
89.942654
  0
LINE
  8
CSLAYER1
  6
CONTINUOUS
 62
     6
 10
516.141104
 20
256.492503
 11
516.141104
 21
255.364031
  0
ARC
  8
CSLAYER1
  6
CONTINUOUS
 62
     6
 10
516.974448
 20
258.159146
 40
2.916667
 50
253.398422
 51
286.601583
  0
LINE
  8
CSLAYER1
  6
CONTINUOUS
 62
     6
 10
517.807791
 20
255.364031
 11
517.807791
 21
256.492503
  0
ARC
  8
CSLAYER1
  6
CONTINUOUS
 62
     6
 10
518.641135
 20
256.492503
 40
0.833333
 50
90.000001
 51
179.942691
  0
LINE
  8
CSLAYER1
  6
CONTINUOUS
 62
     6
 10
518.641135
 20
257.325803
 11
519.769520
 21
257.325803
  0
ARC
  8
CSLAYER1
  6
CONTINUOUS
 62
     6
 10
516.974448
 20
258.159146
 40
2.916667
 50
-16.601562
 51
16.601572
  0
LINE
  8
CSLAYER1
  6
CONTINUOUS
 62
     6
 10
519.769520
 20
258.992490
 11
518.641135
 21
258.992490
  0
ARC
  8
CSLAYER1
  6
CONTINUOUS
 62
     6
 10
518.641135
 20
259.825790
 40
0.833333
 50
180.000010
 51
270.000016
  0
LINE
  8
CSLAYER1
  6
CONTINUOUS
 62
     6
 10
517.807791
 20
259.825790
 11
517.807791
 21
260.954262
  0
ARC
  8
CSLAYER1
  6
CONTINUOUS
 62
     6
 10
516.974448
 20
258.159146
 40
2.916667
 50
73.398406
 51
106.601595
  0
LINE
  8
CSLAYER1
  6
CONTINUOUS
 62
     6
 10
516.141104
 20
260.954262
 11
516.141104
 21
259.825790
  0
ARC
  8
CSLAYER1
  6
CONTINUOUS
 62
     6
 10
515.307761
 20
259.825790
 40
0.833333
 50
-89.999984
 51
0.000005
  0
LINE
  8
CSLAYER1
  6
CONTINUOUS
 62
     6
 10
515.307761
 20
258.992490
 11
514.179376
 21
258.992490
  0
CIRCLE
  8
CSLAYER1
  6
CONTINUOUS
 62
     6
 10
516.974454
 20
258.159123
 40
7.500000
  0
CIRCLE
  8
CSLAYER1
  6
CONTINUOUS
 62
     6
 10
516.974467
 20
258.159145
 40
5.250000
  0
ARC
  8
CSLAYER1
  6
CONTINUOUS
 62
     6
 10
516.974454
 20
221.159123
 40
30.000000
 50
-85.368215
 51
85.368215
  0
LINE
  8
CSLAYER1
  6
CONTINUOUS
 62
     6
 10
517.807791
 20
186.954215
 11
517.807791
 21
185.825743
  0
ARC
  8
CSLAYER1
  6
CONTINUOUS
 62
     6
 10
518.641135
 20
185.825743
 40
0.833333
 50
180.057309
 51
269.999999
  0
LINE
  8
CSLAYER1
  6
CONTINUOUS
 62
     6
 10
518.641135
 20
184.992443
 11
519.769520
 21
184.992443
  0
ARC
  8
CSLAYER1
  6
CONTINUOUS
 62
     6
 10
516.974448
 20
184.159099
 40
2.916667
 50
-16.601572
 51
16.601562
  0
LINE
  8
CSLAYER1
  6
CONTINUOUS
 62
     6
 10
519.769520
 20
183.325756
 11
518.641135
 21
183.325756
  0
ARC
  8
CSLAYER1
  6
CONTINUOUS
 62
     6
 10
518.641135
 20
182.492456
 40
0.833333
 50
89.999984
 51
179.999990
  0
LINE
  8
CSLAYER1
  6
CONTINUOUS
 62
     6
 10
517.807791
 20
182.492456
 11
517.807791
 21
181.363984
  0
ARC
  8
CSLAYER1
  6
CONTINUOUS
 62
     6
 10
516.974448
 20
184.159099
 40
2.916667
 50
253.398405
 51
286.601594
  0
LINE
  8
CSLAYER1
  6
CONTINUOUS
 62
     6
 10
516.141104
 20
181.363984
 11
516.141104
 21
182.492456
  0
ARC
  8
CSLAYER1
  6
CONTINUOUS
 62
     6
 10
515.307761
 20
182.492456
 40
0.833333
 50
-0.000005
 51
89.999984
  0
LINE
  8
CSLAYER1
  6
CONTINUOUS
 62
     6
 10
515.307761
 20
183.325756
 11
514.179376
 21
183.325756
  0
ARC
  8
CSLAYER1
  6
CONTINUOUS
 62
     6
 10
516.974448
 20
184.159099
 40
2.916667
 50
163.398423
 51
196.601584
  0
LINE
  8
CSLAYER1
  6
CONTINUOUS
 62
     6
 10
514.179376
 20
184.992443
 11
515.307761
 21
184.992443
  0
ARC
  8
CSLAYER1
  6
CONTINUOUS
 62
     6
 10
515.307761
 20
185.825743
 40
0.833333
 50
270.057346
 51
359.999995
  0
LINE
  8
CSLAYER1
  6
CONTINUOUS
 62
     6
 10
516.141104
 20
185.825743
 11
516.141104
 21
186.954215
  0
ARC
  8
CSLAYER1
  6
CONTINUOUS
 62
     6
 10
516.974448
 20
184.159099
 40
2.916667
 50
73.398417
 51
106.601578
  0
CIRCLE
  8
CSLAYER1
  6
CONTINUOUS
 62
     6
 10
516.974454
 20
184.159123
 40
7.500000
  0
CIRCLE
  8
CSLAYER1
  6
CONTINUOUS
 62
     6
 10
516.974467
 20
184.159100
 40
5.250000
  0
ARC
  8
CSLAYER1
  6
CONTINUOUS
 62
     6
 10
516.974454
 20
221.159123
 40
30.000000
 50
94.631785
 51
265.368215
  0
CIRCLE
  8
CSLAYER1
  6
CONTINUOUS
 62
     6
 10
516.974454
 20
221.159123
 40
6.000000
  0
CIRCLE
  8
CSLAYER1
  6
CONTINUOUS
 62
     6
 10
516.974454
 20
221.159123
 40
16.000000
  0
CIRCLE
  8
CSLAYER1
  6
CONTINUOUS
 62
     6
 10
516.974454
 20
221.159123
 40
7.500000
  0
ARC
  8
CSLAYER1
  6
CONTINUOUS
 62
     6
 10
526.823648
 20
212.644912
 40
1.454544
 50
230.236329
 51
322.096590
  0
ARC
  8
CSLAYER1
  6
CONTINUOUS
 62
     6
 10
516.974454
 20
220.313126
 40
13.936877
 50
-37.903067
 51
217.903051
  0
ARC
  8
CSLAYER1
  6
CONTINUOUS
 62
     6
 10
507.125248
 20
212.644912
 40
1.454544
 50
217.903413
 51
309.763730
  0
ARC
  8
CSLAYER1
  6
CONTINUOUS
 62
     6
 10
510.049517
 20
209.130605
 40
3.117293
 50
-23.481547
 51
129.764151
  0
LINE
  8
CSLAYER1
  6
CONTINUOUS
 62
     6
 10
512.908659
 20
207.888515
 11
512.287491
 21
205.861027
  0
CIRCLE
  8
CSLAYER1
  6
CONTINUOUS
 62
     6
 10
510.049517
 20
209.130605
 40
1.454544
  0
LINE
  8
CSLAYER1
  6
CONTINUOUS
 62
     6
 10
521.040237
 20
207.888515
 11
521.661405
 21
205.861027
  0
ARC
  8
CSLAYER1
  6
CONTINUOUS
 62
     6
 10
523.899382
 20
209.130605
 40
3.117293
 50
50.235851
 51
203.481549
  0
CIRCLE
  8
CSLAYER1
  6
CONTINUOUS
 62
     6
 10
559.474454
 20
263.659123
 40
3.500000
  0
CIRCLE
  8
CSLAYER1
  6
CONTINUOUS
 62
     6
 10
523.899382
 20
209.130605
 40
1.454544
  0
CIRCLE
  8
CSLAYER1
  6
CONTINUOUS
 62
     6
 10
559.474454
 20
178.659123
 40
3.500000
  0
CIRCLE
  8
CSLAYER1
  6
CONTINUOUS
 62
     6
 10
474.474454
 20
178.659123
 40
3.500000
  0
LINE
  8
CSLAYER1
  6
CONTINUOUS
 62
     6
 10
430.885631
 20
92.159123
 11
393.885631
 21
92.159123
  0
LINE
  8
CSLAYER1
  6
CONTINUOUS
 62
     6
 10
393.885631
 20
80.159123
 11
430.885631
 21
80.159123
  0
LINE
  8
CSLAYER1
  6
CONTINUOUS
 62
     6
 10
430.885631
 20
80.159123
 11
430.885631
 21
92.159123
  0
ENDSEC
  0
EOF
