  0
SECTION
  2
HEADER
  9
$ACADVER
  1
AC1006
  9
$INSBASE
 10
0.000000
 20
0.000000
 30
0.0
  9
$EXTMIN
 10
0.000000
 20
0.000000
  9
$EXTMAX
 10
594.000000
 20
420.000000
  9
$LIMMIN
 10
0.000000
 20
0.000000
  9
$LIMMAX
 10
594.000000
 20
420.000000
  9
$VIEWCTR
 10
297.000000
 20
210.000000
  9
$VIEWSIZE
 40
420.000000
  9
$SNAPMODE
 70
     0
  9
$SNAPUNIT
 10
1.0
 20
1.0
  9
$SNAPBASE
 10
0.0
 20
0.0
  9
$SNAPANG
 50
0.0
  9
$SNAPSTYLE
 70
     0
  9
$SNAPISOPAIR
 70
     0
  9
$GRIDMODE
 70
     0
  9
$GRIDUNIT
 10
0.0
 20
0.0
  9
$ORTHOMODE
 70
     0
  9
$REGENMODE
 70
     1
  9
$FILLMODE
 70
     1
  9
$QTEXTMODE
 70
     0
  9
$DRAGMODE
 70
     2
  9
$LTSCALE
 40
15.000000
  9
$OSMODE
 70
     0
  9
$ATTMODE
 70
     1
  9
$TEXTSIZE
 40
0.2
  9
$TRACEWID
 40
0.05
  9
$TEXTSTYLE
  7
STANDARD
  9
$CLAYER
  8
CSLAYER1
  9
$CELTYPE
  6
BYLAYER
  9
$CECOLOR
 62
   256
  9
$DIMSCALE
 40
1.0
  9
$DIMASZ
 40
0.18
  9
$DIMEXO
 40
0.0625
  9
$DIMDLI
 40
0.38
  9
$DIMRND
 40
0.0
  9
$DIMDLE
 40
0.0
  9
$DIMEXE
 40
0.18
  9
$DIMTP
 40
0.0
  9
$DIMTM
 40
0.0
  9
$DIMTXT
 40
0.18
  9
$DIMCEN
 40
0.09
  9
$DIMTSZ
 40
0.0
  9
$DIMTOL
 70
     0
  9
$DIMLIM
 70
     0
  9
$DIMTIH
 70
     1
  9
$DIMTOH
 70
     1
  9
$DIMSE1
 70
     0
  9
$DIMSE2
 70
     0
  9
$DIMTAD
 70
     0
  9
$DIMZIN
 70
     0
  9
$DIMBLK
  1

  9
$LUNITS
 70
     2
  9
$LUPREC
 70
     4
  9
$AXISMODE
 70
     0
  9
$AXISUNIT
 10
0.0
 20
0.0
  9
$SKETCHINC
 40
0.1
  9
$FILLETRAD
 40
0.0
  9
$AUNITS
 70
     0
  9
$AUPREC
 70
     0
  9
$MENU
  1
ACAD
  9
$ELEVATION
 40
0.0
  9
$THICKNESS
 40
0.0
  9
$VIEWDIR
 10
0.0
 20
0.0
 30
1.0
  9
$LIMCHECK
 70
     0
  9
$BLIPMODE
 70
     1
  9
$CHAMFERA
 40
0.0
  9
$CHAMFERB
 40
0.0
  9
$FASTZOOM
 70
     1
  9
$SKPOLY
 70
     0
  9
$TDCREATE
 40
0.000000
  9
$TDUPDATE
 40
0.000000
  9
$TDINDWG
 40
0.0
  9
$TDUSRTIMER
 40
0.0
  9
$USRTIMER
 70
     1
  9
$ANGBASE
 50
0.0
  9
$ANGDIR
 70
     0
  9
$PDMODE
 70
     0
  9
$PDSIZE
 40
0.0
  9
$PLINEWID
 40
0.0
  9
$COORDS
 70
     0
  9
$USERI1
 70
     0
  9
$USERI2
 70
     0
  9
$USERI3
 70
     0
  9
$USERI4
 70
     0
  9
$USERI5
 70
     0
  9
$USERR1
 40
0.0
  9
$USERR2
 40
0.0
  9
$USERR3
 40
0.0
  9
$USERR4
 40
0.0
  9
$USERR5
 40
0.0
  0
ENDSEC
  0
SECTION
  2
TABLES
  0
TABLE
  2
LTYPE
 70
     9
  0
LTYPE
  2
CONTINUOUS
 70
    64
  3
Solid line
 72
    65
 73
     0
 40
0.0
  0
LTYPE
  2
DASHED
 70
    64
  3
__ __ __ __ __ __ __ __ __ __ __ __ __ __ __
 72
    65
 73
     2
 40
0.75
 49
0.5
 49
-0.25
  0
LTYPE
  2
HIDDEN
 70
    64
  3
_ _ _ _ _ _ _ _ _ _ _ _ _ _ _ _ _ _ _ _ _ _ _
 72
    65
 73
     2
 40
0.375
 49
0.25
 49
-0.125
  0
LTYPE
  2
DOT
 70
    64
  3
...............................................
 72
    65
 73
     2
 40
0.25
 49
0.0
 49
-0.25
  0
LTYPE
  2
DASHDOT
 70
    64
  3
__ . __ . __ . __ . __ . __ . __ . __ . __ . __
 72
    65
 73
     4
 40
1.0
 49
0.5
 49
-0.25
 49
0.0
 49
-0.25
  0
LTYPE
  2
DIVIDE
 70
    64
  3
__ . . __ . . __ . . __ . . __ . . __ . . __
 72
    65
 73
     6
 40
1.25
 49
0.5
 49
-0.25
 49
0.0
 49
-0.25
 49
0.0
 49
-0.25
  0
LTYPE
  2
CENTER
 70
    64
  3
____ _ ____ _ ____ _ ____ _ ____ _ ____ _ ____ 
 72
    65
 73
     4
 40
2.0
 49
1.25
 49
-0.25
 49
0.25
 49
-0.25
  0
LTYPE
  2
PHANTOM
 70
    64
  3
______  __  __  ______  __  __  ______  __  __ 
 72
    65
 73
     6
 40
2.5
 49
1.25
 49
-0.25
 49
0.25
 49
-0.25
 49
0.25
 49
-0.25
  0
LTYPE
  2
BORDER
 70
    64
  3
__ __ . __ __ . __ __ . __ __ . __ __ . __ __ .
 72
    65
 73
     6
 40
1.75
 49
0.5
 49
-0.25
 49
0.5
 49
-0.25
 49
0.0
 49
-0.25
  0
ENDTAB
  0
TABLE
  2
LAYER
 70
    16
  0
LAYER
  2
CSLAYER1
 70
    64
 62
     7
  6
CONTINUOUS
  0
LAYER
  2
CSLAYER2
 70
    64
 62
     7
  6
CONTINUOUS
  0
LAYER
  2
CSLAYER3
 70
    64
 62
     7
  6
CONTINUOUS
  0
LAYER
  2
CSLAYER4
 70
    64
 62
     7
  6
CONTINUOUS
  0
LAYER
  2
CSLAYER5
 70
    64
 62
     7
  6
CONTINUOUS
  0
LAYER
  2
CSLAYER6
 70
    64
 62
     7
  6
CONTINUOUS
  0
LAYER
  2
CSLAYER7
 70
    64
 62
     7
  6
CONTINUOUS
  0
LAYER
  2
CSLAYER8
 70
    64
 62
     7
  6
CONTINUOUS
  0
LAYER
  2
CSLAYER9
 70
    64
 62
     7
  6
CONTINUOUS
  0
LAYER
  2
CSLAYER10
 70
    64
 62
     7
  6
CONTINUOUS
  0
LAYER
  2
CSLAYER11
 70
    64
 62
     7
  6
CONTINUOUS
  0
LAYER
  2
CSLAYER12
 70
    64
 62
     7
  6
CONTINUOUS
  0
LAYER
  2
CSLAYER13
 70
    64
 62
     7
  6
CONTINUOUS
  0
LAYER
  2
CSLAYER14
 70
    64
 62
     7
  6
CONTINUOUS
  0
LAYER
  2
CSLAYER15
 70
    64
 62
     7
  6
CONTINUOUS
  0
LAYER
  2
CSLAYER16
 70
    64
 62
     7
  6
CONTINUOUS
  0
ENDTAB
  0
TABLE
  2
STYLE
 70
     1
  0
STYLE
  2
JX_FONT
 70
     0
 40
1.0
 41
1.0
 50
0.0
 71
     0
 42
1.0
  3
monotxt
  4
bigfont
  0
ENDTAB
  0
TABLE
  2
VIEW
 70
     0
  0
ENDTAB
  0
ENDSEC
  0
SECTION
  2
BLOCKS
  0
ENDSEC
  0
SECTION
  2
ENTITIES
  0
LINE
  8
CSLAYER1
  6
CENTER
 62
     3
 10
46.726765
 20
159.159099
 11
46.726765
 21
178.159099
  0
LINE
  8
CSLAYER1
  6
CENTER
 62
     3
 10
50.255634
 20
188.659084
 11
62.862964
 21
195.937923
  0
CIRCLE
  8
CSLAYER1
  6
CENTER
 62
     3
 10
57.616840
 20
192.909099
 40
2.000000
  0
LINE
  8
CSLAYER1
  6
CENTER
 62
     3
 10
73.641193
 20
184.164058
 11
67.591404
 21
173.685512
  0
LINE
  8
CSLAYER1
  6
CENTER
 62
     3
 10
56.226765
 20
168.659099
 11
37.226765
 21
168.659099
  0
LINE
  8
CSLAYER1
  6
CENTER
 62
     3
 10
89.226765
 20
156.159099
 11
89.226765
 21
266.159099
  0
CIRCLE
  8
CSLAYER1
  6
CENTER
 62
     3
 10
89.226765
 20
247.659084
 40
2.000000
  0
LINE
  8
CSLAYER1
  6
CENTER
 62
     3
 10
105.521183
 20
239.381832
 11
109.976780
 21
247.099147
  0
LINE
  8
CSLAYER1
  6
CENTER
 62
     3
 10
122.226765
 20
253.659099
 11
141.226765
 21
253.659099
  0
LINE
  8
CSLAYER1
  6
CENTER
 62
     3
 10
138.444279
 20
260.376614
 11
125.009250
 21
246.941585
  0
LINE
  8
CSLAYER1
  6
CENTER
 62
     3
 10
131.726765
 20
244.159099
 11
131.726765
 21
263.159099
  0
LINE
  8
CSLAYER1
  6
CENTER
 62
     3
 10
127.186283
 20
233.075038
 11
115.116596
 21
226.106594
  0
CIRCLE
  8
CSLAYER1
  6
CENTER
 62
     3
 10
125.726765
 20
211.159114
 40
2.500000
  0
LINE
  8
CSLAYER1
  6
CENTER
 62
     3
 10
140.045185
 20
211.159099
 11
38.226734
 21
211.159099
  0
CIRCLE
  8
CSLAYER1
  6
CENTER
 62
     3
 10
52.726765
 20
211.159114
 40
2.500000
  0
LINE
  8
CSLAYER1
  6
CENTER
 62
     3
 10
63.564121
 20
225.975429
 11
50.255634
 21
233.659084
  0
LINE
  8
CSLAYER1
  6
CENTER
 62
     3
 10
46.726765
 20
244.159099
 11
46.726765
 21
263.159099
  0
LINE
  8
CSLAYER1
  6
CENTER
 62
     3
 10
56.226765
 20
253.659099
 11
37.226765
 21
253.659099
  0
CIRCLE
  8
CSLAYER1
  6
CENTER
 62
     3
 10
89.226765
 20
211.159114
 40
36.500000
  0
LINE
  8
CSLAYER1
  6
CENTER
 62
     3
 10
115.636066
 20
195.911678
 11
128.197910
 21
188.659099
  0
CIRCLE
  8
CSLAYER1
  6
CENTER
 62
     3
 10
120.836704
 20
192.909114
 40
2.000000
  0
LINE
  8
CSLAYER1
  6
CENTER
 62
     3
 10
131.726765
 20
178.159099
 11
131.726765
 21
159.159099
  0
LINE
  8
CSLAYER1
  6
CENTER
 62
     3
 10
122.226765
 20
168.659099
 11
141.226765
 21
168.659099
  0
LINE
  8
CSLAYER1
  6
CENTER
 62
     3
 10
179.927134
 20
193.159100
 11
204.885630
 21
193.159100
  0
LINE
  8
CSLAYER1
  6
CENTER
 62
     3
 10
198.385630
 20
197.659100
 11
191.385630
 21
197.659100
  0
LINE
  8
CSLAYER1
  6
CENTER
 62
     3
 10
192.349525
 20
197.659100
 11
192.421736
 21
188.659100
  0
LINE
  8
CSLAYER1
  6
CENTER
 62
     3
 10
191.385630
 20
188.659100
 11
198.385630
 21
188.659100
  0
LINE
  8
CSLAYER1
  6
CENTER
 62
     3
 10
196.363320
 20
188.659100
 11
194.524780
 21
197.659100
  0
LINE
  8
CSLAYER1
  6
CENTER
 62
     3
 10
193.524781
 20
197.659100
 11
195.363314
 21
188.659100
  0
LINE
  8
CSLAYER1
  6
CENTER
 62
     3
 10
194.363314
 20
188.659100
 11
192.524781
 21
197.659100
  0
LINE
  8
CSLAYER1
  6
CENTER
 62
     3
 10
184.881846
 20
194.780072
 11
182.306651
 21
194.780072
  0
LINE
  8
CSLAYER1
  6
CENTER
 62
     3
 10
182.306651
 20
191.538067
 11
184.901957
 21
191.538067
  0
LINE
  8
CSLAYER1
  6
CENTER
 62
     3
 10
211.885630
 20
204.449100
 11
211.885630
 21
217.869100
  0
LINE
  8
CSLAYER1
  6
CENTER
 62
     3
 10
204.885630
 20
247.659115
 11
179.927134
 21
247.659115
  0
LINE
  8
CSLAYER1
  6
CENTER
 62
     3
 10
182.306651
 20
246.038113
 11
184.901957
 21
246.038113
  0
LINE
  8
CSLAYER1
  6
CENTER
 62
     3
 10
184.881846
 20
249.280118
 11
182.306651
 21
249.280118
  0
LINE
  8
CSLAYER1
  6
CENTER
 62
     3
 10
191.385630
 20
252.159115
 11
198.385630
 21
252.159115
  0
LINE
  8
CSLAYER1
  6
CENTER
 62
     3
 10
194.524780
 20
252.159115
 11
196.034447
 21
244.769008
  0
LINE
  8
CSLAYER1
  6
CENTER
 62
     3
 10
195.034443
 20
244.769008
 11
193.524781
 21
252.159115
  0
LINE
  8
CSLAYER1
  6
CENTER
 62
     3
 10
192.524781
 20
252.159115
 11
194.034443
 21
244.769008
  0
LINE
  8
CSLAYER1
  6
CENTER
 62
     3
 10
192.408819
 20
244.769008
 11
192.349525
 21
252.159115
  0
LINE
  8
CSLAYER1
  6
CENTER
 62
     3
 10
179.927134
 20
211.159123
 11
416.885631
 21
211.159123
  0
LINE
  8
CSLAYER1
  6
CENTER
 62
     3
 10
440.974454
 20
211.159123
 11
552.974454
 21
211.159123
  0
LINE
  8
CSLAYER1
  6
CENTER
 62
     3
 10
533.974477
 20
224.659123
 11
533.974477
 21
197.659123
  0
LINE
  8
CSLAYER1
  6
CENTER
 62
     3
 10
539.474454
 20
178.159123
 11
539.474454
 21
159.159123
  0
LINE
  8
CSLAYER1
  6
CENTER
 62
     3
 10
529.974454
 20
168.659123
 11
548.974454
 21
168.659123
  0
LINE
  8
CSLAYER1
  6
CENTER
 62
     3
 10
496.974454
 20
155.159123
 11
496.974454
 21
267.159123
  0
LINE
  8
CSLAYER1
  6
CENTER
 62
     3
 10
529.974454
 20
253.659123
 11
548.974454
 21
253.659123
  0
LINE
  8
CSLAYER1
  6
CENTER
 62
     3
 10
539.474454
 20
244.159123
 11
539.474454
 21
263.159123
  0
LINE
  8
CSLAYER1
  6
CENTER
 62
     3
 10
463.974454
 20
253.659123
 11
444.974454
 21
253.659123
  0
LINE
  8
CSLAYER1
  6
CENTER
 62
     3
 10
374.885631
 20
253.659123
 11
355.885631
 21
253.659123
  0
ARC
  8
CSLAYER1
  6
DASHED
 62
     3
 10
336.885631
 20
234.659123
 40
2.000000
 50
0.000000
 51
90.000000
  0
LINE
  8
CSLAYER1
  6
DASHED
 62
     3
 10
336.885631
 20
236.659123
 11
308.885631
 21
236.659123
  0
ARC
  8
CSLAYER1
  6
DASHED
 62
     3
 10
308.885631
 20
234.659123
 40
2.000000
 50
90.000000
 51
180.000000
  0
LINE
  8
CSLAYER1
  6
DASHED
 62
     3
 10
306.885631
 20
234.659123
 11
306.885631
 21
187.659123
  0
ARC
  8
CSLAYER1
  6
DASHED
 62
     3
 10
308.885631
 20
187.659123
 40
2.000000
 50
180.000000
 51
270.000000
  0
LINE
  8
CSLAYER1
  6
DASHED
 62
     3
 10
308.885631
 20
185.659123
 11
336.885631
 21
185.659123
  0
ARC
  8
CSLAYER1
  6
DASHED
 62
     3
 10
336.885631
 20
187.659123
 40
2.000000
 50
270.000000
 51
360.000000
  0
LINE
  8
CSLAYER1
  6
DASHED
 62
     3
 10
338.885631
 20
187.659123
 11
338.885631
 21
234.659123
  0
LINE
  8
CSLAYER1
  6
CENTER
 62
     3
 10
355.885661
 20
303.659123
 11
374.885661
 21
303.659123
  0
LINE
  8
CSLAYER1
  6
CENTER
 62
     3
 10
416.885631
 20
346.159123
 11
177.385630
 21
346.159123
  0
LINE
  8
CSLAYER1
  6
CENTER
 62
     3
 10
253.885661
 20
378.159123
 11
253.885661
 21
314.159123
  0
LINE
  8
CSLAYER1
  6
CENTER
 62
     3
 10
248.885661
 20
309.159123
 11
248.885661
 21
298.459111
  0
LINE
  8
CSLAYER1
  6
CENTER
 62
     3
 10
253.885661
 20
265.159108
 11
253.885661
 21
242.552296
  0
LINE
  8
CSLAYER1
  6
CENTER
 62
     3
 10
248.885661
 20
232.159123
 11
248.885661
 21
190.159123
  0
LINE
  8
CSLAYER1
  6
CENTER
 62
     3
 10
243.135668
 20
196.159123
 11
254.635668
 21
196.159123
  0
LINE
  8
CSLAYER1
  6
CENTER
 62
     3
 10
242.885661
 20
201.409085
 11
242.885661
 21
220.909085
  0
LINE
  8
CSLAYER1
  6
CENTER
 62
     3
 10
243.135668
 20
226.159123
 11
254.635668
 21
226.159123
  0
LINE
  8
CSLAYER1
  6
CENTER
 62
     3
 10
253.885661
 20
179.765919
 11
253.885661
 21
157.159108
  0
LINE
  8
CSLAYER1
  6
CENTER
 62
     3
 10
248.885661
 20
123.859135
 11
248.885661
 21
113.159123
  0
LINE
  8
CSLAYER1
  6
CENTER
 62
     3
 10
253.885661
 20
108.159123
 11
253.885661
 21
44.159123
  0
LINE
  8
CSLAYER1
  6
CENTER
 62
     3
 10
204.885630
 20
44.549213
 11
180.649394
 21
44.549213
  0
LINE
  8
CSLAYER1
  6
CENTER
 62
     3
 10
182.306651
 20
42.928211
 11
184.985667
 21
42.928211
  0
LINE
  8
CSLAYER1
  6
CENTER
 62
     3
 10
184.985667
 20
46.170216
 11
182.306651
 21
46.170216
  0
LINE
  8
CSLAYER1
  6
CENTER
 62
     3
 10
191.385630
 20
49.049213
 11
198.385630
 21
49.049213
  0
LINE
  8
CSLAYER1
  6
CENTER
 62
     3
 10
194.524780
 20
49.049213
 11
196.363320
 21
40.049213
  0
LINE
  8
CSLAYER1
  6
CENTER
 62
     3
 10
195.363314
 20
40.049213
 11
193.524781
 21
49.049213
  0
LINE
  8
CSLAYER1
  6
CENTER
 62
     3
 10
192.524781
 20
49.049213
 11
194.363314
 21
40.049213
  0
LINE
  8
CSLAYER1
  6
CENTER
 62
     3
 10
192.421736
 20
40.049213
 11
192.349525
 21
49.049213
  0
LINE
  8
CSLAYER1
  6
CENTER
 62
     3
 10
191.385630
 20
40.049213
 11
201.885630
 21
40.049213
  0
LINE
  8
CSLAYER1
  6
CENTER
 62
     3
 10
182.385630
 20
74.538151
 11
182.306681
 21
74.538151
  0
LINE
  8
CSLAYER1
  6
CENTER
 62
     3
 10
182.306681
 20
77.780155
 11
182.385630
 21
77.780155
  0
LINE
  8
CSLAYER1
  6
CENTER
 62
     3
 10
177.385630
 20
76.159123
 11
416.885631
 21
76.159123
  0
LINE
  8
CSLAYER1
  6
CENTER
 62
     3
 10
374.885661
 20
33.659123
 11
355.885661
 21
33.659123
  0
LINE
  8
CSLAYER1
  6
CONTINUOUS
 62
     3
 10
338.885631
 20
31.159123
 11
338.885631
 21
37.753389
  0
ARC
  8
CSLAYER1
  6
CONTINUOUS
 62
     3
 10
336.885631
 20
37.753389
 40
2.000000
 50
0.057309
 51
89.999999
  0
LINE
  8
CSLAYER1
  6
CONTINUOUS
 62
     3
 10
336.885631
 20
39.753389
 11
308.885631
 21
39.753358
  0
ARC
  8
CSLAYER1
  6
CONTINUOUS
 62
     3
 10
308.885631
 20
37.753358
 40
2.000000
 50
89.999999
 51
179.999995
  0
LINE
  8
CSLAYER1
  6
CONTINUOUS
 62
     3
 10
306.885631
 20
37.753358
 11
306.885631
 21
31.159123
  0
LINE
  8
CSLAYER1
  6
CENTER
 62
     3
 10
355.885661
 20
118.659123
 11
374.885661
 21
118.659123
  0
LINE
  8
CSLAYER1
  6
CENTER
 62
     3
 10
374.885631
 20
168.659123
 11
355.885631
 21
168.659123
  0
LINE
  8
CSLAYER1
  6
CENTER
 62
     3
 10
444.974454
 20
168.659123
 11
463.974454
 21
168.659123
  0
LINE
  8
CSLAYER1
  6
CENTER
 62
     3
 10
454.474454
 20
178.159123
 11
454.474454
 21
159.159123
  0
LINE
  8
CSLAYER1
  6
CENTER
 62
     3
 10
459.974432
 20
197.659123
 11
459.974432
 21
224.659123
  0
LINE
  8
CSLAYER1
  6
CENTER
 62
     3
 10
454.474454
 20
244.159123
 11
454.474454
 21
263.159123
  0
LINE
  8
CSLAYER1
  6
CENTER
 62
     3
 10
374.885661
 20
388.659123
 11
355.885661
 21
388.659123
  0
LINE
  8
CSLAYER1
  6
CONTINUOUS
 62
     3
 10
338.885631
 20
391.159123
 11
338.885631
 21
384.564857
  0
ARC
  8
CSLAYER1
  6
CONTINUOUS
 62
     3
 10
336.885631
 20
384.564857
 40
2.000000
 50
270.000001
 51
359.942691
  0
LINE
  8
CSLAYER1
  6
CONTINUOUS
 62
     3
 10
336.885631
 20
382.564857
 11
308.885631
 21
382.564888
  0
ARC
  8
CSLAYER1
  6
CONTINUOUS
 62
     3
 10
308.885631
 20
384.564888
 40
2.000000
 50
180.000005
 51
270.000001
  0
LINE
  8
CSLAYER1
  6
CONTINUOUS
 62
     3
 10
306.885631
 20
384.564888
 11
306.885631
 21
391.159123
  0
LINE
  8
CSLAYER1
  6
CENTER
 62
     3
 10
211.885630
 20
125.914768
 11
211.885630
 21
113.259123
  0
LINE
  8
CSLAYER1
  6
CENTER
 62
     3
 10
204.885630
 20
107.769032
 11
180.649394
 21
107.769032
  0
LINE
  8
CSLAYER1
  6
CENTER
 62
     3
 10
182.306651
 20
109.390034
 11
184.985667
 21
109.390034
  0
LINE
  8
CSLAYER1
  6
CENTER
 62
     3
 10
184.985667
 20
106.148029
 11
182.306651
 21
106.148029
  0
LINE
  8
CSLAYER1
  6
CENTER
 62
     3
 10
191.385630
 20
112.269032
 11
201.885630
 21
112.269032
  0
LINE
  8
CSLAYER1
  6
CENTER
 62
     3
 10
194.524780
 20
112.269032
 11
196.363320
 21
103.269032
  0
LINE
  8
CSLAYER1
  6
CENTER
 62
     3
 10
195.363314
 20
103.269032
 11
193.524781
 21
112.269032
  0
LINE
  8
CSLAYER1
  6
CENTER
 62
     3
 10
192.524781
 20
112.269032
 11
194.363314
 21
103.269032
  0
LINE
  8
CSLAYER1
  6
CENTER
 62
     3
 10
192.421736
 20
103.269032
 11
192.349525
 21
112.269032
  0
LINE
  8
CSLAYER1
  6
CENTER
 62
     3
 10
191.385630
 20
103.269032
 11
198.385630
 21
103.269032
  0
TEXT
  8
CSLAYER1
 62
     3
 10
320.942383
 20
216.409119
 40
3.500000
 41
1.125000
  1
N P
 50
-90.000000
 51
10.000000
  7
JX_FONT
 72
     5
 11
320.942383
 21
205.909119
  0
LINE
  8
CSLAYER1
  6
CONTINUOUS
 62
     6
 10
46.726765
 20
161.159099
 11
131.726765
 21
161.159099
  0
LINE
  8
CSLAYER1
  6
CONTINUOUS
 62
     6
 10
127.559580
 20
162.423350
 11
115.401324
 21
170.548387
  0
ARC
  8
CSLAYER1
  6
CONTINUOUS
 62
     6
 10
114.226765
 20
167.159099
 40
1.000000
 50
-89.999980
 51
0.000001
  0
LINE
  8
CSLAYER1
  6
CONTINUOUS
 62
     6
 10
114.226765
 20
166.159099
 11
113.226765
 21
166.159099
  0
ARC
  8
CSLAYER1
  6
CONTINUOUS
 62
     6
 10
113.226765
 20
167.144054
 40
1.000000
 50
180.000039
 51
270.000020
  0
LINE
  8
CSLAYER1
  6
CONTINUOUS
 62
     6
 10
112.226765
 20
167.144054
 11
111.981648
 21
171.820232
  0
ARC
  8
CSLAYER1
  6
CONTINUOUS
 62
     6
 10
110.983021
 20
171.767894
 40
1.000000
 50
3.000982
 51
118.911605
  0
ARC
  8
CSLAYER1
  6
CONTINUOUS
 62
     6
 10
110.632252
 20
170.442912
 40
2.000000
 50
117.731845
 51
177.000375
  0
LINE
  8
CSLAYER1
  6
CONTINUOUS
 62
     6
 10
108.634968
 20
170.547588
 11
108.246723
 21
163.138683
  0
ARC
  8
CSLAYER1
  6
CONTINUOUS
 62
     6
 10
107.246968
 20
163.159099
 40
1.000000
 50
270.000020
 51
358.830766
  0
LINE
  8
CSLAYER1
  6
CONTINUOUS
 62
     6
 10
107.246968
 20
162.159099
 11
71.206562
 21
162.159099
  0
ARC
  8
CSLAYER1
  6
CONTINUOUS
 62
     6
 10
71.206562
 20
163.159099
 40
1.000000
 50
181.169216
 51
270.000020
  0
LINE
  8
CSLAYER1
  6
CONTINUOUS
 62
     6
 10
70.206806
 20
163.138683
 11
69.818562
 21
170.547588
  0
ARC
  8
CSLAYER1
  6
CONTINUOUS
 62
     6
 10
67.821278
 20
170.442912
 40
2.000000
 50
2.999664
 51
62.268195
  0
ARC
  8
CSLAYER1
  6
CONTINUOUS
 62
     6
 10
67.470509
 20
171.767894
 40
1.000000
 50
61.088417
 51
176.999040
  0
LINE
  8
CSLAYER1
  6
CONTINUOUS
 62
     6
 10
66.471882
 20
171.820232
 11
66.226765
 21
167.144054
  0
ARC
  8
CSLAYER1
  6
CONTINUOUS
 62
     6
 10
65.226765
 20
167.144054
 40
1.000000
 50
-89.999980
 51
0.000001
  0
LINE
  8
CSLAYER1
  6
CONTINUOUS
 62
     6
 10
65.226765
 20
166.159099
 11
64.226765
 21
166.159099
  0
ARC
  8
CSLAYER1
  6
CONTINUOUS
 62
     6
 10
64.226765
 20
167.159099
 40
1.000000
 50
180.000039
 51
270.000020
  0
LINE
  8
CSLAYER1
  6
CONTINUOUS
 62
     6
 10
63.226765
 20
167.159099
 11
62.811268
 21
175.087566
  0
ARC
  8
CSLAYER1
  6
CONTINUOUS
 62
     6
 10
60.814015
 20
174.982890
 40
2.000000
 50
3.000065
 51
51.854286
  0
ARC
  8
CSLAYER1
  6
CONTINUOUS
 62
     6
 10
89.226734
 20
211.159099
 40
45.000000
 50
125.914342
 51
234.085650
  0
ARC
  8
CSLAYER1
  6
CONTINUOUS
 62
     6
 10
60.814015
 20
247.335292
 40
2.000000
 50
308.145716
 51
356.999937
  0
LINE
  8
CSLAYER1
  6
CONTINUOUS
 62
     6
 10
62.811268
 20
247.230617
 11
63.226765
 21
255.159099
  0
ARC
  8
CSLAYER1
  6
CONTINUOUS
 62
     6
 10
64.226765
 20
255.159099
 40
1.000000
 50
90.000000
 51
179.999981
  0
LINE
  8
CSLAYER1
  6
CONTINUOUS
 62
     6
 10
64.226765
 20
256.159099
 11
65.226765
 21
256.159099
  0
ARC
  8
CSLAYER1
  6
CONTINUOUS
 62
     6
 10
65.226765
 20
255.174144
 40
1.000000
 50
0.000001
 51
89.942687
  0
LINE
  8
CSLAYER1
  6
CONTINUOUS
 62
     6
 10
66.226765
 20
255.174144
 11
66.471882
 21
250.497951
  0
ARC
  8
CSLAYER1
  6
CONTINUOUS
 62
     6
 10
67.470509
 20
250.550304
 40
1.000000
 50
183.000962
 51
298.911585
  0
ARC
  8
CSLAYER1
  6
CONTINUOUS
 62
     6
 10
67.821278
 20
251.875270
 40
2.000000
 50
297.731807
 51
357.000395
  0
LINE
  8
CSLAYER1
  6
CONTINUOUS
 62
     6
 10
69.818562
 20
251.770610
 11
70.206806
 21
259.179515
  0
ARC
  8
CSLAYER1
  6
CONTINUOUS
 62
     6
 10
71.206562
 20
259.159099
 40
1.000000
 50
90.000000
 51
178.830746
  0
LINE
  8
CSLAYER1
  6
CONTINUOUS
 62
     6
 10
71.206562
 20
260.159099
 11
107.246968
 21
260.159099
  0
ARC
  8
CSLAYER1
  6
CONTINUOUS
 62
     6
 10
107.246968
 20
259.159099
 40
1.000000
 50
1.169236
 51
89.942687
  0
LINE
  8
CSLAYER1
  6
CONTINUOUS
 62
     6
 10
108.246723
 20
259.179515
 11
108.634968
 21
251.770610
  0
ARC
  8
CSLAYER1
  6
CONTINUOUS
 62
     6
 10
110.632252
 20
251.875270
 40
2.000000
 50
182.999645
 51
242.268175
  0
ARC
  8
CSLAYER1
  6
CONTINUOUS
 62
     6
 10
110.983021
 20
250.550304
 40
1.000000
 50
241.088398
 51
356.999020
  0
LINE
  8
CSLAYER1
  6
CONTINUOUS
 62
     6
 10
111.981648
 20
250.497951
 11
112.226765
 21
255.174144
  0
ARC
  8
CSLAYER1
  6
CONTINUOUS
 62
     6
 10
113.226765
 20
255.174144
 40
1.000000
 50
90.000000
 51
179.999981
  0
LINE
  8
CSLAYER1
  6
CONTINUOUS
 62
     6
 10
113.226765
 20
256.159099
 11
114.226765
 21
256.159099
  0
ARC
  8
CSLAYER1
  6
CONTINUOUS
 62
     6
 10
114.226765
 20
255.159099
 40
1.000000
 50
0.000001
 51
89.942687
  0
LINE
  8
CSLAYER1
  6
CONTINUOUS
 62
     6
 10
115.226765
 20
255.159099
 11
115.642262
 21
247.230617
  0
ARC
  8
CSLAYER1
  6
CONTINUOUS
 62
     6
 10
117.639515
 20
247.335292
 40
2.000000
 50
183.000103
 51
231.854266
  0
ARC
  8
CSLAYER1
  6
CONTINUOUS
 62
     6
 10
89.226795
 20
211.159099
 40
45.000000
 50
2.549866
 51
54.085657
  0
ARC
  8
CSLAYER1
  6
CONTINUOUS
 62
     6
 10
89.226734
 20
211.159099
 40
44.000000
 50
2.607857
 51
357.392143
  0
ARC
  8
CSLAYER1
  6
CONTINUOUS
 62
     6
 10
89.226795
 20
211.159099
 40
45.000000
 50
305.914332
 51
357.450134
  0
ARC
  8
CSLAYER1
  6
CONTINUOUS
 62
     6
 10
117.639515
 20
174.982890
 40
2.000000
 50
128.145754
 51
176.999917
  0
LINE
  8
CSLAYER1
  6
CONTINUOUS
 62
     6
 10
115.642262
 20
175.087566
 11
115.226765
 21
167.159099
  0
ARC
  8
CSLAYER1
  6
CONTINUOUS
 62
     6
 10
112.067577
 20
165.559787
 40
6.000000
 50
90.689987
 51
116.606406
  0
ARC
  8
CSLAYER1
  6
CONTINUOUS
 62
     6
 10
89.226795
 20
211.159099
 40
45.000000
 50
295.543051
 51
300.185653
  0
ARC
  8
CSLAYER1
  6
CONTINUOUS
 62
     6
 10
114.196629
 20
179.910030
 40
1.500000
 50
210.000033
 51
308.627097
  0
LINE
  8
CSLAYER1
  6
CONTINUOUS
 62
     6
 10
112.897587
 20
179.160030
 11
111.373875
 21
181.799175
  0
ARC
  8
CSLAYER1
  6
CONTINUOUS
 62
     6
 10
107.476750
 20
179.549175
 40
4.500000
 50
29.999995
 51
210.000072
  0
LINE
  8
CSLAYER1
  6
CONTINUOUS
 62
     6
 10
103.579625
 20
177.299175
 11
105.103337
 21
174.660030
  0
ARC
  8
CSLAYER1
  6
CONTINUOUS
 62
     6
 10
103.804325
 20
173.910030
 40
1.500000
 50
-68.627126
 51
29.999995
  0
ARC
  8
CSLAYER1
  6
CONTINUOUS
 62
     6
 10
95.226765
 20
171.611659
 40
1.500000
 50
179.999981
 51
278.627160
  0
LINE
  8
CSLAYER1
  6
CONTINUOUS
 62
     6
 10
93.726765
 20
171.611659
 11
93.726765
 21
174.659084
  0
ARC
  8
CSLAYER1
  6
CONTINUOUS
 62
     6
 10
89.226765
 20
174.659084
 40
4.500000
 50
0.000001
 51
179.999981
  0
LINE
  8
CSLAYER1
  6
CONTINUOUS
 62
     6
 10
84.726765
 20
174.659084
 11
84.726765
 21
171.611659
  0
ARC
  8
CSLAYER1
  6
CONTINUOUS
 62
     6
 10
83.226765
 20
171.611659
 40
1.500000
 50
-98.627120
 51
0.000001
  0
LINE
  8
CSLAYER1
  6
CONTINUOUS
 62
     6
 10
88.360737
 20
173.159084
 11
90.092762
 21
173.159084
  0
LINE
  8
CSLAYER1
  6
CONTINUOUS
 62
     6
 10
90.092762
 20
173.159084
 11
90.983234
 21
174.701381
  0
LINE
  8
CSLAYER1
  6
CONTINUOUS
 62
     6
 10
90.983234
 20
174.701381
 11
90.092762
 21
176.159099
  0
LINE
  8
CSLAYER1
  6
CONTINUOUS
 62
     6
 10
90.092762
 20
176.159099
 11
88.360737
 21
176.159068
  0
LINE
  8
CSLAYER1
  6
CONTINUOUS
 62
     6
 10
88.360737
 20
176.159068
 11
87.517826
 21
174.699108
  0
LINE
  8
CSLAYER1
  6
CONTINUOUS
 62
     6
 10
87.517826
 20
174.699108
 11
88.360737
 21
173.159084
  0
CIRCLE
  8
CSLAYER1
  6
CONTINUOUS
 62
     6
 10
89.226765
 20
174.659084
 40
3.499925
  0
CIRCLE
  8
CSLAYER1
  6
CONTINUOUS
 62
     6
 10
89.226765
 20
174.659084
 40
2.745431
  0
CIRCLE
  8
CSLAYER1
  6
CONTINUOUS
 62
     6
 10
70.976780
 20
179.549144
 40
2.000000
  0
CIRCLE
  8
CSLAYER1
  6
CONTINUOUS
 62
     6
 10
70.976780
 20
179.549144
 40
1.200000
  0
ARC
  8
CSLAYER1
  6
CONTINUOUS
 62
     6
 10
89.226734
 20
211.159099
 40
45.000000
 50
239.814348
 51
244.456931
  0
ARC
  8
CSLAYER1
  6
CONTINUOUS
 62
     6
 10
66.385953
 20
165.559787
 40
6.000000
 50
63.393594
 51
89.310013
  0
LINE
  8
CSLAYER1
  6
CONTINUOUS
 62
     6
 10
63.052205
 20
170.548387
 11
50.893949
 21
162.423350
  0
ARC
  8
CSLAYER1
  6
CONTINUOUS
 62
     6
 10
46.726765
 20
168.659099
 40
7.500000
 50
146.246253
 51
303.753747
  0
LINE
  8
CSLAYER1
  6
CONTINUOUS
 62
     6
 10
40.491015
 20
172.826284
 11
48.616052
 21
184.984540
  0
ARC
  8
CSLAYER1
  6
CONTINUOUS
 62
     6
 10
43.627452
 20
188.318287
 40
6.000000
 50
-33.753747
 51
26.606406
  0
LINE
  8
CSLAYER1
  6
CONTINUOUS
 62
     6
 10
53.575352
 20
192.909084
 11
55.596134
 21
189.409084
  0
LINE
  8
CSLAYER1
  6
CONTINUOUS
 62
     6
 10
55.596134
 20
189.409099
 11
59.637577
 21
189.409099
  0
LINE
  8
CSLAYER1
  6
CONTINUOUS
 62
     6
 10
59.637577
 20
189.409084
 11
61.658329
 21
192.909114
  0
LINE
  8
CSLAYER1
  6
CONTINUOUS
 62
     6
 10
61.658283
 20
192.909099
 11
59.637546
 21
196.409099
  0
LINE
  8
CSLAYER1
  6
CONTINUOUS
 62
     6
 10
59.637546
 20
196.409099
 11
55.596134
 21
196.409099
  0
LINE
  8
CSLAYER1
  6
CONTINUOUS
 62
     6
 10
55.596134
 20
196.409099
 11
53.575352
 21
192.909084
  0
CIRCLE
  8
CSLAYER1
  6
CONTINUOUS
 62
     6
 10
57.616840
 20
192.909099
 40
3.400000
  0
CIRCLE
  8
CSLAYER1
  6
CONTINUOUS
 62
     6
 10
57.616840
 20
192.909099
 40
1.621000
  0
ARC
  8
CSLAYER1
  6
CONTINUOUS
 62
     6
 10
89.226749
 20
211.159099
 40
12.999999
 50
167.204095
 51
192.795885
  0
LINE
  8
CSLAYER1
  6
CONTINUOUS
 62
     6
 10
76.549610
 20
214.038326
 11
86.347523
 21
223.836254
  0
ARC
  8
CSLAYER1
  6
CONTINUOUS
 62
     6
 10
89.226749
 20
211.159099
 40
12.999999
 50
77.204114
 51
102.795904
  0
LINE
  8
CSLAYER1
  6
CONTINUOUS
 62
     6
 10
92.105976
 20
223.836254
 11
101.903904
 21
214.038326
  0
ARC
  8
CSLAYER1
  6
CONTINUOUS
 62
     6
 10
89.226749
 20
211.159099
 40
12.999999
 50
-12.795925
 51
12.795923
  0
LINE
  8
CSLAYER1
  6
CONTINUOUS
 62
     6
 10
101.903904
 20
208.279872
 11
92.105976
 21
198.481960
  0
ARC
  8
CSLAYER1
  6
CONTINUOUS
 62
     6
 10
89.226749
 20
211.159099
 40
12.999999
 50
257.204094
 51
282.795884
  0
LINE
  8
CSLAYER1
  6
CONTINUOUS
 62
     6
 10
86.347523
 20
198.481960
 11
76.549610
 21
208.279872
  0
LINE
  8
CSLAYER1
  6
CONTINUOUS
 62
     6
 10
82.726765
 20
209.159114
 11
83.510583
 21
209.159114
  0
LINE
  8
CSLAYER1
  6
CONTINUOUS
 62
     6
 10
82.726765
 20
209.159114
 11
82.726765
 21
213.159114
  0
LINE
  8
CSLAYER1
  6
CONTINUOUS
 62
     6
 10
82.726765
 20
213.159114
 11
83.237015
 21
213.159114
  0
CIRCLE
  8
CSLAYER1
  6
CONTINUOUS
 62
     6
 10
89.226765
 20
211.159114
 40
5.000017
  0
CIRCLE
  8
CSLAYER1
  6
CONTINUOUS
 62
     6
 10
89.226765
 20
211.159099
 40
41.500000
  0
CIRCLE
  8
CSLAYER1
  6
CONTINUOUS
 62
     6
 10
89.226765
 20
211.159099
 40
14.000000
  0
LINE
  8
CSLAYER1
  6
CONTINUOUS
 62
     6
 10
87.206058
 20
244.159084
 11
91.247501
 21
244.159084
  0
LINE
  8
CSLAYER1
  6
CONTINUOUS
 62
     6
 10
91.247501
 20
244.159084
 11
93.268253
 21
247.659114
  0
LINE
  8
CSLAYER1
  6
CONTINUOUS
 62
     6
 10
93.268207
 20
247.659084
 11
91.247471
 21
251.159084
  0
LINE
  8
CSLAYER1
  6
CONTINUOUS
 62
     6
 10
91.247471
 20
251.159084
 11
87.206058
 21
251.159084
  0
LINE
  8
CSLAYER1
  6
CONTINUOUS
 62
     6
 10
87.206058
 20
251.159084
 11
85.185276
 21
247.659084
  0
LINE
  8
CSLAYER1
  6
CONTINUOUS
 62
     6
 10
85.185276
 20
247.659084
 11
87.206058
 21
244.159084
  0
CIRCLE
  8
CSLAYER1
  6
CONTINUOUS
 62
     6
 10
89.226765
 20
247.659084
 40
3.400000
  0
CIRCLE
  8
CSLAYER1
  6
CONTINUOUS
 62
     6
 10
89.226765
 20
247.659084
 40
1.621000
  0
LINE
  8
CSLAYER1
  6
CONTINUOUS
 62
     6
 10
74.873905
 20
245.019023
 11
73.350193
 21
247.658168
  0
ARC
  8
CSLAYER1
  6
CONTINUOUS
 62
     6
 10
74.649205
 20
248.408168
 40
1.500000
 50
111.372874
 51
209.999995
  0
ARC
  8
CSLAYER1
  6
CONTINUOUS
 62
     6
 10
89.226734
 20
211.159099
 40
45.000000
 50
115.543031
 51
120.185652
  0
ARC
  8
CSLAYER1
  6
CONTINUOUS
 62
     6
 10
66.385953
 20
256.758412
 40
6.000000
 50
270.689987
 51
296.606406
  0
LINE
  8
CSLAYER1
  6
CONTINUOUS
 62
     6
 10
63.052205
 20
251.769812
 11
50.893949
 21
259.894849
  0
ARC
  8
CSLAYER1
  6
CONTINUOUS
 62
     6
 10
46.726765
 20
253.659099
 40
7.500000
 50
56.246253
 51
213.753747
  0
LINE
  8
CSLAYER1
  6
CONTINUOUS
 62
     6
 10
40.491015
 20
249.491915
 11
48.616052
 21
237.333659
  0
ARC
  8
CSLAYER1
  6
CONTINUOUS
 62
     6
 10
43.627452
 20
233.999912
 40
6.000000
 50
-26.606406
 51
33.753747
  0
ARC
  8
CSLAYER1
  6
CONTINUOUS
 62
     6
 10
51.977695
 20
225.736629
 40
1.500000
 50
60.000027
 51
158.627148
  0
LINE
  8
CSLAYER1
  6
CONTINUOUS
 62
     6
 10
52.727695
 20
227.035671
 11
55.366840
 21
225.511959
  0
ARC
  8
CSLAYER1
  6
CONTINUOUS
 62
     6
 10
57.616840
 20
229.409084
 40
4.500000
 50
-120.000011
 51
60.000009
  0
LINE
  8
CSLAYER1
  6
CONTINUOUS
 62
     6
 10
59.866840
 20
233.306209
 11
57.227695
 21
234.829921
  0
ARC
  8
CSLAYER1
  6
CONTINUOUS
 62
     6
 10
57.977695
 20
236.128932
 40
1.500000
 50
141.372868
 51
239.999989
  0
LINE
  8
CSLAYER1
  6
CONTINUOUS
 62
     6
 10
56.750812
 20
230.909084
 11
58.505970
 21
230.869045
  0
LINE
  8
CSLAYER1
  6
CONTINUOUS
 62
     6
 10
58.505970
 20
230.869045
 11
59.348881
 21
229.409084
  0
LINE
  8
CSLAYER1
  6
CONTINUOUS
 62
     6
 10
59.348881
 20
229.409084
 11
58.482883
 21
227.909114
  0
LINE
  8
CSLAYER1
  6
CONTINUOUS
 62
     6
 10
58.482883
 20
227.909114
 11
56.775226
 21
227.866786
  0
LINE
  8
CSLAYER1
  6
CONTINUOUS
 62
     6
 10
56.775226
 20
227.866786
 11
55.884800
 21
229.409114
  0
LINE
  8
CSLAYER1
  6
CONTINUOUS
 62
     6
 10
55.884800
 20
229.409114
 11
56.750812
 21
230.909084
  0
CIRCLE
  8
CSLAYER1
  6
CONTINUOUS
 62
     6
 10
57.616840
 20
229.409084
 40
3.499925
  0
CIRCLE
  8
CSLAYER1
  6
CONTINUOUS
 62
     6
 10
57.616840
 20
229.409084
 40
2.745431
  0
LINE
  8
CSLAYER1
  6
CONTINUOUS
 62
     6
 10
67.079655
 20
240.519023
 11
65.555943
 21
243.158168
  0
ARC
  8
CSLAYER1
  6
CONTINUOUS
 62
     6
 10
64.256901
 20
242.408168
 40
1.500000
 50
30.000033
 51
128.627097
  0
ARC
  8
CSLAYER1
  6
CONTINUOUS
 62
     6
 10
70.976780
 20
242.769023
 40
4.500000
 50
-150.000005
 51
30.000072
  0
CIRCLE
  8
CSLAYER1
  6
CONTINUOUS
 62
     6
 10
46.726765
 20
253.659099
 40
3.500000
  0
LINE
  8
CSLAYER1
  6
CONTINUOUS
 62
     6
 10
39.226765
 20
253.659099
 11
39.226765
 21
168.659099
  0
CIRCLE
  8
CSLAYER1
  6
CONTINUOUS
 62
     6
 10
46.726765
 20
168.659099
 40
3.500000
  0
ARC
  8
CSLAYER1
  6
CONTINUOUS
 62
     6
 10
87.059653
 20
204.059099
 40
0.500000
 50
194.036243
 51
270.000000
  0
LINE
  8
CSLAYER1
  6
CONTINUOUS
 62
     6
 10
87.059653
 20
203.559099
 11
88.450122
 21
203.559099
  0
LINE
  8
CSLAYER1
  6
CONTINUOUS
 62
     6
 10
88.450122
 20
203.559099
 11
88.718463
 21
206.185004
  0
LINE
  8
CSLAYER1
  6
CONTINUOUS
 62
     6
 10
89.735066
 20
206.185004
 11
90.003407
 21
203.559099
  0
LINE
  8
CSLAYER1
  6
CONTINUOUS
 62
     6
 10
90.003407
 20
203.559099
 11
91.393876
 21
203.559099
  0
ARC
  8
CSLAYER1
  6
CONTINUOUS
 62
     6
 10
91.393876
 20
204.059099
 40
0.500000
 50
270.000000
 51
345.963757
  0
LINE
  8
CSLAYER1
  6
CONTINUOUS
 62
     6
 10
91.878948
 20
203.937832
 11
92.413721
 21
206.076924
  0
ARC
  8
CSLAYER1
  6
CONTINUOUS
 62
     6
 10
92.898792
 20
205.955656
 40
0.500000
 50
123.236021
 51
165.963757
  0
ARC
  8
CSLAYER1
  6
CONTINUOUS
 62
     6
 10
89.226765
 20
211.559410
 40
6.199690
 50
-56.763979
 51
236.763979
  0
ARC
  8
CSLAYER1
  6
CONTINUOUS
 62
     6
 10
85.554737
 20
205.955656
 40
0.500000
 50
14.036243
 51
56.763979
  0
LINE
  8
CSLAYER1
  6
CONTINUOUS
 62
     6
 10
86.039809
 20
206.076924
 11
86.574582
 21
203.937832
  0
CIRCLE
  8
CSLAYER1
  6
CONTINUOUS
 62
     6
 10
87.466765
 20
204.749099
 40
0.600000
  0
CIRCLE
  8
CSLAYER1
  6
CONTINUOUS
 62
     6
 10
90.986765
 20
204.749099
 40
0.600000
  0
LINE
  8
CSLAYER1
  6
CONTINUOUS
 62
     6
 10
116.795215
 20
192.909099
 11
118.815998
 21
189.409099
  0
LINE
  8
CSLAYER1
  6
CONTINUOUS
 62
     6
 10
118.815998
 20
189.409114
 11
122.857441
 21
189.409114
  0
LINE
  8
CSLAYER1
  6
CONTINUOUS
 62
     6
 10
122.857441
 20
189.409099
 11
124.878193
 21
192.909130
  0
LINE
  8
CSLAYER1
  6
CONTINUOUS
 62
     6
 10
124.878147
 20
192.909114
 11
122.857410
 21
196.409114
  0
LINE
  8
CSLAYER1
  6
CONTINUOUS
 62
     6
 10
122.857410
 20
196.409114
 11
118.815998
 21
196.409114
  0
LINE
  8
CSLAYER1
  6
CONTINUOUS
 62
     6
 10
118.815998
 20
196.409114
 11
116.795215
 21
192.909099
  0
CIRCLE
  8
CSLAYER1
  6
CONTINUOUS
 62
     6
 10
120.836704
 20
192.909114
 40
3.400000
  0
CIRCLE
  8
CSLAYER1
  6
CONTINUOUS
 62
     6
 10
120.836704
 20
192.909114
 40
1.621000
  0
ARC
  8
CSLAYER1
  6
CONTINUOUS
 62
     6
 10
134.826077
 20
188.318287
 40
6.000000
 50
153.393594
 51
213.753747
  0
LINE
  8
CSLAYER1
  6
CONTINUOUS
 62
     6
 10
129.839452
 20
184.981585
 11
137.962514
 21
172.826284
  0
ARC
  8
CSLAYER1
  6
CONTINUOUS
 62
     6
 10
131.726765
 20
168.659099
 40
7.500000
 50
-123.753747
 51
33.753747
  0
CIRCLE
  8
CSLAYER1
  6
CONTINUOUS
 62
     6
 10
131.726765
 20
168.659099
 40
3.500000
  0
LINE
  8
CSLAYER1
  6
CONTINUOUS
 62
     6
 10
139.226765
 20
168.659099
 11
139.226765
 21
207.195799
  0
LINE
  8
CSLAYER1
  6
CONTINUOUS
 62
     6
 10
139.667774
 20
209.157100
 11
138.509174
 21
209.157100
  0
ARC
  8
CSLAYER1
  6
CONTINUOUS
 62
     6
 10
139.376061
 20
209.657603
 40
1.000999
 50
149.999655
 51
209.999655
  0
ARC
  8
CSLAYER1
  6
CONTINUOUS
 62
     6
 10
139.376067
 20
210.658602
 40
1.000999
 50
149.999655
 51
209.999655
  0
ARC
  8
CSLAYER1
  6
CONTINUOUS
 62
     6
 10
137.642286
 20
210.658612
 40
1.000999
 50
-30.000345
 51
29.999655
  0
LINE
  8
CSLAYER1
  6
CONTINUOUS
 62
     6
 10
138.382855
 20
210.783218
 11
137.111981
 21
210.938146
  0
ARC
  8
CSLAYER1
  6
CONTINUOUS
 62
     6
 10
136.150807
 20
210.658580
 40
1.001006
 50
-29.999981
 51
30.000019
  0
ARC
  8
CSLAYER1
  6
CONTINUOUS
 62
     6
 10
136.150807
 20
209.657574
 40
1.001006
 50
-29.999981
 51
30.000019
  0
ARC
  8
CSLAYER1
  6
CONTINUOUS
 62
     6
 10
137.884600
 20
209.657575
 40
1.001006
 50
150.000019
 51
210.000019
  0
ARC
  8
CSLAYER1
  6
CONTINUOUS
 62
     6
 10
137.884600
 20
211.659589
 40
1.001006
 50
150.000019
 51
210.000019
  0
ARC
  8
CSLAYER1
  6
CONTINUOUS
 62
     6
 10
136.150807
 20
211.659588
 40
1.001006
 50
-29.999981
 51
30.000019
  0
LINE
  8
CSLAYER1
  6
CONTINUOUS
 62
     6
 10
137.017704
 20
211.159099
 11
131.647556
 21
211.159099
  0
LINE
  8
CSLAYER1
  6
CONTINUOUS
 62
     6
 10
131.647556
 20
213.161098
 11
137.017704
 21
213.161098
  0
ARC
  8
CSLAYER1
  6
CONTINUOUS
 62
     6
 10
136.150807
 20
212.660594
 40
1.001006
 50
-29.999981
 51
30.000019
  0
LINE
  8
CSLAYER1
  6
CONTINUOUS
 62
     6
 10
137.111991
 20
211.380054
 11
138.382852
 21
211.534980
  0
ARC
  8
CSLAYER1
  6
CONTINUOUS
 62
     6
 10
139.376061
 20
211.659617
 40
1.000999
 50
149.999655
 51
209.999655
  0
ARC
  8
CSLAYER1
  6
CONTINUOUS
 62
     6
 10
139.376067
 20
212.660616
 40
1.000999
 50
149.999655
 51
209.999655
  0
ARC
  8
CSLAYER1
  6
CONTINUOUS
 62
     6
 10
137.642286
 20
212.660626
 40
1.000999
 50
-30.000345
 51
29.999655
  0
LINE
  8
CSLAYER1
  6
CONTINUOUS
 62
     6
 10
138.509174
 20
213.161113
 11
139.667774
 21
213.161113
  0
ARC
  8
CSLAYER1
  6
CONTINUOUS
 62
     6
 10
139.667820
 20
225.499645
 40
12.338538
 50
270.057313
 51
297.463775
  0
LINE
  8
CSLAYER1
  6
CONTINUOUS
 62
     6
 10
145.358173
 20
214.551647
 11
146.281483
 21
212.775264
  0
ARC
  8
CSLAYER1
  6
CONTINUOUS
 62
     6
 10
139.667820
 20
225.499645
 40
14.340522
 50
270.057313
 51
297.463775
  0
ARC
  8
CSLAYER1
  6
CONTINUOUS
 62
     6
 10
139.667774
 20
196.818569
 40
14.340522
 50
62.536108
 51
89.999980
  0
LINE
  8
CSLAYER1
  6
CONTINUOUS
 62
     6
 10
146.281483
 20
209.542934
 11
145.358204
 21
207.766551
  0
ARC
  8
CSLAYER1
  6
CONTINUOUS
 62
     6
 10
139.667820
 20
196.818569
 40
12.338538
 50
62.536108
 51
90.000037
  0
LINE
  8
CSLAYER1
  6
CONTINUOUS
 62
     6
 10
137.017704
 20
209.157100
 11
131.647556
 21
209.157100
  0
LINE
  8
CSLAYER1
  6
CONTINUOUS
 62
     6
 10
131.647556
 20
207.449100
 11
130.726765
 21
207.449100
  0
LINE
  8
CSLAYER1
  6
CONTINUOUS
 62
     6
 10
130.726765
 20
207.449100
 11
130.726765
 21
214.869100
  0
LINE
  8
CSLAYER1
  6
CONTINUOUS
 62
     6
 10
130.726765
 20
214.869100
 11
131.647556
 21
214.869100
  0
LINE
  8
CSLAYER1
  6
CONTINUOUS
 62
     6
 10
131.647556
 20
214.869100
 11
131.647556
 21
207.449100
  0
LINE
  8
CSLAYER1
  6
CONTINUOUS
 62
     6
 10
134.105651
 20
207.859370
 11
151.280474
 21
205.633936
  0
LINE
  8
CSLAYER1
  6
CONTINUOUS
 62
     6
 10
151.280474
 20
205.633936
 11
151.691548
 21
209.005902
  0
LINE
  8
CSLAYER1
  6
CONTINUOUS
 62
     6
 10
151.691548
 20
209.005902
 11
146.263751
 21
209.508819
  0
LINE
  8
CSLAYER1
  6
CONTINUOUS
 62
     6
 10
146.088779
 20
209.172206
 11
147.981464
 21
207.896846
  0
LINE
  8
CSLAYER1
  6
CONTINUOUS
 62
     6
 10
147.727238
 20
207.375041
 11
145.900455
 21
208.809917
  0
LINE
  8
CSLAYER1
  6
CONTINUOUS
 62
     6
 10
145.669239
 20
208.365001
 11
148.342884
 21
206.893352
  0
LINE
  8
CSLAYER1
  6
CONTINUOUS
 62
     6
 10
151.380297
 20
206.452767
 11
157.541620
 21
205.035578
  0
LINE
  8
CSLAYER1
  6
CONTINUOUS
 62
     6
 10
158.029085
 20
206.947939
 11
151.501253
 21
207.444949
  0
LINE
  8
CSLAYER1
  6
CONTINUOUS
 62
     6
 10
151.586835
 20
208.146964
 11
157.691609
 21
208.785305
  0
LINE
  8
CSLAYER1
  6
CONTINUOUS
 62
     6
 10
182.385630
 20
206.659100
 11
182.385630
 21
215.659100
  0
LINE
  8
CSLAYER1
  6
CONTINUOUS
 62
     6
 10
182.385630
 20
215.659100
 11
182.885630
 21
216.159100
  0
LINE
  8
CSLAYER1
  6
CONTINUOUS
 62
     6
 10
182.885630
 20
216.159100
 11
185.385630
 21
216.159100
  0
LINE
  8
CSLAYER1
  6
CONTINUOUS
 62
     6
 10
185.385630
 20
219.659100
 11
186.385630
 21
219.659100
  0
LINE
  8
CSLAYER1
  6
CONTINUOUS
 62
     6
 10
185.385630
 20
219.659100
 11
185.385630
 21
202.659100
  0
LINE
  8
CSLAYER1
  6
CONTINUOUS
 62
     6
 10
185.385630
 20
202.659100
 11
186.385630
 21
202.659100
  0
LINE
  8
CSLAYER1
  6
CONTINUOUS
 62
     6
 10
185.385630
 20
206.159100
 11
182.885630
 21
206.159100
  0
LINE
  8
CSLAYER1
  6
CONTINUOUS
 62
     6
 10
182.885630
 20
206.159100
 11
182.385630
 21
206.659100
  0
LINE
  8
CSLAYER1
  6
CONTINUOUS
 62
     6
 10
186.385630
 20
198.159100
 11
188.185618
 21
198.159100
  0
LINE
  8
CSLAYER1
  6
CONTINUOUS
 62
     6
 10
188.185618
 20
197.200604
 11
185.355998
 21
197.200604
  0
LINE
  8
CSLAYER1
  6
CONTINUOUS
 62
     6
 10
185.355998
 20
197.200604
 11
184.985636
 21
196.559125
  0
LINE
  8
CSLAYER1
  6
CONTINUOUS
 62
     6
 10
184.985636
 20
196.559125
 11
184.985636
 21
189.759137
  0
LINE
  8
CSLAYER1
  6
CONTINUOUS
 62
     6
 10
184.985636
 20
189.759106
 11
185.355998
 21
189.117627
  0
LINE
  8
CSLAYER1
  6
CONTINUOUS
 62
     6
 10
185.355998
 20
189.117657
 11
188.185618
 21
189.117657
  0
LINE
  8
CSLAYER1
  6
CONTINUOUS
 62
     6
 10
188.185618
 20
191.138409
 11
185.355998
 21
191.138409
  0
ARC
  8
CSLAYER1
  6
CONTINUOUS
 62
     6
 10
190.681895
 20
193.157879
 40
5.696063
 50
159.211278
 51
200.765787
  0
LINE
  8
CSLAYER1
  6
CONTINUOUS
 62
     6
 10
185.355998
 20
195.179822
 11
188.185618
 21
195.179791
  0
ARC
  8
CSLAYER1
  6
CONTINUOUS
 62
     6
 10
187.828532
 20
196.585095
 40
2.842214
 50
180.523417
 51
209.611854
  0
LINE
  8
CSLAYER1
  6
CONTINUOUS
 62
     6
 10
184.985667
 20
195.159039
 11
182.685648
 21
195.159039
  0
LINE
  8
CSLAYER1
  6
CONTINUOUS
 62
     6
 10
182.685648
 20
195.159039
 11
182.685648
 21
191.159039
  0
LINE
  8
CSLAYER1
  6
CONTINUOUS
 62
     6
 10
182.685648
 20
191.159039
 11
181.885630
 21
191.959057
  0
LINE
  8
CSLAYER1
  6
CONTINUOUS
 62
     6
 10
181.885630
 20
191.959057
 11
181.885630
 21
194.359051
  0
LINE
  8
CSLAYER1
  6
CONTINUOUS
 62
     6
 10
181.885630
 20
194.359051
 11
182.685648
 21
195.159039
  0
LINE
  8
CSLAYER1
  6
CONTINUOUS
 62
     6
 10
182.685648
 20
191.159039
 11
184.985667
 21
191.159039
  0
ARC
  8
CSLAYER1
  6
CONTINUOUS
 62
     6
 10
187.828532
 20
189.733136
 40
2.842214
 50
150.388129
 51
179.476623
  0
LINE
  8
CSLAYER1
  6
CONTINUOUS
 62
     6
 10
191.385630
 20
189.159070
 11
201.885630
 21
189.159070
  0
LINE
  8
CSLAYER1
  6
CONTINUOUS
 62
     6
 10
201.885630
 20
187.488277
 11
198.385630
 21
187.488277
  0
LINE
  8
CSLAYER1
  6
CONTINUOUS
 62
     6
 10
198.385630
 20
189.159070
 11
198.385630
 21
169.659100
  0
LINE
  8
CSLAYER1
  6
CONTINUOUS
 62
     6
 10
198.385630
 20
169.659100
 11
221.885661
 21
169.659100
  0
LINE
  8
CSLAYER1
  6
CONTINUOUS
 62
     6
 10
221.885661
 20
168.159123
 11
221.885661
 21
254.159123
  0
LINE
  8
CSLAYER1
  6
CONTINUOUS
 62
     6
 10
221.885661
 20
254.159123
 11
222.885661
 21
255.159123
  0
LINE
  8
CSLAYER1
  6
CONTINUOUS
 62
     6
 10
222.885661
 20
255.159123
 11
222.885661
 21
167.159123
  0
LINE
  8
CSLAYER1
  6
CONTINUOUS
 62
     6
 10
222.885661
 20
167.159123
 11
221.885661
 21
168.159123
  0
LINE
  8
CSLAYER1
  6
CONTINUOUS
 62
     6
 10
221.885631
 20
168.159108
 11
222.885631
 21
167.159108
  0
LINE
  8
CSLAYER1
  6
CONTINUOUS
 62
     6
 10
222.885631
 20
167.159108
 11
234.360087
 21
167.159108
  0
ARC
  8
CSLAYER1
  6
CONTINUOUS
 62
     6
 10
235.786052
 20
167.159108
 40
1.000000
 50
186.000012
 51
270.000001
  0
LINE
  8
CSLAYER1
  6
CONTINUOUS
 62
     6
 10
235.786052
 20
166.159108
 11
271.985210
 21
166.159108
  0
ARC
  8
CSLAYER1
  6
CONTINUOUS
 62
     6
 10
271.985210
 20
167.159108
 40
1.000000
 50
270.000001
 51
354.000017
  0
LINE
  8
CSLAYER1
  6
CONTINUOUS
 62
     6
 10
272.979777
 20
167.054554
 11
273.677409
 21
173.692067
  0
ARC
  8
CSLAYER1
  6
CONTINUOUS
 62
     6
 10
274.671916
 20
173.587513
 40
1.000000
 50
90.000009
 51
173.999984
  0
ARC
  8
CSLAYER1
  6
CONTINUOUS
 62
     6
 10
274.622295
 20
169.115284
 40
1.000000
 50
90.000009
 51
173.999984
  0
LINE
  8
CSLAYER1
  6
CONTINUOUS
 62
     6
 10
273.627727
 20
169.219838
 11
272.979777
 21
163.054554
  0
ARC
  8
CSLAYER1
  6
CONTINUOUS
 62
     6
 10
271.985210
 20
163.159108
 40
1.000000
 50
270.000001
 51
354.000017
  0
LINE
  8
CSLAYER1
  6
CONTINUOUS
 62
     6
 10
271.985210
 20
162.159108
 11
235.786052
 21
162.159108
  0
ARC
  8
CSLAYER1
  6
CONTINUOUS
 62
     6
 10
235.786052
 20
163.159108
 40
1.000000
 50
186.000012
 51
270.000001
  0
LINE
  8
CSLAYER1
  6
CONTINUOUS
 62
     6
 10
234.791545
 20
163.054554
 11
234.143535
 21
169.219838
  0
ARC
  8
CSLAYER1
  6
CONTINUOUS
 62
     6
 10
233.149028
 20
169.115284
 40
1.000000
 50
6.000021
 51
90.000009
  0
LINE
  8
CSLAYER1
  6
CONTINUOUS
 62
     6
 10
234.791545
 20
167.054554
 11
234.093913
 21
173.692067
  0
ARC
  8
CSLAYER1
  6
CONTINUOUS
 62
     6
 10
233.099345
 20
173.587513
 40
1.000000
 50
6.000021
 51
90.000009
  0
LINE
  8
CSLAYER1
  6
CONTINUOUS
 62
     6
 10
237.571635
 20
174.765919
 11
269.528728
 21
174.765919
  0
LINE
  8
CSLAYER1
  6
CONTINUOUS
 62
     6
 10
273.410625
 20
167.159108
 11
274.885661
 21
167.159108
  0
LINE
  8
CSLAYER1
  6
CONTINUOUS
 62
     6
 10
274.885661
 20
166.159123
 11
274.885661
 21
256.159123
  0
LINE
  8
CSLAYER1
  6
CONTINUOUS
 62
     6
 10
274.885661
 20
256.159123
 11
360.885631
 21
256.159123
  0
LINE
  8
CSLAYER1
  6
CONTINUOUS
 62
     6
 10
359.885631
 20
256.159123
 11
359.885631
 21
166.159123
  0
LINE
  8
CSLAYER1
  6
CONTINUOUS
 62
     6
 10
360.885631
 20
166.159123
 11
274.885661
 21
166.159123
  0
ARC
  8
CSLAYER1
  6
CONTINUOUS
 62
     6
 10
259.885661
 20
195.159123
 40
2.000000
 50
270.000000
 51
360.000000
  0
LINE
  8
CSLAYER1
  6
CONTINUOUS
 62
     6
 10
261.885661
 20
195.159123
 11
261.885661
 21
227.159123
  0
ARC
  8
CSLAYER1
  6
CONTINUOUS
 62
     6
 10
259.885661
 20
227.159123
 40
2.000000
 50
0.000000
 51
90.000000
  0
LINE
  8
CSLAYER1
  6
CONTINUOUS
 62
     6
 10
259.885661
 20
229.159123
 11
237.885661
 21
229.159123
  0
ARC
  8
CSLAYER1
  6
CONTINUOUS
 62
     6
 10
237.885661
 20
227.159123
 40
2.000000
 50
90.000000
 51
180.000000
  0
LINE
  8
CSLAYER1
  6
CONTINUOUS
 62
     6
 10
235.885661
 20
227.159123
 11
235.885661
 21
214.787483
  0
LINE
  8
CSLAYER1
  6
CONTINUOUS
 62
     6
 10
235.811222
 20
214.790227
 11
236.245655
 21
214.774210
  0
LINE
  8
CSLAYER1
  6
CONTINUOUS
 62
     6
 10
236.245655
 20
214.774210
 11
236.677777
 21
214.746001
  0
LINE
  8
CSLAYER1
  6
CONTINUOUS
 62
     6
 10
236.677777
 20
214.746001
 11
237.105695
 21
214.707117
  0
LINE
  8
CSLAYER1
  6
CONTINUOUS
 62
     6
 10
237.105695
 20
214.707117
 11
237.527514
 21
214.659070
  0
LINE
  8
CSLAYER1
  6
CONTINUOUS
 62
     6
 10
237.527514
 20
214.659070
 11
237.941342
 21
214.603377
  0
LINE
  8
CSLAYER1
  6
CONTINUOUS
 62
     6
 10
237.941342
 20
214.603377
 11
238.345283
 21
214.541550
  0
LINE
  8
CSLAYER1
  6
CONTINUOUS
 62
     6
 10
238.345283
 20
214.541550
 11
238.608661
 21
214.501026
  0
LINE
  8
CSLAYER1
  6
CONTINUOUS
 62
     6
 10
238.608661
 20
214.501026
 11
238.879047
 21
214.463104
  0
LINE
  8
CSLAYER1
  6
CONTINUOUS
 62
     6
 10
238.879047
 20
214.463104
 11
239.154873
 21
214.427504
  0
LINE
  8
CSLAYER1
  6
CONTINUOUS
 62
     6
 10
239.154873
 20
214.427504
 11
239.434572
 21
214.393946
  0
LINE
  8
CSLAYER1
  6
CONTINUOUS
 62
     6
 10
239.434572
 20
214.393946
 11
239.716574
 21
214.362150
  0
LINE
  8
CSLAYER1
  6
CONTINUOUS
 62
     6
 10
239.716574
 20
214.362150
 11
239.999312
 21
214.331836
  0
LINE
  8
CSLAYER1
  6
CONTINUOUS
 62
     6
 10
239.999312
 20
214.331836
 11
240.281218
 21
214.302725
  0
LINE
  8
CSLAYER1
  6
CONTINUOUS
 62
     6
 10
240.281218
 20
214.302725
 11
240.560722
 21
214.274535
  0
LINE
  8
CSLAYER1
  6
CONTINUOUS
 62
     6
 10
240.560722
 20
214.274535
 11
240.836257
 21
214.246989
  0
LINE
  8
CSLAYER1
  6
CONTINUOUS
 62
     6
 10
240.836257
 20
214.246989
 11
241.106255
 21
214.219805
  0
LINE
  8
CSLAYER1
  6
CONTINUOUS
 62
     6
 10
241.106255
 20
214.219805
 11
241.369147
 21
214.192703
  0
LINE
  8
CSLAYER1
  6
CONTINUOUS
 62
     6
 10
241.369147
 20
214.192703
 11
241.616635
 21
214.168391
  0
LINE
  8
CSLAYER1
  6
CONTINUOUS
 62
     6
 10
241.616635
 20
214.168391
 11
241.873893
 21
214.146122
  0
LINE
  8
CSLAYER1
  6
CONTINUOUS
 62
     6
 10
241.873893
 20
214.146122
 11
242.138365
 21
214.125803
  0
LINE
  8
CSLAYER1
  6
CONTINUOUS
 62
     6
 10
242.138365
 20
214.125803
 11
242.407496
 21
214.107342
  0
LINE
  8
CSLAYER1
  6
CONTINUOUS
 62
     6
 10
242.407496
 20
214.107342
 11
242.678732
 21
214.090647
  0
LINE
  8
CSLAYER1
  6
CONTINUOUS
 62
     6
 10
242.678732
 20
214.090647
 11
242.949518
 21
214.075628
  0
LINE
  8
CSLAYER1
  6
CONTINUOUS
 62
     6
 10
242.949518
 20
214.075628
 11
243.217299
 21
214.062190
  0
LINE
  8
CSLAYER1
  6
CONTINUOUS
 62
     6
 10
243.217299
 20
214.062190
 11
243.479521
 21
214.050243
  0
LINE
  8
CSLAYER1
  6
CONTINUOUS
 62
     6
 10
243.479521
 20
214.050243
 11
243.733628
 21
214.039695
  0
LINE
  8
CSLAYER1
  6
CONTINUOUS
 62
     6
 10
243.733628
 20
214.039695
 11
243.977066
 21
214.030454
  0
LINE
  8
CSLAYER1
  6
CONTINUOUS
 62
     6
 10
243.977066
 20
214.030454
 11
244.207280
 21
214.022427
  0
ARC
  8
CSLAYER1
  6
CONTINUOUS
 62
     6
 10
244.117409
 20
212.525142
 40
1.500000
 50
-93.433378
 51
86.566642
  0
LINE
  8
CSLAYER1
  6
CONTINUOUS
 62
     6
 10
244.027608
 20
211.027751
 11
243.791258
 21
211.035825
  0
LINE
  8
CSLAYER1
  6
CONTINUOUS
 62
     6
 10
243.791258
 20
211.035825
 11
243.540841
 21
211.045141
  0
LINE
  8
CSLAYER1
  6
CONTINUOUS
 62
     6
 10
243.540841
 20
211.045141
 11
243.279107
 21
211.055809
  0
LINE
  8
CSLAYER1
  6
CONTINUOUS
 62
     6
 10
243.279107
 20
211.055809
 11
243.008804
 21
211.067939
  0
LINE
  8
CSLAYER1
  6
CONTINUOUS
 62
     6
 10
243.008804
 20
211.067939
 11
242.732678
 21
211.081639
  0
LINE
  8
CSLAYER1
  6
CONTINUOUS
 62
     6
 10
242.732678
 20
211.081639
 11
242.453479
 21
211.097020
  0
LINE
  8
CSLAYER1
  6
CONTINUOUS
 62
     6
 10
242.453479
 20
211.097020
 11
242.173954
 21
211.114192
  0
LINE
  8
CSLAYER1
  6
CONTINUOUS
 62
     6
 10
242.173954
 20
211.114192
 11
241.896851
 21
211.133263
  0
LINE
  8
CSLAYER1
  6
CONTINUOUS
 62
     6
 10
241.896851
 20
211.133263
 11
241.624918
 21
211.154343
  0
LINE
  8
CSLAYER1
  6
CONTINUOUS
 62
     6
 10
241.624918
 20
211.154343
 11
241.360903
 21
211.177542
  0
LINE
  8
CSLAYER1
  6
CONTINUOUS
 62
     6
 10
241.360903
 20
211.177542
 11
241.107554
 21
211.202970
  0
LINE
  8
CSLAYER1
  6
CONTINUOUS
 62
     6
 10
241.107554
 20
211.202970
 11
240.851092
 21
211.229890
  0
LINE
  8
CSLAYER1
  6
CONTINUOUS
 62
     6
 10
240.851092
 20
211.229890
 11
240.586954
 21
211.256647
  0
LINE
  8
CSLAYER1
  6
CONTINUOUS
 62
     6
 10
240.586954
 20
211.256647
 11
240.316831
 21
211.283573
  0
LINE
  8
CSLAYER1
  6
CONTINUOUS
 62
     6
 10
240.316831
 20
211.283573
 11
240.042413
 21
211.311002
  0
LINE
  8
CSLAYER1
  6
CONTINUOUS
 62
     6
 10
240.042413
 20
211.311002
 11
239.765389
 21
211.339266
  0
LINE
  8
CSLAYER1
  6
CONTINUOUS
 62
     6
 10
239.765389
 20
211.339266
 11
239.487450
 21
211.368697
  0
LINE
  8
CSLAYER1
  6
CONTINUOUS
 62
     6
 10
239.487450
 20
211.368697
 11
239.210286
 21
211.399627
  0
LINE
  8
CSLAYER1
  6
CONTINUOUS
 62
     6
 10
239.210286
 20
211.399627
 11
238.935588
 21
211.432390
  0
LINE
  8
CSLAYER1
  6
CONTINUOUS
 62
     6
 10
238.935588
 20
211.432390
 11
238.665044
 21
211.467317
  0
LINE
  8
CSLAYER1
  6
CONTINUOUS
 62
     6
 10
238.665044
 20
211.467317
 11
238.400347
 21
211.504742
  0
LINE
  8
CSLAYER1
  6
CONTINUOUS
 62
     6
 10
238.400347
 20
211.504742
 11
238.143185
 21
211.544996
  0
LINE
  8
CSLAYER1
  6
CONTINUOUS
 62
     6
 10
238.143185
 20
211.544996
 11
237.797371
 21
211.599004
  0
LINE
  8
CSLAYER1
  6
CONTINUOUS
 62
     6
 10
237.797371
 20
211.599004
 11
237.442426
 21
211.647570
  0
LINE
  8
CSLAYER1
  6
CONTINUOUS
 62
     6
 10
237.442426
 20
211.647570
 11
237.080084
 21
211.689390
  0
LINE
  8
CSLAYER1
  6
CONTINUOUS
 62
     6
 10
237.080084
 20
211.689390
 11
236.712079
 21
211.723164
  0
LINE
  8
CSLAYER1
  6
CONTINUOUS
 62
     6
 10
236.712079
 20
211.723164
 11
236.340148
 21
211.747589
  0
LINE
  8
CSLAYER1
  6
CONTINUOUS
 62
     6
 10
236.340148
 20
211.747589
 11
235.966023
 21
211.761362
  0
LINE
  8
CSLAYER1
  6
CONTINUOUS
 62
     6
 10
235.966023
 20
211.761362
 11
235.591440
 21
211.763181
  0
LINE
  8
CSLAYER1
  6
CONTINUOUS
 62
     6
 10
235.591440
 20
211.763181
 11
235.218134
 21
211.751744
  0
LINE
  8
CSLAYER1
  6
CONTINUOUS
 62
     6
 10
235.218134
 20
211.751744
 11
234.847840
 21
211.725749
  0
LINE
  8
CSLAYER1
  6
CONTINUOUS
 62
     6
 10
234.847840
 20
211.725749
 11
234.482292
 21
211.683893
  0
LINE
  8
CSLAYER1
  6
CONTINUOUS
 62
     6
 10
234.482292
 20
211.683893
 11
234.123225
 21
211.624874
  0
LINE
  8
CSLAYER1
  6
CONTINUOUS
 62
     6
 10
234.123225
 20
211.624874
 11
233.902796
 21
211.578712
  0
LINE
  8
CSLAYER1
  6
CONTINUOUS
 62
     6
 10
233.902796
 20
211.578712
 11
233.683617
 21
211.525388
  0
LINE
  8
CSLAYER1
  6
CONTINUOUS
 62
     6
 10
233.683617
 20
211.525388
 11
233.465564
 21
211.465620
  0
LINE
  8
CSLAYER1
  6
CONTINUOUS
 62
     6
 10
233.465564
 20
211.465620
 11
233.248511
 21
211.400123
  0
LINE
  8
CSLAYER1
  6
CONTINUOUS
 62
     6
 10
233.248511
 20
211.400123
 11
233.032334
 21
211.329612
  0
LINE
  8
CSLAYER1
  6
CONTINUOUS
 62
     6
 10
233.032334
 20
211.329612
 11
232.816906
 21
211.254805
  0
LINE
  8
CSLAYER1
  6
CONTINUOUS
 62
     6
 10
232.816906
 20
211.254805
 11
232.602104
 21
211.176418
  0
LINE
  8
CSLAYER1
  6
CONTINUOUS
 62
     6
 10
232.602104
 20
211.176418
 11
232.387802
 21
211.095166
  0
LINE
  8
CSLAYER1
  6
CONTINUOUS
 62
     6
 10
232.387802
 20
211.095166
 11
232.173875
 21
211.011765
  0
LINE
  8
CSLAYER1
  6
CONTINUOUS
 62
     6
 10
232.173875
 20
211.011765
 11
231.960198
 21
210.926933
  0
LINE
  8
CSLAYER1
  6
CONTINUOUS
 62
     6
 10
231.960198
 20
210.926933
 11
231.746647
 21
210.841384
  0
ARC
  8
CSLAYER1
  6
CONTINUOUS
 62
     6
 10
230.278154
 20
211.146929
 40
1.499994
 50
-11.754089
 51
48.245911
  0
ARC
  8
CSLAYER1
  6
CONTINUOUS
 62
     6
 10
232.275951
 20
213.384950
 40
1.499994
 50
168.245911
 51
228.245911
  0
LINE
  8
CSLAYER1
  6
CONTINUOUS
 62
     6
 10
230.807358
 20
213.690552
 11
231.064562
 21
213.793954
  0
LINE
  8
CSLAYER1
  6
CONTINUOUS
 62
     6
 10
231.064562
 20
213.793954
 11
231.321920
 21
213.896476
  0
LINE
  8
CSLAYER1
  6
CONTINUOUS
 62
     6
 10
231.321920
 20
213.896476
 11
231.579589
 21
213.997239
  0
LINE
  8
CSLAYER1
  6
CONTINUOUS
 62
     6
 10
231.579589
 20
213.997239
 11
231.837722
 21
214.095363
  0
LINE
  8
CSLAYER1
  6
CONTINUOUS
 62
     6
 10
231.837722
 20
214.095363
 11
232.096475
 21
214.189968
  0
LINE
  8
CSLAYER1
  6
CONTINUOUS
 62
     6
 10
232.096475
 20
214.189968
 11
232.356002
 21
214.280174
  0
LINE
  8
CSLAYER1
  6
CONTINUOUS
 62
     6
 10
232.356002
 20
214.280174
 11
232.616459
 21
214.365102
  0
LINE
  8
CSLAYER1
  6
CONTINUOUS
 62
     6
 10
232.616459
 20
214.365102
 11
232.878000
 21
214.443871
  0
LINE
  8
CSLAYER1
  6
CONTINUOUS
 62
     6
 10
232.878000
 20
214.443871
 11
233.140781
 21
214.515603
  0
LINE
  8
CSLAYER1
  6
CONTINUOUS
 62
     6
 10
233.140781
 20
214.515603
 11
233.404955
 21
214.579417
  0
LINE
  8
CSLAYER1
  6
CONTINUOUS
 62
     6
 10
233.404955
 20
214.579417
 11
233.670679
 21
214.634434
  0
LINE
  8
CSLAYER1
  6
CONTINUOUS
 62
     6
 10
233.670679
 20
214.634434
 11
234.088259
 21
214.702092
  0
LINE
  8
CSLAYER1
  6
CONTINUOUS
 62
     6
 10
234.088259
 20
214.702092
 11
234.512997
 21
214.749986
  0
LINE
  8
CSLAYER1
  6
CONTINUOUS
 62
     6
 10
234.512997
 20
214.749986
 11
234.943000
 21
214.779630
  0
LINE
  8
CSLAYER1
  6
CONTINUOUS
 62
     6
 10
234.943000
 20
214.779630
 11
235.376373
 21
214.792539
  0
LINE
  8
CSLAYER1
  6
CONTINUOUS
 62
     6
 10
235.376373
 20
214.792539
 11
235.811222
 21
214.790227
  0
ARC
  8
CSLAYER1
  6
CONTINUOUS
 62
     6
 10
242.885640
 20
211.159085
 40
6.750000
 50
-154.073524
 51
148.329015
  0
LINE
  8
CSLAYER1
  6
CONTINUOUS
 62
     6
 10
236.789470
 20
208.204506
 11
236.992026
 21
208.231195
  0
LINE
  8
CSLAYER1
  6
CONTINUOUS
 62
     6
 10
236.992026
 20
208.231195
 11
237.197170
 21
208.254383
  0
LINE
  8
CSLAYER1
  6
CONTINUOUS
 62
     6
 10
237.197170
 20
208.254383
 11
237.403479
 21
208.273431
  0
LINE
  8
CSLAYER1
  6
CONTINUOUS
 62
     6
 10
237.403479
 20
208.273431
 11
237.609530
 21
208.287696
  0
LINE
  8
CSLAYER1
  6
CONTINUOUS
 62
     6
 10
237.609530
 20
208.287696
 11
237.813900
 21
208.296539
  0
LINE
  8
CSLAYER1
  6
CONTINUOUS
 62
     6
 10
237.813900
 20
208.296539
 11
238.015167
 21
208.299318
  0
LINE
  8
CSLAYER1
  6
CONTINUOUS
 62
     6
 10
238.015167
 20
208.299318
 11
238.211907
 21
208.295394
  0
LINE
  8
CSLAYER1
  6
CONTINUOUS
 62
     6
 10
238.211907
 20
208.295394
 11
238.402698
 21
208.284124
  0
LINE
  8
CSLAYER1
  6
CONTINUOUS
 62
     6
 10
238.402698
 20
208.284124
 11
238.570296
 21
208.270631
  0
LINE
  8
CSLAYER1
  6
CONTINUOUS
 62
     6
 10
238.570296
 20
208.270631
 11
238.742637
 21
208.256748
  0
LINE
  8
CSLAYER1
  6
CONTINUOUS
 62
     6
 10
238.742637
 20
208.256748
 11
238.918634
 21
208.242353
  0
LINE
  8
CSLAYER1
  6
CONTINUOUS
 62
     6
 10
238.918634
 20
208.242353
 11
239.097199
 21
208.227328
  0
LINE
  8
CSLAYER1
  6
CONTINUOUS
 62
     6
 10
239.097199
 20
208.227328
 11
239.277245
 21
208.211551
  0
LINE
  8
CSLAYER1
  6
CONTINUOUS
 62
     6
 10
239.277245
 20
208.211551
 11
239.457683
 21
208.194902
  0
LINE
  8
CSLAYER1
  6
CONTINUOUS
 62
     6
 10
239.457683
 20
208.194902
 11
239.637425
 21
208.177263
  0
LINE
  8
CSLAYER1
  6
CONTINUOUS
 62
     6
 10
239.637425
 20
208.177263
 11
239.815385
 21
208.158511
  0
LINE
  8
CSLAYER1
  6
CONTINUOUS
 62
     6
 10
239.815385
 20
208.158511
 11
239.990474
 21
208.138528
  0
LINE
  8
CSLAYER1
  6
CONTINUOUS
 62
     6
 10
239.990474
 20
208.138528
 11
240.161604
 21
208.117193
  0
LINE
  8
CSLAYER1
  6
CONTINUOUS
 62
     6
 10
240.161604
 20
208.117193
 11
240.327688
 21
208.094387
  0
LINE
  8
CSLAYER1
  6
CONTINUOUS
 62
     6
 10
240.327688
 20
208.094387
 11
240.493627
 21
208.071524
  0
LINE
  8
CSLAYER1
  6
CONTINUOUS
 62
     6
 10
240.493627
 20
208.071524
 11
240.665067
 21
208.050068
  0
LINE
  8
CSLAYER1
  6
CONTINUOUS
 62
     6
 10
240.665067
 20
208.050068
 11
240.840767
 21
208.030149
  0
LINE
  8
CSLAYER1
  6
CONTINUOUS
 62
     6
 10
240.840767
 20
208.030149
 11
241.019489
 21
208.011896
  0
LINE
  8
CSLAYER1
  6
CONTINUOUS
 62
     6
 10
241.019489
 20
208.011896
 11
241.199990
 21
207.995441
  0
LINE
  8
CSLAYER1
  6
CONTINUOUS
 62
     6
 10
241.199990
 20
207.995441
 11
241.381033
 21
207.980913
  0
LINE
  8
CSLAYER1
  6
CONTINUOUS
 62
     6
 10
241.381033
 20
207.980913
 11
241.561376
 21
207.968443
  0
LINE
  8
CSLAYER1
  6
CONTINUOUS
 62
     6
 10
241.561376
 20
207.968443
 11
241.739780
 21
207.958161
  0
LINE
  8
CSLAYER1
  6
CONTINUOUS
 62
     6
 10
241.739780
 20
207.958161
 11
241.915004
 21
207.950198
  0
LINE
  8
CSLAYER1
  6
CONTINUOUS
 62
     6
 10
241.915004
 20
207.950198
 11
242.085810
 21
207.944683
  0
LINE
  8
CSLAYER1
  6
CONTINUOUS
 62
     6
 10
242.085810
 20
207.944683
 11
242.250956
 21
207.941748
  0
LINE
  8
CSLAYER1
  6
CONTINUOUS
 62
     6
 10
242.250956
 20
207.941748
 11
242.410343
 21
207.941215
  0
LINE
  8
CSLAYER1
  6
CONTINUOUS
 62
     6
 10
242.410343
 20
207.941215
 11
242.576830
 21
207.942632
  0
LINE
  8
CSLAYER1
  6
CONTINUOUS
 62
     6
 10
242.576830
 20
207.942632
 11
242.748622
 21
207.945917
  0
LINE
  8
CSLAYER1
  6
CONTINUOUS
 62
     6
 10
242.748622
 20
207.945917
 11
242.923927
 21
207.950987
  0
LINE
  8
CSLAYER1
  6
CONTINUOUS
 62
     6
 10
242.923927
 20
207.950987
 11
243.100952
 21
207.957759
  0
LINE
  8
CSLAYER1
  6
CONTINUOUS
 62
     6
 10
243.100952
 20
207.957759
 11
243.277903
 21
207.966149
  0
LINE
  8
CSLAYER1
  6
CONTINUOUS
 62
     6
 10
243.277903
 20
207.966149
 11
243.452986
 21
207.976075
  0
LINE
  8
CSLAYER1
  6
CONTINUOUS
 62
     6
 10
243.452986
 20
207.976075
 11
243.624409
 21
207.987453
  0
LINE
  8
CSLAYER1
  6
CONTINUOUS
 62
     6
 10
243.624409
 20
207.987453
 11
243.790377
 21
208.000201
  0
LINE
  8
CSLAYER1
  6
CONTINUOUS
 62
     6
 10
243.790377
 20
208.000201
 11
243.949098
 21
208.014235
  0
LINE
  8
CSLAYER1
  6
CONTINUOUS
 62
     6
 10
243.949098
 20
208.014235
 11
244.098778
 21
208.029473
  0
ARC
  8
CSLAYER1
  6
CONTINUOUS
 62
     6
 10
244.063157
 20
209.528665
 40
1.500000
 50
-88.640300
 51
91.359720
  0
LINE
  8
CSLAYER1
  6
CONTINUOUS
 62
     6
 10
243.956439
 20
211.026088
 11
243.822350
 21
211.012369
  0
LINE
  8
CSLAYER1
  6
CONTINUOUS
 62
     6
 10
243.822350
 20
211.012369
 11
243.680273
 21
210.999724
  0
LINE
  8
CSLAYER1
  6
CONTINUOUS
 62
     6
 10
243.680273
 20
210.999724
 11
243.531763
 21
210.988230
  0
LINE
  8
CSLAYER1
  6
CONTINUOUS
 62
     6
 10
243.531763
 20
210.988230
 11
243.378376
 21
210.977970
  0
LINE
  8
CSLAYER1
  6
CONTINUOUS
 62
     6
 10
243.378376
 20
210.977970
 11
243.221667
 21
210.969021
  0
LINE
  8
CSLAYER1
  6
CONTINUOUS
 62
     6
 10
243.221667
 20
210.969021
 11
243.063192
 21
210.961463
  0
LINE
  8
CSLAYER1
  6
CONTINUOUS
 62
     6
 10
243.063192
 20
210.961463
 11
242.904506
 21
210.955376
  0
LINE
  8
CSLAYER1
  6
CONTINUOUS
 62
     6
 10
242.904506
 20
210.955376
 11
242.747165
 21
210.950840
  0
LINE
  8
CSLAYER1
  6
CONTINUOUS
 62
     6
 10
242.747165
 20
210.950840
 11
242.592723
 21
210.947934
  0
LINE
  8
CSLAYER1
  6
CONTINUOUS
 62
     6
 10
242.592723
 20
210.947934
 11
242.442738
 21
210.946738
  0
LINE
  8
CSLAYER1
  6
CONTINUOUS
 62
     6
 10
242.442738
 20
210.946738
 11
242.298764
 21
210.947331
  0
LINE
  8
CSLAYER1
  6
CONTINUOUS
 62
     6
 10
242.298764
 20
210.947331
 11
242.151523
 21
210.950109
  0
LINE
  8
CSLAYER1
  6
CONTINUOUS
 62
     6
 10
242.151523
 20
210.950109
 11
241.999910
 21
210.955227
  0
LINE
  8
CSLAYER1
  6
CONTINUOUS
 62
     6
 10
241.999910
 20
210.955227
 11
241.844864
 21
210.962540
  0
LINE
  8
CSLAYER1
  6
CONTINUOUS
 62
     6
 10
241.844864
 20
210.962540
 11
241.687328
 21
210.971903
  0
LINE
  8
CSLAYER1
  6
CONTINUOUS
 62
     6
 10
241.687328
 20
210.971903
 11
241.528242
 21
210.983171
  0
LINE
  8
CSLAYER1
  6
CONTINUOUS
 62
     6
 10
241.528242
 20
210.983171
 11
241.368547
 21
210.996199
  0
LINE
  8
CSLAYER1
  6
CONTINUOUS
 62
     6
 10
241.368547
 20
210.996199
 11
241.209185
 21
211.010841
  0
LINE
  8
CSLAYER1
  6
CONTINUOUS
 62
     6
 10
241.209185
 20
211.010841
 11
241.051097
 21
211.026953
  0
LINE
  8
CSLAYER1
  6
CONTINUOUS
 62
     6
 10
241.051097
 20
211.026953
 11
240.895223
 21
211.044390
  0
LINE
  8
CSLAYER1
  6
CONTINUOUS
 62
     6
 10
240.895223
 20
211.044390
 11
240.742505
 21
211.063006
  0
LINE
  8
CSLAYER1
  6
CONTINUOUS
 62
     6
 10
240.742505
 20
211.063006
 11
240.593885
 21
211.082657
  0
LINE
  8
CSLAYER1
  6
CONTINUOUS
 62
     6
 10
240.593885
 20
211.082657
 11
240.405336
 21
211.107511
  0
LINE
  8
CSLAYER1
  6
CONTINUOUS
 62
     6
 10
240.405336
 20
211.107511
 11
240.212072
 21
211.131002
  0
LINE
  8
CSLAYER1
  6
CONTINUOUS
 62
     6
 10
240.212072
 20
211.131002
 11
240.015128
 21
211.153219
  0
LINE
  8
CSLAYER1
  6
CONTINUOUS
 62
     6
 10
240.015128
 20
211.153219
 11
239.815538
 21
211.174252
  0
LINE
  8
CSLAYER1
  6
CONTINUOUS
 62
     6
 10
239.815538
 20
211.174252
 11
239.614336
 21
211.194192
  0
LINE
  8
CSLAYER1
  6
CONTINUOUS
 62
     6
 10
239.614336
 20
211.194192
 11
239.412558
 21
211.213129
  0
LINE
  8
CSLAYER1
  6
CONTINUOUS
 62
     6
 10
239.412558
 20
211.213129
 11
239.211237
 21
211.231153
  0
LINE
  8
CSLAYER1
  6
CONTINUOUS
 62
     6
 10
239.211237
 20
211.231153
 11
239.011408
 21
211.248354
  0
LINE
  8
CSLAYER1
  6
CONTINUOUS
 62
     6
 10
239.011408
 20
211.248354
 11
238.814106
 21
211.264821
  0
LINE
  8
CSLAYER1
  6
CONTINUOUS
 62
     6
 10
238.814106
 20
211.264821
 11
238.620366
 21
211.280647
  0
LINE
  8
CSLAYER1
  6
CONTINUOUS
 62
     6
 10
238.620366
 20
211.280647
 11
238.431221
 21
211.295919
  0
LINE
  8
CSLAYER1
  6
CONTINUOUS
 62
     6
 10
238.431221
 20
211.295919
 11
238.179393
 21
211.310679
  0
LINE
  8
CSLAYER1
  6
CONTINUOUS
 62
     6
 10
238.179393
 20
211.310679
 11
237.920280
 21
211.315656
  0
LINE
  8
CSLAYER1
  6
CONTINUOUS
 62
     6
 10
237.920280
 20
211.315656
 11
237.655668
 21
211.311739
  0
LINE
  8
CSLAYER1
  6
CONTINUOUS
 62
     6
 10
237.655668
 20
211.311739
 11
237.387346
 21
211.299820
  0
LINE
  8
CSLAYER1
  6
CONTINUOUS
 62
     6
 10
237.387346
 20
211.299820
 11
237.117101
 21
211.280789
  0
LINE
  8
CSLAYER1
  6
CONTINUOUS
 62
     6
 10
237.117101
 20
211.280789
 11
236.846721
 21
211.255536
  0
LINE
  8
CSLAYER1
  6
CONTINUOUS
 62
     6
 10
236.846721
 20
211.255536
 11
236.577993
 21
211.224952
  0
LINE
  8
CSLAYER1
  6
CONTINUOUS
 62
     6
 10
236.577993
 20
211.224952
 11
236.312704
 21
211.189927
  0
LINE
  8
CSLAYER1
  6
CONTINUOUS
 62
     6
 10
236.312704
 20
211.189927
 11
236.052644
 21
211.151351
  0
LINE
  8
CSLAYER1
  6
CONTINUOUS
 62
     6
 10
236.052644
 20
211.151351
 11
235.799599
 21
211.110116
  0
LINE
  8
CSLAYER1
  6
CONTINUOUS
 62
     6
 10
235.799599
 20
211.110116
 11
235.555356
 21
211.067111
  0
LINE
  8
CSLAYER1
  6
CONTINUOUS
 62
     6
 10
235.555356
 20
211.067111
 11
235.330685
 21
211.021509
  0
LINE
  8
CSLAYER1
  6
CONTINUOUS
 62
     6
 10
235.330685
 20
211.021509
 11
235.102146
 21
210.966152
  0
LINE
  8
CSLAYER1
  6
CONTINUOUS
 62
     6
 10
235.102146
 20
210.966152
 11
234.870779
 21
210.901648
  0
LINE
  8
CSLAYER1
  6
CONTINUOUS
 62
     6
 10
234.870779
 20
210.901648
 11
234.637627
 21
210.828603
  0
LINE
  8
CSLAYER1
  6
CONTINUOUS
 62
     6
 10
234.637627
 20
210.828603
 11
234.403731
 21
210.747624
  0
LINE
  8
CSLAYER1
  6
CONTINUOUS
 62
     6
 10
234.403731
 20
210.747624
 11
234.170132
 21
210.659319
  0
LINE
  8
CSLAYER1
  6
CONTINUOUS
 62
     6
 10
234.170132
 20
210.659319
 11
233.937872
 21
210.564294
  0
LINE
  8
CSLAYER1
  6
CONTINUOUS
 62
     6
 10
233.937872
 20
210.564294
 11
233.707992
 21
210.463157
  0
LINE
  8
CSLAYER1
  6
CONTINUOUS
 62
     6
 10
233.707992
 20
210.463157
 11
233.481533
 21
210.356514
  0
LINE
  8
CSLAYER1
  6
CONTINUOUS
 62
     6
 10
233.481533
 20
210.356514
 11
233.259538
 21
210.244974
  0
LINE
  8
CSLAYER1
  6
CONTINUOUS
 62
     6
 10
233.259538
 20
210.244974
 11
233.043047
 21
210.129143
  0
LINE
  8
CSLAYER1
  6
CONTINUOUS
 62
     6
 10
233.043047
 20
210.129143
 11
232.888331
 21
210.041748
  0
LINE
  8
CSLAYER1
  6
CONTINUOUS
 62
     6
 10
232.888331
 20
210.041748
 11
232.735304
 21
209.951527
  0
LINE
  8
CSLAYER1
  6
CONTINUOUS
 62
     6
 10
232.735304
 20
209.951527
 11
232.583798
 21
209.858763
  0
LINE
  8
CSLAYER1
  6
CONTINUOUS
 62
     6
 10
232.583798
 20
209.858763
 11
232.433642
 21
209.763737
  0
LINE
  8
CSLAYER1
  6
CONTINUOUS
 62
     6
 10
232.433642
 20
209.763737
 11
232.284669
 21
209.666734
  0
LINE
  8
CSLAYER1
  6
CONTINUOUS
 62
     6
 10
232.284669
 20
209.666734
 11
232.136709
 21
209.568034
  0
LINE
  8
CSLAYER1
  6
CONTINUOUS
 62
     6
 10
232.136709
 20
209.568034
 11
231.989594
 21
209.467921
  0
LINE
  8
CSLAYER1
  6
CONTINUOUS
 62
     6
 10
231.989594
 20
209.467921
 11
231.843154
 21
209.366678
  0
LINE
  8
CSLAYER1
  6
CONTINUOUS
 62
     6
 10
231.843154
 20
209.366678
 11
231.697221
 21
209.264587
  0
LINE
  8
CSLAYER1
  6
CONTINUOUS
 62
     6
 10
231.697221
 20
209.264587
 11
231.551626
 21
209.161930
  0
LINE
  8
CSLAYER1
  6
CONTINUOUS
 62
     6
 10
231.551626
 20
209.161930
 11
231.406200
 21
209.058991
  0
ARC
  8
CSLAYER1
  6
CONTINUOUS
 62
     6
 10
232.903933
 20
209.142101
 40
1.500006
 50
183.178280
 51
243.178280
  0
ARC
  8
CSLAYER1
  6
CONTINUOUS
 62
     6
 10
233.724805
 20
207.886639
 40
1.500006
 50
183.178280
 51
243.178280
  0
ARC
  8
CSLAYER1
  6
CONTINUOUS
 62
     6
 10
231.550280
 20
206.464847
 40
1.500006
 50
3.178280
 51
63.178280
  0
LINE
  8
CSLAYER1
  6
CONTINUOUS
 62
     6
 10
233.047942
 20
206.548063
 11
233.168312
 21
206.633812
  0
LINE
  8
CSLAYER1
  6
CONTINUOUS
 62
     6
 10
233.168312
 20
206.633812
 11
233.288833
 21
206.719307
  0
LINE
  8
CSLAYER1
  6
CONTINUOUS
 62
     6
 10
233.288833
 20
206.719307
 11
233.409658
 21
206.804294
  0
LINE
  8
CSLAYER1
  6
CONTINUOUS
 62
     6
 10
233.409658
 20
206.804294
 11
233.530937
 21
206.888520
  0
LINE
  8
CSLAYER1
  6
CONTINUOUS
 62
     6
 10
233.530937
 20
206.888520
 11
233.652823
 21
206.971731
  0
LINE
  8
CSLAYER1
  6
CONTINUOUS
 62
     6
 10
233.652823
 20
206.971731
 11
233.775466
 21
207.053674
  0
LINE
  8
CSLAYER1
  6
CONTINUOUS
 62
     6
 10
233.775466
 20
207.053674
 11
233.899018
 21
207.134094
  0
LINE
  8
CSLAYER1
  6
CONTINUOUS
 62
     6
 10
233.899018
 20
207.134094
 11
234.023631
 21
207.212737
  0
LINE
  8
CSLAYER1
  6
CONTINUOUS
 62
     6
 10
234.023631
 20
207.212737
 11
234.149457
 21
207.289351
  0
LINE
  8
CSLAYER1
  6
CONTINUOUS
 62
     6
 10
234.149457
 20
207.289351
 11
234.276646
 21
207.363681
  0
LINE
  8
CSLAYER1
  6
CONTINUOUS
 62
     6
 10
234.276646
 20
207.363681
 11
234.405351
 21
207.435474
  0
LINE
  8
CSLAYER1
  6
CONTINUOUS
 62
     6
 10
234.405351
 20
207.435474
 11
234.561448
 21
207.517929
  0
LINE
  8
CSLAYER1
  6
CONTINUOUS
 62
     6
 10
234.561448
 20
207.517929
 11
234.721321
 21
207.597510
  0
LINE
  8
CSLAYER1
  6
CONTINUOUS
 62
     6
 10
234.721321
 20
207.597510
 11
234.884250
 21
207.673767
  0
LINE
  8
CSLAYER1
  6
CONTINUOUS
 62
     6
 10
234.884250
 20
207.673767
 11
235.049519
 21
207.746246
  0
LINE
  8
CSLAYER1
  6
CONTINUOUS
 62
     6
 10
235.049519
 20
207.746246
 11
235.216409
 21
207.814495
  0
LINE
  8
CSLAYER1
  6
CONTINUOUS
 62
     6
 10
235.216409
 20
207.814495
 11
235.384201
 21
207.878062
  0
LINE
  8
CSLAYER1
  6
CONTINUOUS
 62
     6
 10
235.384201
 20
207.878062
 11
235.552177
 21
207.936495
  0
LINE
  8
CSLAYER1
  6
CONTINUOUS
 62
     6
 10
235.552177
 20
207.936495
 11
235.719619
 21
207.989342
  0
LINE
  8
CSLAYER1
  6
CONTINUOUS
 62
     6
 10
235.719619
 20
207.989342
 11
235.885809
 21
208.036150
  0
LINE
  8
CSLAYER1
  6
CONTINUOUS
 62
     6
 10
235.885809
 20
208.036150
 11
236.050029
 21
208.076469
  0
LINE
  8
CSLAYER1
  6
CONTINUOUS
 62
     6
 10
236.050029
 20
208.076469
 11
236.211560
 21
208.109844
  0
LINE
  8
CSLAYER1
  6
CONTINUOUS
 62
     6
 10
236.211560
 20
208.109844
 11
236.397814
 21
208.143190
  0
LINE
  8
CSLAYER1
  6
CONTINUOUS
 62
     6
 10
236.397814
 20
208.143190
 11
236.590926
 21
208.174957
  0
LINE
  8
CSLAYER1
  6
CONTINUOUS
 62
     6
 10
236.590926
 20
208.174957
 11
236.789470
 21
208.204506
  0
LINE
  8
CSLAYER1
  6
CONTINUOUS
 62
     6
 10
235.885661
 20
208.036150
 11
235.885661
 21
195.159123
  0
ARC
  8
CSLAYER1
  6
CONTINUOUS
 62
     6
 10
237.885661
 20
195.159123
 40
2.000000
 50
180.000000
 51
270.000000
  0
LINE
  8
CSLAYER1
  6
CONTINUOUS
 62
     6
 10
237.885661
 20
193.159123
 11
259.885661
 21
193.159123
  0
ARC
  8
CSLAYER1
  6
CONTINUOUS
 62
     6
 10
248.885658
 20
196.159111
 40
1.527778
 50
-16.601572
 51
16.601562
  0
LINE
  8
CSLAYER1
  6
CONTINUOUS
 62
     6
 10
250.349743
 20
196.595624
 11
249.758684
 21
196.595624
  0
ARC
  8
CSLAYER1
  6
CONTINUOUS
 62
     6
 10
249.758684
 20
197.032115
 40
0.436508
 50
180.057309
 51
269.999999
  0
LINE
  8
CSLAYER1
  6
CONTINUOUS
 62
     6
 10
249.322171
 20
197.032115
 11
249.322171
 21
197.623219
  0
ARC
  8
CSLAYER1
  6
CONTINUOUS
 62
     6
 10
248.885658
 20
196.159111
 40
1.527778
 50
73.398417
 51
106.601578
  0
LINE
  8
CSLAYER1
  6
CONTINUOUS
 62
     6
 10
248.449144
 20
197.623219
 11
248.449144
 21
197.032115
  0
ARC
  8
CSLAYER1
  6
CONTINUOUS
 62
     6
 10
248.012631
 20
197.032115
 40
0.436508
 50
270.057346
 51
359.999995
  0
LINE
  8
CSLAYER1
  6
CONTINUOUS
 62
     6
 10
248.012631
 20
196.595624
 11
247.421572
 21
196.595624
  0
ARC
  8
CSLAYER1
  6
CONTINUOUS
 62
     6
 10
248.885658
 20
196.159111
 40
1.527778
 50
163.398423
 51
196.601584
  0
LINE
  8
CSLAYER1
  6
CONTINUOUS
 62
     6
 10
247.421572
 20
195.722597
 11
248.012631
 21
195.722597
  0
ARC
  8
CSLAYER1
  6
CONTINUOUS
 62
     6
 10
248.012631
 20
195.286107
 40
0.436508
 50
-0.000005
 51
89.999984
  0
LINE
  8
CSLAYER1
  6
CONTINUOUS
 62
     6
 10
248.449144
 20
195.286107
 11
248.449144
 21
194.695003
  0
ARC
  8
CSLAYER1
  6
CONTINUOUS
 62
     6
 10
248.885658
 20
196.159111
 40
1.527778
 50
253.398405
 51
286.601594
  0
LINE
  8
CSLAYER1
  6
CONTINUOUS
 62
     6
 10
249.322171
 20
194.695003
 11
249.322171
 21
195.286107
  0
ARC
  8
CSLAYER1
  6
CONTINUOUS
 62
     6
 10
249.758684
 20
195.286107
 40
0.436508
 50
89.999984
 51
179.999990
  0
LINE
  8
CSLAYER1
  6
CONTINUOUS
 62
     6
 10
249.758684
 20
195.722597
 11
250.349743
 21
195.722597
  0
CIRCLE
  8
CSLAYER1
  6
CONTINUOUS
 62
     6
 10
248.885668
 20
196.159111
 40
2.750000
  0
ARC
  8
CSLAYER1
  6
CONTINUOUS
 62
     6
 10
242.885640
 20
211.159085
 40
4.000000
 50
-129.735526
 51
128.465835
  0
ARC
  8
CSLAYER1
  6
CONTINUOUS
 62
     6
 10
242.885640
 20
211.159085
 40
4.000000
 50
176.007555
 51
178.572301
  0
ARC
  8
CSLAYER1
  6
CONTINUOUS
 62
     6
 10
242.885640
 20
211.159085
 40
6.750000
 50
174.942367
 51
179.961149
  0
LINE
  8
CSLAYER1
  6
CONTINUOUS
 62
     6
 10
235.885690
 20
211.760418
 11
235.885633
 21
211.159065
  0
LINE
  8
CSLAYER1
  6
CONTINUOUS
 62
     6
 10
235.885661
 20
211.124140
 11
235.885661
 21
211.761752
  0
ARC
  8
CSLAYER1
  6
CONTINUOUS
 62
     6
 10
232.745593
 20
211.960373
 40
1.499994
 50
168.245911
 51
228.245911
  0
ARC
  8
CSLAYER1
  6
CONTINUOUS
 62
     6
 10
229.574637
 20
212.390124
 40
1.499998
 50
182.735346
 51
242.735346
  0
ARC
  8
CSLAYER1
  6
CONTINUOUS
 62
     6
 10
227.389197
 20
210.985192
 40
1.499998
 50
2.735346
 51
62.735346
  0
ARC
  8
CSLAYER1
  6
CONTINUOUS
 62
     6
 10
228.200335
 20
209.723428
 40
1.499998
 50
2.735346
 51
62.735346
  0
LINE
  8
CSLAYER1
  6
CONTINUOUS
 62
     6
 10
229.698573
 20
209.794960
 11
229.572439
 21
209.733695
  0
LINE
  8
CSLAYER1
  6
CONTINUOUS
 62
     6
 10
229.572439
 20
209.733695
 11
229.441483
 21
209.664415
  0
LINE
  8
CSLAYER1
  6
CONTINUOUS
 62
     6
 10
229.441483
 20
209.664415
 11
229.306952
 21
209.588240
  0
LINE
  8
CSLAYER1
  6
CONTINUOUS
 62
     6
 10
229.306952
 20
209.588240
 11
229.170093
 21
209.506288
  0
LINE
  8
CSLAYER1
  6
CONTINUOUS
 62
     6
 10
229.170093
 20
209.506288
 11
229.032152
 21
209.419677
  0
LINE
  8
CSLAYER1
  6
CONTINUOUS
 62
     6
 10
229.032152
 20
209.419677
 11
228.894376
 21
209.329527
  0
LINE
  8
CSLAYER1
  6
CONTINUOUS
 62
     6
 10
228.894376
 20
209.329527
 11
228.758013
 21
209.236957
  0
LINE
  8
CSLAYER1
  6
CONTINUOUS
 62
     6
 10
228.758013
 20
209.236957
 11
228.624308
 21
209.143084
  0
LINE
  8
CSLAYER1
  6
CONTINUOUS
 62
     6
 10
228.624308
 20
209.143084
 11
228.494508
 21
209.049028
  0
LINE
  8
CSLAYER1
  6
CONTINUOUS
 62
     6
 10
228.494508
 20
209.049028
 11
228.369861
 21
208.955907
  0
LINE
  8
CSLAYER1
  6
CONTINUOUS
 62
     6
 10
228.369861
 20
208.955907
 11
228.251612
 21
208.864840
  0
LINE
  8
CSLAYER1
  6
CONTINUOUS
 62
     6
 10
228.251612
 20
208.864840
 11
228.159430
 21
208.789688
  0
LINE
  8
CSLAYER1
  6
CONTINUOUS
 62
     6
 10
228.159430
 20
208.789688
 11
228.068020
 21
208.709289
  0
LINE
  8
CSLAYER1
  6
CONTINUOUS
 62
     6
 10
228.068020
 20
208.709289
 11
227.977605
 21
208.624185
  0
LINE
  8
CSLAYER1
  6
CONTINUOUS
 62
     6
 10
227.977605
 20
208.624185
 11
227.888408
 21
208.534918
  0
LINE
  8
CSLAYER1
  6
CONTINUOUS
 62
     6
 10
227.888408
 20
208.534918
 11
227.800651
 21
208.442027
  0
LINE
  8
CSLAYER1
  6
CONTINUOUS
 62
     6
 10
227.800651
 20
208.442027
 11
227.714560
 21
208.346055
  0
LINE
  8
CSLAYER1
  6
CONTINUOUS
 62
     6
 10
227.714560
 20
208.346055
 11
227.630356
 21
208.247543
  0
LINE
  8
CSLAYER1
  6
CONTINUOUS
 62
     6
 10
227.630356
 20
208.247543
 11
227.548263
 21
208.147031
  0
LINE
  8
CSLAYER1
  6
CONTINUOUS
 62
     6
 10
227.548263
 20
208.147031
 11
227.468504
 21
208.045062
  0
LINE
  8
CSLAYER1
  6
CONTINUOUS
 62
     6
 10
227.468504
 20
208.045062
 11
227.391302
 21
207.942176
  0
LINE
  8
CSLAYER1
  6
CONTINUOUS
 62
     6
 10
227.391302
 20
207.942176
 11
227.316881
 21
207.838914
  0
LINE
  8
CSLAYER1
  6
CONTINUOUS
 62
     6
 10
227.316881
 20
207.838914
 11
227.223214
 21
207.702568
  0
LINE
  8
CSLAYER1
  6
CONTINUOUS
 62
     6
 10
227.223214
 20
207.702568
 11
227.133038
 21
207.564111
  0
LINE
  8
CSLAYER1
  6
CONTINUOUS
 62
     6
 10
227.133038
 20
207.564111
 11
227.046003
 21
207.423754
  0
LINE
  8
CSLAYER1
  6
CONTINUOUS
 62
     6
 10
227.046003
 20
207.423754
 11
226.961760
 21
207.281708
  0
LINE
  8
CSLAYER1
  6
CONTINUOUS
 62
     6
 10
226.961760
 20
207.281708
 11
226.879961
 21
207.138184
  0
LINE
  8
CSLAYER1
  6
CONTINUOUS
 62
     6
 10
226.879961
 20
207.138184
 11
226.800256
 21
206.993394
  0
LINE
  8
CSLAYER1
  6
CONTINUOUS
 62
     6
 10
226.800256
 20
206.993394
 11
226.722296
 21
206.847548
  0
LINE
  8
CSLAYER1
  6
CONTINUOUS
 62
     6
 10
226.722296
 20
206.847548
 11
226.645732
 21
206.700857
  0
LINE
  8
CSLAYER1
  6
CONTINUOUS
 62
     6
 10
226.645732
 20
206.700857
 11
226.570216
 21
206.553533
  0
LINE
  8
CSLAYER1
  6
CONTINUOUS
 62
     6
 10
226.570216
 20
206.553533
 11
226.495398
 21
206.405787
  0
LINE
  8
CSLAYER1
  6
CONTINUOUS
 62
     6
 10
226.495398
 20
206.405787
 11
226.420928
 21
206.257829
  0
ARC
  8
CSLAYER1
  6
CONTINUOUS
 62
     6
 10
226.408857
 20
207.757824
 40
1.499998
 50
210.461270
 51
270.461270
  0
ARC
  8
CSLAYER1
  6
CONTINUOUS
 62
     6
 10
225.127977
 20
205.497442
 40
1.499998
 50
30.461270
 51
90.461270
  0
LINE
  8
CSLAYER1
  6
CONTINUOUS
 62
     6
 10
225.532986
 20
206.540103
 11
224.655258
 21
203.312225
  0
LINE
  8
CSLAYER1
  6
CONTINUOUS
 62
     6
 10
223.791569
 20
203.600110
 11
224.957026
 21
207.004543
  0
ARC
  8
CSLAYER1
  6
CONTINUOUS
 62
     6
 10
225.103825
 20
208.497341
 40
1.499998
 50
210.461270
 51
270.461270
  0
LINE
  8
CSLAYER1
  6
CONTINUOUS
 62
     6
 10
223.810844
 20
207.736903
 11
223.900149
 21
207.911477
  0
LINE
  8
CSLAYER1
  6
CONTINUOUS
 62
     6
 10
223.900149
 20
207.911477
 11
223.989815
 21
208.085839
  0
LINE
  8
CSLAYER1
  6
CONTINUOUS
 62
     6
 10
223.989815
 20
208.085839
 11
224.080203
 21
208.259778
  0
LINE
  8
CSLAYER1
  6
CONTINUOUS
 62
     6
 10
224.080203
 20
208.259778
 11
224.171676
 21
208.433081
  0
LINE
  8
CSLAYER1
  6
CONTINUOUS
 62
     6
 10
224.171676
 20
208.433081
 11
224.264594
 21
208.605538
  0
LINE
  8
CSLAYER1
  6
CONTINUOUS
 62
     6
 10
224.264594
 20
208.605538
 11
224.359319
 21
208.776935
  0
LINE
  8
CSLAYER1
  6
CONTINUOUS
 62
     6
 10
224.359319
 20
208.776935
 11
224.456213
 21
208.947062
  0
LINE
  8
CSLAYER1
  6
CONTINUOUS
 62
     6
 10
224.456213
 20
208.947062
 11
224.555635
 21
209.115707
  0
LINE
  8
CSLAYER1
  6
CONTINUOUS
 62
     6
 10
224.555635
 20
209.115707
 11
224.657949
 21
209.282658
  0
LINE
  8
CSLAYER1
  6
CONTINUOUS
 62
     6
 10
224.657949
 20
209.282658
 11
224.763515
 21
209.447703
  0
LINE
  8
CSLAYER1
  6
CONTINUOUS
 62
     6
 10
224.763515
 20
209.447703
 11
224.872695
 21
209.610630
  0
LINE
  8
CSLAYER1
  6
CONTINUOUS
 62
     6
 10
224.872695
 20
209.610630
 11
224.984395
 21
209.769617
  0
LINE
  8
CSLAYER1
  6
CONTINUOUS
 62
     6
 10
224.984395
 20
209.769617
 11
225.100786
 21
209.927866
  0
LINE
  8
CSLAYER1
  6
CONTINUOUS
 62
     6
 10
225.100786
 20
209.927866
 11
225.221499
 21
210.084509
  0
LINE
  8
CSLAYER1
  6
CONTINUOUS
 62
     6
 10
225.221499
 20
210.084509
 11
225.346167
 21
210.238679
  0
LINE
  8
CSLAYER1
  6
CONTINUOUS
 62
     6
 10
225.346167
 20
210.238679
 11
225.474422
 21
210.389509
  0
LINE
  8
CSLAYER1
  6
CONTINUOUS
 62
     6
 10
225.474422
 20
210.389509
 11
225.605895
 21
210.536132
  0
LINE
  8
CSLAYER1
  6
CONTINUOUS
 62
     6
 10
225.605895
 20
210.536132
 11
225.740220
 21
210.677681
  0
LINE
  8
CSLAYER1
  6
CONTINUOUS
 62
     6
 10
225.740220
 20
210.677681
 11
225.877028
 21
210.813289
  0
LINE
  8
CSLAYER1
  6
CONTINUOUS
 62
     6
 10
225.877028
 20
210.813289
 11
226.015951
 21
210.942088
  0
LINE
  8
CSLAYER1
  6
CONTINUOUS
 62
     6
 10
226.015951
 20
210.942088
 11
226.156622
 21
211.063211
  0
LINE
  8
CSLAYER1
  6
CONTINUOUS
 62
     6
 10
226.156622
 20
211.063211
 11
226.298672
 21
211.175792
  0
LINE
  8
CSLAYER1
  6
CONTINUOUS
 62
     6
 10
226.298672
 20
211.175792
 11
226.445123
 21
211.285499
  0
LINE
  8
CSLAYER1
  6
CONTINUOUS
 62
     6
 10
226.445123
 20
211.285499
 11
226.598847
 21
211.398093
  0
LINE
  8
CSLAYER1
  6
CONTINUOUS
 62
     6
 10
226.598847
 20
211.398093
 11
226.758431
 21
211.512226
  0
LINE
  8
CSLAYER1
  6
CONTINUOUS
 62
     6
 10
226.758431
 20
211.512226
 11
226.922459
 21
211.626546
  0
LINE
  8
CSLAYER1
  6
CONTINUOUS
 62
     6
 10
226.922459
 20
211.626546
 11
227.089517
 21
211.739703
  0
LINE
  8
CSLAYER1
  6
CONTINUOUS
 62
     6
 10
227.089517
 20
211.739703
 11
227.258190
 21
211.850346
  0
LINE
  8
CSLAYER1
  6
CONTINUOUS
 62
     6
 10
227.258190
 20
211.850346
 11
227.427064
 21
211.957126
  0
LINE
  8
CSLAYER1
  6
CONTINUOUS
 62
     6
 10
227.427064
 20
211.957126
 11
227.594723
 21
212.058692
  0
LINE
  8
CSLAYER1
  6
CONTINUOUS
 62
     6
 10
227.594723
 20
212.058692
 11
227.759754
 21
212.153693
  0
LINE
  8
CSLAYER1
  6
CONTINUOUS
 62
     6
 10
227.759754
 20
212.153693
 11
227.920741
 21
212.240779
  0
LINE
  8
CSLAYER1
  6
CONTINUOUS
 62
     6
 10
227.920741
 20
212.240779
 11
228.076271
 21
212.318600
  0
ARC
  8
CSLAYER1
  6
CONTINUOUS
 62
     6
 10
212.858164
 20
210.722790
 40
0.795000
 50
-58.640300
 51
121.359720
  0
ARC
  8
CSLAYER1
  6
CONTINUOUS
 62
     6
 10
212.088999
 20
212.112530
 40
0.795000
 50
-63.433378
 51
116.566642
  0
LINE
  8
CSLAYER1
  6
CONTINUOUS
 62
     6
 10
211.733469
 20
212.823590
 11
211.625675
 21
212.766267
  0
LINE
  8
CSLAYER1
  6
CONTINUOUS
 62
     6
 10
211.625675
 20
212.766267
 11
211.511490
 21
212.705998
  0
LINE
  8
CSLAYER1
  6
CONTINUOUS
 62
     6
 10
211.511490
 20
212.705998
 11
211.392061
 21
212.643501
  0
LINE
  8
CSLAYER1
  6
CONTINUOUS
 62
     6
 10
211.392061
 20
212.643501
 11
211.268537
 21
212.579496
  0
LINE
  8
CSLAYER1
  6
CONTINUOUS
 62
     6
 10
211.268537
 20
212.579496
 11
211.142066
 21
212.514702
  0
LINE
  8
CSLAYER1
  6
CONTINUOUS
 62
     6
 10
211.142066
 20
212.514702
 11
211.013797
 21
212.449837
  0
LINE
  8
CSLAYER1
  6
CONTINUOUS
 62
     6
 10
211.013797
 20
212.449837
 11
210.884878
 21
212.385622
  0
LINE
  8
CSLAYER1
  6
CONTINUOUS
 62
     6
 10
210.884878
 20
212.385622
 11
210.756456
 21
212.322776
  0
LINE
  8
CSLAYER1
  6
CONTINUOUS
 62
     6
 10
210.756456
 20
212.322776
 11
210.629681
 21
212.262017
  0
LINE
  8
CSLAYER1
  6
CONTINUOUS
 62
     6
 10
210.629681
 20
212.262017
 11
210.505700
 21
212.204066
  0
LINE
  8
CSLAYER1
  6
CONTINUOUS
 62
     6
 10
210.505700
 20
212.204066
 11
210.385661
 21
212.149640
  0
LINE
  8
CSLAYER1
  6
CONTINUOUS
 62
     6
 10
210.385661
 20
212.149640
 11
210.257814
 21
212.092413
  0
LINE
  8
CSLAYER1
  6
CONTINUOUS
 62
     6
 10
210.257814
 20
212.092413
 11
210.126683
 21
212.033341
  0
LINE
  8
CSLAYER1
  6
CONTINUOUS
 62
     6
 10
210.126683
 20
212.033341
 11
209.992914
 21
211.972968
  0
LINE
  8
CSLAYER1
  6
CONTINUOUS
 62
     6
 10
209.992914
 20
211.972968
 11
209.857153
 21
211.911838
  0
LINE
  8
CSLAYER1
  6
CONTINUOUS
 62
     6
 10
209.857153
 20
211.911838
 11
209.720046
 21
211.850495
  0
LINE
  8
CSLAYER1
  6
CONTINUOUS
 62
     6
 10
209.720046
 20
211.850495
 11
209.582238
 21
211.789483
  0
LINE
  8
CSLAYER1
  6
CONTINUOUS
 62
     6
 10
209.582238
 20
211.789483
 11
209.444375
 21
211.729347
  0
LINE
  8
CSLAYER1
  6
CONTINUOUS
 62
     6
 10
209.444375
 20
211.729347
 11
209.307102
 21
211.670630
  0
LINE
  8
CSLAYER1
  6
CONTINUOUS
 62
     6
 10
209.307102
 20
211.670630
 11
209.171065
 21
211.613876
  0
LINE
  8
CSLAYER1
  6
CONTINUOUS
 62
     6
 10
209.171065
 20
211.613876
 11
209.036911
 21
211.559630
  0
LINE
  8
CSLAYER1
  6
CONTINUOUS
 62
     6
 10
209.036911
 20
211.559630
 11
208.905283
 21
211.508435
  0
LINE
  8
CSLAYER1
  6
CONTINUOUS
 62
     6
 10
208.905283
 20
211.508435
 11
208.703493
 21
211.429768
  0
LINE
  8
CSLAYER1
  6
CONTINUOUS
 62
     6
 10
208.703493
 20
211.429768
 11
208.498790
 21
211.345667
  0
LINE
  8
CSLAYER1
  6
CONTINUOUS
 62
     6
 10
208.498790
 20
211.345667
 11
208.292445
 21
211.255938
  0
LINE
  8
CSLAYER1
  6
CONTINUOUS
 62
     6
 10
208.292445
 20
211.255938
 11
208.085729
 21
211.160387
  0
LINE
  8
CSLAYER1
  6
CONTINUOUS
 62
     6
 10
208.085729
 20
211.160387
 11
207.879913
 21
211.058823
  0
LINE
  8
CSLAYER1
  6
CONTINUOUS
 62
     6
 10
207.879913
 20
211.058823
 11
207.676266
 21
210.951050
  0
LINE
  8
CSLAYER1
  6
CONTINUOUS
 62
     6
 10
207.676266
 20
210.951050
 11
207.476061
 21
210.836876
  0
LINE
  8
CSLAYER1
  6
CONTINUOUS
 62
     6
 10
207.476061
 20
210.836876
 11
207.280566
 21
210.716107
  0
LINE
  8
CSLAYER1
  6
CONTINUOUS
 62
     6
 10
207.280566
 20
210.716107
 11
207.091054
 21
210.588550
  0
LINE
  8
CSLAYER1
  6
CONTINUOUS
 62
     6
 10
207.091054
 20
210.588550
 11
206.908793
 21
210.454011
  0
LINE
  8
CSLAYER1
  6
CONTINUOUS
 62
     6
 10
206.908793
 20
210.454011
 11
206.735056
 21
210.312298
  0
LINE
  8
CSLAYER1
  6
CONTINUOUS
 62
     6
 10
206.735056
 20
210.312298
 11
206.627670
 21
210.216629
  0
LINE
  8
CSLAYER1
  6
CONTINUOUS
 62
     6
 10
206.627670
 20
210.216629
 11
206.523327
 21
210.117332
  0
LINE
  8
CSLAYER1
  6
CONTINUOUS
 62
     6
 10
206.523327
 20
210.117332
 11
206.421721
 21
210.014771
  0
LINE
  8
CSLAYER1
  6
CONTINUOUS
 62
     6
 10
206.421721
 20
210.014771
 11
206.322549
 21
209.909308
  0
LINE
  8
CSLAYER1
  6
CONTINUOUS
 62
     6
 10
206.322549
 20
209.909308
 11
206.225507
 21
209.801305
  0
LINE
  8
CSLAYER1
  6
CONTINUOUS
 62
     6
 10
206.225507
 20
209.801305
 11
206.130290
 21
209.691126
  0
LINE
  8
CSLAYER1
  6
CONTINUOUS
 62
     6
 10
206.130290
 20
209.691126
 11
206.036595
 21
209.579134
  0
LINE
  8
CSLAYER1
  6
CONTINUOUS
 62
     6
 10
206.036595
 20
209.579134
 11
205.944116
 21
209.465691
  0
LINE
  8
CSLAYER1
  6
CONTINUOUS
 62
     6
 10
205.944116
 20
209.465691
 11
205.852550
 21
209.351159
  0
LINE
  8
CSLAYER1
  6
CONTINUOUS
 62
     6
 10
205.852550
 20
209.351159
 11
205.761592
 21
209.235902
  0
LINE
  8
CSLAYER1
  6
CONTINUOUS
 62
     6
 10
205.761592
 20
209.235902
 11
205.670939
 21
209.120282
  0
ARC
  8
CSLAYER1
  6
CONTINUOUS
 62
     6
 10
206.425998
 20
209.369190
 40
0.794997
 50
198.245911
 51
258.245911
  0
ARC
  8
CSLAYER1
  6
CONTINUOUS
 62
     6
 10
206.102098
 20
207.812536
 40
0.794997
 50
18.245911
 51
78.245911
  0
ARC
  8
CSLAYER1
  6
CONTINUOUS
 62
     6
 10
207.019074
 20
208.839773
 40
0.794997
 50
198.245911
 51
258.245911
  0
LINE
  8
CSLAYER1
  6
CONTINUOUS
 62
     6
 10
206.857096
 20
208.061444
 11
206.932445
 21
208.157302
  0
LINE
  8
CSLAYER1
  6
CONTINUOUS
 62
     6
 10
206.932445
 20
208.157302
 11
207.008040
 21
208.252864
  0
LINE
  8
CSLAYER1
  6
CONTINUOUS
 62
     6
 10
207.008040
 20
208.252864
 11
207.084130
 21
208.347834
  0
LINE
  8
CSLAYER1
  6
CONTINUOUS
 62
     6
 10
207.084130
 20
208.347834
 11
207.160962
 21
208.441919
  0
LINE
  8
CSLAYER1
  6
CONTINUOUS
 62
     6
 10
207.160962
 20
208.441919
 11
207.238782
 21
208.534821
  0
LINE
  8
CSLAYER1
  6
CONTINUOUS
 62
     6
 10
207.238782
 20
208.534821
 11
207.317838
 21
208.626245
  0
LINE
  8
CSLAYER1
  6
CONTINUOUS
 62
     6
 10
207.317838
 20
208.626245
 11
207.398376
 21
208.715896
  0
LINE
  8
CSLAYER1
  6
CONTINUOUS
 62
     6
 10
207.398376
 20
208.715896
 11
207.480645
 21
208.803477
  0
LINE
  8
CSLAYER1
  6
CONTINUOUS
 62
     6
 10
207.480645
 20
208.803477
 11
207.564892
 21
208.888695
  0
LINE
  8
CSLAYER1
  6
CONTINUOUS
 62
     6
 10
207.564892
 20
208.888695
 11
207.651363
 21
208.971252
  0
LINE
  8
CSLAYER1
  6
CONTINUOUS
 62
     6
 10
207.651363
 20
208.971252
 11
207.740305
 21
209.050854
  0
LINE
  8
CSLAYER1
  6
CONTINUOUS
 62
     6
 10
207.740305
 20
209.050854
 11
207.889475
 21
209.173096
  0
LINE
  8
CSLAYER1
  6
CONTINUOUS
 62
     6
 10
207.889475
 20
209.173096
 11
208.046167
 21
209.289178
  0
LINE
  8
CSLAYER1
  6
CONTINUOUS
 62
     6
 10
208.046167
 20
209.289178
 11
208.209241
 21
209.399238
  0
LINE
  8
CSLAYER1
  6
CONTINUOUS
 62
     6
 10
208.209241
 20
209.399238
 11
208.377555
 21
209.503413
  0
LINE
  8
CSLAYER1
  6
CONTINUOUS
 62
     6
 10
208.377555
 20
209.503413
 11
208.549968
 21
209.601843
  0
LINE
  8
CSLAYER1
  6
CONTINUOUS
 62
     6
 10
208.549968
 20
209.601843
 11
208.725339
 21
209.694664
  0
LINE
  8
CSLAYER1
  6
CONTINUOUS
 62
     6
 10
208.725339
 20
209.694664
 11
208.902526
 21
209.782015
  0
LINE
  8
CSLAYER1
  6
CONTINUOUS
 62
     6
 10
208.902526
 20
209.782015
 11
209.080387
 21
209.864034
  0
LINE
  8
CSLAYER1
  6
CONTINUOUS
 62
     6
 10
209.080387
 20
209.864034
 11
209.257782
 21
209.940859
  0
LINE
  8
CSLAYER1
  6
CONTINUOUS
 62
     6
 10
209.257782
 20
209.940859
 11
209.433570
 21
210.012629
  0
LINE
  8
CSLAYER1
  6
CONTINUOUS
 62
     6
 10
209.433570
 20
210.012629
 11
209.606608
 21
210.079480
  0
LINE
  8
CSLAYER1
  6
CONTINUOUS
 62
     6
 10
209.606608
 20
210.079480
 11
209.735311
 21
210.129151
  0
LINE
  8
CSLAYER1
  6
CONTINUOUS
 62
     6
 10
209.735311
 20
210.129151
 11
209.866723
 21
210.182119
  0
LINE
  8
CSLAYER1
  6
CONTINUOUS
 62
     6
 10
209.866723
 20
210.182119
 11
210.000156
 21
210.237781
  0
LINE
  8
CSLAYER1
  6
CONTINUOUS
 62
     6
 10
210.000156
 20
210.237781
 11
210.134923
 21
210.295538
  0
LINE
  8
CSLAYER1
  6
CONTINUOUS
 62
     6
 10
210.134923
 20
210.295538
 11
210.270336
 21
210.354790
  0
LINE
  8
CSLAYER1
  6
CONTINUOUS
 62
     6
 10
210.270336
 20
210.354790
 11
210.405708
 21
210.414935
  0
LINE
  8
CSLAYER1
  6
CONTINUOUS
 62
     6
 10
210.405708
 20
210.414935
 11
210.540350
 21
210.475374
  0
LINE
  8
CSLAYER1
  6
CONTINUOUS
 62
     6
 10
210.540350
 20
210.475374
 11
210.673575
 21
210.535505
  0
LINE
  8
CSLAYER1
  6
CONTINUOUS
 62
     6
 10
210.673575
 20
210.535505
 11
210.804695
 21
210.594728
  0
LINE
  8
CSLAYER1
  6
CONTINUOUS
 62
     6
 10
210.804695
 20
210.594728
 11
210.933023
 21
210.652444
  0
LINE
  8
CSLAYER1
  6
CONTINUOUS
 62
     6
 10
210.933023
 20
210.652444
 11
211.057871
 21
210.708050
  0
LINE
  8
CSLAYER1
  6
CONTINUOUS
 62
     6
 10
211.057871
 20
210.708050
 11
211.180895
 21
210.763516
  0
LINE
  8
CSLAYER1
  6
CONTINUOUS
 62
     6
 10
211.180895
 20
210.763516
 11
211.308224
 21
210.822832
  0
LINE
  8
CSLAYER1
  6
CONTINUOUS
 62
     6
 10
211.308224
 20
210.822832
 11
211.438626
 21
210.885218
  0
LINE
  8
CSLAYER1
  6
CONTINUOUS
 62
     6
 10
211.438626
 20
210.885218
 11
211.570868
 21
210.949897
  0
LINE
  8
CSLAYER1
  6
CONTINUOUS
 62
     6
 10
211.570868
 20
210.949897
 11
211.703719
 21
211.016090
  0
LINE
  8
CSLAYER1
  6
CONTINUOUS
 62
     6
 10
211.703719
 20
211.016090
 11
211.835945
 21
211.083018
  0
LINE
  8
CSLAYER1
  6
CONTINUOUS
 62
     6
 10
211.835945
 20
211.083018
 11
211.966316
 21
211.149903
  0
LINE
  8
CSLAYER1
  6
CONTINUOUS
 62
     6
 10
211.966316
 20
211.149903
 11
212.093598
 21
211.215966
  0
LINE
  8
CSLAYER1
  6
CONTINUOUS
 62
     6
 10
212.093598
 20
211.215966
 11
212.216559
 21
211.280429
  0
LINE
  8
CSLAYER1
  6
CONTINUOUS
 62
     6
 10
212.216559
 20
211.280429
 11
212.333967
 21
211.342513
  0
LINE
  8
CSLAYER1
  6
CONTINUOUS
 62
     6
 10
212.333967
 20
211.342513
 11
212.444590
 21
211.401440
  0
LINE
  8
CSLAYER1
  6
CONTINUOUS
 62
     6
 10
212.412364
 20
211.381817
 11
212.354454
 21
211.339987
  0
LINE
  8
CSLAYER1
  6
CONTINUOUS
 62
     6
 10
212.354454
 20
211.339987
 11
212.292593
 21
211.296532
  0
LINE
  8
CSLAYER1
  6
CONTINUOUS
 62
     6
 10
212.292593
 20
211.296532
 11
212.227473
 21
211.251901
  0
LINE
  8
CSLAYER1
  6
CONTINUOUS
 62
     6
 10
212.227473
 20
211.251901
 11
212.159789
 21
211.206544
  0
LINE
  8
CSLAYER1
  6
CONTINUOUS
 62
     6
 10
212.159789
 20
211.206544
 11
212.090232
 21
211.160909
  0
LINE
  8
CSLAYER1
  6
CONTINUOUS
 62
     6
 10
212.090232
 20
211.160909
 11
212.019496
 21
211.115444
  0
LINE
  8
CSLAYER1
  6
CONTINUOUS
 62
     6
 10
212.019496
 20
211.115444
 11
211.948273
 21
211.070598
  0
LINE
  8
CSLAYER1
  6
CONTINUOUS
 62
     6
 10
211.948273
 20
211.070598
 11
211.877256
 21
211.026821
  0
LINE
  8
CSLAYER1
  6
CONTINUOUS
 62
     6
 10
211.877256
 20
211.026821
 11
211.807139
 21
210.984560
  0
LINE
  8
CSLAYER1
  6
CONTINUOUS
 62
     6
 10
211.807139
 20
210.984560
 11
211.738613
 21
210.944265
  0
LINE
  8
CSLAYER1
  6
CONTINUOUS
 62
     6
 10
211.738613
 20
210.944265
 11
211.672373
 21
210.906384
  0
LINE
  8
CSLAYER1
  6
CONTINUOUS
 62
     6
 10
211.672373
 20
210.906384
 11
211.604054
 21
210.868640
  0
LINE
  8
CSLAYER1
  6
CONTINUOUS
 62
     6
 10
211.604054
 20
210.868640
 11
211.533108
 21
210.830812
  0
LINE
  8
CSLAYER1
  6
CONTINUOUS
 62
     6
 10
211.533108
 20
210.830812
 11
211.460005
 21
210.793082
  0
LINE
  8
CSLAYER1
  6
CONTINUOUS
 62
     6
 10
211.460005
 20
210.793082
 11
211.385216
 21
210.755632
  0
LINE
  8
CSLAYER1
  6
CONTINUOUS
 62
     6
 10
211.385216
 20
210.755632
 11
211.309211
 21
210.718646
  0
LINE
  8
CSLAYER1
  6
CONTINUOUS
 62
     6
 10
211.309211
 20
210.718646
 11
211.232460
 21
210.682306
  0
LINE
  8
CSLAYER1
  6
CONTINUOUS
 62
     6
 10
211.232460
 20
210.682306
 11
211.155433
 21
210.646796
  0
LINE
  8
CSLAYER1
  6
CONTINUOUS
 62
     6
 10
211.155433
 20
210.646796
 11
211.078602
 21
210.612298
  0
LINE
  8
CSLAYER1
  6
CONTINUOUS
 62
     6
 10
211.078602
 20
210.612298
 11
211.002436
 21
210.578995
  0
LINE
  8
CSLAYER1
  6
CONTINUOUS
 62
     6
 10
211.002436
 20
210.578995
 11
210.927407
 21
210.547070
  0
LINE
  8
CSLAYER1
  6
CONTINUOUS
 62
     6
 10
210.927407
 20
210.547070
 11
210.853983
 21
210.516705
  0
LINE
  8
CSLAYER1
  6
CONTINUOUS
 62
     6
 10
210.853983
 20
210.516705
 11
210.760854
 21
210.478147
  0
LINE
  8
CSLAYER1
  6
CONTINUOUS
 62
     6
 10
210.760854
 20
210.478147
 11
210.665922
 21
210.437715
  0
LINE
  8
CSLAYER1
  6
CONTINUOUS
 62
     6
 10
210.665922
 20
210.437715
 11
210.569639
 21
210.395722
  0
LINE
  8
CSLAYER1
  6
CONTINUOUS
 62
     6
 10
210.569639
 20
210.395722
 11
210.472454
 21
210.352484
  0
LINE
  8
CSLAYER1
  6
CONTINUOUS
 62
     6
 10
210.472454
 20
210.352484
 11
210.374820
 21
210.308318
  0
LINE
  8
CSLAYER1
  6
CONTINUOUS
 62
     6
 10
210.374820
 20
210.308318
 11
210.277187
 21
210.263539
  0
LINE
  8
CSLAYER1
  6
CONTINUOUS
 62
     6
 10
210.277187
 20
210.263539
 11
210.180005
 21
210.218462
  0
LINE
  8
CSLAYER1
  6
CONTINUOUS
 62
     6
 10
210.180005
 20
210.218462
 11
210.083727
 21
210.173402
  0
LINE
  8
CSLAYER1
  6
CONTINUOUS
 62
     6
 10
210.083727
 20
210.173402
 11
209.988803
 21
210.128676
  0
LINE
  8
CSLAYER1
  6
CONTINUOUS
 62
     6
 10
209.988803
 20
210.128676
 11
209.895684
 21
210.084598
  0
LINE
  8
CSLAYER1
  6
CONTINUOUS
 62
     6
 10
209.895684
 20
210.084598
 11
209.804820
 21
210.041485
  0
LINE
  8
CSLAYER1
  6
CONTINUOUS
 62
     6
 10
209.804820
 20
210.041485
 11
209.685322
 21
209.981525
  0
LINE
  8
CSLAYER1
  6
CONTINUOUS
 62
     6
 10
209.685322
 20
209.981525
 11
209.565071
 21
209.915144
  0
LINE
  8
CSLAYER1
  6
CONTINUOUS
 62
     6
 10
209.565071
 20
209.915144
 11
209.444654
 21
209.843224
  0
LINE
  8
CSLAYER1
  6
CONTINUOUS
 62
     6
 10
209.444654
 20
209.843224
 11
209.324655
 21
209.766648
  0
LINE
  8
CSLAYER1
  6
CONTINUOUS
 62
     6
 10
209.324655
 20
209.766648
 11
209.205657
 21
209.686298
  0
LINE
  8
CSLAYER1
  6
CONTINUOUS
 62
     6
 10
209.205657
 20
209.686298
 11
209.088246
 21
209.603057
  0
LINE
  8
CSLAYER1
  6
CONTINUOUS
 62
     6
 10
209.088246
 20
209.603057
 11
208.973007
 21
209.517806
  0
LINE
  8
CSLAYER1
  6
CONTINUOUS
 62
     6
 10
208.973007
 20
209.517806
 11
208.860523
 21
209.431428
  0
LINE
  8
CSLAYER1
  6
CONTINUOUS
 62
     6
 10
208.860523
 20
209.431428
 11
208.751379
 21
209.344806
  0
LINE
  8
CSLAYER1
  6
CONTINUOUS
 62
     6
 10
208.751379
 20
209.344806
 11
208.646161
 21
209.258822
  0
LINE
  8
CSLAYER1
  6
CONTINUOUS
 62
     6
 10
208.646161
 20
209.258822
 11
208.545451
 21
209.174359
  0
LINE
  8
CSLAYER1
  6
CONTINUOUS
 62
     6
 10
208.545451
 20
209.174359
 11
208.454413
 21
209.093890
  0
LINE
  8
CSLAYER1
  6
CONTINUOUS
 62
     6
 10
208.454413
 20
209.093890
 11
208.364185
 21
209.007919
  0
LINE
  8
CSLAYER1
  6
CONTINUOUS
 62
     6
 10
208.364185
 20
209.007919
 11
208.275083
 21
208.917000
  0
LINE
  8
CSLAYER1
  6
CONTINUOUS
 62
     6
 10
208.275083
 20
208.917000
 11
208.187424
 21
208.821687
  0
LINE
  8
CSLAYER1
  6
CONTINUOUS
 62
     6
 10
208.187424
 20
208.821687
 11
208.101527
 21
208.722536
  0
LINE
  8
CSLAYER1
  6
CONTINUOUS
 62
     6
 10
208.101527
 20
208.722536
 11
208.017708
 21
208.620101
  0
LINE
  8
CSLAYER1
  6
CONTINUOUS
 62
     6
 10
208.017708
 20
208.620101
 11
207.936283
 21
208.514936
  0
LINE
  8
CSLAYER1
  6
CONTINUOUS
 62
     6
 10
207.936283
 20
208.514936
 11
207.857571
 21
208.407597
  0
LINE
  8
CSLAYER1
  6
CONTINUOUS
 62
     6
 10
207.857571
 20
208.407597
 11
207.781888
 21
208.298637
  0
LINE
  8
CSLAYER1
  6
CONTINUOUS
 62
     6
 10
207.781888
 20
208.298637
 11
207.709552
 21
208.188612
  0
LINE
  8
CSLAYER1
  6
CONTINUOUS
 62
     6
 10
207.709552
 20
208.188612
 11
207.640879
 21
208.078076
  0
LINE
  8
CSLAYER1
  6
CONTINUOUS
 62
     6
 10
207.640879
 20
208.078076
 11
207.593025
 21
207.996963
  0
LINE
  8
CSLAYER1
  6
CONTINUOUS
 62
     6
 10
207.593025
 20
207.996963
 11
207.546696
 21
207.915000
  0
LINE
  8
CSLAYER1
  6
CONTINUOUS
 62
     6
 10
207.546696
 20
207.915000
 11
207.501738
 21
207.832272
  0
LINE
  8
CSLAYER1
  6
CONTINUOUS
 62
     6
 10
207.501738
 20
207.832272
 11
207.457999
 21
207.748865
  0
LINE
  8
CSLAYER1
  6
CONTINUOUS
 62
     6
 10
207.457999
 20
207.748865
 11
207.415327
 21
207.664863
  0
LINE
  8
CSLAYER1
  6
CONTINUOUS
 62
     6
 10
207.415327
 20
207.664863
 11
207.373570
 21
207.580351
  0
LINE
  8
CSLAYER1
  6
CONTINUOUS
 62
     6
 10
207.373570
 20
207.580351
 11
207.332575
 21
207.495415
  0
LINE
  8
CSLAYER1
  6
CONTINUOUS
 62
     6
 10
207.332575
 20
207.495415
 11
207.292190
 21
207.410138
  0
LINE
  8
CSLAYER1
  6
CONTINUOUS
 62
     6
 10
207.292190
 20
207.410138
 11
207.252261
 21
207.324607
  0
LINE
  8
CSLAYER1
  6
CONTINUOUS
 62
     6
 10
207.252261
 20
207.324607
 11
207.212638
 21
207.238905
  0
LINE
  8
CSLAYER1
  6
CONTINUOUS
 62
     6
 10
207.212638
 20
207.238905
 11
207.173167
 21
207.153119
  0
ARC
  8
CSLAYER1
  6
CONTINUOUS
 62
     6
 10
207.838593
 20
207.588165
 40
0.795003
 50
213.178280
 51
273.178280
  0
ARC
  8
CSLAYER1
  6
CONTINUOUS
 62
     6
 10
208.548065
 20
207.229447
 40
0.795003
 50
213.178280
 51
273.178280
  0
ARC
  8
CSLAYER1
  6
CONTINUOUS
 62
     6
 10
207.926748
 20
206.000605
 40
0.795003
 50
33.178280
 51
93.178280
  0
LINE
  8
CSLAYER1
  6
CONTINUOUS
 62
     6
 10
208.592112
 20
206.435681
 11
208.624638
 21
206.506937
  0
LINE
  8
CSLAYER1
  6
CONTINUOUS
 62
     6
 10
208.624638
 20
206.506937
 11
208.657300
 21
206.578117
  0
LINE
  8
CSLAYER1
  6
CONTINUOUS
 62
     6
 10
208.657300
 20
206.578117
 11
208.690236
 21
206.649144
  0
LINE
  8
CSLAYER1
  6
CONTINUOUS
 62
     6
 10
208.690236
 20
206.649144
 11
208.723583
 21
206.719942
  0
LINE
  8
CSLAYER1
  6
CONTINUOUS
 62
     6
 10
208.723583
 20
206.719942
 11
208.757476
 21
206.790435
  0
LINE
  8
CSLAYER1
  6
CONTINUOUS
 62
     6
 10
208.757476
 20
206.790435
 11
208.792054
 21
206.860547
  0
LINE
  8
CSLAYER1
  6
CONTINUOUS
 62
     6
 10
208.792054
 20
206.860547
 11
208.827452
 21
206.930200
  0
LINE
  8
CSLAYER1
  6
CONTINUOUS
 62
     6
 10
208.827452
 20
206.930200
 11
208.863809
 21
206.999320
  0
LINE
  8
CSLAYER1
  6
CONTINUOUS
 62
     6
 10
208.863809
 20
206.999320
 11
208.901259
 21
207.067829
  0
LINE
  8
CSLAYER1
  6
CONTINUOUS
 62
     6
 10
208.901259
 20
207.067829
 11
208.939941
 21
207.135651
  0
LINE
  8
CSLAYER1
  6
CONTINUOUS
 62
     6
 10
208.939941
 20
207.135651
 11
208.979990
 21
207.202710
  0
LINE
  8
CSLAYER1
  6
CONTINUOUS
 62
     6
 10
208.979990
 20
207.202710
 11
209.029787
 21
207.281922
  0
LINE
  8
CSLAYER1
  6
CONTINUOUS
 62
     6
 10
209.029787
 20
207.281922
 11
209.082079
 21
207.360816
  0
LINE
  8
CSLAYER1
  6
CONTINUOUS
 62
     6
 10
209.082079
 20
207.360816
 11
209.136654
 21
207.438993
  0
LINE
  8
CSLAYER1
  6
CONTINUOUS
 62
     6
 10
209.136654
 20
207.438993
 11
209.193305
 21
207.516057
  0
LINE
  8
CSLAYER1
  6
CONTINUOUS
 62
     6
 10
209.193305
 20
207.516057
 11
209.251820
 21
207.591608
  0
LINE
  8
CSLAYER1
  6
CONTINUOUS
 62
     6
 10
209.251820
 20
207.591608
 11
209.311990
 21
207.665250
  0
LINE
  8
CSLAYER1
  6
CONTINUOUS
 62
     6
 10
209.311990
 20
207.665250
 11
209.373605
 21
207.736584
  0
LINE
  8
CSLAYER1
  6
CONTINUOUS
 62
     6
 10
209.373605
 20
207.736584
 11
209.436456
 21
207.805213
  0
LINE
  8
CSLAYER1
  6
CONTINUOUS
 62
     6
 10
209.436456
 20
207.805213
 11
209.500332
 21
207.870738
  0
LINE
  8
CSLAYER1
  6
CONTINUOUS
 62
     6
 10
209.500332
 20
207.870738
 11
209.565023
 21
207.932762
  0
LINE
  8
CSLAYER1
  6
CONTINUOUS
 62
     6
 10
209.565023
 20
207.932762
 11
209.630320
 21
207.990887
  0
LINE
  8
CSLAYER1
  6
CONTINUOUS
 62
     6
 10
209.630320
 20
207.990887
 11
209.706973
 21
208.055550
  0
LINE
  8
CSLAYER1
  6
CONTINUOUS
 62
     6
 10
209.706973
 20
208.055550
 11
209.787192
 21
208.121305
  0
LINE
  8
CSLAYER1
  6
CONTINUOUS
 62
     6
 10
209.787192
 20
208.121305
 11
209.870492
 21
208.187482
  0
LINE
  8
CSLAYER1
  6
CONTINUOUS
 62
     6
 10
209.870492
 20
208.187482
 11
209.956391
 21
208.253410
  0
LINE
  8
CSLAYER1
  6
CONTINUOUS
 62
     6
 10
209.956391
 20
208.253410
 11
210.044406
 21
208.318416
  0
LINE
  8
CSLAYER1
  6
CONTINUOUS
 62
     6
 10
210.044406
 20
208.318416
 11
210.134053
 21
208.381831
  0
LINE
  8
CSLAYER1
  6
CONTINUOUS
 62
     6
 10
210.134053
 20
208.381831
 11
210.224849
 21
208.442982
  0
LINE
  8
CSLAYER1
  6
CONTINUOUS
 62
     6
 10
210.224849
 20
208.442982
 11
210.316310
 21
208.501199
  0
LINE
  8
CSLAYER1
  6
CONTINUOUS
 62
     6
 10
210.316310
 20
208.501199
 11
210.407953
 21
208.555810
  0
LINE
  8
CSLAYER1
  6
CONTINUOUS
 62
     6
 10
210.407953
 20
208.555810
 11
210.499296
 21
208.606145
  0
LINE
  8
CSLAYER1
  6
CONTINUOUS
 62
     6
 10
210.499296
 20
208.606145
 11
210.589854
 21
208.651532
  0
LINE
  8
CSLAYER1
  6
CONTINUOUS
 62
     6
 10
210.589854
 20
208.651532
 11
210.753139
 21
208.729050
  0
LINE
  8
CSLAYER1
  6
CONTINUOUS
 62
     6
 10
210.753139
 20
208.729050
 11
210.837735
 21
208.769082
  0
LINE
  8
CSLAYER1
  6
CONTINUOUS
 62
     6
 10
210.837735
 20
208.769082
 11
210.923677
 21
208.809506
  0
LINE
  8
CSLAYER1
  6
CONTINUOUS
 62
     6
 10
210.923677
 20
208.809506
 11
211.010497
 21
208.849976
  0
LINE
  8
CSLAYER1
  6
CONTINUOUS
 62
     6
 10
211.010497
 20
208.849976
 11
211.097729
 21
208.890151
  0
LINE
  8
CSLAYER1
  6
CONTINUOUS
 62
     6
 10
211.097729
 20
208.890151
 11
211.184904
 21
208.929686
  0
LINE
  8
CSLAYER1
  6
CONTINUOUS
 62
     6
 10
211.184904
 20
208.929686
 11
211.271556
 21
208.968239
  0
LINE
  8
CSLAYER1
  6
CONTINUOUS
 62
     6
 10
211.271556
 20
208.968239
 11
211.357216
 21
209.005465
  0
LINE
  8
CSLAYER1
  6
CONTINUOUS
 62
     6
 10
211.357216
 20
209.005465
 11
211.441417
 21
209.041022
  0
LINE
  8
CSLAYER1
  6
CONTINUOUS
 62
     6
 10
211.441417
 20
209.041022
 11
211.523692
 21
209.074566
  0
LINE
  8
CSLAYER1
  6
CONTINUOUS
 62
     6
 10
211.523692
 20
209.074566
 11
211.605916
 21
209.108046
  0
LINE
  8
CSLAYER1
  6
CONTINUOUS
 62
     6
 10
211.605916
 20
209.108046
 11
211.690291
 21
209.143630
  0
LINE
  8
CSLAYER1
  6
CONTINUOUS
 62
     6
 10
211.690291
 20
209.143630
 11
211.776215
 21
209.181047
  0
LINE
  8
CSLAYER1
  6
CONTINUOUS
 62
     6
 10
211.776215
 20
209.181047
 11
211.863084
 21
209.220031
  0
LINE
  8
CSLAYER1
  6
CONTINUOUS
 62
     6
 10
211.863084
 20
209.220031
 11
211.950294
 21
209.260311
  0
LINE
  8
CSLAYER1
  6
CONTINUOUS
 62
     6
 10
211.950294
 20
209.260311
 11
212.037241
 21
209.301619
  0
LINE
  8
CSLAYER1
  6
CONTINUOUS
 62
     6
 10
212.037241
 20
209.301619
 11
212.123322
 21
209.343686
  0
LINE
  8
CSLAYER1
  6
CONTINUOUS
 62
     6
 10
212.123322
 20
209.343686
 11
212.207933
 21
209.386244
  0
LINE
  8
CSLAYER1
  6
CONTINUOUS
 62
     6
 10
212.207933
 20
209.386244
 11
212.290470
 21
209.429023
  0
LINE
  8
CSLAYER1
  6
CONTINUOUS
 62
     6
 10
212.290470
 20
209.429023
 11
212.370330
 21
209.471755
  0
LINE
  8
CSLAYER1
  6
CONTINUOUS
 62
     6
 10
212.370330
 20
209.471755
 11
212.446909
 21
209.514172
  0
LINE
  8
CSLAYER1
  6
CONTINUOUS
 62
     6
 10
212.446909
 20
209.514172
 11
212.520208
 21
209.556165
  0
LINE
  8
CSLAYER1
  6
CONTINUOUS
 62
     6
 10
212.520208
 20
209.556165
 11
212.596249
 21
209.600934
  0
LINE
  8
CSLAYER1
  6
CONTINUOUS
 62
     6
 10
212.596249
 20
209.600934
 11
212.674230
 21
209.647967
  0
LINE
  8
CSLAYER1
  6
CONTINUOUS
 62
     6
 10
212.674230
 20
209.647967
 11
212.753350
 21
209.696750
  0
LINE
  8
CSLAYER1
  6
CONTINUOUS
 62
     6
 10
212.753350
 20
209.696750
 11
212.832809
 21
209.746770
  0
LINE
  8
CSLAYER1
  6
CONTINUOUS
 62
     6
 10
212.832809
 20
209.746770
 11
212.911805
 21
209.797513
  0
LINE
  8
CSLAYER1
  6
CONTINUOUS
 62
     6
 10
212.911805
 20
209.797513
 11
212.989536
 21
209.848466
  0
LINE
  8
CSLAYER1
  6
CONTINUOUS
 62
     6
 10
212.989536
 20
209.848466
 11
213.065203
 21
209.899115
  0
LINE
  8
CSLAYER1
  6
CONTINUOUS
 62
     6
 10
213.065203
 20
209.899115
 11
213.138003
 21
209.948948
  0
LINE
  8
CSLAYER1
  6
CONTINUOUS
 62
     6
 10
213.138003
 20
209.948948
 11
213.207136
 21
209.997451
  0
LINE
  8
CSLAYER1
  6
CONTINUOUS
 62
     6
 10
213.207136
 20
209.997451
 11
213.271800
 21
210.044110
  0
ARC
  8
CSLAYER1
  6
CONTINUOUS
 62
     6
 10
211.885630
 20
211.159100
 40
2.120000
 50
-99.735526
 51
158.085512
  0
ARC
  8
CSLAYER1
  6
CONTINUOUS
 62
     6
 10
211.885630
 20
211.159100
 40
3.710000
 50
-124.666466
 51
179.299504
  0
LINE
  8
CSLAYER1
  6
CONTINUOUS
 62
     6
 10
201.885630
 20
227.236659
 11
198.385630
 21
227.236659
  0
LINE
  8
CSLAYER1
  6
CONTINUOUS
 62
     6
 10
198.385630
 20
227.236659
 11
198.385630
 21
195.081544
  0
LINE
  8
CSLAYER1
  6
CONTINUOUS
 62
     6
 10
198.385630
 20
195.081544
 11
201.885630
 21
195.081544
  0
LINE
  8
CSLAYER1
  6
CONTINUOUS
 62
     6
 10
198.385630
 20
197.159131
 11
191.385630
 21
197.159131
  0
LINE
  8
CSLAYER1
  6
CONTINUOUS
 62
     6
 10
186.385630
 20
198.159100
 11
186.385630
 21
224.159100
  0
LINE
  8
CSLAYER1
  6
CONTINUOUS
 62
     6
 10
186.385630
 20
224.159100
 11
188.185618
 21
224.159100
  0
LINE
  8
CSLAYER1
  6
CONTINUOUS
 62
     6
 10
188.185618
 20
227.236659
 11
191.385630
 21
227.236659
  0
LINE
  8
CSLAYER1
  6
CONTINUOUS
 62
     6
 10
196.885630
 20
226.409184
 11
196.885630
 21
232.409034
  0
LINE
  8
CSLAYER1
  6
CONTINUOUS
 62
     6
 10
196.885630
 20
232.409034
 11
197.385630
 21
232.909034
  0
LINE
  8
CSLAYER1
  6
CONTINUOUS
 62
     6
 10
197.385630
 20
232.909034
 11
201.885630
 21
232.909034
  0
LINE
  8
CSLAYER1
  6
CONTINUOUS
 62
     6
 10
201.885630
 20
236.128963
 11
198.385630
 21
236.128963
  0
LINE
  8
CSLAYER1
  6
CONTINUOUS
 62
     6
 10
198.385630
 20
232.909034
 11
198.385630
 21
243.908153
  0
LINE
  8
CSLAYER1
  6
CONTINUOUS
 62
     6
 10
198.385630
 20
243.908153
 11
201.885630
 21
243.908153
  0
LINE
  8
CSLAYER1
  6
CONTINUOUS
 62
     6
 10
201.885630
 20
244.769008
 11
191.385630
 21
244.769008
  0
LINE
  8
CSLAYER1
  6
CONTINUOUS
 62
     6
 10
185.485667
 20
244.769008
 11
184.985667
 21
244.269008
  0
ARC
  8
CSLAYER1
  6
CONTINUOUS
 62
     6
 10
187.828562
 20
244.233182
 40
2.842214
 50
150.388129
 51
179.476623
  0
LINE
  8
CSLAYER1
  6
CONTINUOUS
 62
     6
 10
185.356028
 20
245.638455
 11
188.185618
 21
245.638424
  0
LINE
  8
CSLAYER1
  6
CONTINUOUS
 62
     6
 10
188.185648
 20
252.659115
 11
191.385661
 21
252.659115
  0
LINE
  8
CSLAYER1
  6
CONTINUOUS
 62
     6
 10
188.185648
 20
251.700650
 11
185.356028
 21
251.700650
  0
LINE
  8
CSLAYER1
  6
CONTINUOUS
 62
     6
 10
185.356028
 20
251.700650
 11
184.985667
 21
251.059170
  0
LINE
  8
CSLAYER1
  6
CONTINUOUS
 62
     6
 10
184.985667
 20
251.059170
 11
184.985667
 21
241.269008
  0
LINE
  8
CSLAYER1
  6
CONTINUOUS
 62
     6
 10
184.985667
 20
241.269008
 11
185.485667
 21
240.769008
  0
LINE
  8
CSLAYER1
  6
CONTINUOUS
 62
     6
 10
185.485667
 20
240.769008
 11
188.185618
 21
240.769008
  0
LINE
  8
CSLAYER1
  6
CONTINUOUS
 62
     6
 10
198.385630
 20
244.769008
 11
198.385630
 21
249.805002
  0
LINE
  8
CSLAYER1
  6
CONTINUOUS
 62
     6
 10
198.385630
 20
249.805002
 11
201.885630
 21
249.805002
  0
LINE
  8
CSLAYER1
  6
CONTINUOUS
 62
     6
 10
201.885630
 20
251.659115
 11
191.385630
 21
251.659115
  0
LINE
  8
CSLAYER1
  6
CONTINUOUS
 62
     6
 10
188.185618
 20
249.679867
 11
185.356028
 21
249.679867
  0
ARC
  8
CSLAYER1
  6
CONTINUOUS
 62
     6
 10
190.681925
 20
247.657956
 40
5.696063
 50
159.211278
 51
200.765787
  0
LINE
  8
CSLAYER1
  6
CONTINUOUS
 62
     6
 10
184.985667
 20
245.659085
 11
182.685648
 21
245.659085
  0
LINE
  8
CSLAYER1
  6
CONTINUOUS
 62
     6
 10
182.685648
 20
245.659085
 11
182.685648
 21
249.659085
  0
LINE
  8
CSLAYER1
  6
CONTINUOUS
 62
     6
 10
182.685648
 20
249.659085
 11
184.985667
 21
249.659085
  0
ARC
  8
CSLAYER1
  6
CONTINUOUS
 62
     6
 10
187.828562
 20
251.085141
 40
2.842214
 50
180.523417
 51
209.611854
  0
LINE
  8
CSLAYER1
  6
CONTINUOUS
 62
     6
 10
182.685648
 20
249.659085
 11
181.885630
 21
248.859097
  0
LINE
  8
CSLAYER1
  6
CONTINUOUS
 62
     6
 10
181.885630
 20
248.859097
 11
181.885630
 21
246.459103
  0
LINE
  8
CSLAYER1
  6
CONTINUOUS
 62
     6
 10
181.885630
 20
246.459103
 11
182.685648
 21
245.659085
  0
LINE
  8
CSLAYER1
  6
CONTINUOUS
 62
     6
 10
188.185618
 20
252.659115
 11
188.185618
 21
169.659100
  0
LINE
  8
CSLAYER1
  6
CONTINUOUS
 62
     6
 10
188.185618
 20
169.659100
 11
191.385630
 21
169.659100
  0
LINE
  8
CSLAYER1
  6
CONTINUOUS
 62
     6
 10
191.385630
 20
169.659100
 11
191.385630
 21
252.659115
  0
LINE
  8
CSLAYER1
  6
CONTINUOUS
 62
     6
 10
191.385630
 20
236.128963
 11
188.185618
 21
236.128963
  0
LINE
  8
CSLAYER1
  6
CONTINUOUS
 62
     6
 10
196.885630
 20
226.409169
 11
197.385630
 21
225.909169
  0
LINE
  8
CSLAYER1
  6
CONTINUOUS
 62
     6
 10
197.385630
 20
225.909169
 11
198.385630
 21
225.909169
  0
LINE
  8
CSLAYER1
  6
CONTINUOUS
 62
     6
 10
198.385630
 20
251.659115
 11
198.385630
 21
252.659115
  0
LINE
  8
CSLAYER1
  6
CONTINUOUS
 62
     6
 10
198.385630
 20
252.659115
 11
221.885661
 21
252.659115
  0
LINE
  8
CSLAYER1
  6
CONTINUOUS
 62
     6
 10
221.885631
 20
254.159108
 11
222.885631
 21
255.159108
  0
LINE
  8
CSLAYER1
  6
CONTINUOUS
 62
     6
 10
222.885631
 20
255.159108
 11
234.360087
 21
255.159108
  0
ARC
  8
CSLAYER1
  6
CONTINUOUS
 62
     6
 10
235.786052
 20
255.159108
 40
1.000000
 50
90.000003
 51
173.999998
  0
LINE
  8
CSLAYER1
  6
CONTINUOUS
 62
     6
 10
235.786052
 20
256.159108
 11
271.985210
 21
256.159108
  0
ARC
  8
CSLAYER1
  6
CONTINUOUS
 62
     6
 10
271.985210
 20
255.159108
 40
1.000000
 50
6.000003
 51
90.000016
  0
LINE
  8
CSLAYER1
  6
CONTINUOUS
 62
     6
 10
272.979777
 20
255.263600
 11
273.677409
 21
248.626149
  0
ARC
  8
CSLAYER1
  6
CONTINUOUS
 62
     6
 10
274.671916
 20
248.730641
 40
1.000000
 50
186.000026
 51
270.000001
  0
ARC
  8
CSLAYER1
  6
CONTINUOUS
 62
     6
 10
274.622295
 20
253.202931
 40
1.000000
 50
186.000026
 51
270.000001
  0
LINE
  8
CSLAYER1
  6
CONTINUOUS
 62
     6
 10
273.627727
 20
253.098378
 11
272.979777
 21
259.263600
  0
ARC
  8
CSLAYER1
  6
CONTINUOUS
 62
     6
 10
271.985210
 20
259.159108
 40
1.000000
 50
6.000003
 51
90.000016
  0
LINE
  8
CSLAYER1
  6
CONTINUOUS
 62
     6
 10
271.985210
 20
260.159108
 11
235.786052
 21
260.159108
  0
ARC
  8
CSLAYER1
  6
CONTINUOUS
 62
     6
 10
235.786052
 20
259.159108
 40
1.000000
 50
90.000003
 51
173.999998
  0
LINE
  8
CSLAYER1
  6
CONTINUOUS
 62
     6
 10
234.791545
 20
259.263600
 11
234.143535
 21
253.098378
  0
ARC
  8
CSLAYER1
  6
CONTINUOUS
 62
     6
 10
233.149028
 20
253.202931
 40
1.000000
 50
270.000001
 51
353.999989
  0
LINE
  8
CSLAYER1
  6
CONTINUOUS
 62
     6
 10
234.791545
 20
255.263600
 11
234.093913
 21
248.626149
  0
ARC
  8
CSLAYER1
  6
CONTINUOUS
 62
     6
 10
233.099345
 20
248.730641
 40
1.000000
 50
270.000001
 51
353.999989
  0
LINE
  8
CSLAYER1
  6
CONTINUOUS
 62
     6
 10
237.571635
 20
247.552296
 11
269.528728
 21
247.552296
  0
LINE
  8
CSLAYER1
  6
CONTINUOUS
 62
     6
 10
273.410625
 20
255.159108
 11
274.885661
 21
255.159108
  0
LINE
  8
CSLAYER1
  6
CONTINUOUS
 62
     6
 10
249.322171
 20
227.623243
 11
249.322171
 21
227.032139
  0
ARC
  8
CSLAYER1
  6
CONTINUOUS
 62
     6
 10
249.758684
 20
227.032139
 40
0.436508
 50
180.000010
 51
270.000016
  0
LINE
  8
CSLAYER1
  6
CONTINUOUS
 62
     6
 10
249.758684
 20
226.595649
 11
250.349743
 21
226.595649
  0
ARC
  8
CSLAYER1
  6
CONTINUOUS
 62
     6
 10
248.885658
 20
226.159135
 40
1.527778
 50
-16.601562
 51
16.601572
  0
LINE
  8
CSLAYER1
  6
CONTINUOUS
 62
     6
 10
250.349743
 20
225.722622
 11
249.758684
 21
225.722622
  0
ARC
  8
CSLAYER1
  6
CONTINUOUS
 62
     6
 10
249.758684
 20
225.286131
 40
0.436508
 50
90.000001
 51
179.942691
  0
LINE
  8
CSLAYER1
  6
CONTINUOUS
 62
     6
 10
249.322171
 20
225.286131
 11
249.322171
 21
224.695027
  0
ARC
  8
CSLAYER1
  6
CONTINUOUS
 62
     6
 10
248.885658
 20
226.159135
 40
1.527778
 50
253.398422
 51
286.601583
  0
LINE
  8
CSLAYER1
  6
CONTINUOUS
 62
     6
 10
248.449144
 20
224.695027
 11
248.449144
 21
225.286131
  0
ARC
  8
CSLAYER1
  6
CONTINUOUS
 62
     6
 10
248.012631
 20
225.286131
 40
0.436508
 50
0.000005
 51
89.942654
  0
LINE
  8
CSLAYER1
  6
CONTINUOUS
 62
     6
 10
248.012631
 20
225.722622
 11
247.421572
 21
225.722622
  0
ARC
  8
CSLAYER1
  6
CONTINUOUS
 62
     6
 10
248.885658
 20
226.159135
 40
1.527778
 50
163.398416
 51
196.601577
  0
LINE
  8
CSLAYER1
  6
CONTINUOUS
 62
     6
 10
247.421572
 20
226.595649
 11
248.012631
 21
226.595649
  0
ARC
  8
CSLAYER1
  6
CONTINUOUS
 62
     6
 10
248.012631
 20
227.032139
 40
0.436508
 50
-89.999984
 51
0.000005
  0
LINE
  8
CSLAYER1
  6
CONTINUOUS
 62
     6
 10
248.449144
 20
227.032139
 11
248.449144
 21
227.623243
  0
ARC
  8
CSLAYER1
  6
CONTINUOUS
 62
     6
 10
248.885658
 20
226.159135
 40
1.527778
 50
73.398406
 51
106.601595
  0
CIRCLE
  8
CSLAYER1
  6
CONTINUOUS
 62
     6
 10
248.885668
 20
226.159135
 40
2.750000
  0
LINE
  8
CSLAYER1
  6
CONTINUOUS
 62
     6
 10
201.885630
 20
252.206519
 11
198.385630
 21
252.206519
  0
LINE
  8
CSLAYER1
  6
CONTINUOUS
 62
     6
 10
201.885630
 20
252.659115
 11
201.885630
 21
169.659131
  0
LINE
  8
CSLAYER1
  6
CONTINUOUS
 62
     6
 10
198.385630
 20
171.159144
 11
197.385630
 21
171.159144
  0
LINE
  8
CSLAYER1
  6
CONTINUOUS
 62
     6
 10
197.385630
 20
171.159144
 11
196.885630
 21
171.659144
  0
LINE
  8
CSLAYER1
  6
CONTINUOUS
 62
     6
 10
196.885630
 20
171.659159
 11
196.885630
 21
177.659009
  0
LINE
  8
CSLAYER1
  6
CONTINUOUS
 62
     6
 10
196.885630
 20
177.659009
 11
197.385630
 21
178.159009
  0
LINE
  8
CSLAYER1
  6
CONTINUOUS
 62
     6
 10
197.385630
 20
178.159009
 11
198.385630
 21
178.159009
  0
LINE
  8
CSLAYER1
  6
CONTINUOUS
 62
     6
 10
196.885630
 20
177.549144
 11
191.385630
 21
177.549144
  0
LINE
  8
CSLAYER1
  6
CONTINUOUS
 62
     6
 10
191.385630
 20
178.410030
 11
188.185618
 21
178.410030
  0
LINE
  8
CSLAYER1
  6
CONTINUOUS
 62
     6
 10
188.185618
 20
177.549144
 11
185.485667
 21
177.549144
  0
LINE
  8
CSLAYER1
  6
CONTINUOUS
 62
     6
 10
185.485667
 20
177.549144
 11
184.985667
 21
178.049144
  0
LINE
  8
CSLAYER1
  6
CONTINUOUS
 62
     6
 10
184.985667
 20
178.049144
 11
184.985667
 21
181.049144
  0
LINE
  8
CSLAYER1
  6
CONTINUOUS
 62
     6
 10
184.985667
 20
181.049144
 11
185.485667
 21
181.549144
  0
LINE
  8
CSLAYER1
  6
CONTINUOUS
 62
     6
 10
185.485667
 20
181.549144
 11
188.185618
 21
181.549144
  0
LINE
  8
CSLAYER1
  6
CONTINUOUS
 62
     6
 10
191.385630
 20
181.159123
 11
198.385630
 21
181.159123
  0
LINE
  8
CSLAYER1
  6
CONTINUOUS
 62
     6
 10
191.385630
 20
172.513188
 11
188.185618
 21
172.513188
  0
LINE
  8
CSLAYER1
  6
CONTINUOUS
 62
     6
 10
204.570078
 20
202.644208
 11
204.408832
 21
204.430459
  0
LINE
  8
CSLAYER1
  6
CONTINUOUS
 62
     6
 10
204.757468
 20
204.501110
 11
205.124705
 21
202.629651
  0
LINE
  8
CSLAYER1
  6
CONTINUOUS
 62
     6
 10
205.597422
 20
202.726391
 11
205.144906
 21
204.440564
  0
ARC
  8
CSLAYER1
  6
CONTINUOUS
 62
     6
 10
204.429256
 20
205.225196
 40
0.794999
 50
240.461270
 51
300.461270
  0
LINE
  8
CSLAYER1
  6
CONTINUOUS
 62
     6
 10
204.037302
 20
204.533520
 11
204.032030
 21
204.637314
  0
LINE
  8
CSLAYER1
  6
CONTINUOUS
 62
     6
 10
204.032030
 20
204.637314
 11
204.026980
 21
204.741106
  0
LINE
  8
CSLAYER1
  6
CONTINUOUS
 62
     6
 10
204.026980
 20
204.741106
 11
204.022374
 21
204.844896
  0
LINE
  8
CSLAYER1
  6
CONTINUOUS
 62
     6
 10
204.022374
 20
204.844896
 11
204.018434
 21
204.948682
  0
LINE
  8
CSLAYER1
  6
CONTINUOUS
 62
     6
 10
204.018434
 20
204.948682
 11
204.015382
 21
205.052461
  0
LINE
  8
CSLAYER1
  6
CONTINUOUS
 62
     6
 10
204.015382
 20
205.052461
 11
204.013440
 21
205.156234
  0
LINE
  8
CSLAYER1
  6
CONTINUOUS
 62
     6
 10
204.013440
 20
205.156234
 11
204.012830
 21
205.259998
  0
LINE
  8
CSLAYER1
  6
CONTINUOUS
 62
     6
 10
204.012830
 20
205.259998
 11
204.013773
 21
205.363752
  0
LINE
  8
CSLAYER1
  6
CONTINUOUS
 62
     6
 10
204.013773
 20
205.363752
 11
204.016493
 21
205.467494
  0
LINE
  8
CSLAYER1
  6
CONTINUOUS
 62
     6
 10
204.016493
 20
205.467494
 11
204.021210
 21
205.571224
  0
LINE
  8
CSLAYER1
  6
CONTINUOUS
 62
     6
 10
204.021210
 20
205.571224
 11
204.028147
 21
205.674939
  0
LINE
  8
CSLAYER1
  6
CONTINUOUS
 62
     6
 10
204.028147
 20
205.674939
 11
204.037285
 21
205.777514
  0
LINE
  8
CSLAYER1
  6
CONTINUOUS
 62
     6
 10
204.037285
 20
205.777514
 11
204.048772
 21
205.880992
  0
LINE
  8
CSLAYER1
  6
CONTINUOUS
 62
     6
 10
204.048772
 20
205.880992
 11
204.062668
 21
205.984879
  0
LINE
  8
CSLAYER1
  6
CONTINUOUS
 62
     6
 10
204.062668
 20
205.984879
 11
204.079035
 21
206.088679
  0
LINE
  8
CSLAYER1
  6
CONTINUOUS
 62
     6
 10
204.079035
 20
206.088679
 11
204.097933
 21
206.191897
  0
LINE
  8
CSLAYER1
  6
CONTINUOUS
 62
     6
 10
204.097933
 20
206.191897
 11
204.119423
 21
206.294036
  0
LINE
  8
CSLAYER1
  6
CONTINUOUS
 62
     6
 10
204.119423
 20
206.294036
 11
204.143567
 21
206.394603
  0
LINE
  8
CSLAYER1
  6
CONTINUOUS
 62
     6
 10
204.143567
 20
206.394603
 11
204.170425
 21
206.493100
  0
LINE
  8
CSLAYER1
  6
CONTINUOUS
 62
     6
 10
204.170425
 20
206.493100
 11
204.200058
 21
206.589032
  0
LINE
  8
CSLAYER1
  6
CONTINUOUS
 62
     6
 10
204.200058
 20
206.589032
 11
204.232527
 21
206.681905
  0
LINE
  8
CSLAYER1
  6
CONTINUOUS
 62
     6
 10
204.232527
 20
206.681905
 11
204.267893
 21
206.771222
  0
LINE
  8
CSLAYER1
  6
CONTINUOUS
 62
     6
 10
204.267893
 20
206.771222
 11
204.306041
 21
206.860386
  0
LINE
  8
CSLAYER1
  6
CONTINUOUS
 62
     6
 10
204.306041
 20
206.860386
 11
204.346762
 21
206.952803
  0
LINE
  8
CSLAYER1
  6
CONTINUOUS
 62
     6
 10
204.346762
 20
206.952803
 11
204.389765
 21
207.047479
  0
LINE
  8
CSLAYER1
  6
CONTINUOUS
 62
     6
 10
204.389765
 20
207.047479
 11
204.434758
 21
207.143418
  0
LINE
  8
CSLAYER1
  6
CONTINUOUS
 62
     6
 10
204.434758
 20
207.143418
 11
204.481450
 21
207.239627
  0
LINE
  8
CSLAYER1
  6
CONTINUOUS
 62
     6
 10
204.481450
 20
207.239627
 11
204.529549
 21
207.335110
  0
LINE
  8
CSLAYER1
  6
CONTINUOUS
 62
     6
 10
204.529549
 20
207.335110
 11
204.578764
 21
207.428873
  0
LINE
  8
CSLAYER1
  6
CONTINUOUS
 62
     6
 10
204.578764
 20
207.428873
 11
204.628804
 21
207.519921
  0
LINE
  8
CSLAYER1
  6
CONTINUOUS
 62
     6
 10
204.628804
 20
207.519921
 11
204.679377
 21
207.607259
  0
LINE
  8
CSLAYER1
  6
CONTINUOUS
 62
     6
 10
204.679377
 20
207.607259
 11
204.730191
 21
207.689892
  0
LINE
  8
CSLAYER1
  6
CONTINUOUS
 62
     6
 10
204.730191
 20
207.689892
 11
204.780955
 21
207.766827
  0
ARC
  8
CSLAYER1
  6
CONTINUOUS
 62
     6
 10
204.818946
 20
206.972727
 40
0.794999
 50
32.735346
 51
92.735346
  0
ARC
  8
CSLAYER1
  6
CONTINUOUS
 62
     6
 10
205.449742
 20
208.196723
 40
0.794999
 50
212.735346
 51
272.735346
  0
ARC
  8
CSLAYER1
  6
CONTINUOUS
 62
     6
 10
205.525621
 20
206.608537
 40
0.794999
 50
32.735346
 51
92.735346
  0
LINE
  8
CSLAYER1
  6
CONTINUOUS
 62
     6
 10
206.194346
 20
207.038403
 11
206.152687
 21
206.976857
  0
LINE
  8
CSLAYER1
  6
CONTINUOUS
 62
     6
 10
206.152687
 20
206.976857
 11
206.110938
 21
206.910354
  0
LINE
  8
CSLAYER1
  6
CONTINUOUS
 62
     6
 10
206.110938
 20
206.910354
 11
206.069375
 21
206.839740
  0
LINE
  8
CSLAYER1
  6
CONTINUOUS
 62
     6
 10
206.069375
 20
206.839740
 11
206.028275
 21
206.765857
  0
LINE
  8
CSLAYER1
  6
CONTINUOUS
 62
     6
 10
206.028275
 20
206.765857
 11
205.987913
 21
206.689549
  0
LINE
  8
CSLAYER1
  6
CONTINUOUS
 62
     6
 10
205.987913
 20
206.689549
 11
205.948565
 21
206.611660
  0
LINE
  8
CSLAYER1
  6
CONTINUOUS
 62
     6
 10
205.948565
 20
206.611660
 11
205.910506
 21
206.533034
  0
LINE
  8
CSLAYER1
  6
CONTINUOUS
 62
     6
 10
205.910506
 20
206.533034
 11
205.874012
 21
206.454516
  0
LINE
  8
CSLAYER1
  6
CONTINUOUS
 62
     6
 10
205.874012
 20
206.454516
 11
205.839360
 21
206.376948
  0
LINE
  8
CSLAYER1
  6
CONTINUOUS
 62
     6
 10
205.839360
 20
206.376948
 11
205.806825
 21
206.301174
  0
LINE
  8
CSLAYER1
  6
CONTINUOUS
 62
     6
 10
205.806825
 20
206.301174
 11
205.776682
 21
206.228039
  0
LINE
  8
CSLAYER1
  6
CONTINUOUS
 62
     6
 10
205.776682
 20
206.228039
 11
205.754287
 21
206.169116
  0
LINE
  8
CSLAYER1
  6
CONTINUOUS
 62
     6
 10
205.754287
 20
206.169116
 11
205.733636
 21
206.107990
  0
LINE
  8
CSLAYER1
  6
CONTINUOUS
 62
     6
 10
205.733636
 20
206.107990
 11
205.714688
 21
206.044968
  0
LINE
  8
CSLAYER1
  6
CONTINUOUS
 62
     6
 10
205.714688
 20
206.044968
 11
205.697403
 21
205.980358
  0
LINE
  8
CSLAYER1
  6
CONTINUOUS
 62
     6
 10
205.697403
 20
205.980358
 11
205.681740
 21
205.914466
  0
LINE
  8
CSLAYER1
  6
CONTINUOUS
 62
     6
 10
205.681740
 20
205.914466
 11
205.667657
 21
205.847601
  0
LINE
  8
CSLAYER1
  6
CONTINUOUS
 62
     6
 10
205.667657
 20
205.847601
 11
205.655113
 21
205.780071
  0
LINE
  8
CSLAYER1
  6
CONTINUOUS
 62
     6
 10
205.655113
 20
205.780071
 11
205.644069
 21
205.712182
  0
LINE
  8
CSLAYER1
  6
CONTINUOUS
 62
     6
 10
205.644069
 20
205.712182
 11
205.634482
 21
205.644243
  0
LINE
  8
CSLAYER1
  6
CONTINUOUS
 62
     6
 10
205.634482
 20
205.644243
 11
205.626312
 21
205.576560
  0
LINE
  8
CSLAYER1
  6
CONTINUOUS
 62
     6
 10
205.626312
 20
205.576560
 11
205.619517
 21
205.509442
  0
LINE
  8
CSLAYER1
  6
CONTINUOUS
 62
     6
 10
205.619517
 20
205.509442
 11
205.612656
 21
205.422038
  0
LINE
  8
CSLAYER1
  6
CONTINUOUS
 62
     6
 10
205.612656
 20
205.422038
 11
205.607957
 21
205.334591
  0
LINE
  8
CSLAYER1
  6
CONTINUOUS
 62
     6
 10
205.607957
 20
205.334591
 11
205.605203
 21
205.247104
  0
LINE
  8
CSLAYER1
  6
CONTINUOUS
 62
     6
 10
205.605203
 20
205.247104
 11
205.604178
 21
205.159581
  0
LINE
  8
CSLAYER1
  6
CONTINUOUS
 62
     6
 10
205.604178
 20
205.159581
 11
205.604667
 21
205.072028
  0
LINE
  8
CSLAYER1
  6
CONTINUOUS
 62
     6
 10
205.604667
 20
205.072028
 11
205.606452
 21
204.984448
  0
LINE
  8
CSLAYER1
  6
CONTINUOUS
 62
     6
 10
205.606452
 20
204.984448
 11
205.609319
 21
204.896846
  0
LINE
  8
CSLAYER1
  6
CONTINUOUS
 62
     6
 10
205.609319
 20
204.896846
 11
205.613049
 21
204.809227
  0
LINE
  8
CSLAYER1
  6
CONTINUOUS
 62
     6
 10
205.613049
 20
204.809227
 11
205.617429
 21
204.721594
  0
LINE
  8
CSLAYER1
  6
CONTINUOUS
 62
     6
 10
205.617429
 20
204.721594
 11
205.622240
 21
204.633953
  0
LINE
  8
CSLAYER1
  6
CONTINUOUS
 62
     6
 10
205.622240
 20
204.633953
 11
205.627268
 21
204.546307
  0
ARC
  8
CSLAYER1
  6
CONTINUOUS
 62
     6
 10
205.224229
 20
205.231596
 40
0.794999
 50
240.461270
 51
300.461270
  0
ARC
  8
CSLAYER1
  6
CONTINUOUS
 62
     6
 10
205.235315
 20
203.854662
 40
0.794999
 50
60.461270
 51
120.461270
  0
LINE
  8
CSLAYER1
  6
CONTINUOUS
 62
     6
 10
206.497861
 20
204.648630
 11
206.507034
 21
204.562951
  0
LINE
  8
CSLAYER1
  6
CONTINUOUS
 62
     6
 10
206.507034
 20
204.562951
 11
206.518570
 21
204.476541
  0
LINE
  8
CSLAYER1
  6
CONTINUOUS
 62
     6
 10
206.518570
 20
204.476541
 11
206.532091
 21
204.389761
  0
LINE
  8
CSLAYER1
  6
CONTINUOUS
 62
     6
 10
206.532091
 20
204.389761
 11
206.547216
 21
204.302971
  0
LINE
  8
CSLAYER1
  6
CONTINUOUS
 62
     6
 10
206.547216
 20
204.302971
 11
206.563566
 21
204.216533
  0
LINE
  8
CSLAYER1
  6
CONTINUOUS
 62
     6
 10
206.563566
 20
204.216533
 11
206.580764
 21
204.130807
  0
LINE
  8
CSLAYER1
  6
CONTINUOUS
 62
     6
 10
206.580764
 20
204.130807
 11
206.598429
 21
204.046155
  0
LINE
  8
CSLAYER1
  6
CONTINUOUS
 62
     6
 10
206.598429
 20
204.046155
 11
206.615176
 21
203.967851
  0
LINE
  8
CSLAYER1
  6
CONTINUOUS
 62
     6
 10
206.615176
 20
203.967851
 11
206.632208
 21
203.889777
  0
LINE
  8
CSLAYER1
  6
CONTINUOUS
 62
     6
 10
206.632208
 20
203.889777
 11
206.649498
 21
203.811909
  0
LINE
  8
CSLAYER1
  6
CONTINUOUS
 62
     6
 10
206.649498
 20
203.811909
 11
206.667017
 21
203.734225
  0
LINE
  8
CSLAYER1
  6
CONTINUOUS
 62
     6
 10
206.667017
 20
203.734225
 11
206.684736
 21
203.656701
  0
LINE
  8
CSLAYER1
  6
CONTINUOUS
 62
     6
 10
206.684736
 20
203.656701
 11
206.702626
 21
203.579315
  0
LINE
  8
CSLAYER1
  6
CONTINUOUS
 62
     6
 10
206.702626
 20
203.579315
 11
206.720659
 21
203.502044
  0
LINE
  8
CSLAYER1
  6
CONTINUOUS
 62
     6
 10
206.720659
 20
203.502044
 11
206.738807
 21
203.424864
  0
LINE
  8
CSLAYER1
  6
CONTINUOUS
 62
     6
 10
206.738807
 20
203.424864
 11
206.757040
 21
203.347753
  0
LINE
  8
CSLAYER1
  6
CONTINUOUS
 62
     6
 10
206.757040
 20
203.347753
 11
206.775331
 21
203.270688
  0
LINE
  8
CSLAYER1
  6
CONTINUOUS
 62
     6
 10
206.775331
 20
203.270688
 11
206.793650
 21
203.193646
  0
ARC
  8
CSLAYER1
  6
CONTINUOUS
 62
     6
 10
207.027439
 20
203.953505
 40
0.795000
 50
252.897147
 51
312.897147
  0
ARC
  8
CSLAYER1
  6
CONTINUOUS
 62
     6
 10
208.109727
 20
202.788707
 40
0.795000
 50
72.897147
 51
132.897147
  0
ARC
  8
CSLAYER1
  6
CONTINUOUS
 62
     6
 10
207.802383
 20
204.130950
 40
0.795000
 50
252.897147
 51
312.897147
  0
LINE
  8
CSLAYER1
  6
CONTINUOUS
 62
     6
 10
207.528261
 20
203.336089
 11
207.967661
 21
201.733838
  0
LINE
  8
CSLAYER1
  6
CONTINUOUS
 62
     6
 10
207.499949
 20
201.780987
 11
207.213529
 21
203.180591
  0
LINE
  8
CSLAYER1
  6
CONTINUOUS
 62
     6
 10
207.976264
 20
203.355198
 11
208.463267
 21
201.790936
  0
LINE
  8
CSLAYER1
  6
CONTINUOUS
 62
     6
 10
208.343516
 20
203.548535
 11
208.326887
 21
203.617690
  0
LINE
  8
CSLAYER1
  6
CONTINUOUS
 62
     6
 10
208.326887
 20
203.617690
 11
208.310291
 21
203.686869
  0
LINE
  8
CSLAYER1
  6
CONTINUOUS
 62
     6
 10
208.310291
 20
203.686869
 11
208.293764
 21
203.756095
  0
LINE
  8
CSLAYER1
  6
CONTINUOUS
 62
     6
 10
208.293764
 20
203.756095
 11
208.277340
 21
203.825393
  0
LINE
  8
CSLAYER1
  6
CONTINUOUS
 62
     6
 10
208.277340
 20
203.825393
 11
208.261053
 21
203.894786
  0
LINE
  8
CSLAYER1
  6
CONTINUOUS
 62
     6
 10
208.261053
 20
203.894786
 11
208.244938
 21
203.964297
  0
LINE
  8
CSLAYER1
  6
CONTINUOUS
 62
     6
 10
208.244938
 20
203.964297
 11
208.229028
 21
204.033951
  0
LINE
  8
CSLAYER1
  6
CONTINUOUS
 62
     6
 10
208.229028
 20
204.033951
 11
208.213358
 21
204.103771
  0
LINE
  8
CSLAYER1
  6
CONTINUOUS
 62
     6
 10
208.213358
 20
204.103771
 11
208.197963
 21
204.173780
  0
LINE
  8
CSLAYER1
  6
CONTINUOUS
 62
     6
 10
208.197963
 20
204.173780
 11
208.182875
 21
204.244004
  0
LINE
  8
CSLAYER1
  6
CONTINUOUS
 62
     6
 10
208.182875
 20
204.244004
 11
208.168131
 21
204.314465
  0
LINE
  8
CSLAYER1
  6
CONTINUOUS
 62
     6
 10
208.168131
 20
204.314465
 11
208.157190
 21
204.368197
  0
LINE
  8
CSLAYER1
  6
CONTINUOUS
 62
     6
 10
208.157190
 20
204.368197
 11
208.146535
 21
204.422521
  0
LINE
  8
CSLAYER1
  6
CONTINUOUS
 62
     6
 10
208.146535
 20
204.422521
 11
208.136394
 21
204.477233
  0
LINE
  8
CSLAYER1
  6
CONTINUOUS
 62
     6
 10
208.136394
 20
204.477233
 11
208.126991
 21
204.532133
  0
LINE
  8
CSLAYER1
  6
CONTINUOUS
 62
     6
 10
208.126991
 20
204.532133
 11
208.118555
 21
204.587019
  0
LINE
  8
CSLAYER1
  6
CONTINUOUS
 62
     6
 10
208.118555
 20
204.587019
 11
208.111309
 21
204.641689
  0
LINE
  8
CSLAYER1
  6
CONTINUOUS
 62
     6
 10
208.111309
 20
204.641689
 11
208.105482
 21
204.695941
  0
LINE
  8
CSLAYER1
  6
CONTINUOUS
 62
     6
 10
208.105482
 20
204.695941
 11
208.101298
 21
204.749573
  0
LINE
  8
CSLAYER1
  6
CONTINUOUS
 62
     6
 10
208.101298
 20
204.749573
 11
208.098984
 21
204.802384
  0
LINE
  8
CSLAYER1
  6
CONTINUOUS
 62
     6
 10
208.098984
 20
204.802384
 11
208.098767
 21
204.854172
  0
LINE
  8
CSLAYER1
  6
CONTINUOUS
 62
     6
 10
208.098767
 20
204.854172
 11
208.100871
 21
204.904736
  0
LINE
  8
CSLAYER1
  6
CONTINUOUS
 62
     6
 10
208.100871
 20
204.904736
 11
208.105143
 21
204.957006
  0
LINE
  8
CSLAYER1
  6
CONTINUOUS
 62
     6
 10
208.105143
 20
204.957006
 11
208.111059
 21
205.011323
  0
LINE
  8
CSLAYER1
  6
CONTINUOUS
 62
     6
 10
208.111059
 20
205.011323
 11
208.118529
 21
205.067129
  0
LINE
  8
CSLAYER1
  6
CONTINUOUS
 62
     6
 10
208.118529
 20
205.067129
 11
208.127464
 21
205.123868
  0
LINE
  8
CSLAYER1
  6
CONTINUOUS
 62
     6
 10
208.127464
 20
205.123868
 11
208.137775
 21
205.180982
  0
LINE
  8
CSLAYER1
  6
CONTINUOUS
 62
     6
 10
208.137775
 20
205.180982
 11
208.149372
 21
205.237915
  0
LINE
  8
CSLAYER1
  6
CONTINUOUS
 62
     6
 10
208.149372
 20
205.237915
 11
208.162166
 21
205.294108
  0
LINE
  8
CSLAYER1
  6
CONTINUOUS
 62
     6
 10
208.162166
 20
205.294108
 11
208.176067
 21
205.349005
  0
LINE
  8
CSLAYER1
  6
CONTINUOUS
 62
     6
 10
208.176067
 20
205.349005
 11
208.190987
 21
205.402049
  0
LINE
  8
CSLAYER1
  6
CONTINUOUS
 62
     6
 10
208.190987
 20
205.402049
 11
208.206834
 21
205.452682
  0
LINE
  8
CSLAYER1
  6
CONTINUOUS
 62
     6
 10
208.206834
 20
205.452682
 11
208.223521
 21
205.500348
  0
ARC
  8
CSLAYER1
  6
CONTINUOUS
 62
     6
 10
207.695330
 20
204.906122
 40
0.795000
 50
48.366208
 51
108.366208
  0
ARC
  8
CSLAYER1
  6
CONTINUOUS
 62
     6
 10
207.194338
 20
206.415130
 40
0.795000
 50
228.366208
 51
288.366208
  0
ARC
  8
CSLAYER1
  6
CONTINUOUS
 62
     6
 10
206.916662
 20
205.066438
 40
0.795000
 50
48.366208
 51
108.366208
  0
LINE
  8
CSLAYER1
  6
CONTINUOUS
 62
     6
 10
206.666148
 20
205.820965
 11
206.642887
 21
205.752921
  0
LINE
  8
CSLAYER1
  6
CONTINUOUS
 62
     6
 10
206.642887
 20
205.752921
 11
206.620801
 21
205.680750
  0
LINE
  8
CSLAYER1
  6
CONTINUOUS
 62
     6
 10
206.620801
 20
205.680750
 11
206.599996
 21
205.605247
  0
LINE
  8
CSLAYER1
  6
CONTINUOUS
 62
     6
 10
206.599996
 20
205.605247
 11
206.580578
 21
205.527209
  0
LINE
  8
CSLAYER1
  6
CONTINUOUS
 62
     6
 10
206.580578
 20
205.527209
 11
206.562654
 21
205.447431
  0
LINE
  8
CSLAYER1
  6
CONTINUOUS
 62
     6
 10
206.562654
 20
205.447431
 11
206.546327
 21
205.366709
  0
LINE
  8
CSLAYER1
  6
CONTINUOUS
 62
     6
 10
206.546327
 20
205.366709
 11
206.531706
 21
205.285841
  0
LINE
  8
CSLAYER1
  6
CONTINUOUS
 62
     6
 10
206.531706
 20
205.285841
 11
206.518894
 21
205.205622
  0
LINE
  8
CSLAYER1
  6
CONTINUOUS
 62
     6
 10
206.518894
 20
205.205622
 11
206.507999
 21
205.126848
  0
LINE
  8
CSLAYER1
  6
CONTINUOUS
 62
     6
 10
206.507999
 20
205.126848
 11
206.499126
 21
205.050315
  0
LINE
  8
CSLAYER1
  6
CONTINUOUS
 62
     6
 10
206.499126
 20
205.050315
 11
206.492381
 21
204.976819
  0
LINE
  8
CSLAYER1
  6
CONTINUOUS
 62
     6
 10
206.492381
 20
204.976819
 11
206.488311
 21
204.897673
  0
LINE
  8
CSLAYER1
  6
CONTINUOUS
 62
     6
 10
206.488311
 20
204.897673
 11
206.488120
 21
204.816352
  0
LINE
  8
CSLAYER1
  6
CONTINUOUS
 62
     6
 10
206.488120
 20
204.816352
 11
206.491430
 21
204.733217
  0
LINE
  8
CSLAYER1
  6
CONTINUOUS
 62
     6
 10
206.491430
 20
204.733217
 11
206.497861
 21
204.648630
  0
LINE
  8
CSLAYER1
  6
CONTINUOUS
 62
     6
 10
208.672678
 20
209.304089
 11
208.513346
 21
209.580121
  0
LINE
  8
CSLAYER1
  6
CONTINUOUS
 62
     6
 10
222.899036
 20
204.147129
 11
224.320700
 21
207.218002
  0
LINE
  8
CSLAYER1
  6
CONTINUOUS
 62
     6
 10
227.940017
 20
205.603713
 11
228.009308
 21
205.747996
  0
LINE
  8
CSLAYER1
  6
CONTINUOUS
 62
     6
 10
228.009308
 20
205.747996
 11
228.082329
 21
205.886961
  0
LINE
  8
CSLAYER1
  6
CONTINUOUS
 62
     6
 10
228.082329
 20
205.886961
 11
228.159358
 21
206.019660
  0
LINE
  8
CSLAYER1
  6
CONTINUOUS
 62
     6
 10
228.159358
 20
206.019660
 11
228.240675
 21
206.145146
  0
LINE
  8
CSLAYER1
  6
CONTINUOUS
 62
     6
 10
228.240675
 20
206.145146
 11
228.321032
 21
206.258875
  0
LINE
  8
CSLAYER1
  6
CONTINUOUS
 62
     6
 10
228.321032
 20
206.258875
 11
228.407732
 21
206.375560
  0
LINE
  8
CSLAYER1
  6
CONTINUOUS
 62
     6
 10
228.407732
 20
206.375560
 11
228.499850
 21
206.494000
  0
LINE
  8
CSLAYER1
  6
CONTINUOUS
 62
     6
 10
228.499850
 20
206.494000
 11
228.596462
 21
206.612993
  0
LINE
  8
CSLAYER1
  6
CONTINUOUS
 62
     6
 10
228.596462
 20
206.612993
 11
228.696645
 21
206.731338
  0
LINE
  8
CSLAYER1
  6
CONTINUOUS
 62
     6
 10
228.696645
 20
206.731338
 11
228.799474
 21
206.847836
  0
LINE
  8
CSLAYER1
  6
CONTINUOUS
 62
     6
 10
228.799474
 20
206.847836
 11
228.904026
 21
206.961283
  0
LINE
  8
CSLAYER1
  6
CONTINUOUS
 62
     6
 10
228.904026
 20
206.961283
 11
229.009376
 21
207.070480
  0
LINE
  8
CSLAYER1
  6
CONTINUOUS
 62
     6
 10
229.009376
 20
207.070480
 11
229.114600
 21
207.174226
  0
LINE
  8
CSLAYER1
  6
CONTINUOUS
 62
     6
 10
229.114600
 20
207.174226
 11
229.218775
 21
207.271319
  0
LINE
  8
CSLAYER1
  6
CONTINUOUS
 62
     6
 10
229.218775
 20
207.271319
 11
229.320976
 21
207.360558
  0
ARC
  8
CSLAYER1
  6
CONTINUOUS
 62
     6
 10
230.744577
 20
207.833138
 40
1.500000
 50
198.366208
 51
258.366208
  0
ARC
  8
CSLAYER1
  6
CONTINUOUS
 62
     6
 10
229.018501
 20
205.891319
 40
1.500000
 50
18.366208
 51
78.366208
  0
ARC
  8
CSLAYER1
  6
CONTINUOUS
 62
     6
 10
230.139610
 20
204.894768
 40
1.500000
 50
18.366208
 51
78.366208
  0
LINE
  8
CSLAYER1
  6
CONTINUOUS
 62
     6
 10
231.563271
 20
205.367447
 11
231.491037
 21
205.305303
  0
LINE
  8
CSLAYER1
  6
CONTINUOUS
 62
     6
 10
231.491037
 20
205.305303
 11
231.417374
 21
205.237518
  0
LINE
  8
CSLAYER1
  6
CONTINUOUS
 62
     6
 10
231.417374
 20
205.237518
 11
231.342954
 21
205.164919
  0
LINE
  8
CSLAYER1
  6
CONTINUOUS
 62
     6
 10
231.342954
 20
205.164919
 11
231.268450
 21
205.088331
  0
LINE
  8
CSLAYER1
  6
CONTINUOUS
 62
     6
 10
231.268450
 20
205.088331
 11
231.194532
 21
205.008580
  0
LINE
  8
CSLAYER1
  6
CONTINUOUS
 62
     6
 10
231.194532
 20
205.008580
 11
231.121872
 21
204.926493
  0
LINE
  8
CSLAYER1
  6
CONTINUOUS
 62
     6
 10
231.121872
 20
204.926493
 11
231.051143
 21
204.842895
  0
LINE
  8
CSLAYER1
  6
CONTINUOUS
 62
     6
 10
231.051143
 20
204.842895
 11
230.983015
 21
204.758612
  0
LINE
  8
CSLAYER1
  6
CONTINUOUS
 62
     6
 10
230.983015
 20
204.758612
 11
230.918162
 21
204.674471
  0
LINE
  8
CSLAYER1
  6
CONTINUOUS
 62
     6
 10
230.918162
 20
204.674471
 11
230.857253
 21
204.591298
  0
LINE
  8
CSLAYER1
  6
CONTINUOUS
 62
     6
 10
230.857253
 20
204.591298
 11
230.800961
 21
204.509918
  0
LINE
  8
CSLAYER1
  6
CONTINUOUS
 62
     6
 10
230.800961
 20
204.509918
 11
230.749821
 21
204.429282
  0
LINE
  8
CSLAYER1
  6
CONTINUOUS
 62
     6
 10
230.749821
 20
204.429282
 11
230.701320
 21
204.344455
  0
LINE
  8
CSLAYER1
  6
CONTINUOUS
 62
     6
 10
230.701320
 20
204.344455
 11
230.655278
 21
204.255978
  0
LINE
  8
CSLAYER1
  6
CONTINUOUS
 62
     6
 10
230.655278
 20
204.255978
 11
230.611518
 21
204.164395
  0
LINE
  8
CSLAYER1
  6
CONTINUOUS
 62
     6
 10
230.611518
 20
204.164395
 11
230.569859
 21
204.070249
  0
LINE
  8
CSLAYER1
  6
CONTINUOUS
 62
     6
 10
230.569859
 20
204.070249
 11
230.530123
 21
203.974083
  0
LINE
  8
CSLAYER1
  6
CONTINUOUS
 62
     6
 10
230.530123
 20
203.974083
 11
230.492130
 21
203.876440
  0
LINE
  8
CSLAYER1
  6
CONTINUOUS
 62
     6
 10
230.492130
 20
203.876440
 11
230.455701
 21
203.777863
  0
LINE
  8
CSLAYER1
  6
CONTINUOUS
 62
     6
 10
230.455701
 20
203.777863
 11
230.420657
 21
203.678894
  0
LINE
  8
CSLAYER1
  6
CONTINUOUS
 62
     6
 10
230.420657
 20
203.678894
 11
230.386818
 21
203.580078
  0
LINE
  8
CSLAYER1
  6
CONTINUOUS
 62
     6
 10
230.386818
 20
203.580078
 11
230.354005
 21
203.481957
  0
LINE
  8
CSLAYER1
  6
CONTINUOUS
 62
     6
 10
230.354005
 20
203.481957
 11
230.311625
 21
203.352913
  0
LINE
  8
CSLAYER1
  6
CONTINUOUS
 62
     6
 10
230.311625
 20
203.352913
 11
230.270029
 21
203.223934
  0
LINE
  8
CSLAYER1
  6
CONTINUOUS
 62
     6
 10
230.270029
 20
203.223934
 11
230.229138
 21
203.095013
  0
LINE
  8
CSLAYER1
  6
CONTINUOUS
 62
     6
 10
230.229138
 20
203.095013
 11
230.188875
 21
202.966144
  0
LINE
  8
CSLAYER1
  6
CONTINUOUS
 62
     6
 10
230.188875
 20
202.966144
 11
230.149161
 21
202.837319
  0
LINE
  8
CSLAYER1
  6
CONTINUOUS
 62
     6
 10
230.149161
 20
202.837319
 11
230.109917
 21
202.708534
  0
LINE
  8
CSLAYER1
  6
CONTINUOUS
 62
     6
 10
230.109917
 20
202.708534
 11
230.071065
 21
202.579781
  0
LINE
  8
CSLAYER1
  6
CONTINUOUS
 62
     6
 10
230.071065
 20
202.579781
 11
230.032527
 21
202.451053
  0
LINE
  8
CSLAYER1
  6
CONTINUOUS
 62
     6
 10
230.032527
 20
202.451053
 11
229.994224
 21
202.322345
  0
LINE
  8
CSLAYER1
  6
CONTINUOUS
 62
     6
 10
229.994224
 20
202.322345
 11
229.956078
 21
202.193650
  0
LINE
  8
CSLAYER1
  6
CONTINUOUS
 62
     6
 10
229.956078
 20
202.193650
 11
229.918011
 21
202.064962
  0
ARC
  8
CSLAYER1
  6
CONTINUOUS
 62
     6
 10
229.583242
 20
203.527136
 40
1.500000
 50
222.897147
 51
282.897147
  0
ARC
  8
CSLAYER1
  6
CONTINUOUS
 62
     6
 10
228.149574
 20
203.968268
 40
1.500000
 50
222.897147
 51
282.897147
  0
LINE
  8
CSLAYER1
  6
CONTINUOUS
 62
     6
 10
227.050713
 20
202.947207
 11
227.093460
 21
203.090377
  0
LINE
  8
CSLAYER1
  6
CONTINUOUS
 62
     6
 10
227.093460
 20
203.090377
 11
227.136276
 21
203.233557
  0
LINE
  8
CSLAYER1
  6
CONTINUOUS
 62
     6
 10
227.136276
 20
203.233557
 11
227.179229
 21
203.376759
  0
LINE
  8
CSLAYER1
  6
CONTINUOUS
 62
     6
 10
227.179229
 20
203.376759
 11
227.222386
 21
203.519991
  0
LINE
  8
CSLAYER1
  6
CONTINUOUS
 62
     6
 10
227.222386
 20
203.519991
 11
227.265817
 21
203.663266
  0
LINE
  8
CSLAYER1
  6
CONTINUOUS
 62
     6
 10
227.265817
 20
203.663266
 11
227.309590
 21
203.806594
  0
LINE
  8
CSLAYER1
  6
CONTINUOUS
 62
     6
 10
227.309590
 20
203.806594
 11
227.353773
 21
203.949984
  0
LINE
  8
CSLAYER1
  6
CONTINUOUS
 62
     6
 10
227.353773
 20
203.949984
 11
227.398435
 21
204.093448
  0
LINE
  8
CSLAYER1
  6
CONTINUOUS
 62
     6
 10
227.398435
 20
204.093448
 11
227.443643
 21
204.236996
  0
LINE
  8
CSLAYER1
  6
CONTINUOUS
 62
     6
 10
227.443643
 20
204.236996
 11
227.489467
 21
204.380639
  0
LINE
  8
CSLAYER1
  6
CONTINUOUS
 62
     6
 10
227.489467
 20
204.380639
 11
227.535974
 21
204.524386
  0
LINE
  8
CSLAYER1
  6
CONTINUOUS
 62
     6
 10
227.535974
 20
204.524386
 11
227.586969
 21
204.679374
  0
LINE
  8
CSLAYER1
  6
CONTINUOUS
 62
     6
 10
227.586969
 20
204.679374
 11
227.639742
 21
204.835675
  0
LINE
  8
CSLAYER1
  6
CONTINUOUS
 62
     6
 10
227.639742
 20
204.835675
 11
227.694570
 21
204.992341
  0
LINE
  8
CSLAYER1
  6
CONTINUOUS
 62
     6
 10
227.694570
 20
204.992341
 11
227.751732
 21
205.148425
  0
LINE
  8
CSLAYER1
  6
CONTINUOUS
 62
     6
 10
227.751732
 20
205.148425
 11
227.811508
 21
205.302980
  0
LINE
  8
CSLAYER1
  6
CONTINUOUS
 62
     6
 10
227.811508
 20
205.302980
 11
227.874177
 21
205.455058
  0
LINE
  8
CSLAYER1
  6
CONTINUOUS
 62
     6
 10
227.874177
 20
205.455058
 11
227.940017
 21
205.603713
  0
LINE
  8
CSLAYER1
  6
CONTINUOUS
 62
     6
 10
227.724484
 20
202.529762
 11
226.872116
 21
199.972588
  0
LINE
  8
CSLAYER1
  6
CONTINUOUS
 62
     6
 10
227.591882
 20
199.454308
 11
228.385455
 21
202.486931
  0
ARC
  8
CSLAYER1
  6
CONTINUOUS
 62
     6
 10
228.819179
 20
201.043951
 40
1.500000
 50
42.897147
 51
102.897147
  0
LINE
  8
CSLAYER1
  6
CONTINUOUS
 62
     6
 10
229.135524
 20
202.095512
 11
228.455573
 21
199.080054
  0
LINE
  8
CSLAYER1
  6
CONTINUOUS
 62
     6
 10
233.848810
 20
139.315373
 11
236.099741
 21
136.876867
  0
LINE
  8
CSLAYER1
  6
CONTINUOUS
 62
     6
 10
236.090070
 20
136.859788
 11
236.049249
 21
136.781651
  0
LINE
  8
CSLAYER1
  6
CONTINUOUS
 62
     6
 10
236.049249
 20
136.781651
 11
236.033987
 21
136.750697
  0
LINE
  8
CSLAYER1
  6
CONTINUOUS
 62
     6
 10
236.033987
 20
136.750697
 11
236.018849
 21
136.719325
  0
LINE
  8
CSLAYER1
  6
CONTINUOUS
 62
     6
 10
236.018849
 20
136.719325
 11
236.003793
 21
136.687703
  0
LINE
  8
CSLAYER1
  6
CONTINUOUS
 62
     6
 10
236.003793
 20
136.687703
 11
235.988778
 21
136.655997
  0
LINE
  8
CSLAYER1
  6
CONTINUOUS
 62
     6
 10
235.988778
 20
136.655997
 11
235.973761
 21
136.624376
  0
LINE
  8
CSLAYER1
  6
CONTINUOUS
 62
     6
 10
235.973761
 20
136.624376
 11
235.958701
 21
136.593006
  0
LINE
  8
CSLAYER1
  6
CONTINUOUS
 62
     6
 10
235.958701
 20
136.593006
 11
235.943555
 21
136.562054
  0
LINE
  8
CSLAYER1
  6
CONTINUOUS
 62
     6
 10
235.943555
 20
136.562054
 11
235.928282
 21
136.531688
  0
LINE
  8
CSLAYER1
  6
CONTINUOUS
 62
     6
 10
235.928282
 20
136.531688
 11
235.912840
 21
136.502075
  0
LINE
  8
CSLAYER1
  6
CONTINUOUS
 62
     6
 10
235.912840
 20
136.502075
 11
235.897187
 21
136.473381
  0
LINE
  8
CSLAYER1
  6
CONTINUOUS
 62
     6
 10
235.897187
 20
136.473381
 11
235.881280
 21
136.445775
  0
LINE
  8
CSLAYER1
  6
CONTINUOUS
 62
     6
 10
235.881280
 20
136.445775
 11
235.829414
 21
136.366725
  0
LINE
  8
CSLAYER1
  6
CONTINUOUS
 62
     6
 10
235.829414
 20
136.366725
 11
235.768844
 21
136.288526
  0
LINE
  8
CSLAYER1
  6
CONTINUOUS
 62
     6
 10
235.768844
 20
136.288526
 11
235.700841
 21
136.211839
  0
LINE
  8
CSLAYER1
  6
CONTINUOUS
 62
     6
 10
235.700841
 20
136.211839
 11
235.626675
 21
136.137323
  0
LINE
  8
CSLAYER1
  6
CONTINUOUS
 62
     6
 10
235.626675
 20
136.137323
 11
235.547616
 21
136.065640
  0
LINE
  8
CSLAYER1
  6
CONTINUOUS
 62
     6
 10
235.547616
 20
136.065640
 11
235.464933
 21
135.997449
  0
LINE
  8
CSLAYER1
  6
CONTINUOUS
 62
     6
 10
235.464933
 20
135.997449
 11
235.379898
 21
135.933411
  0
LINE
  8
CSLAYER1
  6
CONTINUOUS
 62
     6
 10
235.379898
 20
135.933411
 11
235.293778
 21
135.874187
  0
LINE
  8
CSLAYER1
  6
CONTINUOUS
 62
     6
 10
235.293778
 20
135.874187
 11
235.207846
 21
135.820437
  0
LINE
  8
CSLAYER1
  6
CONTINUOUS
 62
     6
 10
235.207846
 20
135.820437
 11
235.123370
 21
135.772820
  0
LINE
  8
CSLAYER1
  6
CONTINUOUS
 62
     6
 10
235.123370
 20
135.772820
 11
235.054222
 21
135.738292
  0
LINE
  8
CSLAYER1
  6
CONTINUOUS
 62
     6
 10
235.054222
 20
135.738292
 11
235.150249
 21
135.654964
  0
LINE
  8
CSLAYER1
  6
CONTINUOUS
 62
     6
 10
235.150249
 20
135.654964
 11
235.266704
 21
135.552769
  0
LINE
  8
CSLAYER1
  6
CONTINUOUS
 62
     6
 10
235.266704
 20
135.552769
 11
235.382141
 21
135.449749
  0
LINE
  8
CSLAYER1
  6
CONTINUOUS
 62
     6
 10
235.382141
 20
135.449749
 11
235.496222
 21
135.345627
  0
LINE
  8
CSLAYER1
  6
CONTINUOUS
 62
     6
 10
235.496222
 20
135.345627
 11
235.608608
 21
135.240128
  0
LINE
  8
CSLAYER1
  6
CONTINUOUS
 62
     6
 10
235.608608
 20
135.240128
 11
235.718959
 21
135.132978
  0
LINE
  8
CSLAYER1
  6
CONTINUOUS
 62
     6
 10
235.718959
 20
135.132978
 11
235.826936
 21
135.023900
  0
LINE
  8
CSLAYER1
  6
CONTINUOUS
 62
     6
 10
235.826936
 20
135.023900
 11
235.932200
 21
134.912619
  0
LINE
  8
CSLAYER1
  6
CONTINUOUS
 62
     6
 10
235.932200
 20
134.912619
 11
236.034412
 21
134.798859
  0
LINE
  8
CSLAYER1
  6
CONTINUOUS
 62
     6
 10
236.034412
 20
134.798859
 11
236.133233
 21
134.682347
  0
LINE
  8
CSLAYER1
  6
CONTINUOUS
 62
     6
 10
236.133233
 20
134.682347
 11
236.260074
 21
134.522125
  0
LINE
  8
CSLAYER1
  6
CONTINUOUS
 62
     6
 10
236.260074
 20
134.522125
 11
236.383064
 21
134.355688
  0
LINE
  8
CSLAYER1
  6
CONTINUOUS
 62
     6
 10
236.383064
 20
134.355688
 11
236.502411
 21
134.184340
  0
LINE
  8
CSLAYER1
  6
CONTINUOUS
 62
     6
 10
236.502411
 20
134.184340
 11
236.618322
 21
134.009383
  0
LINE
  8
CSLAYER1
  6
CONTINUOUS
 62
     6
 10
236.618322
 20
134.009383
 11
236.731002
 21
133.832118
  0
LINE
  8
CSLAYER1
  6
CONTINUOUS
 62
     6
 10
236.731002
 20
133.832118
 11
236.840660
 21
133.653848
  0
LINE
  8
CSLAYER1
  6
CONTINUOUS
 62
     6
 10
236.840660
 20
133.653848
 11
236.947500
 21
133.475876
  0
LINE
  8
CSLAYER1
  6
CONTINUOUS
 62
     6
 10
236.947500
 20
133.475876
 11
237.051730
 21
133.299503
  0
LINE
  8
CSLAYER1
  6
CONTINUOUS
 62
     6
 10
237.051730
 20
133.299503
 11
237.153556
 21
133.126032
  0
LINE
  8
CSLAYER1
  6
CONTINUOUS
 62
     6
 10
237.153556
 20
133.126032
 11
237.253185
 21
132.956765
  0
LINE
  8
CSLAYER1
  6
CONTINUOUS
 62
     6
 10
237.253185
 20
132.956765
 11
237.350824
 21
132.793004
  0
LINE
  8
CSLAYER1
  6
CONTINUOUS
 62
     6
 10
237.350824
 20
132.793004
 11
237.458643
 21
132.620980
  0
LINE
  8
CSLAYER1
  6
CONTINUOUS
 62
     6
 10
237.458643
 20
132.620980
 11
237.576962
 21
132.444294
  0
LINE
  8
CSLAYER1
  6
CONTINUOUS
 62
     6
 10
237.576962
 20
132.444294
 11
237.703746
 21
132.264517
  0
LINE
  8
CSLAYER1
  6
CONTINUOUS
 62
     6
 10
237.703746
 20
132.264517
 11
237.836958
 21
132.083220
  0
LINE
  8
CSLAYER1
  6
CONTINUOUS
 62
     6
 10
237.836958
 20
132.083220
 11
237.974561
 21
131.901977
  0
LINE
  8
CSLAYER1
  6
CONTINUOUS
 62
     6
 10
237.974561
 20
131.901977
 11
238.114519
 21
131.722359
  0
LINE
  8
CSLAYER1
  6
CONTINUOUS
 62
     6
 10
238.114519
 20
131.722359
 11
238.254794
 21
131.545937
  0
LINE
  8
CSLAYER1
  6
CONTINUOUS
 62
     6
 10
238.254794
 20
131.545937
 11
238.393351
 21
131.374285
  0
LINE
  8
CSLAYER1
  6
CONTINUOUS
 62
     6
 10
238.393351
 20
131.374285
 11
238.528153
 21
131.208973
  0
LINE
  8
CSLAYER1
  6
CONTINUOUS
 62
     6
 10
238.528153
 20
131.208973
 11
238.657163
 21
131.051574
  0
LINE
  8
CSLAYER1
  6
CONTINUOUS
 62
     6
 10
238.657163
 20
131.051574
 11
238.778344
 21
130.903660
  0
ARC
  8
CSLAYER1
  6
CONTINUOUS
 62
     6
 10
239.824754
 20
130.392758
 40
1.164461
 50
93.975995
 51
153.975995
  0
ARC
  8
CSLAYER1
  6
CONTINUOUS
 62
     6
 10
238.697616
 20
132.065321
 40
1.164461
 50
273.975995
 51
333.975995
  0
ARC
  8
CSLAYER1
  6
CONTINUOUS
 62
     6
 10
239.663270
 20
132.716075
 40
1.164461
 50
273.975995
 51
338.341495
  0
LINE
  8
CSLAYER1
  6
CONTINUOUS
 62
     6
 10
240.745520
 20
132.286303
 11
240.576263
 21
132.493904
  0
LINE
  8
CSLAYER1
  6
CONTINUOUS
 62
     6
 10
240.576263
 20
132.493904
 11
240.452221
 21
132.646016
  0
LINE
  8
CSLAYER1
  6
CONTINUOUS
 62
     6
 10
240.452221
 20
132.646016
 11
240.322935
 21
132.805346
  0
LINE
  8
CSLAYER1
  6
CONTINUOUS
 62
     6
 10
240.322935
 20
132.805346
 11
240.190236
 21
132.970468
  0
LINE
  8
CSLAYER1
  6
CONTINUOUS
 62
     6
 10
240.190236
 20
132.970468
 11
240.055955
 21
133.139953
  0
LINE
  8
CSLAYER1
  6
CONTINUOUS
 62
     6
 10
240.055955
 20
133.139953
 11
239.921923
 21
133.312374
  0
LINE
  8
CSLAYER1
  6
CONTINUOUS
 62
     6
 10
239.921923
 20
133.312374
 11
239.789971
 21
133.486304
  0
LINE
  8
CSLAYER1
  6
CONTINUOUS
 62
     6
 10
239.789971
 20
133.486304
 11
239.661929
 21
133.660314
  0
LINE
  8
CSLAYER1
  6
CONTINUOUS
 62
     6
 10
239.661929
 20
133.660314
 11
239.539629
 21
133.832977
  0
LINE
  8
CSLAYER1
  6
CONTINUOUS
 62
     6
 10
239.539629
 20
133.832977
 11
239.424900
 21
134.002866
  0
LINE
  8
CSLAYER1
  6
CONTINUOUS
 62
     6
 10
239.424900
 20
134.002866
 11
239.319574
 21
134.168553
  0
LINE
  8
CSLAYER1
  6
CONTINUOUS
 62
     6
 10
239.319574
 20
134.168553
 11
239.211950
 21
134.346237
  0
LINE
  8
CSLAYER1
  6
CONTINUOUS
 62
     6
 10
239.211950
 20
134.346237
 11
239.102704
 21
134.529680
  0
LINE
  8
CSLAYER1
  6
CONTINUOUS
 62
     6
 10
239.102704
 20
134.529680
 11
238.991555
 21
134.717525
  0
LINE
  8
CSLAYER1
  6
CONTINUOUS
 62
     6
 10
238.991555
 20
134.717525
 11
238.878223
 21
134.908416
  0
LINE
  8
CSLAYER1
  6
CONTINUOUS
 62
     6
 10
238.878223
 20
134.908416
 11
238.762425
 21
135.100996
  0
LINE
  8
CSLAYER1
  6
CONTINUOUS
 62
     6
 10
238.762425
 20
135.100996
 11
238.643880
 21
135.293908
  0
LINE
  8
CSLAYER1
  6
CONTINUOUS
 62
     6
 10
238.643880
 20
135.293908
 11
238.522308
 21
135.485797
  0
LINE
  8
CSLAYER1
  6
CONTINUOUS
 62
     6
 10
238.522308
 20
135.485797
 11
238.397427
 21
135.675305
  0
LINE
  8
CSLAYER1
  6
CONTINUOUS
 62
     6
 10
238.397427
 20
135.675305
 11
238.268955
 21
135.861075
  0
LINE
  8
CSLAYER1
  6
CONTINUOUS
 62
     6
 10
238.268955
 20
135.861075
 11
238.136612
 21
136.041751
  0
LINE
  8
CSLAYER1
  6
CONTINUOUS
 62
     6
 10
238.136612
 20
136.041751
 11
238.000116
 21
136.215977
  0
LINE
  8
CSLAYER1
  6
CONTINUOUS
 62
     6
 10
238.000116
 20
136.215977
 11
237.885745
 21
136.352140
  0
LINE
  8
CSLAYER1
  6
CONTINUOUS
 62
     6
 10
237.885745
 20
136.352140
 11
237.767235
 21
136.484945
  0
LINE
  8
CSLAYER1
  6
CONTINUOUS
 62
     6
 10
237.767235
 20
136.484945
 11
237.645002
 21
136.614729
  0
LINE
  8
CSLAYER1
  6
CONTINUOUS
 62
     6
 10
237.645002
 20
136.614729
 11
237.519459
 21
136.741827
  0
LINE
  8
CSLAYER1
  6
CONTINUOUS
 62
     6
 10
237.519459
 20
136.741827
 11
237.391019
 21
136.866575
  0
LINE
  8
CSLAYER1
  6
CONTINUOUS
 62
     6
 10
237.391019
 20
136.866575
 11
237.260096
 21
136.989308
  0
LINE
  8
CSLAYER1
  6
CONTINUOUS
 62
     6
 10
237.260096
 20
136.989308
 11
237.127105
 21
137.110363
  0
LINE
  8
CSLAYER1
  6
CONTINUOUS
 62
     6
 10
237.127105
 20
137.110363
 11
236.992459
 21
137.230074
  0
LINE
  8
CSLAYER1
  6
CONTINUOUS
 62
     6
 10
236.992459
 20
137.230074
 11
236.856571
 21
137.348778
  0
LINE
  8
CSLAYER1
  6
CONTINUOUS
 62
     6
 10
236.856571
 20
137.348778
 11
236.719856
 21
137.466811
  0
LINE
  8
CSLAYER1
  6
CONTINUOUS
 62
     6
 10
236.719856
 20
137.466811
 11
236.592509
 21
137.576112
  0
LINE
  8
CSLAYER1
  6
CONTINUOUS
 62
     6
 10
236.592509
 20
137.576112
 11
236.540436
 21
137.510069
  0
LINE
  8
CSLAYER1
  6
CONTINUOUS
 62
     6
 10
236.540436
 20
137.510069
 11
236.486037
 21
137.440597
  0
LINE
  8
CSLAYER1
  6
CONTINUOUS
 62
     6
 10
236.486037
 20
137.440597
 11
236.432141
 21
137.370804
  0
LINE
  8
CSLAYER1
  6
CONTINUOUS
 62
     6
 10
236.432141
 20
137.370804
 11
236.378999
 21
137.300530
  0
LINE
  8
CSLAYER1
  6
CONTINUOUS
 62
     6
 10
236.378999
 20
137.300530
 11
236.326863
 21
137.229613
  0
LINE
  8
CSLAYER1
  6
CONTINUOUS
 62
     6
 10
236.326863
 20
137.229613
 11
236.275984
 21
137.157895
  0
LINE
  8
CSLAYER1
  6
CONTINUOUS
 62
     6
 10
236.275984
 20
137.157895
 11
236.226614
 21
137.085213
  0
LINE
  8
CSLAYER1
  6
CONTINUOUS
 62
     6
 10
236.226614
 20
137.085213
 11
236.179004
 21
137.011409
  0
LINE
  8
CSLAYER1
  6
CONTINUOUS
 62
     6
 10
236.179004
 20
137.011409
 11
236.133406
 21
136.936320
  0
LINE
  8
CSLAYER1
  6
CONTINUOUS
 62
     6
 10
236.133406
 20
136.936320
 11
236.090070
 21
136.859788
  0
LINE
  8
CSLAYER1
  6
CONTINUOUS
 62
     6
 10
235.819271
 20
136.353630
 11
233.376275
 21
138.748265
  0
LINE
  8
CSLAYER1
  6
CONTINUOUS
 62
     6
 10
232.761926
 20
138.535618
 11
235.507773
 21
136.032780
  0
LINE
  8
CSLAYER1
  6
CONTINUOUS
 62
     6
 10
232.692220
 20
131.559622
 11
232.850738
 21
131.452268
  0
LINE
  8
CSLAYER1
  6
CONTINUOUS
 62
     6
 10
232.850738
 20
131.452268
 11
233.002534
 21
131.342774
  0
LINE
  8
CSLAYER1
  6
CONTINUOUS
 62
     6
 10
233.002534
 20
131.342774
 11
233.145673
 21
131.230188
  0
LINE
  8
CSLAYER1
  6
CONTINUOUS
 62
     6
 10
233.145673
 20
131.230188
 11
233.278222
 21
131.113560
  0
LINE
  8
CSLAYER1
  6
CONTINUOUS
 62
     6
 10
233.278222
 20
131.113560
 11
233.381227
 21
131.010545
  0
LINE
  8
CSLAYER1
  6
CONTINUOUS
 62
     6
 10
233.381227
 20
131.010545
 11
233.482891
 21
130.897109
  0
LINE
  8
CSLAYER1
  6
CONTINUOUS
 62
     6
 10
233.482891
 20
130.897109
 11
233.582645
 21
130.774942
  0
LINE
  8
CSLAYER1
  6
CONTINUOUS
 62
     6
 10
233.582645
 20
130.774942
 11
233.679924
 21
130.645733
  0
LINE
  8
CSLAYER1
  6
CONTINUOUS
 62
     6
 10
233.679924
 20
130.645733
 11
233.774158
 21
130.511173
  0
LINE
  8
CSLAYER1
  6
CONTINUOUS
 62
     6
 10
233.774158
 20
130.511173
 11
233.864783
 21
130.372951
  0
LINE
  8
CSLAYER1
  6
CONTINUOUS
 62
     6
 10
233.864783
 20
130.372951
 11
233.951229
 21
130.232758
  0
LINE
  8
CSLAYER1
  6
CONTINUOUS
 62
     6
 10
233.951229
 20
130.232758
 11
234.032930
 21
130.092283
  0
LINE
  8
CSLAYER1
  6
CONTINUOUS
 62
     6
 10
234.032930
 20
130.092283
 11
234.109319
 21
129.953217
  0
LINE
  8
CSLAYER1
  6
CONTINUOUS
 62
     6
 10
234.109319
 20
129.953217
 11
234.179828
 21
129.817249
  0
LINE
  8
CSLAYER1
  6
CONTINUOUS
 62
     6
 10
234.179828
 20
129.817249
 11
234.285088
 21
129.601709
  0
ARC
  8
CSLAYER1
  6
CONTINUOUS
 62
     6
 10
233.358977
 20
130.157787
 40
1.080690
 50
269.054803
 51
329.054803
  0
ARC
  8
CSLAYER1
  6
CONTINUOUS
 62
     6
 10
232.414286
 20
129.632954
 40
1.080690
 50
269.054803
 51
329.054803
  0
ARC
  8
CSLAYER1
  6
CONTINUOUS
 62
     6
 10
233.323323
 20
127.996701
 40
1.080690
 50
89.054803
 51
149.054803
  0
LINE
  8
CSLAYER1
  6
CONTINUOUS
 62
     6
 10
232.396478
 20
128.552434
 11
232.251776
 21
128.691780
  0
LINE
  8
CSLAYER1
  6
CONTINUOUS
 62
     6
 10
232.251776
 20
128.691780
 11
232.097861
 21
128.841529
  0
LINE
  8
CSLAYER1
  6
CONTINUOUS
 62
     6
 10
232.097861
 20
128.841529
 11
231.936510
 21
128.999358
  0
LINE
  8
CSLAYER1
  6
CONTINUOUS
 62
     6
 10
231.936510
 20
128.999358
 11
231.769500
 21
129.162940
  0
LINE
  8
CSLAYER1
  6
CONTINUOUS
 62
     6
 10
231.769500
 20
129.162940
 11
231.598605
 21
129.329951
  0
LINE
  8
CSLAYER1
  6
CONTINUOUS
 62
     6
 10
231.598605
 20
129.329951
 11
231.425602
 21
129.498067
  0
LINE
  8
CSLAYER1
  6
CONTINUOUS
 62
     6
 10
231.425602
 20
129.498067
 11
231.252267
 21
129.664962
  0
LINE
  8
CSLAYER1
  6
CONTINUOUS
 62
     6
 10
231.252267
 20
129.664962
 11
231.080375
 21
129.828311
  0
LINE
  8
CSLAYER1
  6
CONTINUOUS
 62
     6
 10
231.080375
 20
129.828311
 11
230.911702
 21
129.985790
  0
LINE
  8
CSLAYER1
  6
CONTINUOUS
 62
     6
 10
230.911702
 20
129.985790
 11
230.748025
 21
130.135074
  0
LINE
  8
CSLAYER1
  6
CONTINUOUS
 62
     6
 10
230.748025
 20
130.135074
 11
230.591119
 21
130.273839
  0
LINE
  8
CSLAYER1
  6
CONTINUOUS
 62
     6
 10
230.591119
 20
130.273839
 11
230.449888
 21
130.396636
  0
LINE
  8
CSLAYER1
  6
CONTINUOUS
 62
     6
 10
230.449888
 20
130.396636
 11
230.303705
 21
130.524522
  0
LINE
  8
CSLAYER1
  6
CONTINUOUS
 62
     6
 10
230.303705
 20
130.524522
 11
230.153712
 21
130.657029
  0
LINE
  8
CSLAYER1
  6
CONTINUOUS
 62
     6
 10
230.153712
 20
130.657029
 11
230.001050
 21
130.793688
  0
LINE
  8
CSLAYER1
  6
CONTINUOUS
 62
     6
 10
230.001050
 20
130.793688
 11
229.846863
 21
130.934033
  0
LINE
  8
CSLAYER1
  6
CONTINUOUS
 62
     6
 10
229.846863
 20
130.934033
 11
229.692293
 21
131.077596
  0
LINE
  8
CSLAYER1
  6
CONTINUOUS
 62
     6
 10
229.692293
 20
131.077596
 11
229.538482
 21
131.223908
  0
LINE
  8
CSLAYER1
  6
CONTINUOUS
 62
     6
 10
229.538482
 20
131.223908
 11
229.386571
 21
131.372503
  0
LINE
  8
CSLAYER1
  6
CONTINUOUS
 62
     6
 10
229.386571
 20
131.372503
 11
229.237704
 21
131.522913
  0
LINE
  8
CSLAYER1
  6
CONTINUOUS
 62
     6
 10
229.237704
 20
131.522913
 11
229.093022
 21
131.674669
  0
LINE
  8
CSLAYER1
  6
CONTINUOUS
 62
     6
 10
229.093022
 20
131.674669
 11
228.953668
 21
131.827305
  0
LINE
  8
CSLAYER1
  6
CONTINUOUS
 62
     6
 10
228.953668
 20
131.827305
 11
228.898144
 21
131.890249
  0
LINE
  8
CSLAYER1
  6
CONTINUOUS
 62
     6
 10
228.898144
 20
131.890249
 11
228.843216
 21
131.953749
  0
LINE
  8
CSLAYER1
  6
CONTINUOUS
 62
     6
 10
228.843216
 20
131.953749
 11
228.788825
 21
132.017751
  0
LINE
  8
CSLAYER1
  6
CONTINUOUS
 62
     6
 10
228.788825
 20
132.017751
 11
228.734912
 21
132.082197
  0
LINE
  8
CSLAYER1
  6
CONTINUOUS
 62
     6
 10
228.734912
 20
132.082197
 11
228.681416
 21
132.147033
  0
LINE
  8
CSLAYER1
  6
CONTINUOUS
 62
     6
 10
228.681416
 20
132.147033
 11
228.628278
 21
132.212203
  0
LINE
  8
CSLAYER1
  6
CONTINUOUS
 62
     6
 10
228.628278
 20
132.212203
 11
228.575438
 21
132.277651
  0
LINE
  8
CSLAYER1
  6
CONTINUOUS
 62
     6
 10
228.575438
 20
132.277651
 11
228.522837
 21
132.343321
  0
LINE
  8
CSLAYER1
  6
CONTINUOUS
 62
     6
 10
228.522837
 20
132.343321
 11
228.470415
 21
132.409159
  0
LINE
  8
CSLAYER1
  6
CONTINUOUS
 62
     6
 10
228.470415
 20
132.409159
 11
228.418112
 21
132.475107
  0
LINE
  8
CSLAYER1
  6
CONTINUOUS
 62
     6
 10
228.418112
 20
132.475107
 11
228.289557
 21
132.637525
  0
LINE
  8
CSLAYER1
  6
CONTINUOUS
 62
     6
 10
228.289557
 20
132.637525
 11
228.318295
 21
132.684379
  0
LINE
  8
CSLAYER1
  6
CONTINUOUS
 62
     6
 10
228.318295
 20
132.684379
 11
228.358887
 21
132.744261
  0
LINE
  8
CSLAYER1
  6
CONTINUOUS
 62
     6
 10
228.358887
 20
132.744261
 11
228.403169
 21
132.804129
  0
LINE
  8
CSLAYER1
  6
CONTINUOUS
 62
     6
 10
228.403169
 20
132.804129
 11
228.450620
 21
132.863402
  0
LINE
  8
CSLAYER1
  6
CONTINUOUS
 62
     6
 10
228.450620
 20
132.863402
 11
228.500719
 21
132.921499
  0
LINE
  8
CSLAYER1
  6
CONTINUOUS
 62
     6
 10
228.500719
 20
132.921499
 11
228.552943
 21
132.977840
  0
LINE
  8
CSLAYER1
  6
CONTINUOUS
 62
     6
 10
228.552943
 20
132.977840
 11
228.606772
 21
133.031844
  0
LINE
  8
CSLAYER1
  6
CONTINUOUS
 62
     6
 10
228.606772
 20
133.031844
 11
228.661682
 21
133.082929
  0
LINE
  8
CSLAYER1
  6
CONTINUOUS
 62
     6
 10
228.661682
 20
133.082929
 11
228.717153
 21
133.130515
  0
LINE
  8
CSLAYER1
  6
CONTINUOUS
 62
     6
 10
228.717153
 20
133.130515
 11
228.772664
 21
133.174020
  0
LINE
  8
CSLAYER1
  6
CONTINUOUS
 62
     6
 10
228.772664
 20
133.174020
 11
228.827691
 21
133.212865
  0
LINE
  8
CSLAYER1
  6
CONTINUOUS
 62
     6
 10
228.827691
 20
133.212865
 11
228.884177
 21
133.247159
  0
LINE
  8
CSLAYER1
  6
CONTINUOUS
 62
     6
 10
228.884177
 20
133.247159
 11
228.944779
 21
133.278126
  0
LINE
  8
CSLAYER1
  6
CONTINUOUS
 62
     6
 10
228.944779
 20
133.278126
 11
229.008940
 21
133.306115
  0
LINE
  8
CSLAYER1
  6
CONTINUOUS
 62
     6
 10
229.008940
 20
133.306115
 11
229.076102
 21
133.331475
  0
LINE
  8
CSLAYER1
  6
CONTINUOUS
 62
     6
 10
229.076102
 20
133.331475
 11
229.145708
 21
133.354558
  0
LINE
  8
CSLAYER1
  6
CONTINUOUS
 62
     6
 10
229.145708
 20
133.354558
 11
229.217202
 21
133.375711
  0
LINE
  8
CSLAYER1
  6
CONTINUOUS
 62
     6
 10
229.217202
 20
133.375711
 11
229.290027
 21
133.395286
  0
LINE
  8
CSLAYER1
  6
CONTINUOUS
 62
     6
 10
229.290027
 20
133.395286
 11
229.363625
 21
133.413631
  0
LINE
  8
CSLAYER1
  6
CONTINUOUS
 62
     6
 10
229.363625
 20
133.413631
 11
229.437440
 21
133.431097
  0
LINE
  8
CSLAYER1
  6
CONTINUOUS
 62
     6
 10
229.437440
 20
133.431097
 11
229.510914
 21
133.448032
  0
LINE
  8
CSLAYER1
  6
CONTINUOUS
 62
     6
 10
229.510914
 20
133.448032
 11
229.583490
 21
133.464787
  0
LINE
  8
CSLAYER1
  6
CONTINUOUS
 62
     6
 10
229.583490
 20
133.464787
 11
229.657714
 21
133.482387
  0
LINE
  8
CSLAYER1
  6
CONTINUOUS
 62
     6
 10
229.657714
 20
133.482387
 11
229.731450
 21
133.500412
  0
LINE
  8
CSLAYER1
  6
CONTINUOUS
 62
     6
 10
229.731450
 20
133.500412
 11
229.804746
 21
133.518818
  0
LINE
  8
CSLAYER1
  6
CONTINUOUS
 62
     6
 10
229.804746
 20
133.518818
 11
229.877652
 21
133.537563
  0
LINE
  8
CSLAYER1
  6
CONTINUOUS
 62
     6
 10
229.877652
 20
133.537563
 11
229.950216
 21
133.556606
  0
LINE
  8
CSLAYER1
  6
CONTINUOUS
 62
     6
 10
229.950216
 20
133.556606
 11
230.022487
 21
133.575902
  0
LINE
  8
CSLAYER1
  6
CONTINUOUS
 62
     6
 10
230.022487
 20
133.575902
 11
230.094514
 21
133.595411
  0
LINE
  8
CSLAYER1
  6
CONTINUOUS
 62
     6
 10
230.094514
 20
133.595411
 11
230.166346
 21
133.615089
  0
LINE
  8
CSLAYER1
  6
CONTINUOUS
 62
     6
 10
230.166346
 20
133.615089
 11
230.238031
 21
133.634895
  0
LINE
  8
CSLAYER1
  6
CONTINUOUS
 62
     6
 10
230.238031
 20
133.634895
 11
230.309619
 21
133.654785
  0
LINE
  8
CSLAYER1
  6
CONTINUOUS
 62
     6
 10
230.309619
 20
133.654785
 11
230.390238
 21
133.677248
  0
LINE
  8
CSLAYER1
  6
CONTINUOUS
 62
     6
 10
230.390238
 20
133.677248
 11
230.517494
 21
133.505097
  0
LINE
  8
CSLAYER1
  6
CONTINUOUS
 62
     6
 10
230.517494
 20
133.505097
 11
230.612274
 21
133.377935
  0
LINE
  8
CSLAYER1
  6
CONTINUOUS
 62
     6
 10
230.612274
 20
133.377935
 11
230.707925
 21
133.251704
  0
LINE
  8
CSLAYER1
  6
CONTINUOUS
 62
     6
 10
230.707925
 20
133.251704
 11
230.804884
 21
133.126868
  0
LINE
  8
CSLAYER1
  6
CONTINUOUS
 62
     6
 10
230.804884
 20
133.126868
 11
230.903586
 21
133.003893
  0
LINE
  8
CSLAYER1
  6
CONTINUOUS
 62
     6
 10
230.903586
 20
133.003893
 11
231.004467
 21
132.883245
  0
LINE
  8
CSLAYER1
  6
CONTINUOUS
 62
     6
 10
231.004467
 20
132.883245
 11
231.107964
 21
132.765388
  0
LINE
  8
CSLAYER1
  6
CONTINUOUS
 62
     6
 10
231.107964
 20
132.765388
 11
231.214511
 21
132.650788
  0
LINE
  8
CSLAYER1
  6
CONTINUOUS
 62
     6
 10
231.214511
 20
132.650788
 11
231.324545
 21
132.539910
  0
LINE
  8
CSLAYER1
  6
CONTINUOUS
 62
     6
 10
231.324545
 20
132.539910
 11
231.438502
 21
132.433219
  0
LINE
  8
CSLAYER1
  6
CONTINUOUS
 62
     6
 10
231.438502
 20
132.433219
 11
231.556817
 21
132.331181
  0
LINE
  8
CSLAYER1
  6
CONTINUOUS
 62
     6
 10
231.556817
 20
132.331181
 11
231.708242
 21
132.212143
  0
LINE
  8
CSLAYER1
  6
CONTINUOUS
 62
     6
 10
231.708242
 20
132.212143
 11
231.866482
 21
132.097630
  0
LINE
  8
CSLAYER1
  6
CONTINUOUS
 62
     6
 10
231.866482
 20
132.097630
 11
232.029602
 21
131.986691
  0
LINE
  8
CSLAYER1
  6
CONTINUOUS
 62
     6
 10
232.029602
 20
131.986691
 11
232.195671
 21
131.878372
  0
LINE
  8
CSLAYER1
  6
CONTINUOUS
 62
     6
 10
232.195671
 20
131.878372
 11
232.362752
 21
131.771723
  0
LINE
  8
CSLAYER1
  6
CONTINUOUS
 62
     6
 10
232.362752
 20
131.771723
 11
232.528913
 21
131.665790
  0
LINE
  8
CSLAYER1
  6
CONTINUOUS
 62
     6
 10
232.528913
 20
131.665790
 11
232.692220
 21
131.559622
  0
LINE
  8
CSLAYER1
  6
CONTINUOUS
 62
     6
 10
229.648052
 20
133.480096
 11
227.421930
 21
136.456334
  0
LINE
  8
CSLAYER1
  6
CONTINUOUS
 62
     6
 10
226.736688
 20
136.007390
 11
229.082219
 21
133.333504
  0
LINE
  8
CSLAYER1
  6
CONTINUOUS
 62
     6
 10
228.665001
 20
133.085776
 11
226.193231
 21
135.487584
  0
ARC
  8
CSLAYER1
  6
CONTINUOUS
 62
     6
 10
234.870419
 20
127.148586
 40
1.095863
 50
96.431024
 51
156.431024
  0
ARC
  8
CSLAYER1
  6
CONTINUOUS
 62
     6
 10
235.752120
 20
127.799369
 40
1.095863
 50
96.431024
 51
156.431024
  0
ARC
  8
CSLAYER1
  6
CONTINUOUS
 62
     6
 10
234.624930
 20
129.326520
 40
1.095863
 50
276.431024
 51
336.431024
  0
LINE
  8
CSLAYER1
  6
CONTINUOUS
 62
     6
 10
234.119103
 20
127.406799
 11
233.865991
 21
127.586766
  0
LINE
  8
CSLAYER1
  6
CONTINUOUS
 62
     6
 10
234.119103
 20
127.406799
 11
234.371964
 21
127.226479
  0
LINE
  8
CSLAYER1
  6
CONTINUOUS
 62
     6
 10
234.371964
 20
127.226479
 11
234.624324
 21
127.045453
  0
LINE
  8
CSLAYER1
  6
CONTINUOUS
 62
     6
 10
234.624324
 20
127.045453
 11
234.875932
 21
126.863369
  0
LINE
  8
CSLAYER1
  6
CONTINUOUS
 62
     6
 10
234.875932
 20
126.863369
 11
235.126537
 21
126.679874
  0
LINE
  8
CSLAYER1
  6
CONTINUOUS
 62
     6
 10
235.126537
 20
126.679874
 11
235.375890
 21
126.494615
  0
LINE
  8
CSLAYER1
  6
CONTINUOUS
 62
     6
 10
235.375890
 20
126.494615
 11
235.623739
 21
126.307240
  0
LINE
  8
CSLAYER1
  6
CONTINUOUS
 62
     6
 10
235.623739
 20
126.307240
 11
235.869834
 21
126.117395
  0
LINE
  8
CSLAYER1
  6
CONTINUOUS
 62
     6
 10
235.869834
 20
126.117395
 11
236.113924
 21
125.924727
  0
LINE
  8
CSLAYER1
  6
CONTINUOUS
 62
     6
 10
236.113924
 20
125.924727
 11
236.355758
 21
125.728885
  0
LINE
  8
CSLAYER1
  6
CONTINUOUS
 62
     6
 10
236.355758
 20
125.728885
 11
236.595086
 21
125.529515
  0
LINE
  8
CSLAYER1
  6
CONTINUOUS
 62
     6
 10
236.595086
 20
125.529515
 11
236.752351
 21
125.395218
  0
LINE
  8
CSLAYER1
  6
CONTINUOUS
 62
     6
 10
236.752351
 20
125.395218
 11
236.909400
 21
125.258194
  0
LINE
  8
CSLAYER1
  6
CONTINUOUS
 62
     6
 10
236.909400
 20
125.258194
 11
237.065491
 21
125.118634
  0
LINE
  8
CSLAYER1
  6
CONTINUOUS
 62
     6
 10
237.065491
 20
125.118634
 11
237.219881
 21
124.976732
  0
LINE
  8
CSLAYER1
  6
CONTINUOUS
 62
     6
 10
237.219881
 20
124.976732
 11
237.371825
 21
124.832679
  0
LINE
  8
CSLAYER1
  6
CONTINUOUS
 62
     6
 10
237.371825
 20
124.832679
 11
237.520582
 21
124.686669
  0
LINE
  8
CSLAYER1
  6
CONTINUOUS
 62
     6
 10
237.520582
 20
124.686669
 11
237.665408
 21
124.538894
  0
LINE
  8
CSLAYER1
  6
CONTINUOUS
 62
     6
 10
237.665408
 20
124.538894
 11
237.805561
 21
124.389547
  0
LINE
  8
CSLAYER1
  6
CONTINUOUS
 62
     6
 10
237.805561
 20
124.389547
 11
237.940297
 21
124.238819
  0
LINE
  8
CSLAYER1
  6
CONTINUOUS
 62
     6
 10
237.940297
 20
124.238819
 11
238.068872
 21
124.086904
  0
LINE
  8
CSLAYER1
  6
CONTINUOUS
 62
     6
 10
238.068872
 20
124.086904
 11
238.190545
 21
123.933995
  0
LINE
  8
CSLAYER1
  6
CONTINUOUS
 62
     6
 10
238.190545
 20
123.933995
 11
238.305000
 21
123.782668
  0
LINE
  8
CSLAYER1
  6
CONTINUOUS
 62
     6
 10
238.305000
 20
123.782668
 11
238.420301
 21
123.625415
  0
LINE
  8
CSLAYER1
  6
CONTINUOUS
 62
     6
 10
238.420301
 20
123.625415
 11
238.535914
 21
123.463357
  0
LINE
  8
CSLAYER1
  6
CONTINUOUS
 62
     6
 10
238.535914
 20
123.463357
 11
238.651307
 21
123.297617
  0
LINE
  8
CSLAYER1
  6
CONTINUOUS
 62
     6
 10
238.651307
 20
123.297617
 11
238.765947
 21
123.129318
  0
LINE
  8
CSLAYER1
  6
CONTINUOUS
 62
     6
 10
238.765947
 20
123.129318
 11
238.879301
 21
122.959582
  0
LINE
  8
CSLAYER1
  6
CONTINUOUS
 62
     6
 10
238.879301
 20
122.959582
 11
238.990836
 21
122.789531
  0
LINE
  8
CSLAYER1
  6
CONTINUOUS
 62
     6
 10
238.990836
 20
122.789531
 11
239.100021
 21
122.620288
  0
LINE
  8
CSLAYER1
  6
CONTINUOUS
 62
     6
 10
239.100021
 20
122.620288
 11
239.206320
 21
122.452977
  0
LINE
  8
CSLAYER1
  6
CONTINUOUS
 62
     6
 10
239.206320
 20
122.452977
 11
239.309203
 21
122.288718
  0
LINE
  8
CSLAYER1
  6
CONTINUOUS
 62
     6
 10
239.309203
 20
122.288718
 11
239.408136
 21
122.128636
  0
LINE
  8
CSLAYER1
  6
CONTINUOUS
 62
     6
 10
239.408136
 20
122.128636
 11
239.494610
 21
121.990410
  0
LINE
  8
CSLAYER1
  6
CONTINUOUS
 62
     6
 10
239.494610
 20
121.990410
 11
239.586562
 21
121.847952
  0
LINE
  8
CSLAYER1
  6
CONTINUOUS
 62
     6
 10
239.586562
 20
121.847952
 11
239.682762
 21
121.702472
  0
LINE
  8
CSLAYER1
  6
CONTINUOUS
 62
     6
 10
239.682762
 20
121.702472
 11
239.781981
 21
121.555182
  0
LINE
  8
CSLAYER1
  6
CONTINUOUS
 62
     6
 10
239.781981
 20
121.555182
 11
239.882989
 21
121.407292
  0
LINE
  8
CSLAYER1
  6
CONTINUOUS
 62
     6
 10
239.882989
 20
121.407292
 11
239.984557
 21
121.260013
  0
LINE
  8
CSLAYER1
  6
CONTINUOUS
 62
     6
 10
239.984557
 20
121.260013
 11
240.085455
 21
121.114557
  0
LINE
  8
CSLAYER1
  6
CONTINUOUS
 62
     6
 10
240.085455
 20
121.114557
 11
240.184454
 21
120.972133
  0
LINE
  8
CSLAYER1
  6
CONTINUOUS
 62
     6
 10
240.184454
 20
120.972133
 11
240.280323
 21
120.833953
  0
LINE
  8
CSLAYER1
  6
CONTINUOUS
 62
     6
 10
240.280323
 20
120.833953
 11
240.400865
 21
120.659123
  0
ARC
  8
CSLAYER1
  6
CONTINUOUS
 62
     6
 10
238.135661
 20
118.659123
 40
2.000000
 50
90.000000
 51
180.000000
  0
LINE
  8
CSLAYER1
  6
CONTINUOUS
 62
     6
 10
236.135661
 20
118.659123
 11
236.135661
 21
118.159123
  0
LINE
  8
CSLAYER1
  6
CONTINUOUS
 62
     6
 10
235.885661
 20
118.159123
 11
261.885661
 21
118.159123
  0
LINE
  8
CSLAYER1
  6
CONTINUOUS
 62
     6
 10
261.885661
 20
120.159123
 11
274.885661
 21
120.159123
  0
LINE
  8
CSLAYER1
  6
CONTINUOUS
 62
     6
 10
274.885661
 20
121.159123
 11
274.885661
 21
31.159123
  0
LINE
  8
CSLAYER1
  6
CONTINUOUS
 62
     6
 10
274.885661
 20
31.159123
 11
360.885661
 21
31.159123
  0
LINE
  8
CSLAYER1
  6
CONTINUOUS
 62
     6
 10
359.885661
 20
31.159123
 11
359.885661
 21
121.159123
  0
LINE
  8
CSLAYER1
  6
CONTINUOUS
 62
     6
 10
360.885661
 20
121.159123
 11
274.885661
 21
121.159123
  0
LINE
  8
CSLAYER1
  6
CONTINUOUS
 62
     6
 10
261.885661
 20
120.159123
 11
261.885661
 21
116.159123
  0
LINE
  8
CSLAYER1
  6
CONTINUOUS
 62
     6
 10
261.885661
 20
116.159123
 11
235.885661
 21
116.159123
  0
LINE
  8
CSLAYER1
  6
CONTINUOUS
 62
     6
 10
235.885661
 20
116.159123
 11
235.885661
 21
120.159123
  0
LINE
  8
CSLAYER1
  6
CONTINUOUS
 62
     6
 10
235.885661
 20
120.159123
 11
222.885661
 21
120.159123
  0
LINE
  8
CSLAYER1
  6
CONTINUOUS
 62
     6
 10
222.885661
 20
120.159123
 11
222.885661
 21
32.270665
  0
LINE
  8
CSLAYER1
  6
CONTINUOUS
 62
     6
 10
222.885661
 20
32.270665
 11
221.885661
 21
33.270665
  0
LINE
  8
CSLAYER1
  6
CONTINUOUS
 62
     6
 10
221.885661
 20
33.270665
 11
221.885661
 21
119.159123
  0
LINE
  8
CSLAYER1
  6
CONTINUOUS
 62
     6
 10
221.885661
 20
119.159123
 11
222.885661
 21
120.159123
  0
LINE
  8
CSLAYER1
  6
CONTINUOUS
 62
     6
 10
221.885661
 20
117.659123
 11
198.385630
 21
117.659123
  0
LINE
  8
CSLAYER1
  6
CONTINUOUS
 62
     6
 10
198.385630
 20
117.659092
 11
198.385630
 21
111.769032
  0
LINE
  8
CSLAYER1
  6
CONTINUOUS
 62
     6
 10
198.385630
 20
108.908169
 11
198.385630
 21
79.659056
  0
LINE
  8
CSLAYER1
  6
CONTINUOUS
 62
     6
 10
197.385630
 20
79.659056
 11
201.885630
 21
79.659056
  0
LINE
  8
CSLAYER1
  6
CONTINUOUS
 62
     6
 10
201.885630
 20
80.659099
 11
198.385630
 21
80.659099
  0
LINE
  8
CSLAYER1
  6
CONTINUOUS
 62
     6
 10
197.385630
 20
79.659056
 11
196.885630
 21
79.159056
  0
LINE
  8
CSLAYER1
  6
CONTINUOUS
 62
     6
 10
196.885630
 20
79.159056
 11
196.885630
 21
73.159206
  0
LINE
  8
CSLAYER1
  6
CONTINUOUS
 62
     6
 10
196.885630
 20
73.159206
 11
197.385630
 21
72.659206
  0
LINE
  8
CSLAYER1
  6
CONTINUOUS
 62
     6
 10
197.385630
 20
72.659206
 11
201.885630
 21
72.659206
  0
LINE
  8
CSLAYER1
  6
CONTINUOUS
 62
     6
 10
201.885630
 20
71.659099
 11
198.385630
 21
71.659099
  0
LINE
  8
CSLAYER1
  6
CONTINUOUS
 62
     6
 10
198.385630
 20
72.659206
 11
198.385630
 21
59.909099
  0
LINE
  8
CSLAYER1
  6
CONTINUOUS
 62
     6
 10
198.385630
 20
61.034886
 11
201.885630
 21
61.034886
  0
LINE
  8
CSLAYER1
  6
CONTINUOUS
 62
     6
 10
201.885630
 20
59.909099
 11
191.385630
 21
59.909099
  0
LINE
  8
CSLAYER1
  6
CONTINUOUS
 62
     6
 10
188.185618
 20
59.909099
 11
185.485667
 21
59.909099
  0
LINE
  8
CSLAYER1
  6
CONTINUOUS
 62
     6
 10
185.485667
 20
59.909099
 11
184.985667
 21
59.409099
  0
LINE
  8
CSLAYER1
  6
CONTINUOUS
 62
     6
 10
184.985667
 20
59.409099
 11
184.985667
 21
56.409099
  0
LINE
  8
CSLAYER1
  6
CONTINUOUS
 62
     6
 10
184.985667
 20
56.409099
 11
185.485667
 21
55.909099
  0
LINE
  8
CSLAYER1
  6
CONTINUOUS
 62
     6
 10
185.485667
 20
55.909099
 11
188.185618
 21
55.909099
  0
LINE
  8
CSLAYER1
  6
CONTINUOUS
 62
     6
 10
191.385630
 20
55.909099
 11
201.885630
 21
55.909099
  0
LINE
  8
CSLAYER1
  6
CONTINUOUS
 62
     6
 10
198.385630
 20
55.909099
 11
198.385630
 21
43.481000
  0
LINE
  8
CSLAYER1
  6
CONTINUOUS
 62
     6
 10
198.385630
 20
43.481000
 11
201.885630
 21
43.481000
  0
LINE
  8
CSLAYER1
  6
CONTINUOUS
 62
     6
 10
201.885630
 20
40.549213
 11
191.385630
 21
40.549213
  0
LINE
  8
CSLAYER1
  6
CONTINUOUS
 62
     6
 10
188.185648
 20
40.507679
 11
188.185648
 21
48.590626
  0
LINE
  8
CSLAYER1
  6
CONTINUOUS
 62
     6
 10
188.185648
 20
48.590626
 11
185.356028
 21
48.590595
  0
LINE
  8
CSLAYER1
  6
CONTINUOUS
 62
     6
 10
185.356028
 20
48.590656
 11
184.985667
 21
47.949177
  0
LINE
  8
CSLAYER1
  6
CONTINUOUS
 62
     6
 10
184.985667
 20
47.949177
 11
184.985667
 21
41.149159
  0
LINE
  8
CSLAYER1
  6
CONTINUOUS
 62
     6
 10
184.985667
 20
41.149159
 11
185.356028
 21
40.507679
  0
LINE
  8
CSLAYER1
  6
CONTINUOUS
 62
     6
 10
185.356028
 20
40.507679
 11
188.185648
 21
40.507679
  0
LINE
  8
CSLAYER1
  6
CONTINUOUS
 62
     6
 10
188.185618
 20
42.528462
 11
185.356028
 21
42.528462
  0
ARC
  8
CSLAYER1
  6
CONTINUOUS
 62
     6
 10
190.681925
 20
44.550373
 40
5.696063
 50
159.234213
 51
200.788722
  0
LINE
  8
CSLAYER1
  6
CONTINUOUS
 62
     6
 10
185.356028
 20
46.569874
 11
188.185618
 21
46.569904
  0
ARC
  8
CSLAYER1
  6
CONTINUOUS
 62
     6
 10
187.828562
 20
47.975147
 40
2.842214
 50
180.523377
 51
209.611871
  0
LINE
  8
CSLAYER1
  6
CONTINUOUS
 62
     6
 10
184.985667
 20
46.549244
 11
182.685648
 21
46.549244
  0
LINE
  8
CSLAYER1
  6
CONTINUOUS
 62
     6
 10
182.685648
 20
46.549244
 11
182.685648
 21
42.549244
  0
LINE
  8
CSLAYER1
  6
CONTINUOUS
 62
     6
 10
182.685648
 20
42.549244
 11
181.885630
 21
43.349232
  0
LINE
  8
CSLAYER1
  6
CONTINUOUS
 62
     6
 10
181.885630
 20
43.349232
 11
181.885630
 21
45.749226
  0
LINE
  8
CSLAYER1
  6
CONTINUOUS
 62
     6
 10
181.885630
 20
45.749226
 11
182.685648
 21
46.549244
  0
LINE
  8
CSLAYER1
  6
CONTINUOUS
 62
     6
 10
182.685648
 20
42.549244
 11
184.985667
 21
42.549244
  0
ARC
  8
CSLAYER1
  6
CONTINUOUS
 62
     6
 10
187.828562
 20
41.123188
 40
2.842214
 50
150.388146
 51
179.476583
  0
LINE
  8
CSLAYER1
  6
CONTINUOUS
 62
     6
 10
188.185618
 20
34.659107
 11
188.185618
 21
117.659123
  0
LINE
  8
CSLAYER1
  6
CONTINUOUS
 62
     6
 10
188.185618
 20
117.659123
 11
191.385630
 21
117.659123
  0
LINE
  8
CSLAYER1
  6
CONTINUOUS
 62
     6
 10
191.385630
 20
117.659123
 11
191.385630
 21
34.659107
  0
LINE
  8
CSLAYER1
  6
CONTINUOUS
 62
     6
 10
191.385661
 20
34.659107
 11
188.185648
 21
34.659107
  0
LINE
  8
CSLAYER1
  6
CONTINUOUS
 62
     6
 10
198.385630
 20
34.659107
 11
221.885661
 21
34.659107
  0
LINE
  8
CSLAYER1
  6
CONTINUOUS
 62
     6
 10
222.885661
 20
32.270665
 11
274.885661
 21
32.270665
  0
LINE
  8
CSLAYER1
  6
CONTINUOUS
 62
     6
 10
271.885661
 20
50.159123
 11
235.885661
 21
50.159123
  0
ARC
  8
CSLAYER1
  6
CONTINUOUS
 62
     6
 10
235.885661
 20
51.159123
 40
1.000000
 50
179.999995
 51
269.999984
  0
LINE
  8
CSLAYER1
  6
CONTINUOUS
 62
     6
 10
234.885661
 20
51.159123
 11
234.885661
 21
52.159123
  0
ARC
  8
CSLAYER1
  6
CONTINUOUS
 62
     6
 10
235.885661
 20
52.159123
 40
1.000000
 50
89.999999
 51
179.999981
  0
LINE
  8
CSLAYER1
  6
CONTINUOUS
 62
     6
 10
235.885661
 20
53.159123
 11
271.885661
 21
53.159123
  0
ARC
  8
CSLAYER1
  6
CONTINUOUS
 62
     6
 10
271.885661
 20
52.159123
 40
1.000000
 50
0.057309
 51
89.999999
  0
LINE
  8
CSLAYER1
  6
CONTINUOUS
 62
     6
 10
272.885661
 20
52.159123
 11
272.885661
 21
51.159123
  0
ARC
  8
CSLAYER1
  6
CONTINUOUS
 62
     6
 10
271.885661
 20
51.159123
 40
1.000000
 50
269.999997
 51
360.000000
  0
ARC
  8
CSLAYER1
  6
CONTINUOUS
 62
     6
 10
271.885661
 20
58.159123
 40
1.000000
 50
269.999997
 51
360.000000
  0
LINE
  8
CSLAYER1
  6
CONTINUOUS
 62
     6
 10
272.885661
 20
58.159123
 11
272.885661
 21
59.159123
  0
ARC
  8
CSLAYER1
  6
CONTINUOUS
 62
     6
 10
271.885661
 20
59.159123
 40
1.000000
 50
0.057309
 51
89.999999
  0
LINE
  8
CSLAYER1
  6
CONTINUOUS
 62
     6
 10
271.885661
 20
60.159123
 11
267.114421
 21
60.159123
  0
ARC
  8
CSLAYER1
  6
CONTINUOUS
 62
     6
 10
267.114421
 20
61.159123
 40
1.000000
 50
131.409633
 51
269.999997
  0
ARC
  8
CSLAYER1
  6
CONTINUOUS
 62
     6
 10
253.885661
 20
76.159123
 40
19.000000
 50
-48.590386
 51
48.590366
  0
ARC
  8
CSLAYER1
  6
CONTINUOUS
 62
     6
 10
267.114421
 20
91.159123
 40
1.000000
 50
89.999999
 51
228.590357
  0
LINE
  8
CSLAYER1
  6
CONTINUOUS
 62
     6
 10
267.114421
 20
92.159123
 11
271.885661
 21
92.159123
  0
ARC
  8
CSLAYER1
  6
CONTINUOUS
 62
     6
 10
271.885661
 20
93.159123
 40
1.000000
 50
270.000001
 51
359.942691
  0
LINE
  8
CSLAYER1
  6
CONTINUOUS
 62
     6
 10
272.885661
 20
93.159123
 11
272.885661
 21
94.159123
  0
ARC
  8
CSLAYER1
  6
CONTINUOUS
 62
     6
 10
271.885661
 20
94.159123
 40
1.000000
 50
0.000000
 51
90.000003
  0
LINE
  8
CSLAYER1
  6
CONTINUOUS
 62
     6
 10
271.885661
 20
95.159123
 11
235.885661
 21
95.159123
  0
ARC
  8
CSLAYER1
  6
CONTINUOUS
 62
     6
 10
235.885661
 20
94.159123
 40
1.000000
 50
90.000016
 51
180.000005
  0
LINE
  8
CSLAYER1
  6
CONTINUOUS
 62
     6
 10
234.885661
 20
94.159123
 11
234.885661
 21
93.159123
  0
ARC
  8
CSLAYER1
  6
CONTINUOUS
 62
     6
 10
235.885661
 20
93.159123
 40
1.000000
 50
180.000019
 51
270.000001
  0
LINE
  8
CSLAYER1
  6
CONTINUOUS
 62
     6
 10
235.885661
 20
92.159123
 11
240.656901
 21
92.159123
  0
ARC
  8
CSLAYER1
  6
CONTINUOUS
 62
     6
 10
240.656901
 20
91.159123
 40
1.000000
 50
-48.590386
 51
89.999999
  0
ARC
  8
CSLAYER1
  6
CONTINUOUS
 62
     6
 10
253.885661
 20
76.159123
 40
19.000000
 50
131.409633
 51
228.590343
  0
ARC
  8
CSLAYER1
  6
CONTINUOUS
 62
     6
 10
240.656901
 20
61.159123
 40
1.000000
 50
-90.000019
 51
48.590366
  0
LINE
  8
CSLAYER1
  6
CONTINUOUS
 62
     6
 10
240.656901
 20
60.159123
 11
235.885661
 21
60.159123
  0
ARC
  8
CSLAYER1
  6
CONTINUOUS
 62
     6
 10
235.885661
 20
59.159123
 40
1.000000
 50
89.999999
 51
179.999981
  0
LINE
  8
CSLAYER1
  6
CONTINUOUS
 62
     6
 10
234.885661
 20
59.159123
 11
234.885661
 21
58.159123
  0
ARC
  8
CSLAYER1
  6
CONTINUOUS
 62
     6
 10
235.885661
 20
58.159123
 40
1.000000
 50
179.999995
 51
269.999984
  0
LINE
  8
CSLAYER1
  6
CONTINUOUS
 62
     6
 10
235.885661
 20
57.159123
 11
271.885661
 21
57.159123
  0
LINE
  8
CSLAYER1
  6
CONTINUOUS
 62
     6
 10
259.885661
 20
75.259129
 11
259.885661
 21
77.059117
  0
LINE
  8
CSLAYER1
  6
CONTINUOUS
 62
     6
 10
259.885661
 20
77.059117
 11
247.885661
 21
77.059117
  0
LINE
  8
CSLAYER1
  6
CONTINUOUS
 62
     6
 10
247.885661
 20
77.059117
 11
247.885661
 21
75.259129
  0
LINE
  8
CSLAYER1
  6
CONTINUOUS
 62
     6
 10
247.885661
 20
75.259129
 11
259.885661
 21
75.259129
  0
CIRCLE
  8
CSLAYER1
  6
CONTINUOUS
 62
     6
 10
253.885661
 20
76.159123
 40
12.000000
  0
CIRCLE
  8
CSLAYER1
  6
CONTINUOUS
 62
     6
 10
253.885661
 20
76.159123
 40
15.000000
  0
CIRCLE
  8
CSLAYER1
  6
CONTINUOUS
 62
     6
 10
253.885661
 20
76.159123
 40
16.000000
  0
ARC
  8
CSLAYER1
  6
CONTINUOUS
 62
     6
 10
235.885661
 20
100.159123
 40
1.000000
 50
180.000019
 51
270.000001
  0
LINE
  8
CSLAYER1
  6
CONTINUOUS
 62
     6
 10
234.885661
 20
100.159123
 11
234.885661
 21
101.159123
  0
ARC
  8
CSLAYER1
  6
CONTINUOUS
 62
     6
 10
235.885661
 20
101.159123
 40
1.000000
 50
90.000016
 51
180.000005
  0
LINE
  8
CSLAYER1
  6
CONTINUOUS
 62
     6
 10
235.885661
 20
102.159123
 11
271.885661
 21
102.159123
  0
ARC
  8
CSLAYER1
  6
CONTINUOUS
 62
     6
 10
271.885661
 20
101.159123
 40
1.000000
 50
0.000000
 51
90.000003
  0
LINE
  8
CSLAYER1
  6
CONTINUOUS
 62
     6
 10
272.885661
 20
101.159123
 11
272.885661
 21
100.159123
  0
ARC
  8
CSLAYER1
  6
CONTINUOUS
 62
     6
 10
271.885661
 20
100.159123
 40
1.000000
 50
270.000001
 51
359.942691
  0
LINE
  8
CSLAYER1
  6
CONTINUOUS
 62
     6
 10
271.885661
 20
99.159123
 11
235.885661
 21
99.159123
  0
LINE
  8
CSLAYER1
  6
CONTINUOUS
 62
     6
 10
198.385630
 20
103.769032
 11
191.385630
 21
103.769032
  0
LINE
  8
CSLAYER1
  6
CONTINUOUS
 62
     6
 10
191.385630
 20
101.128963
 11
188.185618
 21
101.128963
  0
LINE
  8
CSLAYER1
  6
CONTINUOUS
 62
     6
 10
188.185648
 20
103.727619
 11
188.185648
 21
111.810566
  0
LINE
  8
CSLAYER1
  6
CONTINUOUS
 62
     6
 10
188.185648
 20
111.810566
 11
185.356028
 21
111.810566
  0
LINE
  8
CSLAYER1
  6
CONTINUOUS
 62
     6
 10
185.356028
 20
111.810566
 11
184.985667
 21
111.169087
  0
LINE
  8
CSLAYER1
  6
CONTINUOUS
 62
     6
 10
184.985667
 20
111.169087
 11
184.985667
 21
104.369068
  0
LINE
  8
CSLAYER1
  6
CONTINUOUS
 62
     6
 10
184.985667
 20
104.369068
 11
185.356028
 21
103.727589
  0
LINE
  8
CSLAYER1
  6
CONTINUOUS
 62
     6
 10
185.356028
 20
103.727650
 11
188.185648
 21
103.727619
  0
ARC
  8
CSLAYER1
  6
CONTINUOUS
 62
     6
 10
187.828562
 20
104.343098
 40
2.842214
 50
150.388146
 51
179.476641
  0
LINE
  8
CSLAYER1
  6
CONTINUOUS
 62
     6
 10
185.356028
 20
105.748371
 11
188.185618
 21
105.748341
  0
ARC
  8
CSLAYER1
  6
CONTINUOUS
 62
     6
 10
190.681925
 20
107.767872
 40
5.696063
 50
159.211238
 51
200.765804
  0
LINE
  8
CSLAYER1
  6
CONTINUOUS
 62
     6
 10
185.356028
 20
109.789784
 11
188.185618
 21
109.789784
  0
ARC
  8
CSLAYER1
  6
CONTINUOUS
 62
     6
 10
187.828562
 20
111.195057
 40
2.842214
 50
180.523377
 51
209.611871
  0
LINE
  8
CSLAYER1
  6
CONTINUOUS
 62
     6
 10
184.985667
 20
109.769001
 11
182.685648
 21
109.769001
  0
LINE
  8
CSLAYER1
  6
CONTINUOUS
 62
     6
 10
182.685648
 20
109.769001
 11
182.685648
 21
105.769001
  0
LINE
  8
CSLAYER1
  6
CONTINUOUS
 62
     6
 10
182.685648
 20
105.769001
 11
181.885630
 21
106.569019
  0
LINE
  8
CSLAYER1
  6
CONTINUOUS
 62
     6
 10
181.885630
 20
106.569019
 11
181.885630
 21
108.969013
  0
LINE
  8
CSLAYER1
  6
CONTINUOUS
 62
     6
 10
181.885630
 20
108.969013
 11
182.685648
 21
109.769001
  0
LINE
  8
CSLAYER1
  6
CONTINUOUS
 62
     6
 10
182.685648
 20
105.769001
 11
184.985667
 21
105.769001
  0
LINE
  8
CSLAYER1
  6
CONTINUOUS
 62
     6
 10
191.385630
 20
111.769032
 11
201.885630
 21
111.769032
  0
LINE
  8
CSLAYER1
  6
CONTINUOUS
 62
     6
 10
201.885630
 20
108.908169
 11
198.385630
 21
108.908169
  0
LINE
  8
CSLAYER1
  6
CONTINUOUS
 62
     6
 10
198.385630
 20
114.805012
 11
201.885630
 21
114.805012
  0
LINE
  8
CSLAYER1
  6
CONTINUOUS
 62
     6
 10
201.885630
 20
117.659092
 11
201.885630
 21
34.659107
  0
LINE
  8
CSLAYER1
  6
CONTINUOUS
 62
     6
 10
201.885630
 20
37.513234
 11
198.385630
 21
37.513234
  0
LINE
  8
CSLAYER1
  6
CONTINUOUS
 62
     6
 10
198.385630
 20
34.659107
 11
198.385630
 21
40.549213
  0
LINE
  8
CSLAYER1
  6
CONTINUOUS
 62
     6
 10
198.385630
 20
48.549213
 11
191.385630
 21
48.549213
  0
LINE
  8
CSLAYER1
  6
CONTINUOUS
 62
     6
 10
198.385630
 20
51.189235
 11
201.885630
 21
51.189235
  0
LINE
  8
CSLAYER1
  6
CONTINUOUS
 62
     6
 10
188.185618
 20
63.159123
 11
186.385630
 21
63.159123
  0
LINE
  8
CSLAYER1
  6
CONTINUOUS
 62
     6
 10
186.385630
 20
63.159123
 11
186.385630
 21
89.159123
  0
LINE
  8
CSLAYER1
  6
CONTINUOUS
 62
     6
 10
186.385630
 20
89.159123
 11
188.185618
 21
89.159123
  0
LINE
  8
CSLAYER1
  6
CONTINUOUS
 62
     6
 10
188.185618
 20
92.236659
 11
191.385630
 21
92.236659
  0
LINE
  8
CSLAYER1
  6
CONTINUOUS
 62
     6
 10
188.185618
 20
92.409084
 11
185.485667
 21
92.409084
  0
LINE
  8
CSLAYER1
  6
CONTINUOUS
 62
     6
 10
185.485667
 20
92.409084
 11
184.985667
 21
92.909084
  0
LINE
  8
CSLAYER1
  6
CONTINUOUS
 62
     6
 10
184.985667
 20
92.909084
 11
184.985667
 21
95.909084
  0
LINE
  8
CSLAYER1
  6
CONTINUOUS
 62
     6
 10
184.985667
 20
95.909084
 11
185.485667
 21
96.409084
  0
LINE
  8
CSLAYER1
  6
CONTINUOUS
 62
     6
 10
185.485667
 20
96.409084
 11
188.185618
 21
96.409084
  0
LINE
  8
CSLAYER1
  6
CONTINUOUS
 62
     6
 10
186.385630
 20
84.659123
 11
185.385630
 21
84.659123
  0
LINE
  8
CSLAYER1
  6
CONTINUOUS
 62
     6
 10
185.385630
 20
84.659123
 11
185.385630
 21
67.659123
  0
LINE
  8
CSLAYER1
  6
CONTINUOUS
 62
     6
 10
185.385630
 20
67.659123
 11
186.385630
 21
67.659123
  0
LINE
  8
CSLAYER1
  6
CONTINUOUS
 62
     6
 10
185.385630
 20
71.159123
 11
182.885630
 21
71.159123
  0
LINE
  8
CSLAYER1
  6
CONTINUOUS
 62
     6
 10
182.885630
 20
71.159123
 11
182.385630
 21
71.659123
  0
LINE
  8
CSLAYER1
  6
CONTINUOUS
 62
     6
 10
182.385630
 20
71.659123
 11
182.385630
 21
80.659123
  0
LINE
  8
CSLAYER1
  6
CONTINUOUS
 62
     6
 10
182.385630
 20
80.659123
 11
182.885630
 21
81.159123
  0
LINE
  8
CSLAYER1
  6
CONTINUOUS
 62
     6
 10
182.885630
 20
81.159123
 11
185.385630
 21
81.159123
  0
LINE
  8
CSLAYER1
  6
CONTINUOUS
 62
     6
 10
188.185618
 20
80.659099
 11
191.385630
 21
80.659099
  0
LINE
  8
CSLAYER1
  6
CONTINUOUS
 62
     6
 10
191.385630
 20
71.659099
 11
188.185618
 21
71.659099
  0
LINE
  8
CSLAYER1
  6
CONTINUOUS
 62
     6
 10
182.385630
 20
74.459221
 11
181.885661
 21
74.959171
  0
LINE
  8
CSLAYER1
  6
CONTINUOUS
 62
     6
 10
181.885661
 20
74.959171
 11
181.885661
 21
77.359165
  0
LINE
  8
CSLAYER1
  6
CONTINUOUS
 62
     6
 10
181.885661
 20
77.359165
 11
182.385630
 21
77.859135
  0
LINE
  8
CSLAYER1
  6
CONTINUOUS
 62
     6
 10
208.996592
 20
117.659123
 11
208.996592
 21
118.579914
  0
LINE
  8
CSLAYER1
  6
CONTINUOUS
 62
     6
 10
208.996592
 20
118.579914
 11
214.774668
 21
118.579914
  0
LINE
  8
CSLAYER1
  6
CONTINUOUS
 62
     6
 10
214.774668
 20
118.579914
 11
214.774668
 21
117.659123
  0
LINE
  8
CSLAYER1
  6
CONTINUOUS
 62
     6
 10
212.886668
 20
118.579914
 11
212.886668
 21
125.341068
  0
ARC
  8
CSLAYER1
  6
CONTINUOUS
 62
     6
 10
212.386164
 20
126.207981
 40
1.001006
 50
240.000019
 51
300.000019
  0
ARC
  8
CSLAYER1
  6
CONTINUOUS
 62
     6
 10
211.385158
 20
124.474187
 40
1.001006
 50
60.000019
 51
120.000019
  0
LINE
  8
CSLAYER1
  6
CONTINUOUS
 62
     6
 10
210.884654
 20
125.341068
 11
210.884654
 21
118.579914
  0
ARC
  8
CSLAYER1
  6
CONTINUOUS
 62
     6
 10
212.386164
 20
124.474187
 40
1.001006
 50
60.000019
 51
120.000019
  0
ARC
  8
CSLAYER1
  6
CONTINUOUS
 62
     6
 10
212.386135
 20
127.699441
 40
1.000999
 50
239.999638
 51
299.999638
  0
ARC
  8
CSLAYER1
  6
CONTINUOUS
 62
     6
 10
211.385136
 20
127.699448
 40
1.000999
 50
239.999638
 51
299.999638
  0
ARC
  8
CSLAYER1
  6
CONTINUOUS
 62
     6
 10
211.385125
 20
125.965667
 40
1.000999
 50
59.999638
 51
119.999638
  0
LINE
  8
CSLAYER1
  6
CONTINUOUS
 62
     6
 10
210.884654
 20
126.832554
 11
210.884654
 21
127.991200
  0
ARC
  8
CSLAYER1
  6
CONTINUOUS
 62
     6
 10
198.546122
 20
127.991200
 40
12.338538
 50
0.057313
 51
27.463775
  0
LINE
  8
CSLAYER1
  6
CONTINUOUS
 62
     6
 10
209.494120
 20
133.681553
 11
211.270457
 21
134.604862
  0
ARC
  8
CSLAYER1
  6
CONTINUOUS
 62
     6
 10
198.546122
 20
127.991200
 40
14.340522
 50
0.057313
 51
27.463775
  0
ARC
  8
CSLAYER1
  6
CONTINUOUS
 62
     6
 10
225.225138
 20
128.005604
 40
12.338538
 50
152.536108
 51
180.000037
  0
LINE
  8
CSLAYER1
  6
CONTINUOUS
 62
     6
 10
214.277140
 20
133.695988
 11
212.500803
 21
134.619297
  0
ARC
  8
CSLAYER1
  6
CONTINUOUS
 62
     6
 10
225.225138
 20
128.005604
 40
14.340522
 50
152.536108
 51
158.496702
  0
LINE
  8
CSLAYER1
  6
CONTINUOUS
 62
     6
 10
210.899760
 20
134.412205
 11
209.624400
 21
136.304798
  0
LINE
  8
CSLAYER1
  6
CONTINUOUS
 62
     6
 10
209.102580
 20
136.050617
 11
210.537455
 21
134.223881
  0
LINE
  8
CSLAYER1
  6
CONTINUOUS
 62
     6
 10
210.092539
 20
133.992588
 11
208.620921
 21
136.666264
  0
LINE
  8
CSLAYER1
  6
CONTINUOUS
 62
     6
 10
212.871500
 20
134.426563
 11
214.146861
 21
136.319233
  0
LINE
  8
CSLAYER1
  6
CONTINUOUS
 62
     6
 10
214.668681
 20
136.065022
 11
213.233805
 21
134.238285
  0
LINE
  8
CSLAYER1
  6
CONTINUOUS
 62
     6
 10
213.678721
 20
134.007023
 11
215.150340
 21
136.680653
  0
LINE
  8
CSLAYER1
  6
CONTINUOUS
 62
     6
 10
212.886668
 20
127.991200
 11
212.886668
 21
126.832554
  0
LINE
  8
CSLAYER1
  6
CONTINUOUS
 62
     6
 10
235.629388
 20
128.888341
 11
235.732342
 21
128.848039
  0
LINE
  8
CSLAYER1
  6
CONTINUOUS
 62
     6
 10
235.732342
 20
128.848039
 11
235.835110
 21
128.807463
  0
LINE
  8
CSLAYER1
  6
CONTINUOUS
 62
     6
 10
235.835110
 20
128.807463
 11
235.937507
 21
128.766337
  0
LINE
  8
CSLAYER1
  6
CONTINUOUS
 62
     6
 10
235.937507
 20
128.766337
 11
236.039346
 21
128.724385
  0
LINE
  8
CSLAYER1
  6
CONTINUOUS
 62
     6
 10
236.039346
 20
128.724385
 11
236.140442
 21
128.681334
  0
LINE
  8
CSLAYER1
  6
CONTINUOUS
 62
     6
 10
236.140442
 20
128.681334
 11
236.240608
 21
128.636908
  0
LINE
  8
CSLAYER1
  6
CONTINUOUS
 62
     6
 10
236.240608
 20
128.636908
 11
236.339660
 21
128.590831
  0
LINE
  8
CSLAYER1
  6
CONTINUOUS
 62
     6
 10
236.339660
 20
128.590831
 11
236.437411
 21
128.542830
  0
LINE
  8
CSLAYER1
  6
CONTINUOUS
 62
     6
 10
236.437411
 20
128.542830
 11
236.533676
 21
128.492629
  0
LINE
  8
CSLAYER1
  6
CONTINUOUS
 62
     6
 10
236.533676
 20
128.492629
 11
236.628268
 21
128.439952
  0
LINE
  8
CSLAYER1
  6
CONTINUOUS
 62
     6
 10
236.628268
 20
128.439952
 11
236.721002
 21
128.384526
  0
LINE
  8
CSLAYER1
  6
CONTINUOUS
 62
     6
 10
236.721002
 20
128.384526
 11
236.891285
 21
128.271993
  0
LINE
  8
CSLAYER1
  6
CONTINUOUS
 62
     6
 10
236.891285
 20
128.271993
 11
237.057589
 21
128.149053
  0
LINE
  8
CSLAYER1
  6
CONTINUOUS
 62
     6
 10
237.057589
 20
128.149053
 11
237.219813
 21
128.017263
  0
LINE
  8
CSLAYER1
  6
CONTINUOUS
 62
     6
 10
237.219813
 20
128.017263
 11
237.377854
 21
127.878178
  0
LINE
  8
CSLAYER1
  6
CONTINUOUS
 62
     6
 10
237.377854
 20
127.878178
 11
237.531610
 21
127.733354
  0
LINE
  8
CSLAYER1
  6
CONTINUOUS
 62
     6
 10
237.531610
 20
127.733354
 11
237.680981
 21
127.584347
  0
LINE
  8
CSLAYER1
  6
CONTINUOUS
 62
     6
 10
237.680981
 20
127.584347
 11
237.825864
 21
127.432713
  0
LINE
  8
CSLAYER1
  6
CONTINUOUS
 62
     6
 10
237.825864
 20
127.432713
 11
237.966157
 21
127.280009
  0
LINE
  8
CSLAYER1
  6
CONTINUOUS
 62
     6
 10
237.966157
 20
127.280009
 11
238.101760
 21
127.127789
  0
LINE
  8
CSLAYER1
  6
CONTINUOUS
 62
     6
 10
238.101760
 20
127.127789
 11
238.232569
 21
126.977611
  0
LINE
  8
CSLAYER1
  6
CONTINUOUS
 62
     6
 10
238.232569
 20
126.977611
 11
238.358484
 21
126.831029
  0
LINE
  8
CSLAYER1
  6
CONTINUOUS
 62
     6
 10
238.358484
 20
126.831029
 11
238.497012
 21
126.674839
  0
LINE
  8
CSLAYER1
  6
CONTINUOUS
 62
     6
 10
238.497012
 20
126.674839
 11
238.645028
 21
126.517663
  0
LINE
  8
CSLAYER1
  6
CONTINUOUS
 62
     6
 10
238.645028
 20
126.517663
 11
238.800567
 21
126.359811
  0
LINE
  8
CSLAYER1
  6
CONTINUOUS
 62
     6
 10
238.800567
 20
126.359811
 11
238.961664
 21
126.201591
  0
LINE
  8
CSLAYER1
  6
CONTINUOUS
 62
     6
 10
238.961664
 20
126.201591
 11
239.126354
 21
126.043311
  0
LINE
  8
CSLAYER1
  6
CONTINUOUS
 62
     6
 10
239.126354
 20
126.043311
 11
239.292672
 21
125.885280
  0
LINE
  8
CSLAYER1
  6
CONTINUOUS
 62
     6
 10
239.292672
 20
125.885280
 11
239.458652
 21
125.727806
  0
LINE
  8
CSLAYER1
  6
CONTINUOUS
 62
     6
 10
239.458652
 20
125.727806
 11
239.622329
 21
125.571198
  0
LINE
  8
CSLAYER1
  6
CONTINUOUS
 62
     6
 10
239.622329
 20
125.571198
 11
239.781738
 21
125.415764
  0
LINE
  8
CSLAYER1
  6
CONTINUOUS
 62
     6
 10
239.781738
 20
125.415764
 11
239.934913
 21
125.261814
  0
LINE
  8
CSLAYER1
  6
CONTINUOUS
 62
     6
 10
239.934913
 20
125.261814
 11
240.079889
 21
125.109654
  0
LINE
  8
CSLAYER1
  6
CONTINUOUS
 62
     6
 10
240.079889
 20
125.109654
 11
240.202104
 21
124.977225
  0
LINE
  8
CSLAYER1
  6
CONTINUOUS
 62
     6
 10
240.202104
 20
124.977225
 11
240.327703
 21
124.839575
  0
LINE
  8
CSLAYER1
  6
CONTINUOUS
 62
     6
 10
240.327703
 20
124.839575
 11
240.455552
 21
124.697603
  0
LINE
  8
CSLAYER1
  6
CONTINUOUS
 62
     6
 10
240.455552
 20
124.697603
 11
240.584519
 21
124.552208
  0
LINE
  8
CSLAYER1
  6
CONTINUOUS
 62
     6
 10
240.584519
 20
124.552208
 11
240.713472
 21
124.404290
  0
LINE
  8
CSLAYER1
  6
CONTINUOUS
 62
     6
 10
240.713472
 20
124.404290
 11
240.841277
 21
124.254747
  0
LINE
  8
CSLAYER1
  6
CONTINUOUS
 62
     6
 10
240.841277
 20
124.254747
 11
240.966803
 21
124.104479
  0
LINE
  8
CSLAYER1
  6
CONTINUOUS
 62
     6
 10
240.966803
 20
124.104479
 11
241.088917
 21
123.954385
  0
LINE
  8
CSLAYER1
  6
CONTINUOUS
 62
     6
 10
241.088917
 20
123.954385
 11
241.206485
 21
123.805363
  0
LINE
  8
CSLAYER1
  6
CONTINUOUS
 62
     6
 10
241.206485
 20
123.805363
 11
241.318376
 21
123.658313
  0
LINE
  8
CSLAYER1
  6
CONTINUOUS
 62
     6
 10
241.318376
 20
123.658313
 11
241.423456
 21
123.514134
  0
LINE
  8
CSLAYER1
  6
CONTINUOUS
 62
     6
 10
241.423456
 20
123.514134
 11
241.551701
 21
123.331919
  0
LINE
  8
CSLAYER1
  6
CONTINUOUS
 62
     6
 10
241.551701
 20
123.331919
 11
241.684232
 21
123.139895
  0
LINE
  8
CSLAYER1
  6
CONTINUOUS
 62
     6
 10
241.684232
 20
123.139895
 11
241.819468
 21
122.940245
  0
LINE
  8
CSLAYER1
  6
CONTINUOUS
 62
     6
 10
241.819468
 20
122.940245
 11
241.955829
 21
122.735158
  0
LINE
  8
CSLAYER1
  6
CONTINUOUS
 62
     6
 10
241.955829
 20
122.735158
 11
242.091731
 21
122.526818
  0
LINE
  8
CSLAYER1
  6
CONTINUOUS
 62
     6
 10
242.091731
 20
122.526818
 11
242.225593
 21
122.317412
  0
LINE
  8
CSLAYER1
  6
CONTINUOUS
 62
     6
 10
242.225593
 20
122.317412
 11
242.355835
 21
122.109127
  0
LINE
  8
CSLAYER1
  6
CONTINUOUS
 62
     6
 10
242.355835
 20
122.109127
 11
242.480873
 21
121.904147
  0
LINE
  8
CSLAYER1
  6
CONTINUOUS
 62
     6
 10
242.480873
 20
121.904147
 11
242.599127
 21
121.704660
  0
LINE
  8
CSLAYER1
  6
CONTINUOUS
 62
     6
 10
242.599127
 20
121.704660
 11
242.709014
 21
121.512851
  0
LINE
  8
CSLAYER1
  6
CONTINUOUS
 62
     6
 10
242.709014
 20
121.512851
 11
242.757261
 21
121.425017
  0
LINE
  8
CSLAYER1
  6
CONTINUOUS
 62
     6
 10
242.753154
 20
121.447920
 11
242.692125
 21
121.761231
  0
LINE
  8
CSLAYER1
  6
CONTINUOUS
 62
     6
 10
242.692125
 20
121.761231
 11
242.625768
 21
122.080319
  0
LINE
  8
CSLAYER1
  6
CONTINUOUS
 62
     6
 10
242.625768
 20
122.080319
 11
242.555216
 21
122.401930
  0
LINE
  8
CSLAYER1
  6
CONTINUOUS
 62
     6
 10
242.555216
 20
122.401930
 11
242.481600
 21
122.722811
  0
LINE
  8
CSLAYER1
  6
CONTINUOUS
 62
     6
 10
242.481600
 20
122.722811
 11
242.406054
 21
123.039712
  0
LINE
  8
CSLAYER1
  6
CONTINUOUS
 62
     6
 10
242.406054
 20
123.039712
 11
242.329710
 21
123.349377
  0
LINE
  8
CSLAYER1
  6
CONTINUOUS
 62
     6
 10
242.329710
 20
123.349377
 11
242.253702
 21
123.648556
  0
LINE
  8
CSLAYER1
  6
CONTINUOUS
 62
     6
 10
242.253702
 20
123.648556
 11
242.179162
 21
123.933995
  0
LINE
  8
CSLAYER1
  6
CONTINUOUS
 62
     6
 10
242.179162
 20
123.933995
 11
242.103692
 21
124.203488
  0
LINE
  8
CSLAYER1
  6
CONTINUOUS
 62
     6
 10
242.103692
 20
124.203488
 11
242.018846
 21
124.478203
  0
LINE
  8
CSLAYER1
  6
CONTINUOUS
 62
     6
 10
242.018846
 20
124.478203
 11
241.925401
 21
124.757008
  0
LINE
  8
CSLAYER1
  6
CONTINUOUS
 62
     6
 10
241.925401
 20
124.757008
 11
241.824136
 21
125.038774
  0
LINE
  8
CSLAYER1
  6
CONTINUOUS
 62
     6
 10
241.824136
 20
125.038774
 11
241.715827
 21
125.322367
  0
LINE
  8
CSLAYER1
  6
CONTINUOUS
 62
     6
 10
241.715827
 20
125.322367
 11
241.601252
 21
125.606657
  0
LINE
  8
CSLAYER1
  6
CONTINUOUS
 62
     6
 10
241.601252
 20
125.606657
 11
241.481189
 21
125.890513
  0
LINE
  8
CSLAYER1
  6
CONTINUOUS
 62
     6
 10
241.481189
 20
125.890513
 11
241.356415
 21
126.172803
  0
LINE
  8
CSLAYER1
  6
CONTINUOUS
 62
     6
 10
241.356415
 20
126.172803
 11
241.227707
 21
126.452396
  0
LINE
  8
CSLAYER1
  6
CONTINUOUS
 62
     6
 10
241.227707
 20
126.452396
 11
241.095844
 21
126.728161
  0
LINE
  8
CSLAYER1
  6
CONTINUOUS
 62
     6
 10
241.095844
 20
126.728161
 11
240.961603
 21
126.998967
  0
LINE
  8
CSLAYER1
  6
CONTINUOUS
 62
     6
 10
240.961603
 20
126.998967
 11
240.841458
 21
127.233395
  0
LINE
  8
CSLAYER1
  6
CONTINUOUS
 62
     6
 10
240.841458
 20
127.233395
 11
240.718561
 21
127.466276
  0
LINE
  8
CSLAYER1
  6
CONTINUOUS
 62
     6
 10
240.718561
 20
127.466276
 11
240.593187
 21
127.697766
  0
LINE
  8
CSLAYER1
  6
CONTINUOUS
 62
     6
 10
240.593187
 20
127.697766
 11
240.465611
 21
127.928018
  0
LINE
  8
CSLAYER1
  6
CONTINUOUS
 62
     6
 10
240.465611
 20
127.928018
 11
240.336109
 21
128.157188
  0
LINE
  8
CSLAYER1
  6
CONTINUOUS
 62
     6
 10
240.336109
 20
128.157188
 11
240.204956
 21
128.385429
  0
LINE
  8
CSLAYER1
  6
CONTINUOUS
 62
     6
 10
240.204956
 20
128.385429
 11
240.072426
 21
128.612898
  0
LINE
  8
CSLAYER1
  6
CONTINUOUS
 62
     6
 10
240.072426
 20
128.612898
 11
239.938796
 21
128.839748
  0
LINE
  8
CSLAYER1
  6
CONTINUOUS
 62
     6
 10
239.938796
 20
128.839748
 11
239.804339
 21
129.066133
  0
LINE
  8
CSLAYER1
  6
CONTINUOUS
 62
     6
 10
239.804339
 20
129.066133
 11
239.669333
 21
129.292210
  0
LINE
  8
CSLAYER1
  6
CONTINUOUS
 62
     6
 10
239.669333
 20
129.292210
 11
239.534051
 21
129.518132
  0
ARC
  8
CSLAYER1
  6
CONTINUOUS
 62
     6
 10
240.568454
 20
128.909777
 40
1.200008
 50
89.538514
 51
149.538514
  0
ARC
  8
CSLAYER1
  6
CONTINUOUS
 62
     6
 10
241.612490
 20
129.501391
 40
1.200008
 50
89.538514
 51
149.538514
  0
ARC
  8
CSLAYER1
  6
CONTINUOUS
 62
     6
 10
240.587785
 20
131.309715
 40
1.200008
 50
269.538514
 51
329.538514
  0
LINE
  8
CSLAYER1
  6
CONTINUOUS
 62
     6
 10
241.622156
 20
130.701359
 11
241.764942
 21
130.462463
  0
LINE
  8
CSLAYER1
  6
CONTINUOUS
 62
     6
 10
241.764942
 20
130.462463
 11
241.907447
 21
130.223409
  0
LINE
  8
CSLAYER1
  6
CONTINUOUS
 62
     6
 10
241.907447
 20
130.223409
 11
242.049391
 21
129.984037
  0
LINE
  8
CSLAYER1
  6
CONTINUOUS
 62
     6
 10
242.049391
 20
129.984037
 11
242.190493
 21
129.744190
  0
LINE
  8
CSLAYER1
  6
CONTINUOUS
 62
     6
 10
242.190493
 20
129.744190
 11
242.330471
 21
129.503708
  0
LINE
  8
CSLAYER1
  6
CONTINUOUS
 62
     6
 10
242.330471
 20
129.503708
 11
242.469046
 21
129.262433
  0
LINE
  8
CSLAYER1
  6
CONTINUOUS
 62
     6
 10
242.469046
 20
129.262433
 11
242.605936
 21
129.020206
  0
LINE
  8
CSLAYER1
  6
CONTINUOUS
 62
     6
 10
242.605936
 20
129.020206
 11
242.740861
 21
128.776869
  0
LINE
  8
CSLAYER1
  6
CONTINUOUS
 62
     6
 10
242.740861
 20
128.776869
 11
242.873540
 21
128.532263
  0
LINE
  8
CSLAYER1
  6
CONTINUOUS
 62
     6
 10
242.873540
 20
128.532263
 11
243.003692
 21
128.286229
  0
LINE
  8
CSLAYER1
  6
CONTINUOUS
 62
     6
 10
243.003692
 20
128.286229
 11
243.131036
 21
128.038609
  0
LINE
  8
CSLAYER1
  6
CONTINUOUS
 62
     6
 10
243.131036
 20
128.038609
 11
243.280710
 21
127.737788
  0
LINE
  8
CSLAYER1
  6
CONTINUOUS
 62
     6
 10
243.280710
 20
127.737788
 11
243.427665
 21
127.431406
  0
LINE
  8
CSLAYER1
  6
CONTINUOUS
 62
     6
 10
243.427665
 20
127.431406
 11
243.571032
 21
127.120724
  0
LINE
  8
CSLAYER1
  6
CONTINUOUS
 62
     6
 10
243.571032
 20
127.120724
 11
243.709941
 21
126.807000
  0
LINE
  8
CSLAYER1
  6
CONTINUOUS
 62
     6
 10
243.709941
 20
126.807000
 11
243.843523
 21
126.491494
  0
LINE
  8
CSLAYER1
  6
CONTINUOUS
 62
     6
 10
243.843523
 20
126.491494
 11
243.970910
 21
126.175466
  0
LINE
  8
CSLAYER1
  6
CONTINUOUS
 62
     6
 10
243.970910
 20
126.175466
 11
244.091232
 21
125.860175
  0
LINE
  8
CSLAYER1
  6
CONTINUOUS
 62
     6
 10
244.091232
 20
125.860175
 11
244.203620
 21
125.546879
  0
LINE
  8
CSLAYER1
  6
CONTINUOUS
 62
     6
 10
244.203620
 20
125.546879
 11
244.307206
 21
125.236840
  0
LINE
  8
CSLAYER1
  6
CONTINUOUS
 62
     6
 10
244.307206
 20
125.236840
 11
244.401119
 21
124.931316
  0
LINE
  8
CSLAYER1
  6
CONTINUOUS
 62
     6
 10
244.401119
 20
124.931316
 11
244.484491
 21
124.631566
  0
LINE
  8
CSLAYER1
  6
CONTINUOUS
 62
     6
 10
244.484491
 20
124.631566
 11
244.562908
 21
124.329149
  0
LINE
  8
CSLAYER1
  6
CONTINUOUS
 62
     6
 10
244.562908
 20
124.329149
 11
244.642973
 21
124.012347
  0
LINE
  8
CSLAYER1
  6
CONTINUOUS
 62
     6
 10
244.642973
 20
124.012347
 11
244.723489
 21
123.684557
  0
LINE
  8
CSLAYER1
  6
CONTINUOUS
 62
     6
 10
244.723489
 20
123.684557
 11
244.803263
 21
123.349171
  0
LINE
  8
CSLAYER1
  6
CONTINUOUS
 62
     6
 10
244.803263
 20
123.349171
 11
244.881099
 21
123.009587
  0
LINE
  8
CSLAYER1
  6
CONTINUOUS
 62
     6
 10
244.881099
 20
123.009587
 11
244.955802
 21
122.669200
  0
LINE
  8
CSLAYER1
  6
CONTINUOUS
 62
     6
 10
244.955802
 20
122.669200
 11
245.026178
 21
122.331403
  0
LINE
  8
CSLAYER1
  6
CONTINUOUS
 62
     6
 10
245.026178
 20
122.331403
 11
245.091031
 21
121.999594
  0
LINE
  8
CSLAYER1
  6
CONTINUOUS
 62
     6
 10
245.091031
 20
121.999594
 11
245.149166
 21
121.677167
  0
LINE
  8
CSLAYER1
  6
CONTINUOUS
 62
     6
 10
245.149166
 20
121.677167
 11
245.314284
 21
120.659123
  0
LINE
  8
CSLAYER1
  6
CONTINUOUS
 62
     6
 10
246.209758
 20
119.706364
 11
246.154674
 21
119.076542
  0
ARC
  8
CSLAYER1
  6
CONTINUOUS
 62
     6
 10
246.353923
 20
119.059117
 40
0.200000
 50
174.999846
 51
269.999997
  0
ARC
  8
CSLAYER1
  6
CONTINUOUS
 62
     6
 10
246.085673
 20
118.759129
 40
0.100000
 50
89.999999
 51
179.999995
  0
LINE
  8
CSLAYER1
  6
CONTINUOUS
 62
     6
 10
245.985637
 20
118.759129
 11
245.985637
 21
118.259129
  0
ARC
  8
CSLAYER1
  6
CONTINUOUS
 62
     6
 10
246.085673
 20
118.259129
 40
0.100000
 50
179.999995
 51
269.999997
  0
LINE
  8
CSLAYER1
  6
CONTINUOUS
 62
     6
 10
246.085673
 20
118.859135
 11
248.885661
 21
118.859135
  0
LINE
  8
CSLAYER1
  6
CONTINUOUS
 62
     6
 10
248.885661
 20
118.859135
 11
251.685649
 21
118.859105
  0
ARC
  8
CSLAYER1
  6
CONTINUOUS
 62
     6
 10
251.685649
 20
118.759129
 40
0.100000
 50
0.057309
 51
89.999999
  0
LINE
  8
CSLAYER1
  6
CONTINUOUS
 62
     6
 10
251.785625
 20
118.759129
 11
251.785625
 21
118.259129
  0
ARC
  8
CSLAYER1
  6
CONTINUOUS
 62
     6
 10
251.685649
 20
118.259129
 40
0.100000
 50
269.999984
 51
359.999990
  0
ARC
  8
CSLAYER1
  6
CONTINUOUS
 62
     6
 10
251.417399
 20
119.059117
 40
0.200000
 50
-90.000019
 51
5.000126
  0
LINE
  8
CSLAYER1
  6
CONTINUOUS
 62
     6
 10
251.616618
 20
119.076542
 11
251.561503
 21
119.706364
  0
ARC
  8
CSLAYER1
  6
CONTINUOUS
 62
     6
 10
250.565318
 20
119.619206
 40
1.000000
 50
5.000098
 51
73.742592
  0
ARC
  8
CSLAYER1
  6
CONTINUOUS
 62
     6
 10
248.885661
 20
113.859135
 40
7.000000
 50
73.742974
 51
106.256997
  0
ARC
  8
CSLAYER1
  6
CONTINUOUS
 62
     6
 10
247.205974
 20
119.619206
 40
1.000000
 50
106.257380
 51
174.999887
  0
LINE
  8
CSLAYER1
  6
CONTINUOUS
 62
     6
 10
247.224286
 20
120.659123
 11
238.135661
 21
120.659123
  0
LINE
  8
CSLAYER1
  6
CONTINUOUS
 62
     6
 10
242.753154
 20
121.447920
 11
242.807720
 21
121.143637
  0
LINE
  8
CSLAYER1
  6
CONTINUOUS
 62
     6
 10
242.807720
 20
121.143637
 11
242.885661
 21
120.659123
  0
LINE
  8
CSLAYER1
  6
CONTINUOUS
 62
     6
 10
249.233623
 20
118.159123
 11
248.789744
 21
118.859105
  0
LINE
  8
CSLAYER1
  6
CONTINUOUS
 62
     6
 10
248.289744
 20
118.859105
 11
248.733623
 21
118.159123
  0
LINE
  8
CSLAYER1
  6
CONTINUOUS
 62
     6
 10
360.885570
 20
126.159123
 11
370.885631
 21
126.159123
  0
LINE
  8
CSLAYER1
  6
CONTINUOUS
 62
     6
 10
370.885661
 20
126.159123
 11
370.885661
 21
26.159123
  0
LINE
  8
CSLAYER1
  6
CONTINUOUS
 62
     6
 10
370.885631
 20
26.159123
 11
360.885570
 21
26.159123
  0
LINE
  8
CSLAYER1
  6
CONTINUOUS
 62
     6
 10
360.885661
 20
26.159123
 11
360.885661
 21
49.097874
  0
LINE
  8
CSLAYER1
  6
CONTINUOUS
 62
     6
 10
370.885661
 20
46.159123
 11
373.885661
 21
46.159123
  0
LINE
  8
CSLAYER1
  6
CONTINUOUS
 62
     6
 10
373.885661
 20
46.159123
 11
373.885661
 21
106.159123
  0
LINE
  8
CSLAYER1
  6
CONTINUOUS
 62
     6
 10
373.885661
 20
106.159123
 11
370.885661
 21
106.159123
  0
LINE
  8
CSLAYER1
  6
CONTINUOUS
 62
     6
 10
366.885661
 20
116.159123
 11
366.885661
 21
36.159123
  0
LINE
  8
CSLAYER1
  6
CONTINUOUS
 62
     6
 10
373.885661
 20
70.159123
 11
410.885661
 21
70.159123
  0
LINE
  8
CSLAYER1
  6
CONTINUOUS
 62
     6
 10
410.885661
 20
70.159123
 11
410.885661
 21
82.159123
  0
LINE
  8
CSLAYER1
  6
CONTINUOUS
 62
     6
 10
410.885661
 20
82.159123
 11
373.885661
 21
82.159123
  0
LINE
  8
CSLAYER1
  6
CONTINUOUS
 62
     6
 10
360.885661
 20
103.220341
 11
360.885661
 21
126.159123
  0
LINE
  8
CSLAYER1
  6
CONTINUOUS
 62
     6
 10
360.885631
 20
161.159123
 11
360.885631
 21
184.097905
  0
LINE
  8
CSLAYER1
  6
CONTINUOUS
 62
     6
 10
370.885631
 20
181.159123
 11
373.885631
 21
181.159123
  0
LINE
  8
CSLAYER1
  6
CONTINUOUS
 62
     6
 10
373.885631
 20
181.159123
 11
373.885631
 21
241.159123
  0
LINE
  8
CSLAYER1
  6
CONTINUOUS
 62
     6
 10
373.885631
 20
241.159123
 11
370.885631
 21
241.159123
  0
LINE
  8
CSLAYER1
  6
CONTINUOUS
 62
     6
 10
360.885631
 20
238.220372
 11
360.885631
 21
261.159123
  0
LINE
  8
CSLAYER1
  6
CONTINUOUS
 62
     6
 10
360.885539
 20
261.159123
 11
370.885600
 21
261.159123
  0
LINE
  8
CSLAYER1
  6
CONTINUOUS
 62
     6
 10
370.885631
 20
261.159123
 11
370.885631
 21
161.159123
  0
LINE
  8
CSLAYER1
  6
CONTINUOUS
 62
     6
 10
370.885600
 20
161.159123
 11
360.885539
 21
161.159123
  0
LINE
  8
CSLAYER1
  6
CONTINUOUS
 62
     6
 10
366.885631
 20
171.159123
 11
366.885631
 21
251.159123
  0
LINE
  8
CSLAYER1
  6
CONTINUOUS
 62
     6
 10
373.885631
 20
217.159123
 11
410.885631
 21
217.159123
  0
LINE
  8
CSLAYER1
  6
CONTINUOUS
 62
     6
 10
410.885631
 20
217.159123
 11
410.885631
 21
205.159123
  0
LINE
  8
CSLAYER1
  6
CONTINUOUS
 62
     6
 10
410.885631
 20
205.159123
 11
373.885631
 21
205.159123
  0
LINE
  8
CSLAYER1
  6
CONTINUOUS
 62
     6
 10
446.974454
 20
168.659123
 11
446.974454
 21
253.659123
  0
ARC
  8
CSLAYER1
  6
CONTINUOUS
 62
     6
 10
454.474454
 20
253.659123
 40
7.500000
 50
90.000000
 51
180.000000
  0
LINE
  8
CSLAYER1
  6
CONTINUOUS
 62
     6
 10
454.474454
 20
261.159123
 11
539.474454
 21
261.159123
  0
ARC
  8
CSLAYER1
  6
CONTINUOUS
 62
     6
 10
539.474454
 20
253.659123
 40
7.500000
 50
0.000000
 51
90.000000
  0
LINE
  8
CSLAYER1
  6
CONTINUOUS
 62
     6
 10
546.974454
 20
253.659123
 11
546.974454
 21
168.659123
  0
ARC
  8
CSLAYER1
  6
CONTINUOUS
 62
     6
 10
539.474454
 20
168.659123
 40
7.500000
 50
270.000000
 51
360.000000
  0
LINE
  8
CSLAYER1
  6
CONTINUOUS
 62
     6
 10
539.474454
 20
161.159123
 11
454.474454
 21
161.159123
  0
ARC
  8
CSLAYER1
  6
CONTINUOUS
 62
     6
 10
454.474454
 20
168.659123
 40
7.500000
 50
180.000000
 51
270.000000
  0
CIRCLE
  8
CSLAYER1
  6
CONTINUOUS
 62
     6
 10
454.474454
 20
168.659123
 40
3.500000
  0
ARC
  8
CSLAYER1
  6
CONTINUOUS
 62
     6
 10
459.974431
 20
211.159130
 40
2.916667
 50
253.398428
 51
286.601562
  0
LINE
  8
CSLAYER1
  6
CONTINUOUS
 62
     6
 10
460.807775
 20
208.364058
 11
460.807775
 21
209.492442
  0
ARC
  8
CSLAYER1
  6
CONTINUOUS
 62
     6
 10
461.641075
 20
209.492442
 40
0.833333
 50
90.057309
 51
179.999999
  0
LINE
  8
CSLAYER1
  6
CONTINUOUS
 62
     6
 10
461.641075
 20
210.325786
 11
462.769546
 21
210.325786
  0
ARC
  8
CSLAYER1
  6
CONTINUOUS
 62
     6
 10
459.974431
 20
211.159130
 40
2.916667
 50
-16.601583
 51
16.601578
  0
LINE
  8
CSLAYER1
  6
CONTINUOUS
 62
     6
 10
462.769546
 20
211.992473
 11
461.641075
 21
211.992473
  0
ARC
  8
CSLAYER1
  6
CONTINUOUS
 62
     6
 10
461.641075
 20
212.825817
 40
0.833333
 50
180.057346
 51
269.999995
  0
LINE
  8
CSLAYER1
  6
CONTINUOUS
 62
     6
 10
460.807775
 20
212.825817
 11
460.807775
 21
213.954202
  0
ARC
  8
CSLAYER1
  6
CONTINUOUS
 62
     6
 10
459.974431
 20
211.159130
 40
2.916667
 50
73.398423
 51
106.601584
  0
LINE
  8
CSLAYER1
  6
CONTINUOUS
 62
     6
 10
459.141087
 20
213.954202
 11
459.141087
 21
212.825817
  0
ARC
  8
CSLAYER1
  6
CONTINUOUS
 62
     6
 10
458.307787
 20
212.825817
 40
0.833333
 50
269.999995
 51
359.999984
  0
LINE
  8
CSLAYER1
  6
CONTINUOUS
 62
     6
 10
458.307787
 20
211.992473
 11
457.179315
 21
211.992473
  0
ARC
  8
CSLAYER1
  6
CONTINUOUS
 62
     6
 10
459.974431
 20
211.159130
 40
2.916667
 50
163.398405
 51
196.601594
  0
LINE
  8
CSLAYER1
  6
CONTINUOUS
 62
     6
 10
457.179315
 20
210.325786
 11
458.307787
 21
210.325786
  0
ARC
  8
CSLAYER1
  6
CONTINUOUS
 62
     6
 10
458.307787
 20
209.492442
 40
0.833333
 50
-0.000016
 51
89.999990
  0
LINE
  8
CSLAYER1
  6
CONTINUOUS
 62
     6
 10
459.141087
 20
209.492442
 11
459.141087
 21
208.364058
  0
ARC
  8
CSLAYER1
  6
CONTINUOUS
 62
     6
 10
496.974454
 20
211.159123
 40
30.000000
 50
184.631785
 51
355.368215
  0
LINE
  8
CSLAYER1
  6
CONTINUOUS
 62
     6
 10
533.141134
 20
208.364058
 11
533.141134
 21
209.492442
  0
ARC
  8
CSLAYER1
  6
CONTINUOUS
 62
     6
 10
532.307834
 20
209.492442
 40
0.833333
 50
0.000001
 51
89.942691
  0
LINE
  8
CSLAYER1
  6
CONTINUOUS
 62
     6
 10
532.307834
 20
210.325786
 11
531.179363
 21
210.325786
  0
ARC
  8
CSLAYER1
  6
CONTINUOUS
 62
     6
 10
533.974478
 20
211.159130
 40
2.916667
 50
163.398422
 51
196.601583
  0
LINE
  8
CSLAYER1
  6
CONTINUOUS
 62
     6
 10
531.179363
 20
211.992473
 11
532.307834
 21
211.992473
  0
ARC
  8
CSLAYER1
  6
CONTINUOUS
 62
     6
 10
532.307834
 20
212.825817
 40
0.833333
 50
270.000005
 51
359.942654
  0
LINE
  8
CSLAYER1
  6
CONTINUOUS
 62
     6
 10
533.141134
 20
212.825817
 11
533.141134
 21
213.954202
  0
ARC
  8
CSLAYER1
  6
CONTINUOUS
 62
     6
 10
533.974478
 20
211.159130
 40
2.916667
 50
73.398416
 51
106.601577
  0
LINE
  8
CSLAYER1
  6
CONTINUOUS
 62
     6
 10
534.807822
 20
213.954202
 11
534.807822
 21
212.825817
  0
ARC
  8
CSLAYER1
  6
CONTINUOUS
 62
     6
 10
535.641122
 20
212.825817
 40
0.833333
 50
180.000016
 51
270.000005
  0
LINE
  8
CSLAYER1
  6
CONTINUOUS
 62
     6
 10
535.641122
 20
211.992473
 11
536.769593
 21
211.992473
  0
ARC
  8
CSLAYER1
  6
CONTINUOUS
 62
     6
 10
533.974478
 20
211.159130
 40
2.916667
 50
-16.601594
 51
16.601595
  0
LINE
  8
CSLAYER1
  6
CONTINUOUS
 62
     6
 10
536.769593
 20
210.325786
 11
535.641122
 21
210.325786
  0
ARC
  8
CSLAYER1
  6
CONTINUOUS
 62
     6
 10
535.641122
 20
209.492442
 40
0.833333
 50
90.000010
 51
180.000016
  0
LINE
  8
CSLAYER1
  6
CONTINUOUS
 62
     6
 10
534.807822
 20
209.492442
 11
534.807822
 21
208.364058
  0
ARC
  8
CSLAYER1
  6
CONTINUOUS
 62
     6
 10
533.974478
 20
211.159130
 40
2.916667
 50
253.398438
 51
286.601572
  0
ARC
  8
CSLAYER1
  6
CONTINUOUS
 62
     6
 10
496.974454
 20
210.313126
 40
13.936877
 50
-37.903067
 51
217.903051
  0
ARC
  8
CSLAYER1
  6
CONTINUOUS
 62
     6
 10
487.125248
 20
202.644912
 40
1.454544
 50
217.903413
 51
309.763730
  0
ARC
  8
CSLAYER1
  6
CONTINUOUS
 62
     6
 10
490.049517
 20
199.130605
 40
3.117293
 50
-23.481547
 51
129.764151
  0
LINE
  8
CSLAYER1
  6
CONTINUOUS
 62
     6
 10
492.908659
 20
197.888515
 11
492.287491
 21
195.861027
  0
CIRCLE
  8
CSLAYER1
  6
CONTINUOUS
 62
     6
 10
490.049517
 20
199.130605
 40
1.454544
  0
LINE
  8
CSLAYER1
  6
CONTINUOUS
 62
     6
 10
501.040237
 20
197.888515
 11
501.661405
 21
195.861027
  0
ARC
  8
CSLAYER1
  6
CONTINUOUS
 62
     6
 10
503.899382
 20
199.130605
 40
3.117293
 50
50.235851
 51
203.481549
  0
ARC
  8
CSLAYER1
  6
CONTINUOUS
 62
     6
 10
506.823648
 20
202.644912
 40
1.454544
 50
230.236329
 51
322.096590
  0
CIRCLE
  8
CSLAYER1
  6
CONTINUOUS
 62
     6
 10
503.899382
 20
199.130605
 40
1.454544
  0
CIRCLE
  8
CSLAYER1
  6
CONTINUOUS
 62
     6
 10
539.474454
 20
168.659123
 40
3.500000
  0
CIRCLE
  8
CSLAYER1
  6
CONTINUOUS
 62
     6
 10
533.974477
 20
211.159110
 40
5.250000
  0
CIRCLE
  8
CSLAYER1
  6
CONTINUOUS
 62
     6
 10
533.974454
 20
211.159123
 40
7.500000
  0
ARC
  8
CSLAYER1
  6
CONTINUOUS
 62
     6
 10
496.974454
 20
211.159123
 40
30.000000
 50
4.631785
 51
175.368215
  0
CIRCLE
  8
CSLAYER1
  6
CONTINUOUS
 62
     6
 10
459.974454
 20
211.159123
 40
7.500000
  0
CIRCLE
  8
CSLAYER1
  6
CONTINUOUS
 62
     6
 10
459.974432
 20
211.159110
 40
5.250000
  0
CIRCLE
  8
CSLAYER1
  6
CONTINUOUS
 62
     6
 10
496.974454
 20
211.159123
 40
7.500000
  0
CIRCLE
  8
CSLAYER1
  6
CONTINUOUS
 62
     6
 10
496.974454
 20
211.159123
 40
6.000000
  0
CIRCLE
  8
CSLAYER1
  6
CONTINUOUS
 62
     6
 10
496.974454
 20
211.159123
 40
16.000000
  0
CIRCLE
  8
CSLAYER1
  6
CONTINUOUS
 62
     6
 10
454.474454
 20
253.659123
 40
3.500000
  0
CIRCLE
  8
CSLAYER1
  6
CONTINUOUS
 62
     6
 10
539.474454
 20
253.659123
 40
3.500000
  0
LINE
  8
CSLAYER1
  6
CONTINUOUS
 62
     6
 10
410.885661
 20
340.159123
 11
373.885661
 21
340.159123
  0
LINE
  8
CSLAYER1
  6
CONTINUOUS
 62
     6
 10
373.885661
 20
352.159123
 11
410.885661
 21
352.159123
  0
LINE
  8
CSLAYER1
  6
CONTINUOUS
 62
     6
 10
410.885661
 20
352.159123
 11
410.885661
 21
340.159123
  0
LINE
  8
CSLAYER1
  6
CONTINUOUS
 62
     6
 10
373.885661
 20
316.159123
 11
370.885661
 21
316.159123
  0
LINE
  8
CSLAYER1
  6
CONTINUOUS
 62
     6
 10
373.885661
 20
316.159123
 11
373.885661
 21
376.159123
  0
LINE
  8
CSLAYER1
  6
CONTINUOUS
 62
     6
 10
373.885661
 20
376.159123
 11
370.885661
 21
376.159123
  0
LINE
  8
CSLAYER1
  6
CONTINUOUS
 62
     6
 10
360.885661
 20
373.220372
 11
360.885661
 21
396.159123
  0
LINE
  8
CSLAYER1
  6
CONTINUOUS
 62
     6
 10
360.885570
 20
396.159123
 11
370.885631
 21
396.159123
  0
LINE
  8
CSLAYER1
  6
CONTINUOUS
 62
     6
 10
370.885661
 20
396.159123
 11
370.885661
 21
296.159123
  0
LINE
  8
CSLAYER1
  6
CONTINUOUS
 62
     6
 10
370.885631
 20
296.159123
 11
360.885570
 21
296.159123
  0
LINE
  8
CSLAYER1
  6
CONTINUOUS
 62
     6
 10
360.885661
 20
296.159123
 11
360.885661
 21
319.097905
  0
LINE
  8
CSLAYER1
  6
CONTINUOUS
 62
     6
 10
366.885661
 20
386.159123
 11
366.885661
 21
306.159123
  0
LINE
  8
CSLAYER1
  6
CONTINUOUS
 62
     6
 10
360.885661
 20
301.159123
 11
274.885661
 21
301.159123
  0
LINE
  8
CSLAYER1
  6
CONTINUOUS
 62
     6
 10
274.885661
 20
301.159123
 11
274.885661
 21
391.159123
  0
LINE
  8
CSLAYER1
  6
CONTINUOUS
 62
     6
 10
274.885661
 20
391.159123
 11
360.885661
 21
391.159123
  0
LINE
  8
CSLAYER1
  6
CONTINUOUS
 62
     6
 10
359.885661
 20
391.159123
 11
359.885661
 21
301.159123
  0
LINE
  8
CSLAYER1
  6
CONTINUOUS
 62
     6
 10
274.885661
 20
302.159123
 11
261.885661
 21
302.159123
  0
LINE
  8
CSLAYER1
  6
CONTINUOUS
 62
     6
 10
261.885661
 20
302.159123
 11
261.885661
 21
306.159123
  0
LINE
  8
CSLAYER1
  6
CONTINUOUS
 62
     6
 10
261.885661
 20
306.159123
 11
235.885661
 21
306.159123
  0
LINE
  8
CSLAYER1
  6
CONTINUOUS
 62
     6
 10
235.885661
 20
306.159123
 11
235.885661
 21
302.159123
  0
LINE
  8
CSLAYER1
  6
CONTINUOUS
 62
     6
 10
235.885661
 20
302.159123
 11
222.885661
 21
302.159123
  0
LINE
  8
CSLAYER1
  6
CONTINUOUS
 62
     6
 10
231.769500
 20
293.155306
 11
231.598605
 21
292.988295
  0
LINE
  8
CSLAYER1
  6
CONTINUOUS
 62
     6
 10
231.598605
 20
292.988295
 11
231.425602
 21
292.820179
  0
LINE
  8
CSLAYER1
  6
CONTINUOUS
 62
     6
 10
231.425602
 20
292.820179
 11
231.252267
 21
292.653284
  0
LINE
  8
CSLAYER1
  6
CONTINUOUS
 62
     6
 10
231.252267
 20
292.653284
 11
231.080375
 21
292.489935
  0
LINE
  8
CSLAYER1
  6
CONTINUOUS
 62
     6
 10
231.080375
 20
292.489935
 11
230.911702
 21
292.332456
  0
LINE
  8
CSLAYER1
  6
CONTINUOUS
 62
     6
 10
230.911702
 20
292.332456
 11
230.748025
 21
292.183171
  0
LINE
  8
CSLAYER1
  6
CONTINUOUS
 62
     6
 10
230.748025
 20
292.183171
 11
230.591119
 21
292.044407
  0
LINE
  8
CSLAYER1
  6
CONTINUOUS
 62
     6
 10
230.591119
 20
292.044407
 11
230.449888
 21
291.921610
  0
LINE
  8
CSLAYER1
  6
CONTINUOUS
 62
     6
 10
230.449888
 20
291.921610
 11
230.303705
 21
291.793724
  0
LINE
  8
CSLAYER1
  6
CONTINUOUS
 62
     6
 10
230.303705
 20
291.793724
 11
230.153712
 21
291.661217
  0
LINE
  8
CSLAYER1
  6
CONTINUOUS
 62
     6
 10
230.153712
 20
291.661217
 11
230.001050
 21
291.524558
  0
LINE
  8
CSLAYER1
  6
CONTINUOUS
 62
     6
 10
230.001050
 20
291.524558
 11
229.846863
 21
291.384213
  0
LINE
  8
CSLAYER1
  6
CONTINUOUS
 62
     6
 10
229.846863
 20
291.384213
 11
229.692293
 21
291.240650
  0
LINE
  8
CSLAYER1
  6
CONTINUOUS
 62
     6
 10
229.692293
 20
291.240650
 11
229.538482
 21
291.094338
  0
LINE
  8
CSLAYER1
  6
CONTINUOUS
 62
     6
 10
229.538482
 20
291.094338
 11
229.386571
 21
290.945743
  0
LINE
  8
CSLAYER1
  6
CONTINUOUS
 62
     6
 10
229.386571
 20
290.945743
 11
229.237704
 21
290.795333
  0
LINE
  8
CSLAYER1
  6
CONTINUOUS
 62
     6
 10
229.237704
 20
290.795333
 11
229.093022
 21
290.643577
  0
LINE
  8
CSLAYER1
  6
CONTINUOUS
 62
     6
 10
229.093022
 20
290.643577
 11
228.953668
 21
290.490941
  0
LINE
  8
CSLAYER1
  6
CONTINUOUS
 62
     6
 10
228.953668
 20
290.490941
 11
228.898144
 21
290.427997
  0
LINE
  8
CSLAYER1
  6
CONTINUOUS
 62
     6
 10
228.898144
 20
290.427997
 11
228.843216
 21
290.364497
  0
LINE
  8
CSLAYER1
  6
CONTINUOUS
 62
     6
 10
228.843216
 20
290.364497
 11
228.788825
 21
290.300495
  0
LINE
  8
CSLAYER1
  6
CONTINUOUS
 62
     6
 10
228.788825
 20
290.300495
 11
228.734912
 21
290.236049
  0
LINE
  8
CSLAYER1
  6
CONTINUOUS
 62
     6
 10
228.734912
 20
290.236049
 11
228.681416
 21
290.171213
  0
LINE
  8
CSLAYER1
  6
CONTINUOUS
 62
     6
 10
228.681416
 20
290.171213
 11
228.628278
 21
290.106043
  0
LINE
  8
CSLAYER1
  6
CONTINUOUS
 62
     6
 10
228.628278
 20
290.106043
 11
228.575438
 21
290.040595
  0
LINE
  8
CSLAYER1
  6
CONTINUOUS
 62
     6
 10
228.575438
 20
290.040595
 11
228.522837
 21
289.974925
  0
LINE
  8
CSLAYER1
  6
CONTINUOUS
 62
     6
 10
228.522837
 20
289.974925
 11
228.470415
 21
289.909087
  0
LINE
  8
CSLAYER1
  6
CONTINUOUS
 62
     6
 10
228.470415
 20
289.909087
 11
228.418112
 21
289.843139
  0
LINE
  8
CSLAYER1
  6
CONTINUOUS
 62
     6
 10
228.418112
 20
289.843139
 11
228.289557
 21
289.680721
  0
LINE
  8
CSLAYER1
  6
CONTINUOUS
 62
     6
 10
228.289557
 20
289.680721
 11
228.318295
 21
289.633866
  0
LINE
  8
CSLAYER1
  6
CONTINUOUS
 62
     6
 10
228.318295
 20
289.633866
 11
228.358887
 21
289.573985
  0
LINE
  8
CSLAYER1
  6
CONTINUOUS
 62
     6
 10
228.358887
 20
289.573985
 11
228.403169
 21
289.514117
  0
LINE
  8
CSLAYER1
  6
CONTINUOUS
 62
     6
 10
228.403169
 20
289.514117
 11
228.450620
 21
289.454844
  0
LINE
  8
CSLAYER1
  6
CONTINUOUS
 62
     6
 10
228.450620
 20
289.454844
 11
228.500719
 21
289.396746
  0
LINE
  8
CSLAYER1
  6
CONTINUOUS
 62
     6
 10
228.500719
 20
289.396746
 11
228.552943
 21
289.340406
  0
LINE
  8
CSLAYER1
  6
CONTINUOUS
 62
     6
 10
228.552943
 20
289.340406
 11
228.606772
 21
289.286402
  0
LINE
  8
CSLAYER1
  6
CONTINUOUS
 62
     6
 10
228.606772
 20
289.286402
 11
228.661682
 21
289.235317
  0
LINE
  8
CSLAYER1
  6
CONTINUOUS
 62
     6
 10
228.661682
 20
289.235317
 11
228.717153
 21
289.187731
  0
LINE
  8
CSLAYER1
  6
CONTINUOUS
 62
     6
 10
228.717153
 20
289.187731
 11
228.772664
 21
289.144226
  0
LINE
  8
CSLAYER1
  6
CONTINUOUS
 62
     6
 10
228.772664
 20
289.144226
 11
228.827691
 21
289.105381
  0
LINE
  8
CSLAYER1
  6
CONTINUOUS
 62
     6
 10
228.827691
 20
289.105381
 11
228.884177
 21
289.071087
  0
LINE
  8
CSLAYER1
  6
CONTINUOUS
 62
     6
 10
228.884177
 20
289.071087
 11
228.944779
 21
289.040120
  0
LINE
  8
CSLAYER1
  6
CONTINUOUS
 62
     6
 10
228.944779
 20
289.040120
 11
229.008940
 21
289.012131
  0
LINE
  8
CSLAYER1
  6
CONTINUOUS
 62
     6
 10
229.008940
 20
289.012131
 11
229.076102
 21
288.986770
  0
LINE
  8
CSLAYER1
  6
CONTINUOUS
 62
     6
 10
229.076102
 20
288.986770
 11
229.145708
 21
288.963688
  0
LINE
  8
CSLAYER1
  6
CONTINUOUS
 62
     6
 10
229.145708
 20
288.963688
 11
229.217202
 21
288.942534
  0
LINE
  8
CSLAYER1
  6
CONTINUOUS
 62
     6
 10
229.217202
 20
288.942534
 11
229.290027
 21
288.922960
  0
LINE
  8
CSLAYER1
  6
CONTINUOUS
 62
     6
 10
229.290027
 20
288.922960
 11
229.363625
 21
288.904615
  0
LINE
  8
CSLAYER1
  6
CONTINUOUS
 62
     6
 10
229.363625
 20
288.904615
 11
229.437440
 21
288.887149
  0
LINE
  8
CSLAYER1
  6
CONTINUOUS
 62
     6
 10
229.437440
 20
288.887149
 11
229.510914
 21
288.870214
  0
LINE
  8
CSLAYER1
  6
CONTINUOUS
 62
     6
 10
229.510914
 20
288.870214
 11
229.583490
 21
288.853459
  0
LINE
  8
CSLAYER1
  6
CONTINUOUS
 62
     6
 10
229.583490
 20
288.853459
 11
229.657714
 21
288.835859
  0
LINE
  8
CSLAYER1
  6
CONTINUOUS
 62
     6
 10
229.657714
 20
288.835859
 11
229.731450
 21
288.817834
  0
LINE
  8
CSLAYER1
  6
CONTINUOUS
 62
     6
 10
229.731450
 20
288.817834
 11
229.804746
 21
288.799428
  0
LINE
  8
CSLAYER1
  6
CONTINUOUS
 62
     6
 10
229.804746
 20
288.799428
 11
229.877652
 21
288.780683
  0
LINE
  8
CSLAYER1
  6
CONTINUOUS
 62
     6
 10
229.877652
 20
288.780683
 11
229.950216
 21
288.761640
  0
LINE
  8
CSLAYER1
  6
CONTINUOUS
 62
     6
 10
229.950216
 20
288.761640
 11
230.022487
 21
288.742344
  0
LINE
  8
CSLAYER1
  6
CONTINUOUS
 62
     6
 10
230.022487
 20
288.742344
 11
230.094514
 21
288.722835
  0
LINE
  8
CSLAYER1
  6
CONTINUOUS
 62
     6
 10
230.094514
 20
288.722835
 11
230.166346
 21
288.703157
  0
LINE
  8
CSLAYER1
  6
CONTINUOUS
 62
     6
 10
230.166346
 20
288.703157
 11
230.238031
 21
288.683351
  0
LINE
  8
CSLAYER1
  6
CONTINUOUS
 62
     6
 10
230.238031
 20
288.683351
 11
230.309619
 21
288.663461
  0
LINE
  8
CSLAYER1
  6
CONTINUOUS
 62
     6
 10
230.309619
 20
288.663461
 11
230.390238
 21
288.640998
  0
LINE
  8
CSLAYER1
  6
CONTINUOUS
 62
     6
 10
230.390238
 20
288.640998
 11
230.517494
 21
288.813148
  0
LINE
  8
CSLAYER1
  6
CONTINUOUS
 62
     6
 10
230.517494
 20
288.813148
 11
230.612274
 21
288.940311
  0
LINE
  8
CSLAYER1
  6
CONTINUOUS
 62
     6
 10
230.612274
 20
288.940311
 11
230.707925
 21
289.066542
  0
LINE
  8
CSLAYER1
  6
CONTINUOUS
 62
     6
 10
230.707925
 20
289.066542
 11
230.804884
 21
289.191378
  0
LINE
  8
CSLAYER1
  6
CONTINUOUS
 62
     6
 10
230.804884
 20
289.191378
 11
230.903586
 21
289.314353
  0
LINE
  8
CSLAYER1
  6
CONTINUOUS
 62
     6
 10
230.903586
 20
289.314353
 11
231.004467
 21
289.435001
  0
LINE
  8
CSLAYER1
  6
CONTINUOUS
 62
     6
 10
231.004467
 20
289.435001
 11
231.107964
 21
289.552858
  0
LINE
  8
CSLAYER1
  6
CONTINUOUS
 62
     6
 10
231.107964
 20
289.552858
 11
231.214511
 21
289.667458
  0
LINE
  8
CSLAYER1
  6
CONTINUOUS
 62
     6
 10
231.214511
 20
289.667458
 11
231.324545
 21
289.778336
  0
LINE
  8
CSLAYER1
  6
CONTINUOUS
 62
     6
 10
231.324545
 20
289.778336
 11
231.438502
 21
289.885027
  0
LINE
  8
CSLAYER1
  6
CONTINUOUS
 62
     6
 10
231.438502
 20
289.885027
 11
231.556817
 21
289.987065
  0
LINE
  8
CSLAYER1
  6
CONTINUOUS
 62
     6
 10
231.556817
 20
289.987065
 11
231.708242
 21
290.106103
  0
LINE
  8
CSLAYER1
  6
CONTINUOUS
 62
     6
 10
231.708242
 20
290.106103
 11
231.866482
 21
290.220615
  0
LINE
  8
CSLAYER1
  6
CONTINUOUS
 62
     6
 10
231.866482
 20
290.220615
 11
232.029602
 21
290.331555
  0
LINE
  8
CSLAYER1
  6
CONTINUOUS
 62
     6
 10
232.029602
 20
290.331555
 11
232.195671
 21
290.439874
  0
LINE
  8
CSLAYER1
  6
CONTINUOUS
 62
     6
 10
232.195671
 20
290.439874
 11
232.362752
 21
290.546523
  0
LINE
  8
CSLAYER1
  6
CONTINUOUS
 62
     6
 10
232.362752
 20
290.546523
 11
232.528913
 21
290.652456
  0
LINE
  8
CSLAYER1
  6
CONTINUOUS
 62
     6
 10
232.528913
 20
290.652456
 11
232.692220
 21
290.758623
  0
LINE
  8
CSLAYER1
  6
CONTINUOUS
 62
     6
 10
232.692220
 20
290.758623
 11
232.850738
 21
290.865978
  0
LINE
  8
CSLAYER1
  6
CONTINUOUS
 62
     6
 10
232.850738
 20
290.865978
 11
233.002534
 21
290.975472
  0
LINE
  8
CSLAYER1
  6
CONTINUOUS
 62
     6
 10
233.002534
 20
290.975472
 11
233.145673
 21
291.088058
  0
LINE
  8
CSLAYER1
  6
CONTINUOUS
 62
     6
 10
233.145673
 20
291.088058
 11
233.278222
 21
291.204686
  0
LINE
  8
CSLAYER1
  6
CONTINUOUS
 62
     6
 10
233.278222
 20
291.204686
 11
233.381227
 21
291.307701
  0
LINE
  8
CSLAYER1
  6
CONTINUOUS
 62
     6
 10
233.381227
 20
291.307701
 11
233.482891
 21
291.421137
  0
LINE
  8
CSLAYER1
  6
CONTINUOUS
 62
     6
 10
233.482891
 20
291.421137
 11
233.582645
 21
291.543304
  0
LINE
  8
CSLAYER1
  6
CONTINUOUS
 62
     6
 10
233.582645
 20
291.543304
 11
233.679924
 21
291.672513
  0
LINE
  8
CSLAYER1
  6
CONTINUOUS
 62
     6
 10
233.679924
 20
291.672513
 11
233.774158
 21
291.807073
  0
LINE
  8
CSLAYER1
  6
CONTINUOUS
 62
     6
 10
233.774158
 20
291.807073
 11
233.864783
 21
291.945295
  0
LINE
  8
CSLAYER1
  6
CONTINUOUS
 62
     6
 10
233.864783
 20
291.945295
 11
233.951229
 21
292.085488
  0
LINE
  8
CSLAYER1
  6
CONTINUOUS
 62
     6
 10
233.951229
 20
292.085488
 11
234.032930
 21
292.225962
  0
LINE
  8
CSLAYER1
  6
CONTINUOUS
 62
     6
 10
234.032930
 20
292.225962
 11
234.109319
 21
292.365029
  0
LINE
  8
CSLAYER1
  6
CONTINUOUS
 62
     6
 10
234.109319
 20
292.365029
 11
234.179828
 21
292.500997
  0
LINE
  8
CSLAYER1
  6
CONTINUOUS
 62
     6
 10
234.179828
 20
292.500997
 11
234.285088
 21
292.716537
  0
ARC
  8
CSLAYER1
  6
CONTINUOUS
 62
     6
 10
233.358977
 20
292.160459
 40
1.080690
 50
30.945197
 51
90.945197
  0
ARC
  8
CSLAYER1
  6
CONTINUOUS
 62
     6
 10
232.414286
 20
292.685292
 40
1.080690
 50
30.945197
 51
90.945197
  0
ARC
  8
CSLAYER1
  6
CONTINUOUS
 62
     6
 10
233.323323
 20
294.321545
 40
1.080690
 50
210.945197
 51
270.945197
  0
LINE
  8
CSLAYER1
  6
CONTINUOUS
 62
     6
 10
232.396478
 20
293.765812
 11
232.251776
 21
293.626466
  0
LINE
  8
CSLAYER1
  6
CONTINUOUS
 62
     6
 10
232.251776
 20
293.626466
 11
232.097861
 21
293.476716
  0
LINE
  8
CSLAYER1
  6
CONTINUOUS
 62
     6
 10
232.097861
 20
293.476716
 11
231.936510
 21
293.318888
  0
LINE
  8
CSLAYER1
  6
CONTINUOUS
 62
     6
 10
231.936510
 20
293.318888
 11
231.769500
 21
293.155306
  0
ARC
  8
CSLAYER1
  6
CONTINUOUS
 62
     6
 10
234.870419
 20
295.169660
 40
1.095863
 50
203.568976
 51
263.568976
  0
ARC
  8
CSLAYER1
  6
CONTINUOUS
 62
     6
 10
235.752120
 20
294.518877
 40
1.095863
 50
203.568976
 51
263.568976
  0
ARC
  8
CSLAYER1
  6
CONTINUOUS
 62
     6
 10
234.624930
 20
292.991726
 40
1.095863
 50
23.568976
 51
83.568976
  0
LINE
  8
CSLAYER1
  6
CONTINUOUS
 62
     6
 10
234.119103
 20
294.911447
 11
233.865991
 21
294.731480
  0
LINE
  8
CSLAYER1
  6
CONTINUOUS
 62
     6
 10
234.119103
 20
294.911447
 11
234.371964
 21
295.091767
  0
LINE
  8
CSLAYER1
  6
CONTINUOUS
 62
     6
 10
234.371964
 20
295.091767
 11
234.624324
 21
295.272793
  0
LINE
  8
CSLAYER1
  6
CONTINUOUS
 62
     6
 10
234.624324
 20
295.272793
 11
234.875932
 21
295.454877
  0
LINE
  8
CSLAYER1
  6
CONTINUOUS
 62
     6
 10
234.875932
 20
295.454877
 11
235.126537
 21
295.638372
  0
LINE
  8
CSLAYER1
  6
CONTINUOUS
 62
     6
 10
235.126537
 20
295.638372
 11
235.375890
 21
295.823631
  0
LINE
  8
CSLAYER1
  6
CONTINUOUS
 62
     6
 10
235.375890
 20
295.823631
 11
235.623739
 21
296.011006
  0
LINE
  8
CSLAYER1
  6
CONTINUOUS
 62
     6
 10
235.623739
 20
296.011006
 11
235.869834
 21
296.200851
  0
LINE
  8
CSLAYER1
  6
CONTINUOUS
 62
     6
 10
235.869834
 20
296.200851
 11
236.113924
 21
296.393519
  0
LINE
  8
CSLAYER1
  6
CONTINUOUS
 62
     6
 10
236.113924
 20
296.393519
 11
236.355758
 21
296.589361
  0
LINE
  8
CSLAYER1
  6
CONTINUOUS
 62
     6
 10
236.355758
 20
296.589361
 11
236.595086
 21
296.788731
  0
LINE
  8
CSLAYER1
  6
CONTINUOUS
 62
     6
 10
236.595086
 20
296.788731
 11
236.752351
 21
296.923028
  0
LINE
  8
CSLAYER1
  6
CONTINUOUS
 62
     6
 10
236.752351
 20
296.923028
 11
236.909400
 21
297.060052
  0
LINE
  8
CSLAYER1
  6
CONTINUOUS
 62
     6
 10
236.909400
 20
297.060052
 11
237.065491
 21
297.199612
  0
LINE
  8
CSLAYER1
  6
CONTINUOUS
 62
     6
 10
237.065491
 20
297.199612
 11
237.219881
 21
297.341514
  0
LINE
  8
CSLAYER1
  6
CONTINUOUS
 62
     6
 10
237.219881
 20
297.341514
 11
237.371825
 21
297.485567
  0
LINE
  8
CSLAYER1
  6
CONTINUOUS
 62
     6
 10
237.371825
 20
297.485567
 11
237.520582
 21
297.631577
  0
LINE
  8
CSLAYER1
  6
CONTINUOUS
 62
     6
 10
237.520582
 20
297.631577
 11
237.665408
 21
297.779352
  0
LINE
  8
CSLAYER1
  6
CONTINUOUS
 62
     6
 10
237.665408
 20
297.779352
 11
237.805561
 21
297.928699
  0
LINE
  8
CSLAYER1
  6
CONTINUOUS
 62
     6
 10
237.805561
 20
297.928699
 11
237.940297
 21
298.079427
  0
LINE
  8
CSLAYER1
  6
CONTINUOUS
 62
     6
 10
237.940297
 20
298.079427
 11
238.068872
 21
298.231342
  0
LINE
  8
CSLAYER1
  6
CONTINUOUS
 62
     6
 10
238.068872
 20
298.231342
 11
238.190545
 21
298.384251
  0
LINE
  8
CSLAYER1
  6
CONTINUOUS
 62
     6
 10
238.190545
 20
298.384251
 11
238.305000
 21
298.535577
  0
LINE
  8
CSLAYER1
  6
CONTINUOUS
 62
     6
 10
238.305000
 20
298.535577
 11
238.420301
 21
298.692831
  0
LINE
  8
CSLAYER1
  6
CONTINUOUS
 62
     6
 10
238.420301
 20
298.692831
 11
238.535914
 21
298.854889
  0
LINE
  8
CSLAYER1
  6
CONTINUOUS
 62
     6
 10
238.535914
 20
298.854889
 11
238.651307
 21
299.020629
  0
LINE
  8
CSLAYER1
  6
CONTINUOUS
 62
     6
 10
238.651307
 20
299.020629
 11
238.765947
 21
299.188928
  0
LINE
  8
CSLAYER1
  6
CONTINUOUS
 62
     6
 10
238.765947
 20
299.188928
 11
238.879301
 21
299.358664
  0
LINE
  8
CSLAYER1
  6
CONTINUOUS
 62
     6
 10
238.879301
 20
299.358664
 11
238.990836
 21
299.528715
  0
LINE
  8
CSLAYER1
  6
CONTINUOUS
 62
     6
 10
238.990836
 20
299.528715
 11
239.100021
 21
299.697957
  0
LINE
  8
CSLAYER1
  6
CONTINUOUS
 62
     6
 10
239.100021
 20
299.697957
 11
239.206320
 21
299.865269
  0
LINE
  8
CSLAYER1
  6
CONTINUOUS
 62
     6
 10
239.206320
 20
299.865269
 11
239.309203
 21
300.029528
  0
LINE
  8
CSLAYER1
  6
CONTINUOUS
 62
     6
 10
239.309203
 20
300.029528
 11
239.408136
 21
300.189610
  0
LINE
  8
CSLAYER1
  6
CONTINUOUS
 62
     6
 10
239.408136
 20
300.189610
 11
239.494610
 21
300.327836
  0
LINE
  8
CSLAYER1
  6
CONTINUOUS
 62
     6
 10
239.494610
 20
300.327836
 11
239.586562
 21
300.470294
  0
LINE
  8
CSLAYER1
  6
CONTINUOUS
 62
     6
 10
239.586562
 20
300.470294
 11
239.682762
 21
300.615774
  0
LINE
  8
CSLAYER1
  6
CONTINUOUS
 62
     6
 10
239.682762
 20
300.615774
 11
239.781981
 21
300.763064
  0
LINE
  8
CSLAYER1
  6
CONTINUOUS
 62
     6
 10
239.781981
 20
300.763064
 11
239.882989
 21
300.910954
  0
LINE
  8
CSLAYER1
  6
CONTINUOUS
 62
     6
 10
239.882989
 20
300.910954
 11
239.984557
 21
301.058233
  0
LINE
  8
CSLAYER1
  6
CONTINUOUS
 62
     6
 10
239.984557
 20
301.058233
 11
240.085455
 21
301.203689
  0
LINE
  8
CSLAYER1
  6
CONTINUOUS
 62
     6
 10
240.085455
 20
301.203689
 11
240.184454
 21
301.346113
  0
LINE
  8
CSLAYER1
  6
CONTINUOUS
 62
     6
 10
240.184454
 20
301.346113
 11
240.280323
 21
301.484293
  0
LINE
  8
CSLAYER1
  6
CONTINUOUS
 62
     6
 10
240.280323
 20
301.484293
 11
240.400865
 21
301.659123
  0
ARC
  8
CSLAYER1
  6
CONTINUOUS
 62
     6
 10
238.135661
 20
303.659123
 40
2.000000
 50
180.000000
 51
270.000000
  0
LINE
  8
CSLAYER1
  6
CONTINUOUS
 62
     6
 10
236.135661
 20
303.659123
 11
236.135661
 21
304.159123
  0
LINE
  8
CSLAYER1
  6
CONTINUOUS
 62
     6
 10
235.885661
 20
304.159123
 11
261.885661
 21
304.159123
  0
ARC
  8
CSLAYER1
  6
CONTINUOUS
 62
     6
 10
251.685649
 20
304.059117
 40
0.100000
 50
0.000010
 51
90.000016
  0
LINE
  8
CSLAYER1
  6
CONTINUOUS
 62
     6
 10
251.785625
 20
304.059117
 11
251.785625
 21
303.559117
  0
ARC
  8
CSLAYER1
  6
CONTINUOUS
 62
     6
 10
251.685649
 20
303.559117
 40
0.100000
 50
270.000001
 51
359.942691
  0
LINE
  8
CSLAYER1
  6
CONTINUOUS
 62
     6
 10
251.685649
 20
303.459141
 11
248.885661
 21
303.459111
  0
LINE
  8
CSLAYER1
  6
CONTINUOUS
 62
     6
 10
248.885661
 20
303.459111
 11
246.085673
 21
303.459111
  0
ARC
  8
CSLAYER1
  6
CONTINUOUS
 62
     6
 10
246.085673
 20
303.559117
 40
0.100000
 50
180.000005
 51
270.000001
  0
LINE
  8
CSLAYER1
  6
CONTINUOUS
 62
     6
 10
245.985637
 20
303.559117
 11
245.985637
 21
304.059117
  0
ARC
  8
CSLAYER1
  6
CONTINUOUS
 62
     6
 10
246.085673
 20
304.059117
 40
0.100000
 50
90.000003
 51
180.000005
  0
ARC
  8
CSLAYER1
  6
CONTINUOUS
 62
     6
 10
246.353923
 20
303.259129
 40
0.200000
 50
90.000003
 51
185.000154
  0
LINE
  8
CSLAYER1
  6
CONTINUOUS
 62
     6
 10
246.154674
 20
303.241704
 11
246.209758
 21
302.611882
  0
ARC
  8
CSLAYER1
  6
CONTINUOUS
 62
     6
 10
247.205974
 20
302.699040
 40
1.000000
 50
185.000113
 51
253.742620
  0
ARC
  8
CSLAYER1
  6
CONTINUOUS
 62
     6
 10
248.885661
 20
308.459111
 40
7.000000
 50
253.743003
 51
286.257026
  0
ARC
  8
CSLAYER1
  6
CONTINUOUS
 62
     6
 10
250.565318
 20
302.699040
 40
1.000000
 50
286.257408
 51
354.999902
  0
LINE
  8
CSLAYER1
  6
CONTINUOUS
 62
     6
 10
251.561503
 20
302.611882
 11
251.616618
 21
303.241704
  0
ARC
  8
CSLAYER1
  6
CONTINUOUS
 62
     6
 10
251.417399
 20
303.259129
 40
0.200000
 50
-5.000126
 51
90.000019
  0
LINE
  8
CSLAYER1
  6
CONTINUOUS
 62
     6
 10
249.481578
 20
303.459141
 11
249.037700
 21
304.159123
  0
LINE
  8
CSLAYER1
  6
CONTINUOUS
 62
     6
 10
248.537700
 20
304.159123
 11
248.981578
 21
303.459141
  0
LINE
  8
CSLAYER1
  6
CONTINUOUS
 62
     6
 10
247.224286
 20
301.659123
 11
238.135661
 21
301.659123
  0
LINE
  8
CSLAYER1
  6
CONTINUOUS
 62
     6
 10
241.684232
 20
299.178351
 11
241.819468
 21
299.378001
  0
LINE
  8
CSLAYER1
  6
CONTINUOUS
 62
     6
 10
241.819468
 20
299.378001
 11
241.955829
 21
299.583088
  0
LINE
  8
CSLAYER1
  6
CONTINUOUS
 62
     6
 10
241.955829
 20
299.583088
 11
242.091731
 21
299.791428
  0
LINE
  8
CSLAYER1
  6
CONTINUOUS
 62
     6
 10
242.091731
 20
299.791428
 11
242.225593
 21
300.000834
  0
LINE
  8
CSLAYER1
  6
CONTINUOUS
 62
     6
 10
242.225593
 20
300.000834
 11
242.355835
 21
300.209119
  0
LINE
  8
CSLAYER1
  6
CONTINUOUS
 62
     6
 10
242.355835
 20
300.209119
 11
242.480873
 21
300.414099
  0
LINE
  8
CSLAYER1
  6
CONTINUOUS
 62
     6
 10
242.480873
 20
300.414099
 11
242.599127
 21
300.613586
  0
LINE
  8
CSLAYER1
  6
CONTINUOUS
 62
     6
 10
242.599127
 20
300.613586
 11
242.709014
 21
300.805395
  0
LINE
  8
CSLAYER1
  6
CONTINUOUS
 62
     6
 10
242.709014
 20
300.805395
 11
242.757261
 21
300.893229
  0
LINE
  8
CSLAYER1
  6
CONTINUOUS
 62
     6
 10
242.753154
 20
300.870326
 11
242.692125
 21
300.557015
  0
LINE
  8
CSLAYER1
  6
CONTINUOUS
 62
     6
 10
242.692125
 20
300.557015
 11
242.625768
 21
300.237927
  0
LINE
  8
CSLAYER1
  6
CONTINUOUS
 62
     6
 10
242.625768
 20
300.237927
 11
242.555216
 21
299.916316
  0
LINE
  8
CSLAYER1
  6
CONTINUOUS
 62
     6
 10
242.555216
 20
299.916316
 11
242.481600
 21
299.595434
  0
LINE
  8
CSLAYER1
  6
CONTINUOUS
 62
     6
 10
242.481600
 20
299.595434
 11
242.406054
 21
299.278534
  0
LINE
  8
CSLAYER1
  6
CONTINUOUS
 62
     6
 10
242.406054
 20
299.278534
 11
242.329710
 21
298.968869
  0
LINE
  8
CSLAYER1
  6
CONTINUOUS
 62
     6
 10
242.329710
 20
298.968869
 11
242.253702
 21
298.669690
  0
LINE
  8
CSLAYER1
  6
CONTINUOUS
 62
     6
 10
242.253702
 20
298.669690
 11
242.179162
 21
298.384251
  0
LINE
  8
CSLAYER1
  6
CONTINUOUS
 62
     6
 10
242.179162
 20
298.384251
 11
242.103692
 21
298.114758
  0
LINE
  8
CSLAYER1
  6
CONTINUOUS
 62
     6
 10
242.103692
 20
298.114758
 11
242.018846
 21
297.840043
  0
LINE
  8
CSLAYER1
  6
CONTINUOUS
 62
     6
 10
242.018846
 20
297.840043
 11
241.925401
 21
297.561237
  0
LINE
  8
CSLAYER1
  6
CONTINUOUS
 62
     6
 10
241.925401
 20
297.561237
 11
241.824136
 21
297.279472
  0
LINE
  8
CSLAYER1
  6
CONTINUOUS
 62
     6
 10
241.824136
 20
297.279472
 11
241.715827
 21
296.995879
  0
LINE
  8
CSLAYER1
  6
CONTINUOUS
 62
     6
 10
241.715827
 20
296.995879
 11
241.601252
 21
296.711589
  0
LINE
  8
CSLAYER1
  6
CONTINUOUS
 62
     6
 10
241.601252
 20
296.711589
 11
241.481189
 21
296.427733
  0
LINE
  8
CSLAYER1
  6
CONTINUOUS
 62
     6
 10
241.481189
 20
296.427733
 11
241.356415
 21
296.145443
  0
LINE
  8
CSLAYER1
  6
CONTINUOUS
 62
     6
 10
241.356415
 20
296.145443
 11
241.227707
 21
295.865850
  0
LINE
  8
CSLAYER1
  6
CONTINUOUS
 62
     6
 10
241.227707
 20
295.865850
 11
241.095844
 21
295.590085
  0
LINE
  8
CSLAYER1
  6
CONTINUOUS
 62
     6
 10
241.095844
 20
295.590085
 11
240.961603
 21
295.319279
  0
LINE
  8
CSLAYER1
  6
CONTINUOUS
 62
     6
 10
240.961603
 20
295.319279
 11
240.841458
 21
295.084851
  0
LINE
  8
CSLAYER1
  6
CONTINUOUS
 62
     6
 10
240.841458
 20
295.084851
 11
240.718561
 21
294.851970
  0
LINE
  8
CSLAYER1
  6
CONTINUOUS
 62
     6
 10
240.718561
 20
294.851970
 11
240.593187
 21
294.620480
  0
LINE
  8
CSLAYER1
  6
CONTINUOUS
 62
     6
 10
240.593187
 20
294.620480
 11
240.465611
 21
294.390228
  0
LINE
  8
CSLAYER1
  6
CONTINUOUS
 62
     6
 10
240.465611
 20
294.390228
 11
240.336109
 21
294.161058
  0
LINE
  8
CSLAYER1
  6
CONTINUOUS
 62
     6
 10
240.336109
 20
294.161058
 11
240.204956
 21
293.932816
  0
LINE
  8
CSLAYER1
  6
CONTINUOUS
 62
     6
 10
240.204956
 20
293.932816
 11
240.072426
 21
293.705348
  0
LINE
  8
CSLAYER1
  6
CONTINUOUS
 62
     6
 10
240.072426
 20
293.705348
 11
239.938796
 21
293.478498
  0
LINE
  8
CSLAYER1
  6
CONTINUOUS
 62
     6
 10
239.938796
 20
293.478498
 11
239.804339
 21
293.252112
  0
LINE
  8
CSLAYER1
  6
CONTINUOUS
 62
     6
 10
239.804339
 20
293.252112
 11
239.669333
 21
293.026036
  0
LINE
  8
CSLAYER1
  6
CONTINUOUS
 62
     6
 10
239.669333
 20
293.026036
 11
239.534051
 21
292.800114
  0
ARC
  8
CSLAYER1
  6
CONTINUOUS
 62
     6
 10
240.568454
 20
293.408469
 40
1.200008
 50
210.461486
 51
270.461486
  0
ARC
  8
CSLAYER1
  6
CONTINUOUS
 62
     6
 10
241.612490
 20
292.816855
 40
1.200008
 50
210.461486
 51
270.461486
  0
ARC
  8
CSLAYER1
  6
CONTINUOUS
 62
     6
 10
240.587785
 20
291.008531
 40
1.200008
 50
30.461486
 51
90.461486
  0
LINE
  8
CSLAYER1
  6
CONTINUOUS
 62
     6
 10
241.622156
 20
291.616887
 11
241.764942
 21
291.855783
  0
LINE
  8
CSLAYER1
  6
CONTINUOUS
 62
     6
 10
241.764942
 20
291.855783
 11
241.907447
 21
292.094837
  0
LINE
  8
CSLAYER1
  6
CONTINUOUS
 62
     6
 10
241.907447
 20
292.094837
 11
242.049391
 21
292.334209
  0
LINE
  8
CSLAYER1
  6
CONTINUOUS
 62
     6
 10
242.049391
 20
292.334209
 11
242.190493
 21
292.574056
  0
LINE
  8
CSLAYER1
  6
CONTINUOUS
 62
     6
 10
242.190493
 20
292.574056
 11
242.330471
 21
292.814538
  0
LINE
  8
CSLAYER1
  6
CONTINUOUS
 62
     6
 10
242.330471
 20
292.814538
 11
242.469046
 21
293.055813
  0
LINE
  8
CSLAYER1
  6
CONTINUOUS
 62
     6
 10
242.469046
 20
293.055813
 11
242.605936
 21
293.298040
  0
LINE
  8
CSLAYER1
  6
CONTINUOUS
 62
     6
 10
242.605936
 20
293.298040
 11
242.740861
 21
293.541377
  0
LINE
  8
CSLAYER1
  6
CONTINUOUS
 62
     6
 10
242.740861
 20
293.541377
 11
242.873540
 21
293.785983
  0
LINE
  8
CSLAYER1
  6
CONTINUOUS
 62
     6
 10
242.873540
 20
293.785983
 11
243.003692
 21
294.032017
  0
LINE
  8
CSLAYER1
  6
CONTINUOUS
 62
     6
 10
243.003692
 20
294.032017
 11
243.131036
 21
294.279637
  0
LINE
  8
CSLAYER1
  6
CONTINUOUS
 62
     6
 10
243.131036
 20
294.279637
 11
243.280710
 21
294.580458
  0
LINE
  8
CSLAYER1
  6
CONTINUOUS
 62
     6
 10
243.280710
 20
294.580458
 11
243.427665
 21
294.886840
  0
LINE
  8
CSLAYER1
  6
CONTINUOUS
 62
     6
 10
243.427665
 20
294.886840
 11
243.571032
 21
295.197522
  0
LINE
  8
CSLAYER1
  6
CONTINUOUS
 62
     6
 10
243.571032
 20
295.197522
 11
243.709941
 21
295.511246
  0
LINE
  8
CSLAYER1
  6
CONTINUOUS
 62
     6
 10
243.709941
 20
295.511246
 11
243.843523
 21
295.826752
  0
LINE
  8
CSLAYER1
  6
CONTINUOUS
 62
     6
 10
243.843523
 20
295.826752
 11
243.970910
 21
296.142780
  0
LINE
  8
CSLAYER1
  6
CONTINUOUS
 62
     6
 10
243.970910
 20
296.142780
 11
244.091232
 21
296.458071
  0
LINE
  8
CSLAYER1
  6
CONTINUOUS
 62
     6
 10
244.091232
 20
296.458071
 11
244.203620
 21
296.771367
  0
LINE
  8
CSLAYER1
  6
CONTINUOUS
 62
     6
 10
244.203620
 20
296.771367
 11
244.307206
 21
297.081406
  0
LINE
  8
CSLAYER1
  6
CONTINUOUS
 62
     6
 10
244.307206
 20
297.081406
 11
244.401119
 21
297.386930
  0
LINE
  8
CSLAYER1
  6
CONTINUOUS
 62
     6
 10
244.401119
 20
297.386930
 11
244.484491
 21
297.686680
  0
LINE
  8
CSLAYER1
  6
CONTINUOUS
 62
     6
 10
244.484491
 20
297.686680
 11
244.562908
 21
297.989097
  0
LINE
  8
CSLAYER1
  6
CONTINUOUS
 62
     6
 10
244.562908
 20
297.989097
 11
244.642973
 21
298.305898
  0
LINE
  8
CSLAYER1
  6
CONTINUOUS
 62
     6
 10
244.642973
 20
298.305898
 11
244.723489
 21
298.633689
  0
LINE
  8
CSLAYER1
  6
CONTINUOUS
 62
     6
 10
244.723489
 20
298.633689
 11
244.803263
 21
298.969075
  0
LINE
  8
CSLAYER1
  6
CONTINUOUS
 62
     6
 10
244.803263
 20
298.969075
 11
244.881099
 21
299.308659
  0
LINE
  8
CSLAYER1
  6
CONTINUOUS
 62
     6
 10
244.881099
 20
299.308659
 11
244.955802
 21
299.649046
  0
LINE
  8
CSLAYER1
  6
CONTINUOUS
 62
     6
 10
244.955802
 20
299.649046
 11
245.026178
 21
299.986843
  0
LINE
  8
CSLAYER1
  6
CONTINUOUS
 62
     6
 10
245.026178
 20
299.986843
 11
245.091031
 21
300.318652
  0
LINE
  8
CSLAYER1
  6
CONTINUOUS
 62
     6
 10
245.091031
 20
300.318652
 11
245.149166
 21
300.641079
  0
LINE
  8
CSLAYER1
  6
CONTINUOUS
 62
     6
 10
245.149166
 20
300.641079
 11
245.314284
 21
301.659123
  0
LINE
  8
CSLAYER1
  6
CONTINUOUS
 62
     6
 10
242.885661
 20
301.659123
 11
242.807720
 21
301.174609
  0
LINE
  8
CSLAYER1
  6
CONTINUOUS
 62
     6
 10
242.807720
 20
301.174609
 11
242.753154
 21
300.870326
  0
LINE
  8
CSLAYER1
  6
CONTINUOUS
 62
     6
 10
241.684232
 20
299.178351
 11
241.551701
 21
298.986326
  0
LINE
  8
CSLAYER1
  6
CONTINUOUS
 62
     6
 10
241.551701
 20
298.986326
 11
241.423456
 21
298.804112
  0
LINE
  8
CSLAYER1
  6
CONTINUOUS
 62
     6
 10
241.423456
 20
298.804112
 11
241.318376
 21
298.659933
  0
LINE
  8
CSLAYER1
  6
CONTINUOUS
 62
     6
 10
241.318376
 20
298.659933
 11
241.206485
 21
298.512883
  0
LINE
  8
CSLAYER1
  6
CONTINUOUS
 62
     6
 10
241.206485
 20
298.512883
 11
241.088917
 21
298.363861
  0
LINE
  8
CSLAYER1
  6
CONTINUOUS
 62
     6
 10
241.088917
 20
298.363861
 11
240.966803
 21
298.213767
  0
LINE
  8
CSLAYER1
  6
CONTINUOUS
 62
     6
 10
240.966803
 20
298.213767
 11
240.841277
 21
298.063499
  0
LINE
  8
CSLAYER1
  6
CONTINUOUS
 62
     6
 10
240.841277
 20
298.063499
 11
240.713472
 21
297.913956
  0
LINE
  8
CSLAYER1
  6
CONTINUOUS
 62
     6
 10
240.713472
 20
297.913956
 11
240.584519
 21
297.766038
  0
LINE
  8
CSLAYER1
  6
CONTINUOUS
 62
     6
 10
240.584519
 20
297.766038
 11
240.455552
 21
297.620643
  0
LINE
  8
CSLAYER1
  6
CONTINUOUS
 62
     6
 10
240.455552
 20
297.620643
 11
240.327703
 21
297.478671
  0
LINE
  8
CSLAYER1
  6
CONTINUOUS
 62
     6
 10
240.327703
 20
297.478671
 11
240.202104
 21
297.341021
  0
LINE
  8
CSLAYER1
  6
CONTINUOUS
 62
     6
 10
240.202104
 20
297.341021
 11
240.079889
 21
297.208592
  0
LINE
  8
CSLAYER1
  6
CONTINUOUS
 62
     6
 10
240.079889
 20
297.208592
 11
239.934913
 21
297.056432
  0
LINE
  8
CSLAYER1
  6
CONTINUOUS
 62
     6
 10
239.934913
 20
297.056432
 11
239.781738
 21
296.902481
  0
LINE
  8
CSLAYER1
  6
CONTINUOUS
 62
     6
 10
239.781738
 20
296.902481
 11
239.622329
 21
296.747048
  0
LINE
  8
CSLAYER1
  6
CONTINUOUS
 62
     6
 10
239.622329
 20
296.747048
 11
239.458652
 21
296.590440
  0
LINE
  8
CSLAYER1
  6
CONTINUOUS
 62
     6
 10
239.458652
 20
296.590440
 11
239.292672
 21
296.432966
  0
LINE
  8
CSLAYER1
  6
CONTINUOUS
 62
     6
 10
239.292672
 20
296.432966
 11
239.126354
 21
296.274935
  0
LINE
  8
CSLAYER1
  6
CONTINUOUS
 62
     6
 10
239.126354
 20
296.274935
 11
238.961664
 21
296.116655
  0
LINE
  8
CSLAYER1
  6
CONTINUOUS
 62
     6
 10
238.961664
 20
296.116655
 11
238.800567
 21
295.958435
  0
LINE
  8
CSLAYER1
  6
CONTINUOUS
 62
     6
 10
238.800567
 20
295.958435
 11
238.645028
 21
295.800583
  0
LINE
  8
CSLAYER1
  6
CONTINUOUS
 62
     6
 10
238.645028
 20
295.800583
 11
238.497012
 21
295.643407
  0
LINE
  8
CSLAYER1
  6
CONTINUOUS
 62
     6
 10
238.497012
 20
295.643407
 11
238.358484
 21
295.487217
  0
LINE
  8
CSLAYER1
  6
CONTINUOUS
 62
     6
 10
238.358484
 20
295.487217
 11
238.232569
 21
295.340635
  0
LINE
  8
CSLAYER1
  6
CONTINUOUS
 62
     6
 10
238.232569
 20
295.340635
 11
238.101760
 21
295.190457
  0
LINE
  8
CSLAYER1
  6
CONTINUOUS
 62
     6
 10
238.101760
 20
295.190457
 11
237.966157
 21
295.038237
  0
LINE
  8
CSLAYER1
  6
CONTINUOUS
 62
     6
 10
237.966157
 20
295.038237
 11
237.825864
 21
294.885532
  0
LINE
  8
CSLAYER1
  6
CONTINUOUS
 62
     6
 10
237.825864
 20
294.885532
 11
237.680981
 21
294.733899
  0
LINE
  8
CSLAYER1
  6
CONTINUOUS
 62
     6
 10
237.680981
 20
294.733899
 11
237.531610
 21
294.584892
  0
LINE
  8
CSLAYER1
  6
CONTINUOUS
 62
     6
 10
237.531610
 20
294.584892
 11
237.377854
 21
294.440068
  0
LINE
  8
CSLAYER1
  6
CONTINUOUS
 62
     6
 10
237.377854
 20
294.440068
 11
237.219813
 21
294.300983
  0
LINE
  8
CSLAYER1
  6
CONTINUOUS
 62
     6
 10
237.219813
 20
294.300983
 11
237.057589
 21
294.169193
  0
LINE
  8
CSLAYER1
  6
CONTINUOUS
 62
     6
 10
237.057589
 20
294.169193
 11
236.891285
 21
294.046253
  0
LINE
  8
CSLAYER1
  6
CONTINUOUS
 62
     6
 10
236.891285
 20
294.046253
 11
236.721002
 21
293.933720
  0
LINE
  8
CSLAYER1
  6
CONTINUOUS
 62
     6
 10
236.721002
 20
293.933720
 11
236.628268
 21
293.878294
  0
LINE
  8
CSLAYER1
  6
CONTINUOUS
 62
     6
 10
236.628268
 20
293.878294
 11
236.533676
 21
293.825617
  0
LINE
  8
CSLAYER1
  6
CONTINUOUS
 62
     6
 10
236.533676
 20
293.825617
 11
236.437411
 21
293.775416
  0
LINE
  8
CSLAYER1
  6
CONTINUOUS
 62
     6
 10
236.437411
 20
293.775416
 11
236.339660
 21
293.727415
  0
LINE
  8
CSLAYER1
  6
CONTINUOUS
 62
     6
 10
236.339660
 20
293.727415
 11
236.240608
 21
293.681338
  0
LINE
  8
CSLAYER1
  6
CONTINUOUS
 62
     6
 10
236.240608
 20
293.681338
 11
236.140442
 21
293.636912
  0
LINE
  8
CSLAYER1
  6
CONTINUOUS
 62
     6
 10
236.140442
 20
293.636912
 11
236.039346
 21
293.593861
  0
LINE
  8
CSLAYER1
  6
CONTINUOUS
 62
     6
 10
236.039346
 20
293.593861
 11
235.937507
 21
293.551909
  0
LINE
  8
CSLAYER1
  6
CONTINUOUS
 62
     6
 10
235.937507
 20
293.551909
 11
235.835110
 21
293.510783
  0
LINE
  8
CSLAYER1
  6
CONTINUOUS
 62
     6
 10
235.835110
 20
293.510783
 11
235.732342
 21
293.470206
  0
LINE
  8
CSLAYER1
  6
CONTINUOUS
 62
     6
 10
235.732342
 20
293.470206
 11
235.629388
 21
293.429905
  0
LINE
  8
CSLAYER1
  6
CONTINUOUS
 62
     6
 10
238.528153
 20
291.109273
 11
238.657163
 21
291.266672
  0
LINE
  8
CSLAYER1
  6
CONTINUOUS
 62
     6
 10
238.657163
 20
291.266672
 11
238.778344
 21
291.414586
  0
ARC
  8
CSLAYER1
  6
CONTINUOUS
 62
     6
 10
239.824754
 20
291.925487
 40
1.164461
 50
206.024005
 51
266.024005
  0
ARC
  8
CSLAYER1
  6
CONTINUOUS
 62
     6
 10
238.697616
 20
290.252925
 40
1.164461
 50
26.024005
 51
86.024005
  0
LINE
  8
CSLAYER1
  6
CONTINUOUS
 62
     6
 10
238.528153
 20
291.109273
 11
238.393351
 21
290.943961
  0
LINE
  8
CSLAYER1
  6
CONTINUOUS
 62
     6
 10
238.393351
 20
290.943961
 11
238.254794
 21
290.772309
  0
LINE
  8
CSLAYER1
  6
CONTINUOUS
 62
     6
 10
238.254794
 20
290.772309
 11
238.114519
 21
290.595887
  0
LINE
  8
CSLAYER1
  6
CONTINUOUS
 62
     6
 10
238.114519
 20
290.595887
 11
237.974561
 21
290.416269
  0
LINE
  8
CSLAYER1
  6
CONTINUOUS
 62
     6
 10
237.974561
 20
290.416269
 11
237.836958
 21
290.235026
  0
LINE
  8
CSLAYER1
  6
CONTINUOUS
 62
     6
 10
237.836958
 20
290.235026
 11
237.703746
 21
290.053729
  0
LINE
  8
CSLAYER1
  6
CONTINUOUS
 62
     6
 10
237.703746
 20
290.053729
 11
237.576962
 21
289.873952
  0
LINE
  8
CSLAYER1
  6
CONTINUOUS
 62
     6
 10
237.576962
 20
289.873952
 11
237.458643
 21
289.697266
  0
LINE
  8
CSLAYER1
  6
CONTINUOUS
 62
     6
 10
237.458643
 20
289.697266
 11
237.350824
 21
289.525242
  0
LINE
  8
CSLAYER1
  6
CONTINUOUS
 62
     6
 10
237.350824
 20
289.525242
 11
237.253185
 21
289.361481
  0
LINE
  8
CSLAYER1
  6
CONTINUOUS
 62
     6
 10
237.253185
 20
289.361481
 11
237.153556
 21
289.192214
  0
LINE
  8
CSLAYER1
  6
CONTINUOUS
 62
     6
 10
237.153556
 20
289.192214
 11
237.051730
 21
289.018743
  0
LINE
  8
CSLAYER1
  6
CONTINUOUS
 62
     6
 10
237.051730
 20
289.018743
 11
236.947500
 21
288.842370
  0
LINE
  8
CSLAYER1
  6
CONTINUOUS
 62
     6
 10
236.947500
 20
288.842370
 11
236.840660
 21
288.664397
  0
LINE
  8
CSLAYER1
  6
CONTINUOUS
 62
     6
 10
236.840660
 20
288.664397
 11
236.731002
 21
288.486128
  0
LINE
  8
CSLAYER1
  6
CONTINUOUS
 62
     6
 10
236.731002
 20
288.486128
 11
236.618322
 21
288.308863
  0
LINE
  8
CSLAYER1
  6
CONTINUOUS
 62
     6
 10
236.618322
 20
288.308863
 11
236.502411
 21
288.133905
  0
LINE
  8
CSLAYER1
  6
CONTINUOUS
 62
     6
 10
236.502411
 20
288.133905
 11
236.383064
 21
287.962557
  0
LINE
  8
CSLAYER1
  6
CONTINUOUS
 62
     6
 10
236.383064
 20
287.962557
 11
236.260074
 21
287.796121
  0
LINE
  8
CSLAYER1
  6
CONTINUOUS
 62
     6
 10
236.260074
 20
287.796121
 11
236.133233
 21
287.635899
  0
LINE
  8
CSLAYER1
  6
CONTINUOUS
 62
     6
 10
236.133233
 20
287.635899
 11
236.034412
 21
287.519386
  0
LINE
  8
CSLAYER1
  6
CONTINUOUS
 62
     6
 10
236.034412
 20
287.519386
 11
235.932200
 21
287.405627
  0
LINE
  8
CSLAYER1
  6
CONTINUOUS
 62
     6
 10
235.932200
 20
287.405627
 11
235.826936
 21
287.294346
  0
LINE
  8
CSLAYER1
  6
CONTINUOUS
 62
     6
 10
235.826936
 20
287.294346
 11
235.718959
 21
287.185268
  0
LINE
  8
CSLAYER1
  6
CONTINUOUS
 62
     6
 10
235.718959
 20
287.185268
 11
235.608608
 21
287.078117
  0
LINE
  8
CSLAYER1
  6
CONTINUOUS
 62
     6
 10
235.608608
 20
287.078117
 11
235.496222
 21
286.972619
  0
LINE
  8
CSLAYER1
  6
CONTINUOUS
 62
     6
 10
235.496222
 20
286.972619
 11
235.382141
 21
286.868497
  0
LINE
  8
CSLAYER1
  6
CONTINUOUS
 62
     6
 10
235.382141
 20
286.868497
 11
235.266704
 21
286.765477
  0
LINE
  8
CSLAYER1
  6
CONTINUOUS
 62
     6
 10
235.266704
 20
286.765477
 11
235.150249
 21
286.663282
  0
LINE
  8
CSLAYER1
  6
CONTINUOUS
 62
     6
 10
235.150249
 20
286.663282
 11
235.054222
 21
286.579954
  0
LINE
  8
CSLAYER1
  6
CONTINUOUS
 62
     6
 10
235.054222
 20
286.579954
 11
235.123370
 21
286.545426
  0
LINE
  8
CSLAYER1
  6
CONTINUOUS
 62
     6
 10
235.123370
 20
286.545426
 11
235.207846
 21
286.497809
  0
LINE
  8
CSLAYER1
  6
CONTINUOUS
 62
     6
 10
235.207846
 20
286.497809
 11
235.293778
 21
286.444059
  0
LINE
  8
CSLAYER1
  6
CONTINUOUS
 62
     6
 10
235.293778
 20
286.444059
 11
235.379898
 21
286.384835
  0
LINE
  8
CSLAYER1
  6
CONTINUOUS
 62
     6
 10
235.379898
 20
286.384835
 11
235.464933
 21
286.320797
  0
LINE
  8
CSLAYER1
  6
CONTINUOUS
 62
     6
 10
235.464933
 20
286.320797
 11
235.547616
 21
286.252606
  0
LINE
  8
CSLAYER1
  6
CONTINUOUS
 62
     6
 10
235.547616
 20
286.252606
 11
235.626675
 21
286.180923
  0
LINE
  8
CSLAYER1
  6
CONTINUOUS
 62
     6
 10
235.626675
 20
286.180923
 11
235.700841
 21
286.106407
  0
LINE
  8
CSLAYER1
  6
CONTINUOUS
 62
     6
 10
235.700841
 20
286.106407
 11
235.768844
 21
286.029720
  0
LINE
  8
CSLAYER1
  6
CONTINUOUS
 62
     6
 10
235.768844
 20
286.029720
 11
235.829414
 21
285.951521
  0
LINE
  8
CSLAYER1
  6
CONTINUOUS
 62
     6
 10
235.829414
 20
285.951521
 11
235.881280
 21
285.872471
  0
LINE
  8
CSLAYER1
  6
CONTINUOUS
 62
     6
 10
235.881280
 20
285.872471
 11
235.897187
 21
285.844865
  0
LINE
  8
CSLAYER1
  6
CONTINUOUS
 62
     6
 10
235.897187
 20
285.844865
 11
235.912840
 21
285.816171
  0
LINE
  8
CSLAYER1
  6
CONTINUOUS
 62
     6
 10
235.912840
 20
285.816171
 11
235.928282
 21
285.786558
  0
LINE
  8
CSLAYER1
  6
CONTINUOUS
 62
     6
 10
235.928282
 20
285.786558
 11
235.943555
 21
285.756192
  0
LINE
  8
CSLAYER1
  6
CONTINUOUS
 62
     6
 10
235.943555
 20
285.756192
 11
235.958701
 21
285.725240
  0
LINE
  8
CSLAYER1
  6
CONTINUOUS
 62
     6
 10
235.958701
 20
285.725240
 11
235.973761
 21
285.693870
  0
LINE
  8
CSLAYER1
  6
CONTINUOUS
 62
     6
 10
235.973761
 20
285.693870
 11
235.988778
 21
285.662248
  0
LINE
  8
CSLAYER1
  6
CONTINUOUS
 62
     6
 10
235.988778
 20
285.662248
 11
236.003793
 21
285.630543
  0
LINE
  8
CSLAYER1
  6
CONTINUOUS
 62
     6
 10
236.003793
 20
285.630543
 11
236.018849
 21
285.598921
  0
LINE
  8
CSLAYER1
  6
CONTINUOUS
 62
     6
 10
236.018849
 20
285.598921
 11
236.033987
 21
285.567549
  0
LINE
  8
CSLAYER1
  6
CONTINUOUS
 62
     6
 10
236.033987
 20
285.567549
 11
236.049249
 21
285.536595
  0
LINE
  8
CSLAYER1
  6
CONTINUOUS
 62
     6
 10
236.049249
 20
285.536595
 11
236.090070
 21
285.458458
  0
LINE
  8
CSLAYER1
  6
CONTINUOUS
 62
     6
 10
236.090070
 20
285.458458
 11
236.133406
 21
285.381926
  0
LINE
  8
CSLAYER1
  6
CONTINUOUS
 62
     6
 10
236.133406
 20
285.381926
 11
236.179004
 21
285.306837
  0
LINE
  8
CSLAYER1
  6
CONTINUOUS
 62
     6
 10
236.179004
 20
285.306837
 11
236.226614
 21
285.233033
  0
LINE
  8
CSLAYER1
  6
CONTINUOUS
 62
     6
 10
236.226614
 20
285.233033
 11
236.275984
 21
285.160351
  0
LINE
  8
CSLAYER1
  6
CONTINUOUS
 62
     6
 10
236.275984
 20
285.160351
 11
236.326863
 21
285.088633
  0
LINE
  8
CSLAYER1
  6
CONTINUOUS
 62
     6
 10
236.326863
 20
285.088633
 11
236.378999
 21
285.017716
  0
LINE
  8
CSLAYER1
  6
CONTINUOUS
 62
     6
 10
236.378999
 20
285.017716
 11
236.432141
 21
284.947442
  0
LINE
  8
CSLAYER1
  6
CONTINUOUS
 62
     6
 10
236.432141
 20
284.947442
 11
236.486037
 21
284.877649
  0
LINE
  8
CSLAYER1
  6
CONTINUOUS
 62
     6
 10
236.486037
 20
284.877649
 11
236.540436
 21
284.808177
  0
LINE
  8
CSLAYER1
  6
CONTINUOUS
 62
     6
 10
236.540436
 20
284.808177
 11
236.592509
 21
284.742134
  0
LINE
  8
CSLAYER1
  6
CONTINUOUS
 62
     6
 10
236.592509
 20
284.742134
 11
236.719856
 21
284.851435
  0
LINE
  8
CSLAYER1
  6
CONTINUOUS
 62
     6
 10
236.719856
 20
284.851435
 11
236.856571
 21
284.969468
  0
LINE
  8
CSLAYER1
  6
CONTINUOUS
 62
     6
 10
236.856571
 20
284.969468
 11
236.992459
 21
285.088172
  0
LINE
  8
CSLAYER1
  6
CONTINUOUS
 62
     6
 10
236.992459
 20
285.088172
 11
237.127105
 21
285.207883
  0
LINE
  8
CSLAYER1
  6
CONTINUOUS
 62
     6
 10
237.127105
 20
285.207883
 11
237.260096
 21
285.328938
  0
LINE
  8
CSLAYER1
  6
CONTINUOUS
 62
     6
 10
237.260096
 20
285.328938
 11
237.391019
 21
285.451671
  0
LINE
  8
CSLAYER1
  6
CONTINUOUS
 62
     6
 10
237.391019
 20
285.451671
 11
237.519459
 21
285.576419
  0
LINE
  8
CSLAYER1
  6
CONTINUOUS
 62
     6
 10
237.519459
 20
285.576419
 11
237.645002
 21
285.703517
  0
LINE
  8
CSLAYER1
  6
CONTINUOUS
 62
     6
 10
237.645002
 20
285.703517
 11
237.767235
 21
285.833300
  0
LINE
  8
CSLAYER1
  6
CONTINUOUS
 62
     6
 10
237.767235
 20
285.833300
 11
237.885745
 21
285.966106
  0
LINE
  8
CSLAYER1
  6
CONTINUOUS
 62
     6
 10
237.885745
 20
285.966106
 11
238.000116
 21
286.102269
  0
LINE
  8
CSLAYER1
  6
CONTINUOUS
 62
     6
 10
238.000116
 20
286.102269
 11
238.136612
 21
286.276495
  0
LINE
  8
CSLAYER1
  6
CONTINUOUS
 62
     6
 10
238.136612
 20
286.276495
 11
238.268955
 21
286.457171
  0
LINE
  8
CSLAYER1
  6
CONTINUOUS
 62
     6
 10
238.268955
 20
286.457171
 11
238.397427
 21
286.642941
  0
LINE
  8
CSLAYER1
  6
CONTINUOUS
 62
     6
 10
238.397427
 20
286.642941
 11
238.522308
 21
286.832449
  0
LINE
  8
CSLAYER1
  6
CONTINUOUS
 62
     6
 10
238.522308
 20
286.832449
 11
238.643880
 21
287.024337
  0
LINE
  8
CSLAYER1
  6
CONTINUOUS
 62
     6
 10
238.643880
 20
287.024337
 11
238.762425
 21
287.217250
  0
LINE
  8
CSLAYER1
  6
CONTINUOUS
 62
     6
 10
238.762425
 20
287.217250
 11
238.878223
 21
287.409830
  0
LINE
  8
CSLAYER1
  6
CONTINUOUS
 62
     6
 10
238.878223
 20
287.409830
 11
238.991555
 21
287.600721
  0
LINE
  8
CSLAYER1
  6
CONTINUOUS
 62
     6
 10
238.991555
 20
287.600721
 11
239.102704
 21
287.788566
  0
LINE
  8
CSLAYER1
  6
CONTINUOUS
 62
     6
 10
239.102704
 20
287.788566
 11
239.211950
 21
287.972009
  0
LINE
  8
CSLAYER1
  6
CONTINUOUS
 62
     6
 10
239.211950
 20
287.972009
 11
239.319574
 21
288.149693
  0
LINE
  8
CSLAYER1
  6
CONTINUOUS
 62
     6
 10
239.319574
 20
288.149693
 11
239.424900
 21
288.315380
  0
LINE
  8
CSLAYER1
  6
CONTINUOUS
 62
     6
 10
239.424900
 20
288.315380
 11
239.539629
 21
288.485269
  0
LINE
  8
CSLAYER1
  6
CONTINUOUS
 62
     6
 10
239.539629
 20
288.485269
 11
239.661929
 21
288.657932
  0
LINE
  8
CSLAYER1
  6
CONTINUOUS
 62
     6
 10
239.661929
 20
288.657932
 11
239.789971
 21
288.831942
  0
LINE
  8
CSLAYER1
  6
CONTINUOUS
 62
     6
 10
239.789971
 20
288.831942
 11
239.921923
 21
289.005872
  0
LINE
  8
CSLAYER1
  6
CONTINUOUS
 62
     6
 10
239.921923
 20
289.005872
 11
240.055955
 21
289.178293
  0
LINE
  8
CSLAYER1
  6
CONTINUOUS
 62
     6
 10
240.055955
 20
289.178293
 11
240.190236
 21
289.347778
  0
LINE
  8
CSLAYER1
  6
CONTINUOUS
 62
     6
 10
240.190236
 20
289.347778
 11
240.322935
 21
289.512900
  0
LINE
  8
CSLAYER1
  6
CONTINUOUS
 62
     6
 10
240.322935
 20
289.512900
 11
240.452221
 21
289.672230
  0
LINE
  8
CSLAYER1
  6
CONTINUOUS
 62
     6
 10
240.452221
 20
289.672230
 11
240.576263
 21
289.824342
  0
LINE
  8
CSLAYER1
  6
CONTINUOUS
 62
     6
 10
240.576263
 20
289.824342
 11
240.745520
 21
290.031943
  0
ARC
  8
CSLAYER1
  6
CONTINUOUS
 62
     6
 10
239.663270
 20
289.602171
 40
1.164461
 50
21.658505
 51
86.024005
  0
LINE
  8
CSLAYER1
  6
CONTINUOUS
 62
     6
 10
235.507773
 20
286.285466
 11
232.761926
 21
283.782628
  0
LINE
  8
CSLAYER1
  6
CONTINUOUS
 62
     6
 10
233.376275
 20
283.569981
 11
235.819271
 21
285.964616
  0
LINE
  8
CSLAYER1
  6
CONTINUOUS
 62
     6
 10
236.099741
 20
285.441379
 11
233.848810
 21
283.002873
  0
LINE
  8
CSLAYER1
  6
CONTINUOUS
 62
     6
 10
227.421930
 20
285.861912
 11
229.648052
 21
288.838150
  0
LINE
  8
CSLAYER1
  6
CONTINUOUS
 62
     6
 10
229.082219
 20
288.984742
 11
226.736688
 21
286.310856
  0
LINE
  8
CSLAYER1
  6
CONTINUOUS
 62
     6
 10
226.193231
 20
286.830662
 11
228.665001
 21
289.232470
  0
LINE
  8
CSLAYER1
  6
CONTINUOUS
 62
     6
 10
157.541620
 20
217.282582
 11
151.844914
 21
215.972261
  0
LINE
  8
CSLAYER1
  6
CONTINUOUS
 62
     6
 10
151.726834
 20
216.613172
 11
134.105380
 21
214.462517
  0
LINE
  8
CSLAYER1
  6
CONTINUOUS
 62
     6
 10
139.226765
 20
215.087570
 11
139.226765
 21
253.659099
  0
LINE
  8
CSLAYER1
  6
CONTINUOUS
 62
     6
 10
137.962514
 20
249.491915
 11
129.837477
 21
237.333659
  0
ARC
  8
CSLAYER1
  6
CONTINUOUS
 62
     6
 10
134.826077
 20
233.999912
 40
6.000000
 50
146.246253
 51
206.606406
  0
ARC
  8
CSLAYER1
  6
CONTINUOUS
 62
     6
 10
126.475834
 20
225.736659
 40
1.500000
 50
21.372874
 51
119.999995
  0
LINE
  8
CSLAYER1
  6
CONTINUOUS
 62
     6
 10
125.725834
 20
227.035671
 11
123.086689
 21
225.511959
  0
ARC
  8
CSLAYER1
  6
CONTINUOUS
 62
     6
 10
120.836689
 20
229.409084
 40
4.500000
 50
119.999995
 51
300.000072
  0
LINE
  8
CSLAYER1
  6
CONTINUOUS
 62
     6
 10
118.586689
 20
233.306209
 11
121.225834
 21
234.829921
  0
ARC
  8
CSLAYER1
  6
CONTINUOUS
 62
     6
 10
120.475834
 20
236.128963
 40
1.500000
 50
-59.999967
 51
38.627097
  0
LINE
  8
CSLAYER1
  6
CONTINUOUS
 62
     6
 10
121.702732
 20
230.909053
 11
122.568745
 21
229.409084
  0
LINE
  8
CSLAYER1
  6
CONTINUOUS
 62
     6
 10
122.568745
 20
229.409084
 11
121.656498
 21
227.909084
  0
LINE
  8
CSLAYER1
  6
CONTINUOUS
 62
     6
 10
121.656498
 20
227.909084
 11
119.970676
 21
227.909084
  0
LINE
  8
CSLAYER1
  6
CONTINUOUS
 62
     6
 10
119.970676
 20
227.909084
 11
119.104648
 21
229.409053
  0
LINE
  8
CSLAYER1
  6
CONTINUOUS
 62
     6
 10
119.104648
 20
229.409053
 11
119.921833
 21
230.909084
  0
LINE
  8
CSLAYER1
  6
CONTINUOUS
 62
     6
 10
119.921833
 20
230.909084
 11
121.702732
 21
230.909053
  0
CIRCLE
  8
CSLAYER1
  6
CONTINUOUS
 62
     6
 10
120.836689
 20
229.409084
 40
3.499925
  0
CIRCLE
  8
CSLAYER1
  6
CONTINUOUS
 62
     6
 10
120.836689
 20
229.409084
 40
2.745431
  0
CIRCLE
  8
CSLAYER1
  6
CONTINUOUS
 62
     6
 10
125.726765
 20
211.159114
 40
2.067000
  0
LINE
  8
CSLAYER1
  6
CONTINUOUS
 62
     6
 10
138.509174
 20
211.159084
 11
139.667774
 21
211.159084
  0
LINE
  8
CSLAYER1
  6
CONTINUOUS
 62
     6
 10
145.669208
 20
213.953197
 11
148.342884
 21
215.424831
  0
LINE
  8
CSLAYER1
  6
CONTINUOUS
 62
     6
 10
147.727238
 20
214.943157
 11
145.900455
 21
213.508281
  0
LINE
  8
CSLAYER1
  6
CONTINUOUS
 62
     6
 10
146.088779
 20
213.145992
 11
147.981418
 21
214.421337
  0
LINE
  8
CSLAYER1
  6
CONTINUOUS
 62
     6
 10
146.263750
 20
212.809380
 11
152.110225
 21
213.332651
  0
LINE
  8
CSLAYER1
  6
CONTINUOUS
 62
     6
 10
152.110225
 20
213.332651
 11
151.726834
 21
216.613172
  0
LINE
  8
CSLAYER1
  6
CONTINUOUS
 62
     6
 10
151.926399
 20
214.905580
 11
158.029085
 21
215.370221
  0
LINE
  8
CSLAYER1
  6
CONTINUOUS
 62
     6
 10
157.691609
 20
213.532854
 11
152.017488
 21
214.126165
  0
ARC
  8
CSLAYER1
  6
CONTINUOUS
 62
     6
 10
131.726765
 20
253.659099
 40
7.500000
 50
-33.753747
 51
123.753747
  0
LINE
  8
CSLAYER1
  6
CONTINUOUS
 62
     6
 10
127.559580
 20
259.894849
 11
115.401324
 21
251.769812
  0
ARC
  8
CSLAYER1
  6
CONTINUOUS
 62
     6
 10
112.067577
 20
256.758412
 40
6.000000
 50
243.393594
 51
269.310013
  0
ARC
  8
CSLAYER1
  6
CONTINUOUS
 62
     6
 10
89.226795
 20
211.159099
 40
45.000000
 50
59.814347
 51
64.456951
  0
CIRCLE
  8
CSLAYER1
  6
CONTINUOUS
 62
     6
 10
107.476765
 20
242.769008
 40
2.000000
  0
CIRCLE
  8
CSLAYER1
  6
CONTINUOUS
 62
     6
 10
107.476765
 20
242.769008
 40
1.200000
  0
CIRCLE
  8
CSLAYER1
  6
CONTINUOUS
 62
     6
 10
131.726765
 20
253.659099
 40
3.500000
  0
LINE
  8
CSLAYER1
  6
CONTINUOUS
 62
     6
 10
131.726765
 20
261.159099
 11
46.726765
 21
261.159099
  0
CIRCLE
  8
CSLAYER1
  6
CONTINUOUS
 62
     6
 10
52.726765
 20
211.159114
 40
2.067000
  0
LINE
  8
CSLAYER1
  6
CONTINUOUS
 62
     6
 10
234.885661
 20
321.159123
 11
234.885661
 21
322.159123
  0
ARC
  8
CSLAYER1
  6
CONTINUOUS
 62
     6
 10
235.885661
 20
322.159123
 40
1.000000
 50
89.999999
 51
179.999981
  0
LINE
  8
CSLAYER1
  6
CONTINUOUS
 62
     6
 10
235.885661
 20
323.159123
 11
271.885661
 21
323.159123
  0
ARC
  8
CSLAYER1
  6
CONTINUOUS
 62
     6
 10
271.885661
 20
322.159123
 40
1.000000
 50
0.057309
 51
89.999999
  0
LINE
  8
CSLAYER1
  6
CONTINUOUS
 62
     6
 10
272.885661
 20
322.159123
 11
272.885661
 21
321.159123
  0
ARC
  8
CSLAYER1
  6
CONTINUOUS
 62
     6
 10
271.885661
 20
321.159123
 40
1.000000
 50
269.999997
 51
360.000000
  0
LINE
  8
CSLAYER1
  6
CONTINUOUS
 62
     6
 10
271.885661
 20
320.159123
 11
235.885661
 21
320.159123
  0
ARC
  8
CSLAYER1
  6
CONTINUOUS
 62
     6
 10
235.885661
 20
321.159123
 40
1.000000
 50
179.999995
 51
269.999984
  0
ARC
  8
CSLAYER1
  6
CONTINUOUS
 62
     6
 10
235.885661
 20
328.159123
 40
1.000000
 50
179.999995
 51
269.999984
  0
LINE
  8
CSLAYER1
  6
CONTINUOUS
 62
     6
 10
234.885661
 20
328.159123
 11
234.885661
 21
329.159123
  0
ARC
  8
CSLAYER1
  6
CONTINUOUS
 62
     6
 10
235.885661
 20
329.159123
 40
1.000000
 50
89.999999
 51
179.999981
  0
LINE
  8
CSLAYER1
  6
CONTINUOUS
 62
     6
 10
235.885661
 20
330.159123
 11
240.656901
 21
330.159123
  0
ARC
  8
CSLAYER1
  6
CONTINUOUS
 62
     6
 10
240.656901
 20
331.159123
 40
1.000000
 50
-89.999999
 51
48.590386
  0
ARC
  8
CSLAYER1
  6
CONTINUOUS
 62
     6
 10
253.885661
 20
346.159123
 40
19.000000
 50
131.409657
 51
228.590367
  0
ARC
  8
CSLAYER1
  6
CONTINUOUS
 62
     6
 10
240.656901
 20
361.159123
 40
1.000000
 50
-48.590366
 51
90.000019
  0
LINE
  8
CSLAYER1
  6
CONTINUOUS
 62
     6
 10
240.656901
 20
362.159123
 11
235.885661
 21
362.159123
  0
ARC
  8
CSLAYER1
  6
CONTINUOUS
 62
     6
 10
235.885661
 20
363.159123
 40
1.000000
 50
180.000019
 51
270.000001
  0
LINE
  8
CSLAYER1
  6
CONTINUOUS
 62
     6
 10
234.885661
 20
363.159123
 11
234.885661
 21
364.159123
  0
ARC
  8
CSLAYER1
  6
CONTINUOUS
 62
     6
 10
235.885661
 20
364.159123
 40
1.000000
 50
90.000016
 51
180.000005
  0
LINE
  8
CSLAYER1
  6
CONTINUOUS
 62
     6
 10
235.885661
 20
365.159123
 11
271.885661
 21
365.159123
  0
ARC
  8
CSLAYER1
  6
CONTINUOUS
 62
     6
 10
271.885661
 20
364.159123
 40
1.000000
 50
0.000000
 51
90.000003
  0
LINE
  8
CSLAYER1
  6
CONTINUOUS
 62
     6
 10
272.885661
 20
364.159123
 11
272.885661
 21
363.159123
  0
ARC
  8
CSLAYER1
  6
CONTINUOUS
 62
     6
 10
271.885661
 20
363.159123
 40
1.000000
 50
270.000001
 51
359.942691
  0
LINE
  8
CSLAYER1
  6
CONTINUOUS
 62
     6
 10
271.885661
 20
362.159123
 11
267.114421
 21
362.159123
  0
ARC
  8
CSLAYER1
  6
CONTINUOUS
 62
     6
 10
267.114421
 20
361.159123
 40
1.000000
 50
90.000003
 51
228.590367
  0
ARC
  8
CSLAYER1
  6
CONTINUOUS
 62
     6
 10
253.885661
 20
346.159123
 40
19.000000
 50
-48.590366
 51
48.590386
  0
ARC
  8
CSLAYER1
  6
CONTINUOUS
 62
     6
 10
267.114421
 20
331.159123
 40
1.000000
 50
131.409643
 51
270.000001
  0
LINE
  8
CSLAYER1
  6
CONTINUOUS
 62
     6
 10
267.114421
 20
330.159123
 11
271.885661
 21
330.159123
  0
ARC
  8
CSLAYER1
  6
CONTINUOUS
 62
     6
 10
271.885661
 20
329.159123
 40
1.000000
 50
0.057309
 51
89.999999
  0
LINE
  8
CSLAYER1
  6
CONTINUOUS
 62
     6
 10
272.885661
 20
329.159123
 11
272.885661
 21
328.159123
  0
ARC
  8
CSLAYER1
  6
CONTINUOUS
 62
     6
 10
271.885661
 20
328.159123
 40
1.000000
 50
269.999997
 51
360.000000
  0
LINE
  8
CSLAYER1
  6
CONTINUOUS
 62
     6
 10
271.885661
 20
327.159123
 11
235.885661
 21
327.159123
  0
LINE
  8
CSLAYER1
  6
CONTINUOUS
 62
     6
 10
247.885661
 20
345.259129
 11
259.885661
 21
345.259129
  0
LINE
  8
CSLAYER1
  6
CONTINUOUS
 62
     6
 10
259.885661
 20
345.259129
 11
259.885661
 21
347.059117
  0
LINE
  8
CSLAYER1
  6
CONTINUOUS
 62
     6
 10
259.885661
 20
347.059117
 11
247.885661
 21
347.059117
  0
LINE
  8
CSLAYER1
  6
CONTINUOUS
 62
     6
 10
247.885661
 20
347.059117
 11
247.885661
 21
345.259129
  0
CIRCLE
  8
CSLAYER1
  6
CONTINUOUS
 62
     6
 10
253.885661
 20
346.159123
 40
12.000000
  0
CIRCLE
  8
CSLAYER1
  6
CONTINUOUS
 62
     6
 10
253.885661
 20
346.159123
 40
15.000000
  0
CIRCLE
  8
CSLAYER1
  6
CONTINUOUS
 62
     6
 10
253.885661
 20
346.159123
 40
16.000000
  0
ARC
  8
CSLAYER1
  6
CONTINUOUS
 62
     6
 10
235.885661
 20
370.159123
 40
1.000000
 50
180.000019
 51
270.000001
  0
LINE
  8
CSLAYER1
  6
CONTINUOUS
 62
     6
 10
234.885661
 20
370.159123
 11
234.885661
 21
371.159123
  0
ARC
  8
CSLAYER1
  6
CONTINUOUS
 62
     6
 10
235.885661
 20
371.159123
 40
1.000000
 50
90.000016
 51
180.000005
  0
LINE
  8
CSLAYER1
  6
CONTINUOUS
 62
     6
 10
235.885661
 20
372.159123
 11
271.885661
 21
372.159123
  0
ARC
  8
CSLAYER1
  6
CONTINUOUS
 62
     6
 10
271.885661
 20
371.159123
 40
1.000000
 50
0.000000
 51
90.000003
  0
LINE
  8
CSLAYER1
  6
CONTINUOUS
 62
     6
 10
272.885661
 20
371.159123
 11
272.885661
 21
370.159123
  0
ARC
  8
CSLAYER1
  6
CONTINUOUS
 62
     6
 10
271.885661
 20
370.159123
 40
1.000000
 50
270.000001
 51
359.942691
  0
LINE
  8
CSLAYER1
  6
CONTINUOUS
 62
     6
 10
271.885661
 20
369.159123
 11
235.885661
 21
369.159123
  0
LINE
  8
CSLAYER1
  6
CONTINUOUS
 62
     6
 10
222.885661
 20
390.047581
 11
274.885661
 21
390.047581
  0
LINE
  8
CSLAYER1
  6
CENTER
 62
     3
 10
182.306681
 20
347.780095
 11
184.881876
 21
347.780095
  0
LINE
  8
CSLAYER1
  6
CENTER
 62
     3
 10
184.901988
 20
344.538091
 11
182.306681
 21
344.538091
  0
LINE
  8
CSLAYER1
  6
CENTER
 62
     3
 10
182.306651
 20
316.170217
 11
184.985667
 21
316.170217
  0
LINE
  8
CSLAYER1
  6
CENTER
 62
     3
 10
184.985667
 20
376.148030
 11
182.306651
 21
376.148030
  0
LINE
  8
CSLAYER1
  6
CENTER
 62
     3
 10
180.649394
 20
377.769033
 11
204.885630
 21
377.769033
  0
LINE
  8
CSLAYER1
  6
CENTER
 62
     3
 10
184.985667
 20
379.390035
 11
182.306651
 21
379.390035
  0
LINE
  8
CSLAYER1
  6
CENTER
 62
     3
 10
204.885630
 20
314.549214
 11
180.649394
 21
314.549214
  0
LINE
  8
CSLAYER1
  6
CENTER
 62
     3
 10
182.306651
 20
312.928212
 11
184.985667
 21
312.928212
  0
LINE
  8
CSLAYER1
  6
CENTER
 62
     3
 10
211.885630
 20
309.059123
 11
211.885630
 21
296.403478
  0
LINE
  8
CSLAYER1
  6
CONTINUOUS
 62
     6
 10
222.885661
 20
302.159123
 11
222.885661
 21
390.047581
  0
LINE
  8
CSLAYER1
  6
CONTINUOUS
 62
     6
 10
222.885661
 20
390.047581
 11
221.885661
 21
389.047581
  0
LINE
  8
CSLAYER1
  6
CONTINUOUS
 62
     6
 10
221.885661
 20
389.047581
 11
221.885661
 21
303.159123
  0
LINE
  8
CSLAYER1
  6
CONTINUOUS
 62
     6
 10
221.885661
 20
303.159123
 11
222.885661
 21
302.159123
  0
LINE
  8
CSLAYER1
  6
CONTINUOUS
 62
     6
 10
221.885661
 20
304.659123
 11
198.385630
 21
304.659123
  0
LINE
  8
CSLAYER1
  6
CONTINUOUS
 62
     6
 10
198.385630
 20
304.659154
 11
198.385630
 21
311.049296
  0
LINE
  8
CSLAYER1
  6
CONTINUOUS
 62
     6
 10
198.385630
 20
387.659139
 11
221.885661
 21
387.659139
  0
LINE
  8
CSLAYER1
  6
CONTINUOUS
 62
     6
 10
201.885630
 20
342.159093
 11
191.385661
 21
342.159093
  0
LINE
  8
CSLAYER1
  6
CONTINUOUS
 62
     6
 10
188.185648
 20
342.117681
 11
188.185648
 21
350.200627
  0
LINE
  8
CSLAYER1
  6
CONTINUOUS
 62
     6
 10
188.185648
 20
350.200627
 11
185.356028
 21
350.200627
  0
LINE
  8
CSLAYER1
  6
CONTINUOUS
 62
     6
 10
185.356028
 20
350.200627
 11
184.985667
 21
349.559148
  0
LINE
  8
CSLAYER1
  6
CONTINUOUS
 62
     6
 10
184.985667
 20
349.559148
 11
184.985667
 21
342.759160
  0
LINE
  8
CSLAYER1
  6
CONTINUOUS
 62
     6
 10
184.985667
 20
342.759130
 11
185.356028
 21
342.117650
  0
LINE
  8
CSLAYER1
  6
CONTINUOUS
 62
     6
 10
185.356028
 20
342.117681
 11
188.185648
 21
342.117681
  0
LINE
  8
CSLAYER1
  6
CONTINUOUS
 62
     6
 10
186.385630
 20
342.117681
 11
186.385630
 21
333.159123
  0
LINE
  8
CSLAYER1
  6
CONTINUOUS
 62
     6
 10
186.385630
 20
333.159123
 11
188.185618
 21
333.159123
  0
LINE
  8
CSLAYER1
  6
CONTINUOUS
 62
     6
 10
186.385630
 20
337.659123
 11
185.385630
 21
337.659123
  0
LINE
  8
CSLAYER1
  6
CONTINUOUS
 62
     6
 10
185.385630
 20
337.659123
 11
185.385630
 21
342.117681
  0
ARC
  8
CSLAYER1
  6
CONTINUOUS
 62
     6
 10
187.828562
 20
342.733159
 40
2.842214
 50
150.388129
 51
179.476623
  0
LINE
  8
CSLAYER1
  6
CONTINUOUS
 62
     6
 10
185.356028
 20
344.138433
 11
188.185648
 21
344.138433
  0
ARC
  8
CSLAYER1
  6
CONTINUOUS
 62
     6
 10
190.681925
 20
346.157903
 40
5.696063
 50
159.211278
 51
200.765787
  0
LINE
  8
CSLAYER1
  6
CONTINUOUS
 62
     6
 10
185.356028
 20
348.179845
 11
188.185648
 21
348.179814
  0
LINE
  8
CSLAYER1
  6
CONTINUOUS
 62
     6
 10
186.385630
 20
350.200627
 11
186.385630
 21
359.159123
  0
LINE
  8
CSLAYER1
  6
CONTINUOUS
 62
     6
 10
186.385630
 20
359.159123
 11
188.185618
 21
359.159123
  0
LINE
  8
CSLAYER1
  6
CONTINUOUS
 62
     6
 10
186.385630
 20
354.659123
 11
185.385630
 21
354.659123
  0
LINE
  8
CSLAYER1
  6
CONTINUOUS
 62
     6
 10
185.385630
 20
354.659123
 11
185.385630
 21
350.200627
  0
ARC
  8
CSLAYER1
  6
CONTINUOUS
 62
     6
 10
187.828562
 20
349.585118
 40
2.842214
 50
180.523417
 51
209.611854
  0
LINE
  8
CSLAYER1
  6
CONTINUOUS
 62
     6
 10
184.985697
 20
348.159062
 11
182.685679
 21
348.159062
  0
LINE
  8
CSLAYER1
  6
CONTINUOUS
 62
     6
 10
182.685679
 20
348.159062
 11
182.685679
 21
344.159062
  0
LINE
  8
CSLAYER1
  6
CONTINUOUS
 62
     6
 10
182.685679
 20
344.159062
 11
181.885661
 21
344.959081
  0
LINE
  8
CSLAYER1
  6
CONTINUOUS
 62
     6
 10
181.885661
 20
344.959081
 11
181.885661
 21
347.359075
  0
LINE
  8
CSLAYER1
  6
CONTINUOUS
 62
     6
 10
181.885661
 20
347.359075
 11
182.685679
 21
348.159062
  0
LINE
  8
CSLAYER1
  6
CONTINUOUS
 62
     6
 10
182.385630
 20
347.859025
 11
182.385630
 21
350.659123
  0
LINE
  8
CSLAYER1
  6
CONTINUOUS
 62
     6
 10
182.385630
 20
350.659123
 11
182.885630
 21
351.159123
  0
LINE
  8
CSLAYER1
  6
CONTINUOUS
 62
     6
 10
182.885630
 20
351.159123
 11
185.385630
 21
351.159123
  0
LINE
  8
CSLAYER1
  6
CONTINUOUS
 62
     6
 10
191.385661
 20
350.159154
 11
201.885630
 21
350.159154
  0
LINE
  8
CSLAYER1
  6
CONTINUOUS
 62
     6
 10
184.985697
 20
344.159062
 11
182.685679
 21
344.159062
  0
LINE
  8
CSLAYER1
  6
CONTINUOUS
 62
     6
 10
182.385630
 20
344.459111
 11
182.385630
 21
341.659123
  0
LINE
  8
CSLAYER1
  6
CONTINUOUS
 62
     6
 10
182.385630
 20
341.659123
 11
182.885630
 21
341.159123
  0
LINE
  8
CSLAYER1
  6
CONTINUOUS
 62
     6
 10
182.885630
 20
341.159123
 11
185.385630
 21
341.159123
  0
LINE
  8
CSLAYER1
  6
CONTINUOUS
 62
     6
 10
185.356028
 20
318.590657
 11
184.985667
 21
317.949178
  0
LINE
  8
CSLAYER1
  6
CONTINUOUS
 62
     6
 10
184.985667
 20
317.949178
 11
184.985667
 21
311.149159
  0
LINE
  8
CSLAYER1
  6
CONTINUOUS
 62
     6
 10
184.985667
 20
311.149159
 11
185.356028
 21
310.507680
  0
LINE
  8
CSLAYER1
  6
CONTINUOUS
 62
     6
 10
185.356028
 20
310.507680
 11
188.185648
 21
310.507680
  0
LINE
  8
CSLAYER1
  6
CONTINUOUS
 62
     6
 10
188.185648
 20
310.507680
 11
188.185648
 21
318.590627
  0
LINE
  8
CSLAYER1
  6
CONTINUOUS
 62
     6
 10
188.185648
 20
318.590627
 11
185.356028
 21
318.590596
  0
ARC
  8
CSLAYER1
  6
CONTINUOUS
 62
     6
 10
187.828562
 20
317.975148
 40
2.842214
 50
180.523359
 51
209.611854
  0
LINE
  8
CSLAYER1
  6
CONTINUOUS
 62
     6
 10
185.356028
 20
316.569875
 11
188.185618
 21
316.569905
  0
ARC
  8
CSLAYER1
  6
CONTINUOUS
 62
     6
 10
190.681925
 20
314.550374
 40
5.696063
 50
159.234196
 51
200.788762
  0
LINE
  8
CSLAYER1
  6
CONTINUOUS
 62
     6
 10
185.356028
 20
312.528462
 11
188.185618
 21
312.528462
  0
ARC
  8
CSLAYER1
  6
CONTINUOUS
 62
     6
 10
187.828562
 20
311.123189
 40
2.842214
 50
150.388129
 51
179.476623
  0
LINE
  8
CSLAYER1
  6
CONTINUOUS
 62
     6
 10
184.985667
 20
312.549245
 11
182.685648
 21
312.549245
  0
LINE
  8
CSLAYER1
  6
CONTINUOUS
 62
     6
 10
182.685648
 20
312.549245
 11
182.685648
 21
316.549245
  0
LINE
  8
CSLAYER1
  6
CONTINUOUS
 62
     6
 10
182.685648
 20
316.549245
 11
181.885630
 21
315.749227
  0
LINE
  8
CSLAYER1
  6
CONTINUOUS
 62
     6
 10
181.885630
 20
315.749227
 11
181.885630
 21
313.349233
  0
LINE
  8
CSLAYER1
  6
CONTINUOUS
 62
     6
 10
181.885630
 20
313.349233
 11
182.685648
 21
312.549245
  0
LINE
  8
CSLAYER1
  6
CONTINUOUS
 62
     6
 10
191.385630
 20
310.549214
 11
198.385630
 21
310.549214
  0
LINE
  8
CSLAYER1
  6
CONTINUOUS
 62
     6
 10
191.385630
 20
304.659123
 11
191.385630
 21
387.659139
  0
LINE
  8
CSLAYER1
  6
CONTINUOUS
 62
     6
 10
191.385661
 20
387.659139
 11
188.185648
 21
387.659139
  0
LINE
  8
CSLAYER1
  6
CONTINUOUS
 62
     6
 10
188.185618
 20
387.659139
 11
188.185618
 21
304.659123
  0
LINE
  8
CSLAYER1
  6
CONTINUOUS
 62
     6
 10
188.185618
 20
304.659123
 11
191.385630
 21
304.659123
  0
LINE
  8
CSLAYER1
  6
CONTINUOUS
 62
     6
 10
201.885630
 20
304.659154
 11
201.885630
 21
387.659139
  0
LINE
  8
CSLAYER1
  6
CONTINUOUS
 62
     6
 10
198.385630
 20
381.769033
 11
191.385630
 21
381.769033
  0
LINE
  8
CSLAYER1
  6
CONTINUOUS
 62
     6
 10
188.185648
 20
381.810567
 11
188.185648
 21
373.727620
  0
LINE
  8
CSLAYER1
  6
CONTINUOUS
 62
     6
 10
188.185648
 20
373.727620
 11
185.356028
 21
373.727651
  0
LINE
  8
CSLAYER1
  6
CONTINUOUS
 62
     6
 10
185.356028
 20
373.727590
 11
184.985667
 21
374.369069
  0
LINE
  8
CSLAYER1
  6
CONTINUOUS
 62
     6
 10
184.985667
 20
374.369069
 11
184.985667
 21
381.169087
  0
LINE
  8
CSLAYER1
  6
CONTINUOUS
 62
     6
 10
184.985667
 20
381.169087
 11
185.356028
 21
381.810567
  0
LINE
  8
CSLAYER1
  6
CONTINUOUS
 62
     6
 10
185.356028
 20
381.810567
 11
188.185648
 21
381.810567
  0
LINE
  8
CSLAYER1
  6
CONTINUOUS
 62
     6
 10
188.185618
 20
379.789784
 11
185.356028
 21
379.789784
  0
ARC
  8
CSLAYER1
  6
CONTINUOUS
 62
     6
 10
190.681925
 20
377.767873
 40
5.696063
 50
159.211278
 51
200.765787
  0
LINE
  8
CSLAYER1
  6
CONTINUOUS
 62
     6
 10
185.356028
 20
375.748372
 11
188.185618
 21
375.748342
  0
ARC
  8
CSLAYER1
  6
CONTINUOUS
 62
     6
 10
187.828562
 20
374.343099
 40
2.842214
 50
150.388129
 51
179.476623
  0
LINE
  8
CSLAYER1
  6
CONTINUOUS
 62
     6
 10
184.985667
 20
375.769002
 11
182.685648
 21
375.769002
  0
LINE
  8
CSLAYER1
  6
CONTINUOUS
 62
     6
 10
182.685648
 20
375.769002
 11
182.685648
 21
379.769002
  0
LINE
  8
CSLAYER1
  6
CONTINUOUS
 62
     6
 10
182.685648
 20
379.769002
 11
181.885630
 21
378.969014
  0
LINE
  8
CSLAYER1
  6
CONTINUOUS
 62
     6
 10
181.885630
 20
378.969014
 11
181.885630
 21
376.569020
  0
LINE
  8
CSLAYER1
  6
CONTINUOUS
 62
     6
 10
181.885630
 20
376.569020
 11
182.685648
 21
375.769002
  0
LINE
  8
CSLAYER1
  6
CONTINUOUS
 62
     6
 10
182.685648
 20
379.769002
 11
184.985667
 21
379.769002
  0
ARC
  8
CSLAYER1
  6
CONTINUOUS
 62
     6
 10
187.828562
 20
381.195058
 40
2.842214
 50
180.523417
 51
209.611854
  0
LINE
  8
CSLAYER1
  6
CONTINUOUS
 62
     6
 10
184.985667
 20
316.549245
 11
182.685648
 21
316.549245
  0
LINE
  8
CSLAYER1
  6
CONTINUOUS
 62
     6
 10
208.996592
 20
304.659123
 11
208.996592
 21
303.738332
  0
LINE
  8
CSLAYER1
  6
CONTINUOUS
 62
     6
 10
208.996592
 20
303.738332
 11
214.774668
 21
303.738332
  0
LINE
  8
CSLAYER1
  6
CONTINUOUS
 62
     6
 10
214.774668
 20
303.738332
 11
214.774668
 21
304.659123
  0
LINE
  8
CSLAYER1
  6
CONTINUOUS
 62
     6
 10
212.886668
 20
303.738332
 11
212.886668
 21
296.977178
  0
ARC
  8
CSLAYER1
  6
CONTINUOUS
 62
     6
 10
212.386164
 20
296.110265
 40
1.001006
 50
59.999981
 51
119.999981
  0
ARC
  8
CSLAYER1
  6
CONTINUOUS
 62
     6
 10
211.385158
 20
297.844059
 40
1.001006
 50
239.999981
 51
299.999981
  0
LINE
  8
CSLAYER1
  6
CONTINUOUS
 62
     6
 10
210.884654
 20
296.977178
 11
210.884654
 21
303.738332
  0
ARC
  8
CSLAYER1
  6
CONTINUOUS
 62
     6
 10
212.386164
 20
297.844058
 40
1.001006
 50
239.999981
 51
299.999981
  0
ARC
  8
CSLAYER1
  6
CONTINUOUS
 62
     6
 10
212.386135
 20
294.618805
 40
1.000999
 50
60.000362
 51
120.000362
  0
ARC
  8
CSLAYER1
  6
CONTINUOUS
 62
     6
 10
211.385136
 20
294.618798
 40
1.000999
 50
60.000362
 51
120.000362
  0
ARC
  8
CSLAYER1
  6
CONTINUOUS
 62
     6
 10
211.385125
 20
296.352579
 40
1.000999
 50
240.000362
 51
300.000362
  0
LINE
  8
CSLAYER1
  6
CONTINUOUS
 62
     6
 10
210.884654
 20
295.485692
 11
210.884654
 21
294.327046
  0
ARC
  8
CSLAYER1
  6
CONTINUOUS
 62
     6
 10
198.546122
 20
294.327046
 40
12.338538
 50
332.536225
 51
359.942687
  0
LINE
  8
CSLAYER1
  6
CONTINUOUS
 62
     6
 10
209.494120
 20
288.636693
 11
211.270457
 21
287.713384
  0
ARC
  8
CSLAYER1
  6
CONTINUOUS
 62
     6
 10
198.546122
 20
294.327046
 40
14.340522
 50
332.536225
 51
359.942687
  0
ARC
  8
CSLAYER1
  6
CONTINUOUS
 62
     6
 10
225.225138
 20
294.312642
 40
12.338538
 50
179.999963
 51
207.463892
  0
LINE
  8
CSLAYER1
  6
CONTINUOUS
 62
     6
 10
214.277140
 20
288.622258
 11
212.500803
 21
287.698949
  0
ARC
  8
CSLAYER1
  6
CONTINUOUS
 62
     6
 10
225.225138
 20
294.312642
 40
14.340522
 50
201.503298
 51
207.463892
  0
LINE
  8
CSLAYER1
  6
CONTINUOUS
 62
     6
 10
210.899760
 20
287.906041
 11
209.624400
 21
286.013448
  0
LINE
  8
CSLAYER1
  6
CONTINUOUS
 62
     6
 10
209.102580
 20
286.267629
 11
210.537455
 21
288.094365
  0
LINE
  8
CSLAYER1
  6
CONTINUOUS
 62
     6
 10
210.092539
 20
288.325658
 11
208.620921
 21
285.651982
  0
LINE
  8
CSLAYER1
  6
CONTINUOUS
 62
     6
 10
212.871500
 20
287.891683
 11
214.146861
 21
285.999013
  0
LINE
  8
CSLAYER1
  6
CONTINUOUS
 62
     6
 10
214.668681
 20
286.253224
 11
213.233805
 21
288.079961
  0
LINE
  8
CSLAYER1
  6
CONTINUOUS
 62
     6
 10
213.678721
 20
288.311223
 11
215.150340
 21
285.637593
  0
LINE
  8
CSLAYER1
  6
CONTINUOUS
 62
     6
 10
212.886668
 20
294.327046
 11
212.886668
 21
295.485692
  0
LINE
  8
CSLAYER1
  6
CONTINUOUS
 62
     6
 10
185.485667
 20
329.909099
 11
188.185618
 21
329.909099
  0
LINE
  8
CSLAYER1
  6
CONTINUOUS
 62
     6
 10
185.485667
 20
325.909099
 11
188.185618
 21
325.909099
  0
LINE
  8
CSLAYER1
  6
CONTINUOUS
 62
     6
 10
191.385630
 20
329.909099
 11
201.885630
 21
329.909099
  0
LINE
  8
CSLAYER1
  6
CONTINUOUS
 62
     6
 10
191.385630
 20
325.909099
 11
201.885630
 21
325.909099
  0
LINE
  8
CSLAYER1
  6
CONTINUOUS
 62
     6
 10
184.985667
 20
329.409099
 11
184.985667
 21
326.409099
  0
LINE
  8
CSLAYER1
  6
CONTINUOUS
 62
     6
 10
185.485667
 20
366.409084
 11
188.185618
 21
366.409084
  0
LINE
  8
CSLAYER1
  6
CONTINUOUS
 62
     6
 10
185.485667
 20
362.409084
 11
188.185618
 21
362.409084
  0
LINE
  8
CSLAYER1
  6
CONTINUOUS
 62
     6
 10
184.985667
 20
362.909084
 11
184.985667
 21
365.909084
  0
LINE
  8
CSLAYER1
  6
CONTINUOUS
 62
     6
 10
184.985667
 20
326.409099
 11
185.485667
 21
325.909099
  0
LINE
  8
CSLAYER1
  6
CONTINUOUS
 62
     6
 10
185.485667
 20
329.909099
 11
184.985667
 21
329.409099
  0
LINE
  8
CSLAYER1
  6
CONTINUOUS
 62
     6
 10
184.985667
 20
365.909084
 11
185.485667
 21
366.409084
  0
LINE
  8
CSLAYER1
  6
CONTINUOUS
 62
     6
 10
184.985667
 20
362.909084
 11
185.485667
 21
362.409084
  0
LINE
  8
CSLAYER1
  6
CONTINUOUS
 62
     6
 10
188.185618
 20
384.805012
 11
191.385630
 21
384.805012
  0
LINE
  8
CSLAYER1
  6
CONTINUOUS
 62
     6
 10
188.185648
 20
378.908169
 11
191.385630
 21
378.908169
  0
LINE
  8
CSLAYER1
  6
CONTINUOUS
 62
     6
 10
188.185618
 20
372.065337
 11
191.385630
 21
372.065337
  0
LINE
  8
CSLAYER1
  6
CONTINUOUS
 62
     6
 10
188.185618
 20
362.236659
 11
191.385630
 21
362.236659
  0
LINE
  8
CSLAYER1
  6
CONTINUOUS
 62
     6
 10
197.385630
 20
381.268949
 11
201.885630
 21
381.268949
  0
LINE
  8
CSLAYER1
  6
CONTINUOUS
 62
     6
 10
197.385630
 20
374.269099
 11
198.385630
 21
374.269099
  0
LINE
  8
CSLAYER1
  6
CONTINUOUS
 62
     6
 10
196.885630
 20
374.769099
 11
196.885630
 21
380.768949
  0
LINE
  8
CSLAYER1
  6
CONTINUOUS
 62
     6
 10
198.385630
 20
384.805012
 11
201.885630
 21
384.805012
  0
LINE
  8
CSLAYER1
  6
CONTINUOUS
 62
     6
 10
198.385630
 20
378.908169
 11
201.885630
 21
378.908169
  0
LINE
  8
CSLAYER1
  6
CONTINUOUS
 62
     6
 10
198.385630
 20
381.268949
 11
198.385630
 21
387.659139
  0
LINE
  8
CSLAYER1
  6
CONTINUOUS
 62
     6
 10
196.885630
 20
380.768949
 11
197.385630
 21
381.268949
  0
LINE
  8
CSLAYER1
  6
CONTINUOUS
 62
     6
 10
196.885630
 20
374.769099
 11
197.385630
 21
374.269099
  0
LINE
  8
CSLAYER1
  6
CONTINUOUS
 62
     6
 10
198.385630
 20
321.189235
 11
201.885630
 21
321.189235
  0
LINE
  8
CSLAYER1
  6
CONTINUOUS
 62
     6
 10
198.385630
 20
331.034886
 11
201.885630
 21
331.034886
  0
LINE
  8
CSLAYER1
  6
CONTINUOUS
 62
     6
 10
198.385630
 20
329.909099
 11
198.385630
 21
341.667659
  0
LINE
  8
CSLAYER1
  6
CONTINUOUS
 62
     6
 10
198.385630
 20
350.650540
 11
201.885630
 21
350.650540
  0
LINE
  8
CSLAYER1
  6
CONTINUOUS
 62
     6
 10
198.385630
 20
341.667659
 11
201.885630
 21
341.667659
  0
LINE
  8
CSLAYER1
  6
CONTINUOUS
 62
     6
 10
198.385630
 20
350.650540
 11
198.385630
 21
378.908169
  0
LINE
  8
CSLAYER1
  6
CONTINUOUS
 62
     6
 10
191.385630
 20
376.159089
 11
196.885630
 21
376.159089
  0
LINE
  8
CSLAYER1
  6
CONTINUOUS
 62
     6
 10
191.385630
 20
316.159110
 11
196.885630
 21
316.159110
  0
LINE
  8
CSLAYER1
  6
CENTER
 62
     3
 10
193.115176
 20
316.159110
 11
194.363314
 21
310.049214
  0
LINE
  8
CSLAYER1
  6
CENTER
 62
     3
 10
194.115176
 20
316.159110
 11
195.363314
 21
310.049214
  0
LINE
  8
CSLAYER1
  6
CENTER
 62
     3
 10
195.115177
 20
316.159110
 11
196.363320
 21
310.049214
  0
LINE
  8
CSLAYER1
  6
CENTER
 62
     3
 10
192.421736
 20
310.049214
 11
192.372713
 21
316.159110
  0
LINE
  8
CSLAYER1
  6
CENTER
 62
     3
 10
198.385630
 20
310.049214
 11
191.385630
 21
310.049214
  0
LINE
  8
CSLAYER1
  6
CENTER
 62
     3
 10
192.524781
 20
350.659123
 11
194.363314
 21
341.659123
  0
LINE
  8
CSLAYER1
  6
CENTER
 62
     3
 10
193.524781
 20
350.659123
 11
195.363314
 21
341.659123
  0
LINE
  8
CSLAYER1
  6
CENTER
 62
     3
 10
194.524780
 20
350.659123
 11
196.363320
 21
341.659123
  0
LINE
  8
CSLAYER1
  6
CENTER
 62
     3
 10
192.421736
 20
341.659123
 11
192.349525
 21
350.659123
  0
LINE
  8
CSLAYER1
  6
CENTER
 62
     3
 10
201.885630
 20
350.659123
 11
191.385630
 21
350.659123
  0
LINE
  8
CSLAYER1
  6
CENTER
 62
     3
 10
201.885630
 20
341.659123
 11
191.385630
 21
341.659123
  0
LINE
  8
CSLAYER1
  6
CONTINUOUS
 62
     6
 10
197.385630
 20
311.049296
 11
201.885630
 21
311.049296
  0
LINE
  8
CSLAYER1
  6
CONTINUOUS
 62
     6
 10
197.385630
 20
318.049146
 11
198.385630
 21
318.049146
  0
LINE
  8
CSLAYER1
  6
CONTINUOUS
 62
     6
 10
196.885630
 20
317.549146
 11
196.885630
 21
311.549296
  0
LINE
  8
CSLAYER1
  6
CONTINUOUS
 62
     6
 10
198.385630
 20
307.513234
 11
201.885630
 21
307.513234
  0
LINE
  8
CSLAYER1
  6
CONTINUOUS
 62
     6
 10
198.385630
 20
313.410076
 11
201.885630
 21
313.410076
  0
LINE
  8
CSLAYER1
  6
CONTINUOUS
 62
     6
 10
196.885630
 20
311.549296
 11
197.385630
 21
311.049296
  0
LINE
  8
CSLAYER1
  6
CONTINUOUS
 62
     6
 10
196.885630
 20
317.549146
 11
197.385630
 21
318.049146
  0
LINE
  8
CSLAYER1
  6
CONTINUOUS
 62
     6
 10
198.385630
 20
313.410076
 11
198.385630
 21
325.909099
  0
LINE
  8
CSLAYER1
  6
CENTER
 62
     3
 10
192.524781
 20
382.269033
 11
193.772929
 21
376.159089
  0
LINE
  8
CSLAYER1
  6
CENTER
 62
     3
 10
193.524781
 20
382.269033
 11
194.772929
 21
376.159089
  0
LINE
  8
CSLAYER1
  6
CENTER
 62
     3
 10
194.524780
 20
382.269033
 11
195.772933
 21
376.159089
  0
LINE
  8
CSLAYER1
  6
CENTER
 62
     3
 10
192.398547
 20
376.159089
 11
192.349525
 21
382.269033
  0
LINE
  8
CSLAYER1
  6
CENTER
 62
     3
 10
198.385630
 20
382.269033
 11
191.385630
 21
382.269033
  0
LINE
  8
CSLAYER1
  6
CONTINUOUS
 62
     6
 10
188.185618
 20
244.769008
 11
185.485667
 21
244.769008
  0
LINE
  8
CSLAYER1
  6
CONTINUOUS
 62
     6
 10
191.385630
 20
240.769008
 11
198.385630
 21
240.769008
  0
ENDSEC
  0
EOF
