  0
SECTION
  2
HEADER
  9
$ACADVER
  1
AC1006
  9
$INSBASE
 10
0.000000
 20
0.000000
 30
0.0
  9
$EXTMIN
 10
0.000000
 20
0.000000
  9
$EXTMAX
 10
594.000000
 20
420.000000
  9
$LIMMIN
 10
0.000000
 20
0.000000
  9
$LIMMAX
 10
594.000000
 20
420.000000
  9
$VIEWCTR
 10
297.000000
 20
210.000000
  9
$VIEWSIZE
 40
420.000000
  9
$SNAPMODE
 70
     0
  9
$SNAPUNIT
 10
1.0
 20
1.0
  9
$SNAPBASE
 10
0.0
 20
0.0
  9
$SNAPANG
 50
0.0
  9
$SNAPSTYLE
 70
     0
  9
$SNAPISOPAIR
 70
     0
  9
$GRIDMODE
 70
     0
  9
$GRIDUNIT
 10
0.0
 20
0.0
  9
$ORTHOMODE
 70
     0
  9
$REGENMODE
 70
     1
  9
$FILLMODE
 70
     1
  9
$QTEXTMODE
 70
     0
  9
$DRAGMODE
 70
     2
  9
$LTSCALE
 40
15.000000
  9
$OSMODE
 70
     0
  9
$ATTMODE
 70
     1
  9
$TEXTSIZE
 40
0.2
  9
$TRACEWID
 40
0.05
  9
$TEXTSTYLE
  7
STANDARD
  9
$CLAYER
  8
CSLAYER1
  9
$CELTYPE
  6
BYLAYER
  9
$CECOLOR
 62
   256
  9
$DIMSCALE
 40
1.0
  9
$DIMASZ
 40
0.18
  9
$DIMEXO
 40
0.0625
  9
$DIMDLI
 40
0.38
  9
$DIMRND
 40
0.0
  9
$DIMDLE
 40
0.0
  9
$DIMEXE
 40
0.18
  9
$DIMTP
 40
0.0
  9
$DIMTM
 40
0.0
  9
$DIMTXT
 40
0.18
  9
$DIMCEN
 40
0.09
  9
$DIMTSZ
 40
0.0
  9
$DIMTOL
 70
     0
  9
$DIMLIM
 70
     0
  9
$DIMTIH
 70
     1
  9
$DIMTOH
 70
     1
  9
$DIMSE1
 70
     0
  9
$DIMSE2
 70
     0
  9
$DIMTAD
 70
     0
  9
$DIMZIN
 70
     0
  9
$DIMBLK
  1

  9
$LUNITS
 70
     2
  9
$LUPREC
 70
     4
  9
$AXISMODE
 70
     0
  9
$AXISUNIT
 10
0.0
 20
0.0
  9
$SKETCHINC
 40
0.1
  9
$FILLETRAD
 40
0.0
  9
$AUNITS
 70
     0
  9
$AUPREC
 70
     0
  9
$MENU
  1
ACAD
  9
$ELEVATION
 40
0.0
  9
$THICKNESS
 40
0.0
  9
$VIEWDIR
 10
0.0
 20
0.0
 30
1.0
  9
$LIMCHECK
 70
     0
  9
$BLIPMODE
 70
     1
  9
$CHAMFERA
 40
0.0
  9
$CHAMFERB
 40
0.0
  9
$FASTZOOM
 70
     1
  9
$SKPOLY
 70
     0
  9
$TDCREATE
 40
0.000000
  9
$TDUPDATE
 40
0.000000
  9
$TDINDWG
 40
0.0
  9
$TDUSRTIMER
 40
0.0
  9
$USRTIMER
 70
     1
  9
$ANGBASE
 50
0.0
  9
$ANGDIR
 70
     0
  9
$PDMODE
 70
     0
  9
$PDSIZE
 40
0.0
  9
$PLINEWID
 40
0.0
  9
$COORDS
 70
     0
  9
$USERI1
 70
     0
  9
$USERI2
 70
     0
  9
$USERI3
 70
     0
  9
$USERI4
 70
     0
  9
$USERI5
 70
     0
  9
$USERR1
 40
0.0
  9
$USERR2
 40
0.0
  9
$USERR3
 40
0.0
  9
$USERR4
 40
0.0
  9
$USERR5
 40
0.0
  0
ENDSEC
  0
SECTION
  2
TABLES
  0
TABLE
  2
LTYPE
 70
     9
  0
LTYPE
  2
CONTINUOUS
 70
    64
  3
Solid line
 72
    65
 73
     0
 40
0.0
  0
LTYPE
  2
DASHED
 70
    64
  3
__ __ __ __ __ __ __ __ __ __ __ __ __ __ __
 72
    65
 73
     2
 40
0.75
 49
0.5
 49
-0.25
  0
LTYPE
  2
HIDDEN
 70
    64
  3
_ _ _ _ _ _ _ _ _ _ _ _ _ _ _ _ _ _ _ _ _ _ _
 72
    65
 73
     2
 40
0.375
 49
0.25
 49
-0.125
  0
LTYPE
  2
DOT
 70
    64
  3
...............................................
 72
    65
 73
     2
 40
0.25
 49
0.0
 49
-0.25
  0
LTYPE
  2
DASHDOT
 70
    64
  3
__ . __ . __ . __ . __ . __ . __ . __ . __ . __
 72
    65
 73
     4
 40
1.0
 49
0.5
 49
-0.25
 49
0.0
 49
-0.25
  0
LTYPE
  2
DIVIDE
 70
    64
  3
__ . . __ . . __ . . __ . . __ . . __ . . __
 72
    65
 73
     6
 40
1.25
 49
0.5
 49
-0.25
 49
0.0
 49
-0.25
 49
0.0
 49
-0.25
  0
LTYPE
  2
CENTER
 70
    64
  3
____ _ ____ _ ____ _ ____ _ ____ _ ____ _ ____ 
 72
    65
 73
     4
 40
2.0
 49
1.25
 49
-0.25
 49
0.25
 49
-0.25
  0
LTYPE
  2
PHANTOM
 70
    64
  3
______  __  __  ______  __  __  ______  __  __ 
 72
    65
 73
     6
 40
2.5
 49
1.25
 49
-0.25
 49
0.25
 49
-0.25
 49
0.25
 49
-0.25
  0
LTYPE
  2
BORDER
 70
    64
  3
__ __ . __ __ . __ __ . __ __ . __ __ . __ __ .
 72
    65
 73
     6
 40
1.75
 49
0.5
 49
-0.25
 49
0.5
 49
-0.25
 49
0.0
 49
-0.25
  0
ENDTAB
  0
TABLE
  2
LAYER
 70
    16
  0
LAYER
  2
CSLAYER1
 70
    64
 62
     7
  6
CONTINUOUS
  0
LAYER
  2
CSLAYER2
 70
    64
 62
     7
  6
CONTINUOUS
  0
LAYER
  2
CSLAYER3
 70
    64
 62
     7
  6
CONTINUOUS
  0
LAYER
  2
CSLAYER4
 70
    64
 62
     7
  6
CONTINUOUS
  0
LAYER
  2
CSLAYER5
 70
    64
 62
     7
  6
CONTINUOUS
  0
LAYER
  2
CSLAYER6
 70
    64
 62
     7
  6
CONTINUOUS
  0
LAYER
  2
CSLAYER7
 70
    64
 62
     7
  6
CONTINUOUS
  0
LAYER
  2
CSLAYER8
 70
    64
 62
     7
  6
CONTINUOUS
  0
LAYER
  2
CSLAYER9
 70
    64
 62
     7
  6
CONTINUOUS
  0
LAYER
  2
CSLAYER10
 70
    64
 62
     7
  6
CONTINUOUS
  0
LAYER
  2
CSLAYER11
 70
    64
 62
     7
  6
CONTINUOUS
  0
LAYER
  2
CSLAYER12
 70
    64
 62
     7
  6
CONTINUOUS
  0
LAYER
  2
CSLAYER13
 70
    64
 62
     7
  6
CONTINUOUS
  0
LAYER
  2
CSLAYER14
 70
    64
 62
     7
  6
CONTINUOUS
  0
LAYER
  2
CSLAYER15
 70
    64
 62
     7
  6
CONTINUOUS
  0
LAYER
  2
CSLAYER16
 70
    64
 62
     7
  6
CONTINUOUS
  0
ENDTAB
  0
TABLE
  2
STYLE
 70
     1
  0
STYLE
  2
JX_FONT
 70
     0
 40
1.0
 41
1.0
 50
0.0
 71
     0
 42
1.0
  3
monotxt
  4
bigfont
  0
ENDTAB
  0
TABLE
  2
VIEW
 70
     0
  0
ENDTAB
  0
ENDSEC
  0
SECTION
  2
BLOCKS
  0
ENDSEC
  0
SECTION
  2
ENTITIES
  0
LINE
  8
CSLAYER1
  6
CENTER
 62
     3
 10
78.353403
 20
141.041885
 11
78.353403
 21
281.041885
  0
ARC
  8
CSLAYER1
  6
CENTER
 62
     3
 10
78.353405
 20
211.041885
 40
59.000000
 50
100.142971
 51
109.857029
  0
ARC
  8
CSLAYER1
  6
CONTINUOUS
 62
     3
 10
63.083082
 20
268.031509
 40
2.000000
 50
182.142857
 51
207.857143
  0
ARC
  8
CSLAYER1
  6
CONTINUOUS
 62
     3
 10
63.083082
 20
268.031509
 40
2.000000
 50
130.714286
 51
156.428571
  0
ARC
  8
CSLAYER1
  6
CONTINUOUS
 62
     3
 10
63.083082
 20
268.031509
 40
2.000000
 50
79.285714
 51
105.000000
  0
ARC
  8
CSLAYER1
  6
CONTINUOUS
 62
     3
 10
63.083082
 20
268.031509
 40
2.000000
 50
27.857143
 51
53.571429
  0
ARC
  8
CSLAYER1
  6
CONTINUOUS
 62
     3
 10
63.083082
 20
268.031509
 40
2.000000
 50
-23.571429
 51
2.142857
  0
ARC
  8
CSLAYER1
  6
CONTINUOUS
 62
     3
 10
63.083082
 20
268.031509
 40
2.000000
 50
285.000000
 51
310.714286
  0
ARC
  8
CSLAYER1
  6
CONTINUOUS
 62
     3
 10
63.083082
 20
268.031509
 40
2.000000
 50
233.571429
 51
259.285714
  0
LINE
  8
CSLAYER1
  6
CENTER
 62
     3
 10
64.377177
 20
263.201879
 11
61.788987
 21
272.861138
  0
ARC
  8
CSLAYER1
  6
CENTER
 62
     3
 10
78.353403
 20
211.041883
 40
59.000000
 50
125.489349
 51
145.680782
  0
LINE
  8
CSLAYER1
  6
CENTER
 62
     3
 10
43.245920
 20
246.149366
 11
28.855928
 21
260.539357
  0
LINE
  8
CSLAYER1
  6
CENTER
 62
     3
 10
8.353403
 20
211.041885
 11
148.353403
 21
211.041885
  0
ARC
  8
CSLAYER1
  6
CENTER
 62
     3
 10
78.353403
 20
211.041883
 40
59.000000
 50
10.142971
 51
19.857029
  0
ARC
  8
CSLAYER1
  6
CONTINUOUS
 62
     3
 10
135.343027
 20
226.312206
 40
2.000000
 50
92.142857
 51
117.857143
  0
ARC
  8
CSLAYER1
  6
CONTINUOUS
 62
     3
 10
135.343027
 20
226.312206
 40
2.000000
 50
40.714286
 51
66.428571
  0
ARC
  8
CSLAYER1
  6
CONTINUOUS
 62
     3
 10
135.343027
 20
226.312206
 40
2.000000
 50
-10.714286
 51
15.000000
  0
ARC
  8
CSLAYER1
  6
CONTINUOUS
 62
     3
 10
135.343027
 20
226.312206
 40
2.000000
 50
297.857143
 51
323.571429
  0
ARC
  8
CSLAYER1
  6
CONTINUOUS
 62
     3
 10
135.343027
 20
226.312206
 40
2.000000
 50
246.428571
 51
272.142857
  0
ARC
  8
CSLAYER1
  6
CONTINUOUS
 62
     3
 10
135.343027
 20
226.312206
 40
2.000000
 50
195.000000
 51
220.714286
  0
ARC
  8
CSLAYER1
  6
CONTINUOUS
 62
     3
 10
135.343027
 20
226.312206
 40
2.000000
 50
143.571429
 51
169.285714
  0
LINE
  8
CSLAYER1
  6
CENTER
 62
     3
 10
130.513398
 20
225.018111
 11
140.172656
 21
227.606301
  0
ARC
  8
CSLAYER1
  6
CENTER
 62
     3
 10
78.353403
 20
211.041883
 40
59.000000
 50
34.319213
 51
54.510673
  0
LINE
  8
CSLAYER1
  6
CENTER
 62
     3
 10
113.460887
 20
246.149366
 11
127.850878
 21
260.539357
  0
LINE
  8
CSLAYER1
  6
CENTER
 62
     3
 10
153.353403
 20
211.041885
 11
436.353403
 21
211.041885
  0
LINE
  8
CSLAYER1
  6
CENTER
 62
     3
 10
444.353403
 20
211.041885
 11
584.353403
 21
211.041885
  0
ARC
  8
CSLAYER1
  6
CENTER
 62
     3
 10
514.353403
 20
211.041885
 40
59.000000
 50
34.319218
 51
54.510651
  0
ARC
  8
CSLAYER1
  6
CENTER
 62
     3
 10
514.353403
 20
211.041885
 40
59.000000
 50
65.489321
 51
85.680781
  0
LINE
  8
CSLAYER1
  6
CENTER
 62
     3
 10
514.353403
 20
281.041885
 11
514.353403
 21
141.041885
  0
ARC
  8
CSLAYER1
  6
CENTER
 62
     3
 10
514.353403
 20
211.041885
 40
59.000000
 50
245.489343
 51
265.680776
  0
ARC
  8
CSLAYER1
  6
CENTER
 62
     3
 10
514.353403
 20
211.041885
 40
59.000000
 50
214.319213
 51
234.510673
  0
LINE
  8
CSLAYER1
  6
CENTER
 62
     3
 10
479.245920
 20
175.934401
 11
464.855928
 21
161.544410
  0
LINE
  8
CSLAYER1
  6
CENTER
 62
     3
 10
496.236106
 20
143.427067
 11
501.697297
 21
163.808498
  0
ARC
  8
CSLAYER1
  6
CENTER
 62
     3
 10
514.353403
 20
211.041885
 40
59.000000
 50
305.489349
 51
325.680782
  0
ARC
  8
CSLAYER1
  6
CENTER
 62
     3
 10
514.353403
 20
211.041885
 40
59.000000
 50
335.489339
 51
355.680771
  0
LINE
  8
CSLAYER1
  6
CENTER
 62
     3
 10
561.586790
 20
198.385778
 11
581.968213
 21
192.924558
  0
LINE
  8
CSLAYER1
  6
CENTER
 62
     3
 10
563.850878
 20
161.544410
 11
549.460887
 21
175.934401
  0
LINE
  8
CSLAYER1
  6
CENTER
 62
     3
 10
549.460887
 20
246.149368
 11
563.850878
 21
260.539359
  0
LINE
  8
CSLAYER1
  6
CENTER
 62
     3
 10
532.470730
 20
278.656694
 11
527.009553
 21
258.275228
  0
ARC
  8
CSLAYER1
  6
CENTER
 62
     3
 10
514.353403
 20
211.041885
 40
59.000000
 50
125.489327
 51
145.680787
  0
ARC
  8
CSLAYER1
  6
CENTER
 62
     3
 10
514.353403
 20
211.041885
 40
59.000000
 50
155.489347
 51
175.680780
  0
LINE
  8
CSLAYER1
  6
CENTER
 62
     3
 10
467.554551
 20
223.581616
 11
447.173107
 21
229.042874
  0
LINE
  8
CSLAYER1
  6
CENTER
 62
     3
 10
464.855928
 20
260.539359
 11
479.245920
 21
246.149368
  0
LINE
  8
CSLAYER1
  6
CENTER
 62
     3
 10
436.353429
 20
346.041838
 11
153.353432
 21
346.041893
  0
ARC
  8
CSLAYER1
  6
CONTINUOUS
 62
     3
 10
224.353406
 20
369.541899
 40
1.000000
 50
90.000009
 51
180.000005
  0
LINE
  8
CSLAYER1
  6
CONTINUOUS
 62
     3
 10
224.353406
 20
370.541899
 11
260.353406
 21
370.541899
  0
ARC
  8
CSLAYER1
  6
CONTINUOUS
 62
     3
 10
260.353406
 20
369.541899
 40
1.000000
 50
0.057319
 51
90.000009
  0
LINE
  8
CSLAYER1
  6
CONTINUOUS
 62
     3
 10
261.353406
 20
369.541899
 11
261.353406
 21
322.541838
  0
ARC
  8
CSLAYER1
  6
CONTINUOUS
 62
     3
 10
260.353406
 20
322.541838
 40
1.000000
 50
270.000001
 51
359.942691
  0
LINE
  8
CSLAYER1
  6
CONTINUOUS
 62
     3
 10
260.353406
 20
321.541838
 11
224.353406
 21
321.541838
  0
ARC
  8
CSLAYER1
  6
CONTINUOUS
 62
     3
 10
224.353406
 20
322.541838
 40
1.000000
 50
180.000005
 51
270.000001
  0
LINE
  8
CSLAYER1
  6
CONTINUOUS
 62
     3
 10
223.353406
 20
322.541838
 11
223.353406
 21
369.541899
  0
LINE
  8
CSLAYER1
  6
CENTER
 62
     3
 10
286.353375
 20
387.761161
 11
326.353406
 21
387.761161
  0
LINE
  8
CSLAYER1
  6
CENTER
 62
     3
 10
326.353406
 20
304.322560
 11
286.353375
 21
304.322560
  0
LINE
  8
CSLAYER1
  6
CENTER
 62
     3
 10
286.353373
 20
252.761185
 11
326.353403
 21
252.761185
  0
LINE
  8
CSLAYER1
  6
CONTINUOUS
 62
     3
 10
261.353406
 20
242.041897
 11
261.353406
 21
227.541866
  0
ARC
  8
CSLAYER1
  6
CONTINUOUS
 62
     3
 10
260.353406
 20
227.541866
 40
1.000000
 50
270.000001
 51
359.942691
  0
LINE
  8
CSLAYER1
  6
CONTINUOUS
 62
     3
 10
260.353406
 20
226.541866
 11
224.353421
 21
226.541866
  0
ARC
  8
CSLAYER1
  6
CONTINUOUS
 62
     3
 10
224.353421
 20
227.541866
 40
1.000000
 50
180.000005
 51
270.000001
  0
LINE
  8
CSLAYER1
  6
CONTINUOUS
 62
     3
 10
223.353421
 20
227.541866
 11
223.353421
 21
242.041897
  0
LINE
  8
CSLAYER1
  6
CENTER
 62
     3
 10
178.353403
 20
224.041887
 11
178.353403
 21
154.535610
  0
LINE
  8
CSLAYER1
  6
CENTER
 62
     3
 10
286.353373
 20
169.322585
 11
326.353403
 21
169.322585
  0
LINE
  8
CSLAYER1
  6
CENTER
 62
     3
 10
326.353403
 20
117.761193
 11
286.353373
 21
117.761193
  0
LINE
  8
CSLAYER1
  6
CENTER
 62
     3
 10
286.353373
 20
34.322593
 11
326.353403
 21
34.322593
  0
LINE
  8
CSLAYER1
  6
CENTER
 62
     3
 10
436.353413
 20
76.041900
 11
153.353413
 21
76.041882
  0
LINE
  8
CSLAYER1
  6
CENTER
 62
     3
 10
178.353403
 20
65.041885
 11
178.353403
 21
87.041885
  0
LINE
  8
CSLAYER1
  6
CENTER
 62
     3
 10
127.850878
 20
161.544408
 11
113.460887
 21
175.934399
  0
ARC
  8
CSLAYER1
  6
CENTER
 62
     3
 10
78.353403
 20
211.041883
 40
59.000000
 50
305.489327
 51
325.680787
  0
ARC
  8
CSLAYER1
  6
CENTER
 62
     3
 10
78.353401
 20
211.041885
 40
59.000000
 50
280.142971
 51
289.857029
  0
ARC
  8
CSLAYER1
  6
CONTINUOUS
 62
     3
 10
93.623724
 20
154.052261
 40
2.000000
 50
156.428571
 51
182.142857
  0
ARC
  8
CSLAYER1
  6
CONTINUOUS
 62
     3
 10
93.623724
 20
154.052261
 40
2.000000
 50
105.000000
 51
130.714286
  0
ARC
  8
CSLAYER1
  6
CONTINUOUS
 62
     3
 10
93.623724
 20
154.052261
 40
2.000000
 50
53.571429
 51
79.285714
  0
ARC
  8
CSLAYER1
  6
CONTINUOUS
 62
     3
 10
93.623724
 20
154.052261
 40
2.000000
 50
2.142857
 51
27.857143
  0
ARC
  8
CSLAYER1
  6
CONTINUOUS
 62
     3
 10
93.623724
 20
154.052261
 40
2.000000
 50
310.714286
 51
336.428571
  0
ARC
  8
CSLAYER1
  6
CONTINUOUS
 62
     3
 10
93.623724
 20
154.052261
 40
2.000000
 50
259.285714
 51
285.000000
  0
ARC
  8
CSLAYER1
  6
CONTINUOUS
 62
     3
 10
93.623724
 20
154.052261
 40
2.000000
 50
207.857143
 51
233.571429
  0
LINE
  8
CSLAYER1
  6
CENTER
 62
     3
 10
94.917820
 20
149.222632
 11
92.329629
 21
158.881890
  0
ARC
  8
CSLAYER1
  6
CENTER
 62
     3
 10
78.353403
 20
211.041883
 40
59.000000
 50
214.319218
 51
234.510651
  0
LINE
  8
CSLAYER1
  6
CENTER
 62
     3
 10
43.245920
 20
175.934399
 11
28.855928
 21
161.544408
  0
ARC
  8
CSLAYER1
  6
CENTER
 62
     3
 10
78.353403
 20
211.041887
 40
59.000000
 50
190.142971
 51
199.857029
  0
ARC
  8
CSLAYER1
  6
CONTINUOUS
 62
     3
 10
21.363779
 20
195.771563
 40
2.000000
 50
66.428571
 51
92.142857
  0
ARC
  8
CSLAYER1
  6
CONTINUOUS
 62
     3
 10
21.363779
 20
195.771563
 40
2.000000
 50
15.000000
 51
40.714286
  0
ARC
  8
CSLAYER1
  6
CONTINUOUS
 62
     3
 10
21.363779
 20
195.771563
 40
2.000000
 50
323.571429
 51
349.285714
  0
ARC
  8
CSLAYER1
  6
CONTINUOUS
 62
     3
 10
21.363779
 20
195.771563
 40
2.000000
 50
272.142857
 51
297.857143
  0
ARC
  8
CSLAYER1
  6
CONTINUOUS
 62
     3
 10
21.363779
 20
195.771563
 40
2.000000
 50
220.714286
 51
246.428571
  0
ARC
  8
CSLAYER1
  6
CONTINUOUS
 62
     3
 10
21.363779
 20
195.771563
 40
2.000000
 50
169.285714
 51
195.000000
  0
ARC
  8
CSLAYER1
  6
CONTINUOUS
 62
     3
 10
21.363779
 20
195.771563
 40
2.000000
 50
117.857143
 51
143.571429
  0
LINE
  8
CSLAYER1
  6
CENTER
 62
     3
 10
16.534150
 20
194.477468
 11
26.193409
 21
197.065659
  0
CIRCLE
  8
CSLAYER1
  6
CONTINUOUS
 62
     3
 10
178.353403
 20
211.041887
 40
5.500000
  0
TEXT
  8
CSLAYER1
 62
     3
 10
241.231354
 20
239.541901
 40
3.500000
 41
1.125000
  1
N P
 50
-90.000000
 51
10.000000
  7
JX_FONT
 72
     5
 11
241.231354
 21
229.041901
  0
TEXT
  8
CSLAYER1
 62
     3
 10
241.128662
 20
351.291901
 40
3.500000
 41
1.125000
  1
N P
 50
-89.999992
 51
10.000000
  7
JX_FONT
 72
     5
 11
241.128664
 21
340.791901
  0
LINE
  8
CSLAYER1
  6
CONTINUOUS
 62
     6
 10
158.353403
 20
47.583017
 11
159.353251
 21
46.565564
  0
LINE
  8
CSLAYER1
  6
CONTINUOUS
 62
     6
 10
159.353251
 20
46.565564
 11
189.353403
 21
46.041903
  0
LINE
  8
CSLAYER1
  6
CONTINUOUS
 62
     6
 10
189.353403
 20
45.041882
 11
189.353403
 21
107.041882
  0
LINE
  8
CSLAYER1
  6
CONTINUOUS
 62
     6
 10
189.353403
 20
107.041882
 11
292.353403
 21
107.041884
  0
LINE
  8
CSLAYER1
  6
CONTINUOUS
 62
     6
 10
286.353403
 20
107.041904
 11
286.353403
 21
45.041884
  0
LINE
  8
CSLAYER1
  6
CONTINUOUS
 62
     6
 10
292.353403
 20
45.041884
 11
189.353403
 21
45.041882
  0
LINE
  8
CSLAYER1
  6
CONTINUOUS
 62
     6
 10
159.353403
 20
46.565562
 11
159.353403
 21
105.518229
  0
LINE
  8
CSLAYER1
  6
CONTINUOUS
 62
     6
 10
159.353251
 20
105.518226
 11
158.353403
 21
104.500774
  0
LINE
  8
CSLAYER1
  6
CONTINUOUS
 62
     6
 10
158.353403
 20
104.500774
 11
158.353403
 21
47.583017
  0
LINE
  8
CSLAYER1
  6
CONTINUOUS
 62
     6
 10
160.474680
 20
71.354263
 11
163.412729
 21
72.971435
  0
LINE
  8
CSLAYER1
  6
CONTINUOUS
 62
     6
 10
163.158640
 20
73.460357
 11
161.151194
 21
71.883575
  0
LINE
  8
CSLAYER1
  6
CONTINUOUS
 62
     6
 10
160.871836
 20
72.456985
 11
162.951670
 21
73.858489
  0
LINE
  8
CSLAYER1
  6
CONTINUOUS
 62
     6
 10
162.739939
 20
74.265869
 11
163.754526
 21
72.313812
  0
ARC
  8
CSLAYER1
  6
CONTINUOUS
 62
     6
 10
170.007700
 20
60.283035
 40
13.558834
 50
89.999975
 51
117.463872
  0
LINE
  8
CSLAYER1
  6
CONTINUOUS
 62
     6
 10
170.007761
 20
73.841903
 11
171.280954
 21
73.841903
  0
ARC
  8
CSLAYER1
  6
CONTINUOUS
 62
     6
 10
170.328333
 20
74.391906
 40
1.099999
 50
-29.999656
 51
30.000332
  0
ARC
  8
CSLAYER1
  6
CONTINUOUS
 62
     6
 10
172.233576
 20
75.491912
 40
1.099999
 50
150.000353
 51
210.000354
  0
ARC
  8
CSLAYER1
  6
CONTINUOUS
 62
     6
 10
170.328325
 20
75.491897
 40
1.099999
 50
-29.999656
 51
30.000332
  0
LINE
  8
CSLAYER1
  6
CONTINUOUS
 62
     6
 10
171.280954
 20
76.041870
 11
170.007731
 21
76.041870
  0
ARC
  8
CSLAYER1
  6
CONTINUOUS
 62
     6
 10
170.007731
 20
60.283050
 40
15.758816
 50
90.000003
 51
117.463872
  0
ARC
  8
CSLAYER1
  6
CONTINUOUS
 62
     6
 10
170.007700
 20
91.800735
 40
15.758816
 50
242.536193
 51
269.942682
  0
ARC
  8
CSLAYER1
  6
CONTINUOUS
 62
     6
 10
170.328333
 20
76.591918
 40
1.099999
 50
-29.999656
 51
30.000332
  0
ARC
  8
CSLAYER1
  6
CONTINUOUS
 62
     6
 10
172.233576
 20
77.691925
 40
1.099999
 50
150.000353
 51
210.000354
  0
ARC
  8
CSLAYER1
  6
CONTINUOUS
 62
     6
 10
170.328325
 20
77.691909
 40
1.099999
 50
-29.999656
 51
30.000332
  0
LINE
  8
CSLAYER1
  6
CONTINUOUS
 62
     6
 10
171.280954
 20
78.241897
 11
170.007761
 21
78.241897
  0
ARC
  8
CSLAYER1
  6
CONTINUOUS
 62
     6
 10
170.007700
 20
91.800735
 40
13.558834
 50
242.536193
 51
269.942682
  0
LINE
  8
CSLAYER1
  6
CONTINUOUS
 62
     6
 10
163.754587
 20
79.769958
 11
162.739939
 21
77.817901
  0
LINE
  8
CSLAYER1
  6
CONTINUOUS
 62
     6
 10
162.951670
 20
78.225280
 11
160.871897
 21
79.626769
  0
LINE
  8
CSLAYER1
  6
CONTINUOUS
 62
     6
 10
161.151194
 20
80.200195
 11
163.158640
 21
78.623413
  0
LINE
  8
CSLAYER1
  6
CONTINUOUS
 62
     6
 10
163.412790
 20
79.112335
 11
160.474680
 21
80.729492
  0
ARC
  8
CSLAYER1
  6
CONTINUOUS
 62
     6
 10
178.353403
 20
76.041885
 40
8.000000
 50
-164.038116
 51
164.037904
  0
ARC
  8
CSLAYER1
  6
CONTINUOUS
 62
     6
 10
171.967295
 20
74.391860
 40
1.100006
 50
-30.000011
 51
29.999977
  0
ARC
  8
CSLAYER1
  6
CONTINUOUS
 62
     6
 10
173.872568
 20
75.491867
 40
1.100006
 50
149.999997
 51
209.999999
  0
ARC
  8
CSLAYER1
  6
CONTINUOUS
 62
     6
 10
173.872568
 20
76.591873
 40
1.100006
 50
149.999997
 51
209.999999
  0
ARC
  8
CSLAYER1
  6
CONTINUOUS
 62
     6
 10
173.872568
 20
77.691879
 40
1.100006
 50
149.999997
 51
209.999999
  0
LINE
  8
CSLAYER1
  6
CONTINUOUS
 62
     6
 10
172.919931
 20
78.241882
 11
178.353403
 21
78.241882
  0
ARC
  8
CSLAYER1
  6
CONTINUOUS
 62
     6
 10
178.353403
 20
77.141891
 40
1.100006
 50
-89.999999
 51
90.000019
  0
LINE
  8
CSLAYER1
  6
CONTINUOUS
 62
     6
 10
178.353403
 20
76.041885
 11
172.919931
 21
76.041885
  0
ARC
  8
CSLAYER1
  6
CONTINUOUS
 62
     6
 10
171.967295
 20
76.591873
 40
1.100006
 50
-30.000011
 51
29.999977
  0
ARC
  8
CSLAYER1
  6
CONTINUOUS
 62
     6
 10
173.872568
 20
74.391860
 40
1.100006
 50
149.999997
 51
209.999999
  0
LINE
  8
CSLAYER1
  6
CONTINUOUS
 62
     6
 10
172.919931
 20
73.841888
 11
178.353403
 21
73.841888
  0
ARC
  8
CSLAYER1
  6
CONTINUOUS
 62
     6
 10
178.353403
 20
74.941879
 40
1.100006
 50
-90.000027
 51
89.999992
  0
LINE
  8
CSLAYER1
  6
CONTINUOUS
 62
     6
 10
179.453440
 20
74.941879
 11
179.453440
 21
77.141891
  0
LINE
  8
CSLAYER1
  6
CONTINUOUS
 62
     6
 10
292.353403
 20
11.041892
 11
292.353403
 21
141.041892
  0
LINE
  8
CSLAYER1
  6
CONTINUOUS
 62
     6
 10
292.353403
 20
141.041892
 11
320.353403
 21
141.041892
  0
LINE
  8
CSLAYER1
  6
CONTINUOUS
 62
     6
 10
320.353403
 20
141.041892
 11
320.353403
 21
11.041892
  0
LINE
  8
CSLAYER1
  6
CONTINUOUS
 62
     6
 10
320.353403
 20
11.041892
 11
292.353403
 21
11.041892
  0
LINE
  8
CSLAYER1
  6
CONTINUOUS
 62
     6
 10
312.353403
 20
11.041892
 11
312.353403
 21
141.041892
  0
LINE
  8
CSLAYER1
  6
CONTINUOUS
 62
     6
 10
312.353403
 20
146.041885
 11
312.353403
 21
276.041885
  0
LINE
  8
CSLAYER1
  6
CONTINUOUS
 62
     6
 10
312.353406
 20
281.041864
 11
312.353406
 21
411.041864
  0
LINE
  8
CSLAYER1
  6
CONTINUOUS
 62
     6
 10
320.353406
 20
411.041864
 11
320.353406
 21
281.041864
  0
LINE
  8
CSLAYER1
  6
CONTINUOUS
 62
     6
 10
320.353406
 20
281.041864
 11
292.353406
 21
281.041864
  0
LINE
  8
CSLAYER1
  6
CONTINUOUS
 62
     6
 10
292.353406
 20
281.041864
 11
292.353406
 21
411.041864
  0
LINE
  8
CSLAYER1
  6
CONTINUOUS
 62
     6
 10
292.353406
 20
411.041864
 11
320.353406
 21
411.041864
  0
LINE
  8
CSLAYER1
  6
CONTINUOUS
 62
     6
 10
320.353406
 20
398.541864
 11
369.853406
 21
398.541864
  0
ARC
  8
CSLAYER1
  6
CONTINUOUS
 62
     6
 10
369.853406
 20
394.041864
 40
4.500000
 50
0.000000
 51
90.000000
  0
LINE
  8
CSLAYER1
  6
CONTINUOUS
 62
     6
 10
374.353406
 20
394.041864
 11
374.353406
 21
298.041864
  0
ARC
  8
CSLAYER1
  6
CONTINUOUS
 62
     6
 10
369.853406
 20
298.041864
 40
4.500000
 50
270.000000
 51
360.000000
  0
LINE
  8
CSLAYER1
  6
CONTINUOUS
 62
     6
 10
369.853406
 20
293.541864
 11
320.353406
 21
293.541864
  0
LINE
  8
CSLAYER1
  6
CONTINUOUS
 62
     6
 10
320.353403
 20
276.041885
 11
292.353403
 21
276.041885
  0
LINE
  8
CSLAYER1
  6
CONTINUOUS
 62
     6
 10
292.353403
 20
276.041885
 11
292.353403
 21
146.041885
  0
LINE
  8
CSLAYER1
  6
CONTINUOUS
 62
     6
 10
292.353403
 20
146.041885
 11
320.353403
 21
146.041885
  0
LINE
  8
CSLAYER1
  6
CONTINUOUS
 62
     6
 10
320.353403
 20
146.041885
 11
320.353403
 21
276.041885
  0
LINE
  8
CSLAYER1
  6
CONTINUOUS
 62
     6
 10
320.353403
 20
263.541885
 11
369.853403
 21
263.541885
  0
ARC
  8
CSLAYER1
  6
CONTINUOUS
 62
     6
 10
369.853403
 20
259.041885
 40
4.500000
 50
0.000000
 51
90.000000
  0
LINE
  8
CSLAYER1
  6
CONTINUOUS
 62
     6
 10
374.353403
 20
259.041885
 11
374.353403
 21
163.041885
  0
ARC
  8
CSLAYER1
  6
CONTINUOUS
 62
     6
 10
369.853403
 20
163.041885
 40
4.500000
 50
270.000000
 51
360.000000
  0
LINE
  8
CSLAYER1
  6
CONTINUOUS
 62
     6
 10
369.853403
 20
158.541885
 11
320.353403
 21
158.541885
  0
LINE
  8
CSLAYER1
  6
CONTINUOUS
 62
     6
 10
320.353403
 20
128.541892
 11
369.853403
 21
128.541892
  0
ARC
  8
CSLAYER1
  6
CONTINUOUS
 62
     6
 10
369.853403
 20
124.041892
 40
4.500000
 50
0.000000
 51
90.000000
  0
LINE
  8
CSLAYER1
  6
CONTINUOUS
 62
     6
 10
374.353403
 20
124.041892
 11
374.353403
 21
28.041892
  0
ARC
  8
CSLAYER1
  6
CONTINUOUS
 62
     6
 10
369.853403
 20
28.041892
 40
4.500000
 50
270.000000
 51
360.000000
  0
LINE
  8
CSLAYER1
  6
CONTINUOUS
 62
     6
 10
369.853403
 20
23.541892
 11
320.353403
 21
23.541892
  0
ARC
  8
CSLAYER1
  6
CONTINUOUS
 62
     6
 10
378.353403
 20
43.041892
 40
4.000000
 50
90.000000
 51
180.000000
  0
LINE
  8
CSLAYER1
  6
CONTINUOUS
 62
     6
 10
378.353403
 20
47.041892
 11
397.353403
 21
47.041892
  0
ARC
  8
CSLAYER1
  6
CONTINUOUS
 62
     6
 10
397.353403
 20
51.041892
 40
4.000000
 50
270.000000
 51
360.000000
  0
LINE
  8
CSLAYER1
  6
CONTINUOUS
 62
     6
 10
401.353403
 20
51.041892
 11
401.353403
 21
101.041892
  0
ARC
  8
CSLAYER1
  6
CONTINUOUS
 62
     6
 10
397.353403
 20
101.041892
 40
4.000000
 50
0.000000
 51
90.000000
  0
LINE
  8
CSLAYER1
  6
CONTINUOUS
 62
     6
 10
397.353403
 20
105.041892
 11
378.353403
 21
105.041892
  0
ARC
  8
CSLAYER1
  6
CONTINUOUS
 62
     6
 10
378.353403
 20
109.041892
 40
4.000000
 50
180.000000
 51
270.000000
  0
ARC
  8
CSLAYER1
  6
CONTINUOUS
 62
     6
 10
378.353403
 20
178.041885
 40
4.000000
 50
90.000000
 51
180.000000
  0
LINE
  8
CSLAYER1
  6
CONTINUOUS
 62
     6
 10
378.353403
 20
182.041885
 11
397.353403
 21
182.041885
  0
ARC
  8
CSLAYER1
  6
CONTINUOUS
 62
     6
 10
397.353403
 20
186.041885
 40
4.000000
 50
270.000000
 51
360.000000
  0
LINE
  8
CSLAYER1
  6
CONTINUOUS
 62
     6
 10
401.353403
 20
186.041885
 11
401.353403
 21
236.041885
  0
ARC
  8
CSLAYER1
  6
CONTINUOUS
 62
     6
 10
397.353403
 20
236.041885
 40
4.000000
 50
0.000000
 51
90.000000
  0
LINE
  8
CSLAYER1
  6
CONTINUOUS
 62
     6
 10
397.353403
 20
240.041885
 11
378.353403
 21
240.041885
  0
ARC
  8
CSLAYER1
  6
CONTINUOUS
 62
     6
 10
378.353403
 20
244.041885
 40
4.000000
 50
180.000000
 51
270.000000
  0
ARC
  8
CSLAYER1
  6
CONTINUOUS
 62
     6
 10
401.353403
 20
228.041885
 40
1.000000
 50
0.000000
 51
90.000000
  0
LINE
  8
CSLAYER1
  6
CONTINUOUS
 62
     6
 10
402.353403
 20
228.041885
 11
402.353403
 21
194.041885
  0
ARC
  8
CSLAYER1
  6
CONTINUOUS
 62
     6
 10
401.353403
 20
194.041885
 40
1.000000
 50
270.000000
 51
360.000000
  0
LINE
  8
CSLAYER1
  6
CONTINUOUS
 62
     6
 10
402.353403
 20
201.041885
 11
403.353403
 21
201.041885
  0
LINE
  8
CSLAYER1
  6
CONTINUOUS
 62
     6
 10
403.353403
 20
201.041885
 11
403.353403
 21
221.041885
  0
LINE
  8
CSLAYER1
  6
CONTINUOUS
 62
     6
 10
403.353403
 20
221.041885
 11
402.353403
 21
221.041885
  0
LINE
  8
CSLAYER1
  6
CONTINUOUS
 62
     6
 10
403.353403
 20
220.041885
 11
431.353403
 21
220.041885
  0
LINE
  8
CSLAYER1
  6
CONTINUOUS
 62
     6
 10
431.353403
 20
220.041885
 11
431.353403
 21
202.041885
  0
LINE
  8
CSLAYER1
  6
CONTINUOUS
 62
     6
 10
431.353403
 20
202.041885
 11
403.353403
 21
202.041885
  0
ARC
  8
CSLAYER1
  6
CONTINUOUS
 62
     6
 10
408.853403
 20
211.041885
 40
2.500000
 50
90.000000
 51
270.000000
  0
LINE
  8
CSLAYER1
  6
CONTINUOUS
 62
     6
 10
408.853403
 20
213.541885
 11
431.353403
 21
213.541885
  0
ARC
  8
CSLAYER1
  6
CONTINUOUS
 62
     6
 10
378.353406
 20
313.041864
 40
4.000000
 50
90.000000
 51
180.000000
  0
LINE
  8
CSLAYER1
  6
CONTINUOUS
 62
     6
 10
378.353406
 20
317.041864
 11
397.353406
 21
317.041864
  0
ARC
  8
CSLAYER1
  6
CONTINUOUS
 62
     6
 10
397.353406
 20
321.041864
 40
4.000000
 50
270.000000
 51
360.000000
  0
LINE
  8
CSLAYER1
  6
CONTINUOUS
 62
     6
 10
401.353406
 20
321.041864
 11
401.353406
 21
371.041864
  0
ARC
  8
CSLAYER1
  6
CONTINUOUS
 62
     6
 10
397.353406
 20
371.041864
 40
4.000000
 50
0.000000
 51
90.000000
  0
LINE
  8
CSLAYER1
  6
CONTINUOUS
 62
     6
 10
397.353406
 20
375.041864
 11
378.353406
 21
375.041864
  0
ARC
  8
CSLAYER1
  6
CONTINUOUS
 62
     6
 10
378.353406
 20
379.041864
 40
4.000000
 50
180.000000
 51
270.000000
  0
ARC
  8
CSLAYER1
  6
CONTINUOUS
 62
     6
 10
401.353406
 20
363.041864
 40
1.000000
 50
0.000000
 51
90.000000
  0
LINE
  8
CSLAYER1
  6
CONTINUOUS
 62
     6
 10
402.353406
 20
363.041864
 11
402.353406
 21
329.041864
  0
ARC
  8
CSLAYER1
  6
CONTINUOUS
 62
     6
 10
401.353406
 20
329.041864
 40
1.000000
 50
270.000000
 51
360.000000
  0
LINE
  8
CSLAYER1
  6
CONTINUOUS
 62
     6
 10
402.353406
 20
336.041864
 11
403.353406
 21
336.041864
  0
LINE
  8
CSLAYER1
  6
CONTINUOUS
 62
     6
 10
403.353406
 20
336.041864
 11
403.353406
 21
356.041864
  0
LINE
  8
CSLAYER1
  6
CONTINUOUS
 62
     6
 10
403.353406
 20
356.041864
 11
402.353406
 21
356.041864
  0
LINE
  8
CSLAYER1
  6
CONTINUOUS
 62
     6
 10
403.353406
 20
355.041864
 11
431.353406
 21
355.041864
  0
LINE
  8
CSLAYER1
  6
CONTINUOUS
 62
     6
 10
431.353406
 20
355.041864
 11
431.353406
 21
337.041864
  0
LINE
  8
CSLAYER1
  6
CONTINUOUS
 62
     6
 10
431.353406
 20
337.041864
 11
403.353406
 21
337.041864
  0
LINE
  8
CSLAYER1
  6
DASHED
 62
     6
 10
406.353403
 20
337.041864
 11
406.353403
 21
340.041846
  0
LINE
  8
CSLAYER1
  6
DASHED
 62
     6
 10
406.353403
 20
340.041846
 11
431.353406
 21
340.041846
  0
CIRCLE
  8
CSLAYER1
  6
CONTINUOUS
 62
     6
 10
472.634081
 20
252.761206
 40
3.250000
  0
LINE
  8
CSLAYER1
  6
CONTINUOUS
 62
     6
 10
457.949294
 20
228.275886
 11
457.949229
 21
227.483132
  0
ARC
  8
CSLAYER1
  6
CONTINUOUS
 62
     6
 10
458.534694
 20
227.483153
 40
0.585442
 50
180.000000
 51
270.000010
  0
LINE
  8
CSLAYER1
  6
CONTINUOUS
 62
     6
 10
458.534673
 20
226.897688
 11
459.327492
 21
226.897688
  0
ARC
  8
CSLAYER1
  6
CONTINUOUS
 62
     6
 10
457.363829
 20
226.312245
 40
2.049047
 50
-16.601575
 51
16.601559
  0
LINE
  8
CSLAYER1
  6
CONTINUOUS
 62
     6
 10
459.327492
 20
225.726802
 11
458.534673
 21
225.726802
  0
ARC
  8
CSLAYER1
  6
CONTINUOUS
 62
     6
 10
458.534694
 20
225.141380
 40
0.585442
 50
90.000001
 51
180.000000
  0
LINE
  8
CSLAYER1
  6
CONTINUOUS
 62
     6
 10
457.949251
 20
225.141337
 11
457.949272
 21
224.348582
  0
ARC
  8
CSLAYER1
  6
CONTINUOUS
 62
     6
 10
457.363829
 20
226.312245
 40
2.049047
 50
253.398429
 51
286.601577
  0
LINE
  8
CSLAYER1
  6
CONTINUOUS
 62
     6
 10
456.778321
 20
224.348647
 11
456.778364
 21
225.141337
  0
ARC
  8
CSLAYER1
  6
CONTINUOUS
 62
     6
 10
456.192942
 20
225.141358
 40
0.585442
 50
-0.000008
 51
89.942682
  0
LINE
  8
CSLAYER1
  6
CONTINUOUS
 62
     6
 10
456.192921
 20
225.726780
 11
455.400145
 21
225.726737
  0
ARC
  8
CSLAYER1
  6
CONTINUOUS
 62
     6
 10
457.363829
 20
226.312245
 40
2.049047
 50
163.398420
 51
196.601581
  0
LINE
  8
CSLAYER1
  6
CONTINUOUS
 62
     6
 10
455.400188
 20
226.897667
 11
456.192921
 21
226.897667
  0
ARC
  8
CSLAYER1
  6
CONTINUOUS
 62
     6
 10
456.192942
 20
227.483132
 40
0.585442
 50
270.000010
 51
359.999992
  0
LINE
  8
CSLAYER1
  6
CONTINUOUS
 62
     6
 10
456.778343
 20
227.483132
 11
456.778364
 21
228.275843
  0
ARC
  8
CSLAYER1
  6
CONTINUOUS
 62
     6
 10
457.363829
 20
226.312245
 40
2.049047
 50
73.398407
 51
106.601592
  0
CIRCLE
  8
CSLAYER1
  6
CONTINUOUS
 62
     6
 10
457.363829
 20
226.312245
 40
3.499925
  0
CIRCLE
  8
CSLAYER1
  6
CONTINUOUS
 62
     6
 10
457.363829
 20
226.312245
 40
4.000000
  0
LINE
  8
CSLAYER1
  6
CONTINUOUS
 62
     6
 10
505.677993
 20
213.541885
 11
508.353403
 21
213.541885
  0
LINE
  8
CSLAYER1
  6
CONTINUOUS
 62
     6
 10
508.353403
 20
213.541885
 11
508.353403
 21
208.541885
  0
LINE
  8
CSLAYER1
  6
CONTINUOUS
 62
     6
 10
508.353403
 20
208.541885
 11
505.677993
 21
208.541885
  0
CIRCLE
  8
CSLAYER1
  6
CONTINUOUS
 62
     6
 10
472.634146
 20
169.322628
 40
3.250000
  0
LINE
  8
CSLAYER1
  6
CONTINUOUS
 62
     6
 10
497.119445
 20
154.637733
 11
497.912243
 21
154.637754
  0
ARC
  8
CSLAYER1
  6
CONTINUOUS
 62
     6
 10
497.912199
 20
155.223111
 40
0.585442
 50
270.000010
 51
359.999992
  0
LINE
  8
CSLAYER1
  6
CONTINUOUS
 62
     6
 10
498.497664
 20
155.223133
 11
498.497664
 21
156.015952
  0
ARC
  8
CSLAYER1
  6
CONTINUOUS
 62
     6
 10
499.083172
 20
154.052311
 40
2.049047
 50
73.398434
 51
106.601565
  0
LINE
  8
CSLAYER1
  6
CONTINUOUS
 62
     6
 10
499.668551
 20
156.015952
 11
499.668594
 21
155.223176
  0
ARC
  8
CSLAYER1
  6
CONTINUOUS
 62
     6
 10
500.254059
 20
155.223197
 40
0.585442
 50
180.000000
 51
270.000010
  0
LINE
  8
CSLAYER1
  6
CONTINUOUS
 62
     6
 10
500.254037
 20
154.637733
 11
501.046770
 21
154.637733
  0
ARC
  8
CSLAYER1
  6
CONTINUOUS
 62
     6
 10
499.083172
 20
154.052311
 40
2.049047
 50
-16.601575
 51
16.601586
  0
LINE
  8
CSLAYER1
  6
CONTINUOUS
 62
     6
 10
501.046770
 20
153.466846
 11
500.254037
 21
153.466846
  0
ARC
  8
CSLAYER1
  6
CONTINUOUS
 62
     6
 10
500.254037
 20
152.881446
 40
0.585442
 50
90.000011
 51
179.942695
  0
LINE
  8
CSLAYER1
  6
CONTINUOUS
 62
     6
 10
499.668573
 20
152.881424
 11
499.668551
 21
152.088626
  0
ARC
  8
CSLAYER1
  6
CONTINUOUS
 62
     6
 10
499.083172
 20
154.052311
 40
2.049047
 50
253.398429
 51
286.601577
  0
LINE
  8
CSLAYER1
  6
CONTINUOUS
 62
     6
 10
498.497664
 20
152.088626
 11
498.497664
 21
152.881446
  0
ARC
  8
CSLAYER1
  6
CONTINUOUS
 62
     6
 10
497.912221
 20
152.881489
 40
0.585442
 50
-0.000008
 51
89.942682
  0
LINE
  8
CSLAYER1
  6
CONTINUOUS
 62
     6
 10
497.912243
 20
153.466867
 11
497.119466
 21
153.466824
  0
ARC
  8
CSLAYER1
  6
CONTINUOUS
 62
     6
 10
499.083172
 20
154.052311
 40
2.049047
 50
163.398420
 51
196.601581
  0
CIRCLE
  8
CSLAYER1
  6
CONTINUOUS
 62
     6
 10
499.083172
 20
154.052311
 40
3.499925
  0
CIRCLE
  8
CSLAYER1
  6
CONTINUOUS
 62
     6
 10
499.083172
 20
154.052311
 40
4.000000
  0
CIRCLE
  8
CSLAYER1
  6
CONTINUOUS
 62
     6
 10
556.072703
 20
169.322585
 40
3.250000
  0
LINE
  8
CSLAYER1
  6
CONTINUOUS
 62
     6
 10
570.757555
 20
193.807927
 11
570.757599
 21
194.600703
  0
ARC
  8
CSLAYER1
  6
CONTINUOUS
 62
     6
 10
570.172198
 20
194.600703
 40
0.585442
 50
-0.000008
 51
89.942682
  0
LINE
  8
CSLAYER1
  6
CONTINUOUS
 62
     6
 10
570.172155
 20
195.186146
 11
569.379379
 21
195.186103
  0
ARC
  8
CSLAYER1
  6
CONTINUOUS
 62
     6
 10
571.343063
 20
195.771611
 40
2.049047
 50
163.398447
 51
196.601581
  0
LINE
  8
CSLAYER1
  6
CONTINUOUS
 62
     6
 10
569.379357
 20
196.357011
 11
570.172155
 21
196.357033
  0
ARC
  8
CSLAYER1
  6
CONTINUOUS
 62
     6
 10
570.172177
 20
196.942498
 40
0.585442
 50
270.000010
 51
359.999992
  0
LINE
  8
CSLAYER1
  6
CONTINUOUS
 62
     6
 10
570.757599
 20
196.942476
 11
570.757599
 21
197.735209
  0
ARC
  8
CSLAYER1
  6
CONTINUOUS
 62
     6
 10
571.343063
 20
195.771611
 40
2.049047
 50
73.398407
 51
106.601592
  0
LINE
  8
CSLAYER1
  6
CONTINUOUS
 62
     6
 10
571.928485
 20
197.735209
 11
571.928485
 21
196.942476
  0
ARC
  8
CSLAYER1
  6
CONTINUOUS
 62
     6
 10
572.513950
 20
196.942498
 40
0.585442
 50
180.000014
 51
269.942691
  0
LINE
  8
CSLAYER1
  6
CONTINUOUS
 62
     6
 10
572.513929
 20
196.357033
 11
573.306705
 21
196.356989
  0
ARC
  8
CSLAYER1
  6
CONTINUOUS
 62
     6
 10
571.343063
 20
195.771611
 40
2.049047
 50
-16.601575
 51
16.601586
  0
LINE
  8
CSLAYER1
  6
CONTINUOUS
 62
     6
 10
573.306705
 20
195.186103
 11
572.513929
 21
195.186146
  0
ARC
  8
CSLAYER1
  6
CONTINUOUS
 62
     6
 10
572.513950
 20
194.600724
 40
0.585442
 50
90.000011
 51
180.000014
  0
LINE
  8
CSLAYER1
  6
CONTINUOUS
 62
     6
 10
571.928485
 20
194.600703
 11
571.928464
 21
193.807905
  0
ARC
  8
CSLAYER1
  6
CONTINUOUS
 62
     6
 10
571.343063
 20
195.771611
 40
2.049047
 50
253.398443
 51
286.601631
  0
CIRCLE
  8
CSLAYER1
  6
CONTINUOUS
 62
     6
 10
571.343063
 20
195.771611
 40
3.499925
  0
CIRCLE
  8
CSLAYER1
  6
CONTINUOUS
 62
     6
 10
571.343063
 20
195.771611
 40
4.000000
  0
CIRCLE
  8
CSLAYER1
  6
CONTINUOUS
 62
     6
 10
556.072703
 20
252.761185
 40
3.250000
  0
ARC
  8
CSLAYER1
  6
CONTINUOUS
 62
     6
 10
529.623742
 20
268.031524
 40
2.049047
 50
-16.601603
 51
16.601586
  0
LINE
  8
CSLAYER1
  6
CONTINUOUS
 62
     6
 10
531.587383
 20
268.616988
 11
530.794628
 21
268.616924
  0
ARC
  8
CSLAYER1
  6
CONTINUOUS
 62
     6
 10
530.794628
 20
269.202410
 40
0.585442
 50
180.000014
 51
270.000010
  0
LINE
  8
CSLAYER1
  6
CONTINUOUS
 62
     6
 10
530.209185
 20
269.202367
 11
530.209185
 21
269.995186
  0
ARC
  8
CSLAYER1
  6
CONTINUOUS
 62
     6
 10
529.623742
 20
268.031524
 40
2.049047
 50
73.398407
 51
106.601565
  0
LINE
  8
CSLAYER1
  6
CONTINUOUS
 62
     6
 10
529.038298
 20
269.995186
 11
529.038298
 21
269.202367
  0
ARC
  8
CSLAYER1
  6
CONTINUOUS
 62
     6
 10
528.452855
 20
269.202410
 40
0.585442
 50
270.000010
 51
359.942645
  0
LINE
  8
CSLAYER1
  6
CONTINUOUS
 62
     6
 10
528.452855
 20
268.616924
 11
527.660144
 21
268.616988
  0
ARC
  8
CSLAYER1
  6
CONTINUOUS
 62
     6
 10
529.623742
 20
268.031524
 40
2.049047
 50
163.398420
 51
196.601581
  0
LINE
  8
CSLAYER1
  6
CONTINUOUS
 62
     6
 10
527.660122
 20
267.446037
 11
528.452855
 21
267.446037
  0
ARC
  8
CSLAYER1
  6
CONTINUOUS
 62
     6
 10
528.452834
 20
266.860658
 40
0.585442
 50
-0.000008
 51
89.942682
  0
LINE
  8
CSLAYER1
  6
CONTINUOUS
 62
     6
 10
529.038298
 20
266.860594
 11
529.038277
 21
266.067882
  0
ARC
  8
CSLAYER1
  6
CONTINUOUS
 62
     6
 10
529.623742
 20
268.031524
 40
2.049047
 50
253.398443
 51
286.601577
  0
LINE
  8
CSLAYER1
  6
CONTINUOUS
 62
     6
 10
530.209228
 20
266.067904
 11
530.209185
 21
266.860594
  0
ARC
  8
CSLAYER1
  6
CONTINUOUS
 62
     6
 10
530.794628
 20
266.860637
 40
0.585442
 50
90.000011
 51
180.000014
  0
LINE
  8
CSLAYER1
  6
CONTINUOUS
 62
     6
 10
530.794628
 20
267.446037
 11
531.587383
 21
267.446102
  0
CIRCLE
  8
CSLAYER1
  6
CONTINUOUS
 62
     6
 10
529.623742
 20
268.031524
 40
3.499925
  0
CIRCLE
  8
CSLAYER1
  6
CONTINUOUS
 62
     6
 10
529.623742
 20
268.031524
 40
4.000000
  0
CIRCLE
  8
CSLAYER1
  6
CONTINUOUS
 62
     6
 10
514.353403
 20
211.041885
 40
65.000000
  0
CIRCLE
  8
CSLAYER1
  6
CONTINUOUS
 62
     6
 10
514.353403
 20
211.041885
 40
29.000000
  0
CIRCLE
  8
CSLAYER1
  6
CONTINUOUS
 62
     6
 10
514.353403
 20
211.041885
 40
18.000000
  0
CIRCLE
  8
CSLAYER1
  6
CONTINUOUS
 62
     6
 10
514.353403
 20
211.041885
 40
52.500000
  0
CIRCLE
  8
CSLAYER1
  6
CONTINUOUS
 62
     6
 10
514.353403
 20
211.041885
 40
10.000000
  0
CIRCLE
  8
CSLAYER1
  6
CONTINUOUS
 62
     6
 10
514.353403
 20
211.041885
 40
9.000000
  0
LINE
  8
CSLAYER1
  6
CONTINUOUS
 62
     6
 10
431.353403
 20
208.541885
 11
408.853403
 21
208.541885
  0
ARC
  8
CSLAYER1
  6
CONTINUOUS
 62
     6
 10
401.353403
 20
93.041892
 40
1.000000
 50
0.000000
 51
90.000000
  0
LINE
  8
CSLAYER1
  6
CONTINUOUS
 62
     6
 10
402.353403
 20
93.041892
 11
402.353403
 21
59.041892
  0
ARC
  8
CSLAYER1
  6
CONTINUOUS
 62
     6
 10
401.353403
 20
59.041892
 40
1.000000
 50
270.000000
 51
360.000000
  0
LINE
  8
CSLAYER1
  6
CONTINUOUS
 62
     6
 10
402.353403
 20
66.041892
 11
403.353403
 21
66.041892
  0
LINE
  8
CSLAYER1
  6
CONTINUOUS
 62
     6
 10
403.353403
 20
66.041892
 11
403.353403
 21
86.041892
  0
LINE
  8
CSLAYER1
  6
CONTINUOUS
 62
     6
 10
403.353403
 20
86.041892
 11
402.353403
 21
86.041892
  0
LINE
  8
CSLAYER1
  6
CONTINUOUS
 62
     6
 10
403.353403
 20
85.041892
 11
431.353403
 21
85.041892
  0
LINE
  8
CSLAYER1
  6
CONTINUOUS
 62
     6
 10
431.353403
 20
85.041892
 11
431.353403
 21
67.041892
  0
LINE
  8
CSLAYER1
  6
CONTINUOUS
 62
     6
 10
431.353403
 20
67.041892
 11
403.353403
 21
67.041892
  0
LINE
  8
CSLAYER1
  6
CONTINUOUS
 62
     6
 10
292.353373
 20
180.041897
 11
189.353403
 21
180.041897
  0
LINE
  8
CSLAYER1
  6
CONTINUOUS
 62
     6
 10
189.353403
 20
180.041897
 11
189.353403
 21
242.041897
  0
LINE
  8
CSLAYER1
  6
CONTINUOUS
 62
     6
 10
189.353403
 20
242.041897
 11
292.353373
 21
242.041897
  0
LINE
  8
CSLAYER1
  6
CONTINUOUS
 62
     6
 10
286.353403
 20
242.041897
 11
286.353403
 21
180.041897
  0
LINE
  8
CSLAYER1
  6
CONTINUOUS
 62
     6
 10
189.353418
 20
181.041903
 11
159.353403
 21
181.565554
  0
LINE
  8
CSLAYER1
  6
CONTINUOUS
 62
     6
 10
159.353403
 20
181.565554
 11
159.353403
 21
240.518221
  0
LINE
  8
CSLAYER1
  6
CONTINUOUS
 62
     6
 10
159.353403
 20
240.518221
 11
158.353403
 21
239.518221
  0
LINE
  8
CSLAYER1
  6
CONTINUOUS
 62
     6
 10
158.353403
 20
239.518221
 11
158.353403
 21
182.565554
  0
LINE
  8
CSLAYER1
  6
CONTINUOUS
 62
     6
 10
158.353403
 20
182.565554
 11
159.353403
 21
181.565554
  0
LINE
  8
CSLAYER1
  6
CONTINUOUS
 62
     6
 10
177.253412
 20
181.253105
 11
177.253399
 21
170.482009
  0
ARC
  8
CSLAYER1
  6
CONTINUOUS
 62
     6
 10
177.803402
 20
171.434645
 40
1.100006
 50
240.000007
 51
299.999995
  0
ARC
  8
CSLAYER1
  6
CONTINUOUS
 62
     6
 10
178.903408
 20
171.434645
 40
1.100006
 50
240.000007
 51
299.999995
  0
ARC
  8
CSLAYER1
  6
CONTINUOUS
 62
     6
 10
178.903408
 20
169.529372
 40
1.100006
 50
60.000002
 51
120.000003
  0
LINE
  8
CSLAYER1
  6
CONTINUOUS
 62
     6
 10
179.453396
 20
170.482009
 11
179.453409
 21
181.214698
  0
ARC
  8
CSLAYER1
  6
CONTINUOUS
 62
     6
 10
178.903378
 20
166.617186
 40
1.099999
 50
60.000350
 51
120.000345
  0
ARC
  8
CSLAYER1
  6
CONTINUOUS
 62
     6
 10
177.803372
 20
168.522429
 40
1.099999
 50
240.000362
 51
300.000350
  0
ARC
  8
CSLAYER1
  6
CONTINUOUS
 62
     6
 10
177.803379
 20
166.617171
 40
1.099999
 50
60.000350
 51
120.000345
  0
ARC
  8
CSLAYER1
  6
CONTINUOUS
 62
     6
 10
193.012234
 20
167.569777
 40
13.558834
 50
179.999978
 51
207.463868
  0
LINE
  8
CSLAYER1
  6
CONTINUOUS
 62
     6
 10
180.981457
 20
161.316603
 11
179.029400
 21
160.301985
  0
ARC
  8
CSLAYER1
  6
CONTINUOUS
 62
     6
 10
193.012234
 20
167.569777
 40
15.758816
 50
202.422068
 51
207.463868
  0
LINE
  8
CSLAYER1
  6
CONTINUOUS
 62
     6
 10
179.436779
 20
160.513732
 11
180.838284
 21
157.433913
  0
LINE
  8
CSLAYER1
  6
CONTINUOUS
 62
     6
 10
181.411694
 20
157.713271
 11
179.834912
 21
160.720671
  0
LINE
  8
CSLAYER1
  6
CONTINUOUS
 62
     6
 10
180.323834
 20
160.974791
 11
181.941006
 21
158.036734
  0
ARC
  8
CSLAYER1
  6
CONTINUOUS
 62
     6
 10
163.694546
 20
167.569777
 40
15.758816
 50
332.536202
 51
359.942691
  0
ARC
  8
CSLAYER1
  6
CONTINUOUS
 62
     6
 10
163.694546
 20
167.569777
 40
13.558834
 50
332.536202
 51
359.942691
  0
LINE
  8
CSLAYER1
  6
CONTINUOUS
 62
     6
 10
175.725323
 20
161.316619
 11
177.677380
 21
160.302001
  0
LINE
  8
CSLAYER1
  6
CONTINUOUS
 62
     6
 10
177.270001
 20
160.513732
 11
175.868512
 21
157.433928
  0
LINE
  8
CSLAYER1
  6
CONTINUOUS
 62
     6
 10
175.295086
 20
157.713271
 11
176.871869
 21
160.720687
  0
LINE
  8
CSLAYER1
  6
CONTINUOUS
 62
     6
 10
176.382946
 20
160.974822
 11
174.765789
 21
158.036750
  0
LINE
  8
CSLAYER1
  6
CONTINUOUS
 62
     6
 10
189.353418
 20
106.041880
 11
159.353251
 21
105.518226
  0
CIRCLE
  8
CSLAYER1
  6
CONTINUOUS
 62
     6
 10
120.072703
 20
169.322582
 40
3.500000
  0
CIRCLE
  8
CSLAYER1
  6
CONTINUOUS
 62
     6
 10
93.623724
 20
154.052261
 40
1.600000
  0
LINE
  8
CSLAYER1
  6
CONTINUOUS
 62
     6
 10
83.370314
 20
158.041914
 11
81.593469
 21
161.062912
  0
ARC
  8
CSLAYER1
  6
CONTINUOUS
 62
     6
 10
94.112410
 20
167.569857
 40
13.559023
 50
180.000308
 51
207.464006
  0
ARC
  8
CSLAYER1
  6
CONTINUOUS
 62
     6
 10
80.003388
 20
166.617142
 40
1.099999
 50
59.999715
 51
119.999716
  0
ARC
  8
CSLAYER1
  6
CONTINUOUS
 62
     6
 10
78.903390
 20
166.617157
 40
1.099999
 50
59.999715
 51
119.999716
  0
ARC
  8
CSLAYER1
  6
CONTINUOUS
 62
     6
 10
78.903398
 20
168.522415
 40
1.099999
 50
239.999733
 51
299.999721
  0
ARC
  8
CSLAYER1
  6
CONTINUOUS
 62
     6
 10
94.112410
 20
167.569857
 40
15.759004
 50
180.000235
 51
207.463987
  0
LINE
  8
CSLAYER1
  6
CONTINUOUS
 62
     6
 10
80.129432
 20
160.301949
 11
82.081481
 21
161.316567
  0
LINE
  8
CSLAYER1
  6
CONTINUOUS
 62
     6
 10
81.105453
 20
160.809265
 11
82.719630
 21
157.703708
  0
LINE
  8
CSLAYER1
  6
CONTINUOUS
 62
     6
 10
82.068947
 20
157.365502
 11
80.617440
 21
160.555612
  0
LINE
  8
CSLAYER1
  6
CONTINUOUS
 62
     6
 10
76.577409
 20
160.301935
 11
74.625365
 21
161.316549
  0
ARC
  8
CSLAYER1
  6
CONTINUOUS
 62
     6
 10
62.594427
 20
167.569684
 40
13.558951
 50
-27.463363
 51
0.000417
  0
ARC
  8
CSLAYER1
  6
CONTINUOUS
 62
     6
 10
76.703385
 20
166.617157
 40
1.099999
 50
60.000350
 51
120.000345
  0
ARC
  8
CSLAYER1
  6
CONTINUOUS
 62
     6
 10
76.703374
 20
168.522415
 40
1.099999
 50
240.000362
 51
300.000350
  0
ARC
  8
CSLAYER1
  6
CONTINUOUS
 62
     6
 10
77.803384
 20
166.617172
 40
1.099999
 50
60.000350
 51
120.000345
  0
ARC
  8
CSLAYER1
  6
CONTINUOUS
 62
     6
 10
62.594427
 20
167.569684
 40
15.758933
 50
-27.463461
 51
0.000397
  0
LINE
  8
CSLAYER1
  6
CONTINUOUS
 62
     6
 10
76.089375
 20
160.555611
 11
74.637869
 21
157.365500
  0
LINE
  8
CSLAYER1
  6
CONTINUOUS
 62
     6
 10
73.987186
 20
157.703706
 11
75.601362
 21
160.809264
  0
LINE
  8
CSLAYER1
  6
CONTINUOUS
 62
     6
 10
75.113346
 20
161.062911
 11
73.336503
 21
158.041912
  0
ARC
  8
CSLAYER1
  6
CONTINUOUS
 62
     6
 10
76.703364
 20
171.434626
 40
1.099999
 50
240.000198
 51
300.000186
  0
ARC
  8
CSLAYER1
  6
CONTINUOUS
 62
     6
 10
77.803363
 20
171.434626
 40
1.099999
 50
240.000198
 51
300.000186
  0
ARC
  8
CSLAYER1
  6
CONTINUOUS
 62
     6
 10
77.803370
 20
169.529383
 40
1.099999
 50
60.000186
 51
120.000181
  0
LINE
  8
CSLAYER1
  6
CONTINUOUS
 62
     6
 10
76.153388
 20
170.482004
 11
76.153396
 21
181.122650
  0
ARC
  8
CSLAYER1
  6
CONTINUOUS
 62
     6
 10
78.353403
 20
211.041870
 40
31.000000
 50
-85.930446
 51
265.930412
  0
LINE
  8
CSLAYER1
  6
CONTINUOUS
 62
     6
 10
80.553394
 20
181.122650
 11
80.553386
 21
170.482004
  0
ARC
  8
CSLAYER1
  6
CONTINUOUS
 62
     6
 10
80.003398
 20
169.529383
 40
1.099999
 50
59.999858
 51
119.999853
  0
ARC
  8
CSLAYER1
  6
CONTINUOUS
 62
     6
 10
80.003406
 20
171.434626
 40
1.099999
 50
239.999870
 51
299.999858
  0
ARC
  8
CSLAYER1
  6
CONTINUOUS
 62
     6
 10
78.903407
 20
171.434626
 40
1.099999
 50
239.999870
 51
299.999858
  0
LINE
  8
CSLAYER1
  6
CONTINUOUS
 62
     6
 10
78.353381
 20
170.482004
 11
78.353397
 21
181.122650
  0
LINE
  8
CSLAYER1
  6
CONTINUOUS
 62
     6
 10
81.762484
 20
207.632781
 11
81.804178
 21
211.041870
  0
LINE
  8
CSLAYER1
  6
CONTINUOUS
 62
     6
 10
81.804178
 20
211.041870
 11
85.171579
 21
211.041870
  0
LINE
  8
CSLAYER1
  6
CONTINUOUS
 62
     6
 10
85.171571
 20
211.041872
 11
74.944307
 21
214.450958
  0
LINE
  8
CSLAYER1
  6
CONTINUOUS
 62
     6
 10
74.944307
 20
214.450958
 11
74.967444
 21
211.041870
  0
LINE
  8
CSLAYER1
  6
CONTINUOUS
 62
     6
 10
74.967444
 20
211.041870
 11
71.535215
 21
211.041870
  0
LINE
  8
CSLAYER1
  6
CONTINUOUS
 62
     6
 10
71.535215
 20
211.041870
 11
81.762484
 21
207.632781
  0
CIRCLE
  8
CSLAYER1
  6
CONTINUOUS
 62
     6
 10
36.634103
 20
169.322582
 40
3.500000
  0
CIRCLE
  8
CSLAYER1
  6
CONTINUOUS
 62
     6
 10
21.363779
 20
195.771563
 40
1.600000
  0
LINE
  8
CSLAYER1
  6
CONTINUOUS
 62
     6
 10
74.967444
 20
211.041870
 11
74.967443
 21
211.041885
  0
CIRCLE
  8
CSLAYER1
  6
CONTINUOUS
 62
     6
 10
78.353396
 20
211.041870
 40
6.818180
  0
CIRCLE
  8
CSLAYER1
  6
CONTINUOUS
 62
     6
 10
78.353396
 20
211.041870
 40
7.909089
  0
CIRCLE
  8
CSLAYER1
  6
CONTINUOUS
 62
     6
 10
78.353396
 20
211.041870
 40
16.000000
  0
CIRCLE
  8
CSLAYER1
  6
CONTINUOUS
 62
     6
 10
78.353396
 20
211.041870
 40
17.000000
  0
CIRCLE
  8
CSLAYER1
  6
CONTINUOUS
 62
     6
 10
78.353403
 20
211.041870
 40
30.000000
  0
CIRCLE
  8
CSLAYER1
  6
CONTINUOUS
 62
     6
 10
78.353403
 20
211.041885
 40
64.999998
  0
CIRCLE
  8
CSLAYER1
  6
CONTINUOUS
 62
     6
 10
120.072703
 20
252.761183
 40
3.500000
  0
CIRCLE
  8
CSLAYER1
  6
CONTINUOUS
 62
     6
 10
135.343027
 20
226.312206
 40
1.600000
  0
CIRCLE
  8
CSLAYER1
  6
CONTINUOUS
 62
     6
 10
63.083082
 20
268.031509
 40
1.600000
  0
CIRCLE
  8
CSLAYER1
  6
CONTINUOUS
 62
     6
 10
36.634103
 20
252.761183
 40
3.500000
  0
LINE
  8
CSLAYER1
  6
CONTINUOUS
 62
     6
 10
159.353403
 20
240.518221
 11
189.353418
 21
241.041872
  0
LINE
  8
CSLAYER1
  6
CONTINUOUS
 62
     6
 10
181.103403
 20
211.841890
 11
175.603403
 21
211.841890
  0
LINE
  8
CSLAYER1
  6
CONTINUOUS
 62
     6
 10
175.603403
 20
211.841890
 11
175.603403
 21
210.241884
  0
LINE
  8
CSLAYER1
  6
CONTINUOUS
 62
     6
 10
175.603403
 20
210.241884
 11
181.103403
 21
210.241884
  0
LINE
  8
CSLAYER1
  6
CONTINUOUS
 62
     6
 10
181.103403
 20
210.241884
 11
181.103403
 21
211.841890
  0
CIRCLE
  8
CSLAYER1
  6
CONTINUOUS
 62
     6
 10
178.353403
 20
211.041887
 40
8.000000
  0
CIRCLE
  8
CSLAYER1
  6
CONTINUOUS
 62
     6
 10
178.353403
 20
211.041887
 40
6.000000
  0
LINE
  8
CSLAYER1
  6
CONTINUOUS
 62
     6
 10
189.353401
 20
315.041889
 11
292.353406
 21
315.041872
  0
LINE
  8
CSLAYER1
  6
CONTINUOUS
 62
     6
 10
286.353406
 20
315.041876
 11
286.353406
 21
377.041876
  0
LINE
  8
CSLAYER1
  6
CONTINUOUS
 62
     6
 10
292.353406
 20
377.041872
 11
189.353411
 21
377.041889
  0
LINE
  8
CSLAYER1
  6
CONTINUOUS
 62
     6
 10
189.353411
 20
377.041889
 11
189.353401
 21
315.041889
  0
LINE
  8
CSLAYER1
  6
CONTINUOUS
 62
     6
 10
189.353417
 20
316.041904
 11
159.353401
 21
316.565560
  0
LINE
  8
CSLAYER1
  6
CONTINUOUS
 62
     6
 10
159.353401
 20
316.565560
 11
159.353410
 21
375.518227
  0
LINE
  8
CSLAYER1
  6
CONTINUOUS
 62
     6
 10
159.353410
 20
375.518227
 11
189.353426
 21
376.041874
  0
LINE
  8
CSLAYER1
  6
CONTINUOUS
 62
     6
 10
159.353410
 20
375.518227
 11
158.353410
 21
374.518228
  0
LINE
  8
CSLAYER1
  6
CONTINUOUS
 62
     6
 10
158.353410
 20
374.518228
 11
158.353402
 21
317.565560
  0
LINE
  8
CSLAYER1
  6
CONTINUOUS
 62
     6
 10
158.353402
 20
317.565560
 11
159.353401
 21
316.565560
  0
TEXT
  8
CSLAYER1
 62
     6
 10
63.520584
 20
209.073776
 40
3.409090
 41
1.200000
  1
S
 50
282.000000
 51
3.000000
  7
JX_FONT
 72
     5
 11
64.087616
 21
206.406102
  0
TEXT
  8
CSLAYER1
 62
     6
 10
64.253906
 20
206.032883
 40
3.409090
 41
1.200000
  1
A
 50
294.000031
 51
3.000000
  7
JX_FONT
 72
     5
 11
65.363189
 21
203.541396
  0
TEXT
  8
CSLAYER1
 62
     6
 10
65.603447
 20
203.210892
 40
3.409090
 41
1.596000
  1
W
 50
306.000031
 51
3.000000
  7
JX_FONT
 72
     5
 11
67.735505
 21
200.276368
  0
TEXT
  8
CSLAYER1
 62
     6
 10
67.510208
 20
200.731155
 40
3.409090
 41
1.200000
  1
A
 50
318.000000
 51
3.000000
  7
JX_FONT
 72
     5
 11
69.536966
 21
198.906254
  0
TEXT
  8
CSLAYER1
 62
     6
 10
69.890869
 20
198.702072
 40
3.409090
 41
1.200000
  1
M
 50
330.000000
 51
3.000000
  7
JX_FONT
 72
     5
 11
72.252756
 21
197.338436
  0
TEXT
  8
CSLAYER1
 62
     6
 10
72.641373
 20
197.212265
 40
3.409090
 41
1.200000
  1
U
 50
342.000000
 51
3.000000
  7
JX_FONT
 72
     5
 11
75.235163
 21
196.369492
  0
TEXT
  8
CSLAYER1
 62
     6
 10
75.641525
 20
196.326889
 40
3.409090
 41
1.200000
  1
R
 50
353.999969
 51
3.000000
  7
JX_FONT
 72
     5
 11
78.353857
 21
196.041810
  0
TEXT
  8
CSLAYER1
 62
     6
 10
78.760216
 20
196.084610
 40
3.409090
 41
1.200000
  1
A
 50
6.000000
 51
3.000000
  7
JX_FONT
 72
     5
 11
81.472548
 21
196.369688
  0
TEXT
  8
CSLAYER1
 62
     6
 10
91.510132
 20
203.915604
 40
3.409090
 41
1.200000
  1
K
 50
66.000046
 51
3.000000
  7
JX_FONT
 72
     5
 11
92.619411
 21
206.407092
  0
TEXT
  8
CSLAYER1
 62
     6
 10
92.704254
 20
206.806747
 40
3.409090
 41
0.792000
  1
I
 50
78.000000
 51
3.000000
  7
JX_FONT
 72
     5
 11
93.078495
 21
208.567413
  0
TEXT
  8
CSLAYER1
 62
     6
 10
84.808716
 20
197.543228
 40
3.409090
 41
1.200000
  1
D
 50
30.000032
 51
3.000000
  7
JX_FONT
 72
     5
 11
87.170602
 21
198.906866
  0
TEXT
  8
CSLAYER1
 62
     6
 10
87.474167
 20
199.180344
 40
3.409090
 41
1.200000
  1
E
 50
41.999962
 51
3.000000
  7
JX_FONT
 72
     5
 11
89.500926
 21
201.005243
  0
TEXT
  8
CSLAYER1
 62
     6
 10
89.740990
 20
201.335892
 40
3.409090
 41
1.200000
  1
N
 50
54.000061
 51
3.000000
  7
JX_FONT
 72
     5
 11
91.344038
 21
203.542303
  0
TEXT
  8
CSLAYER1
 62
     6
 10
63.435532
 20
212.200607
 40
3.410000
 41
1.200000
  1
*
 50
-90.000000
 51
3.000000
  7
JX_FONT
 72
     5
 11
63.435532
 21
209.472607
  0
TEXT
  8
CSLAYER1
 62
     6
 10
84.065430
 20
224.871445
 40
3.409090
 41
1.200000
  1
U
 50
162.000000
 51
3.000000
  7
JX_FONT
 72
     5
 11
81.471640
 21
225.714218
  0
TEXT
  8
CSLAYER1
 62
     6
 10
81.065269
 20
225.756821
 40
3.409090
 41
1.200000
  1
R
 50
173.999985
 51
3.000000
  7
JX_FONT
 72
     5
 11
78.352938
 21
226.041899
  0
TEXT
  8
CSLAYER1
 62
     6
 10
77.946587
 20
225.999100
 40
3.409090
 41
1.200000
  1
A
 50
186.000015
 51
3.000000
  7
JX_FONT
 72
     5
 11
75.234255
 21
225.714021
  0
TEXT
  8
CSLAYER1
 62
     6
 10
65.196671
 20
218.168137
 40
3.409090
 41
1.200000
  1
K
 50
246.000061
 51
3.000000
  7
JX_FONT
 72
     5
 11
64.087392
 21
215.676648
  0
TEXT
  8
CSLAYER1
 62
     6
 10
64.002548
 20
215.276993
 40
3.409090
 41
0.792000
  1
I
 50
258.000000
 51
3.000000
  7
JX_FONT
 72
     5
 11
63.628307
 21
213.516328
  0
TEXT
  8
CSLAYER1
 62
     6
 10
71.898087
 20
224.540512
 40
3.409090
 41
1.200000
  1
D
 50
210.000046
 51
3.000000
  7
JX_FONT
 72
     5
 11
69.536201
 21
223.176874
  0
TEXT
  8
CSLAYER1
 62
     6
 10
69.232643
 20
222.903397
 40
3.409090
 41
1.200000
  1
E
 50
221.999969
 51
3.000000
  7
JX_FONT
 72
     5
 11
67.205884
 21
221.078496
  0
TEXT
  8
CSLAYER1
 62
     6
 10
66.965820
 20
220.747849
 40
3.409090
 41
1.200000
  1
N
 50
234.000061
 51
3.000000
  7
JX_FONT
 72
     5
 11
65.362772
 21
218.541437
  0
TEXT
  8
CSLAYER1
 62
     6
 10
93.186218
 20
213.009933
 40
3.409090
 41
1.200000
  1
S
 50
102.000000
 51
3.000000
  7
JX_FONT
 72
     5
 11
92.619187
 21
215.677608
  0
TEXT
  8
CSLAYER1
 62
     6
 10
92.452904
 20
216.050827
 40
3.409090
 41
1.200000
  1
A
 50
114.000046
 51
3.000000
  7
JX_FONT
 72
     5
 11
91.343620
 21
218.542313
  0
TEXT
  8
CSLAYER1
 62
     6
 10
91.103355
 20
218.872818
 40
3.409090
 41
1.596000
  1
W
 50
126.000038
 51
3.000000
  7
JX_FONT
 72
     5
 11
88.971297
 21
221.807341
  0
TEXT
  8
CSLAYER1
 62
     6
 10
89.196594
 20
221.352554
 40
3.409090
 41
1.200000
  1
A
 50
138.000031
 51
3.000000
  7
JX_FONT
 72
     5
 11
87.169835
 21
223.177454
  0
TEXT
  8
CSLAYER1
 62
     6
 10
86.815933
 20
223.381668
 40
3.409090
 41
1.200000
  1
M
 50
150.000015
 51
3.000000
  7
JX_FONT
 72
     5
 11
84.454046
 21
224.745303
  0
TEXT
  8
CSLAYER1
 62
     6
 10
93.271271
 20
209.883133
 40
3.410000
 41
1.200000
  1
*
 50
90.000000
 51
3.000000
  7
JX_FONT
 72
     5
 11
93.271271
 21
212.611133
  0
ENDSEC
  0
EOF
