  0
SECTION
  2
HEADER
  9
$ACADVER
  1
AC1006
  9
$INSBASE
 10
0.000000
 20
0.000000
 30
0.0
  9
$EXTMIN
 10
0.000000
 20
0.000000
  9
$EXTMAX
 10
420.000000
 20
297.000000
  9
$LIMMIN
 10
0.000000
 20
0.000000
  9
$LIMMAX
 10
420.000000
 20
297.000000
  9
$VIEWCTR
 10
210.000000
 20
148.500000
  9
$VIEWSIZE
 40
297.000000
  9
$SNAPMODE
 70
     0
  9
$SNAPUNIT
 10
1.0
 20
1.0
  9
$SNAPBASE
 10
0.0
 20
0.0
  9
$SNAPANG
 50
0.0
  9
$SNAPSTYLE
 70
     0
  9
$SNAPISOPAIR
 70
     0
  9
$GRIDMODE
 70
     0
  9
$GRIDUNIT
 10
0.0
 20
0.0
  9
$ORTHOMODE
 70
     0
  9
$REGENMODE
 70
     1
  9
$FILLMODE
 70
     1
  9
$QTEXTMODE
 70
     0
  9
$DRAGMODE
 70
     2
  9
$LTSCALE
 40
15.000000
  9
$OSMODE
 70
     0
  9
$ATTMODE
 70
     1
  9
$TEXTSIZE
 40
0.2
  9
$TRACEWID
 40
0.05
  9
$TEXTSTYLE
  7
STANDARD
  9
$CLAYER
  8
CSLAYER1
  9
$CELTYPE
  6
BYLAYER
  9
$CECOLOR
 62
   256
  9
$DIMSCALE
 40
1.0
  9
$DIMASZ
 40
0.18
  9
$DIMEXO
 40
0.0625
  9
$DIMDLI
 40
0.38
  9
$DIMRND
 40
0.0
  9
$DIMDLE
 40
0.0
  9
$DIMEXE
 40
0.18
  9
$DIMTP
 40
0.0
  9
$DIMTM
 40
0.0
  9
$DIMTXT
 40
0.18
  9
$DIMCEN
 40
0.09
  9
$DIMTSZ
 40
0.0
  9
$DIMTOL
 70
     0
  9
$DIMLIM
 70
     0
  9
$DIMTIH
 70
     1
  9
$DIMTOH
 70
     1
  9
$DIMSE1
 70
     0
  9
$DIMSE2
 70
     0
  9
$DIMTAD
 70
     0
  9
$DIMZIN
 70
     0
  9
$DIMBLK
  1

  9
$LUNITS
 70
     2
  9
$LUPREC
 70
     4
  9
$AXISMODE
 70
     0
  9
$AXISUNIT
 10
0.0
 20
0.0
  9
$SKETCHINC
 40
0.1
  9
$FILLETRAD
 40
0.0
  9
$AUNITS
 70
     0
  9
$AUPREC
 70
     0
  9
$MENU
  1
ACAD
  9
$ELEVATION
 40
0.0
  9
$THICKNESS
 40
0.0
  9
$VIEWDIR
 10
0.0
 20
0.0
 30
1.0
  9
$LIMCHECK
 70
     0
  9
$BLIPMODE
 70
     1
  9
$CHAMFERA
 40
0.0
  9
$CHAMFERB
 40
0.0
  9
$FASTZOOM
 70
     1
  9
$SKPOLY
 70
     0
  9
$TDCREATE
 40
0.000000
  9
$TDUPDATE
 40
0.000000
  9
$TDINDWG
 40
0.0
  9
$TDUSRTIMER
 40
0.0
  9
$USRTIMER
 70
     1
  9
$ANGBASE
 50
0.0
  9
$ANGDIR
 70
     0
  9
$PDMODE
 70
     0
  9
$PDSIZE
 40
0.0
  9
$PLINEWID
 40
0.0
  9
$COORDS
 70
     0
  9
$USERI1
 70
     0
  9
$USERI2
 70
     0
  9
$USERI3
 70
     0
  9
$USERI4
 70
     0
  9
$USERI5
 70
     0
  9
$USERR1
 40
0.0
  9
$USERR2
 40
0.0
  9
$USERR3
 40
0.0
  9
$USERR4
 40
0.0
  9
$USERR5
 40
0.0
  0
ENDSEC
  0
SECTION
  2
TABLES
  0
TABLE
  2
LTYPE
 70
     9
  0
LTYPE
  2
CONTINUOUS
 70
    64
  3
Solid line
 72
    65
 73
     0
 40
0.0
  0
LTYPE
  2
DASHED
 70
    64
  3
__ __ __ __ __ __ __ __ __ __ __ __ __ __ __
 72
    65
 73
     2
 40
0.75
 49
0.5
 49
-0.25
  0
LTYPE
  2
HIDDEN
 70
    64
  3
_ _ _ _ _ _ _ _ _ _ _ _ _ _ _ _ _ _ _ _ _ _ _
 72
    65
 73
     2
 40
0.375
 49
0.25
 49
-0.125
  0
LTYPE
  2
DOT
 70
    64
  3
...............................................
 72
    65
 73
     2
 40
0.25
 49
0.0
 49
-0.25
  0
LTYPE
  2
DASHDOT
 70
    64
  3
__ . __ . __ . __ . __ . __ . __ . __ . __ . __
 72
    65
 73
     4
 40
1.0
 49
0.5
 49
-0.25
 49
0.0
 49
-0.25
  0
LTYPE
  2
DIVIDE
 70
    64
  3
__ . . __ . . __ . . __ . . __ . . __ . . __
 72
    65
 73
     6
 40
1.25
 49
0.5
 49
-0.25
 49
0.0
 49
-0.25
 49
0.0
 49
-0.25
  0
LTYPE
  2
CENTER
 70
    64
  3
____ _ ____ _ ____ _ ____ _ ____ _ ____ _ ____ 
 72
    65
 73
     4
 40
2.0
 49
1.25
 49
-0.25
 49
0.25
 49
-0.25
  0
LTYPE
  2
PHANTOM
 70
    64
  3
______  __  __  ______  __  __  ______  __  __ 
 72
    65
 73
     6
 40
2.5
 49
1.25
 49
-0.25
 49
0.25
 49
-0.25
 49
0.25
 49
-0.25
  0
LTYPE
  2
BORDER
 70
    64
  3
__ __ . __ __ . __ __ . __ __ . __ __ . __ __ .
 72
    65
 73
     6
 40
1.75
 49
0.5
 49
-0.25
 49
0.5
 49
-0.25
 49
0.0
 49
-0.25
  0
ENDTAB
  0
TABLE
  2
LAYER
 70
    16
  0
LAYER
  2
CSLAYER1
 70
    64
 62
     7
  6
CONTINUOUS
  0
LAYER
  2
CSLAYER2
 70
    64
 62
     7
  6
CONTINUOUS
  0
LAYER
  2
CSLAYER3
 70
    64
 62
     7
  6
CONTINUOUS
  0
LAYER
  2
CSLAYER4
 70
    64
 62
     7
  6
CONTINUOUS
  0
LAYER
  2
CSLAYER5
 70
    64
 62
     7
  6
CONTINUOUS
  0
LAYER
  2
CSLAYER6
 70
    64
 62
     7
  6
CONTINUOUS
  0
LAYER
  2
CSLAYER7
 70
    64
 62
     7
  6
CONTINUOUS
  0
LAYER
  2
CSLAYER8
 70
    64
 62
     7
  6
CONTINUOUS
  0
LAYER
  2
CSLAYER9
 70
    64
 62
     7
  6
CONTINUOUS
  0
LAYER
  2
CSLAYER10
 70
    64
 62
     7
  6
CONTINUOUS
  0
LAYER
  2
CSLAYER11
 70
    64
 62
     7
  6
CONTINUOUS
  0
LAYER
  2
CSLAYER12
 70
    64
 62
     7
  6
CONTINUOUS
  0
LAYER
  2
CSLAYER13
 70
    64
 62
     7
  6
CONTINUOUS
  0
LAYER
  2
CSLAYER14
 70
    64
 62
     7
  6
CONTINUOUS
  0
LAYER
  2
CSLAYER15
 70
    64
 62
     7
  6
CONTINUOUS
  0
LAYER
  2
CSLAYER16
 70
    64
 62
     7
  6
CONTINUOUS
  0
ENDTAB
  0
TABLE
  2
STYLE
 70
     1
  0
STYLE
  2
JX_FONT
 70
     0
 40
1.0
 41
1.0
 50
0.0
 71
     0
 42
1.0
  3
monotxt
  4
bigfont
  0
ENDTAB
  0
TABLE
  2
VIEW
 70
     0
  0
ENDTAB
  0
ENDSEC
  0
SECTION
  2
BLOCKS
  0
ENDSEC
  0
SECTION
  2
ENTITIES
  0
LINE
  8
CSLAYER1
  6
CENTER
 62
     3
 10
97.599865
 20
52.989034
 11
325.099880
 21
52.989034
  0
LINE
  8
CSLAYER1
  6
CENTER
 62
     3
 10
297.599886
 20
78.989037
 11
283.599886
 21
78.989041
  0
LINE
  8
CSLAYER1
  6
CENTER
 62
     3
 10
283.599849
 20
120.336136
 11
297.599849
 21
120.336136
  0
LINE
  8
CSLAYER1
  6
CENTER
 62
     3
 10
324.099859
 20
146.336135
 11
97.599865
 21
146.336152
  0
LINE
  8
CSLAYER1
  6
CENTER
 62
     3
 10
85.099834
 20
146.336154
 11
15.099834
 21
146.336154
  0
LINE
  8
CSLAYER1
  6
CENTER
 62
     3
 10
24.099834
 20
125.336154
 11
24.099834
 21
115.336154
  0
LINE
  8
CSLAYER1
  6
CENTER
 62
     3
 10
19.160564
 20
120.336154
 11
29.099834
 21
120.336154
  0
LINE
  8
CSLAYER1
  6
CENTER
 62
     3
 10
42.886570
 20
120.265840
 11
38.365988
 21
103.927407
  0
LINE
  8
CSLAYER1
  6
CENTER
 62
     3
 10
50.099834
 20
97.980114
 11
50.099834
 21
181.336154
  0
LINE
  8
CSLAYER1
  6
CENTER
 62
     3
 10
29.099834
 20
172.336154
 11
19.099834
 21
172.336154
  0
LINE
  8
CSLAYER1
  6
CENTER
 62
     3
 10
24.099834
 20
177.275424
 11
24.099834
 21
167.336154
  0
LINE
  8
CSLAYER1
  6
CENTER
 62
     3
 10
71.099834
 20
172.336154
 11
81.039104
 21
172.336154
  0
LINE
  8
CSLAYER1
  6
CENTER
 62
     3
 10
76.099834
 20
177.336154
 11
76.099834
 21
167.336154
  0
LINE
  8
CSLAYER1
  6
CENTER
 62
     3
 10
76.099834
 20
125.336154
 11
76.099834
 21
115.336154
  0
LINE
  8
CSLAYER1
  6
CENTER
 62
     3
 10
81.039104
 20
120.336154
 11
71.099834
 21
120.336154
  0
LINE
  8
CSLAYER1
  6
CENTER
 62
     3
 10
144.349849
 20
117.335391
 11
160.849849
 21
117.335391
  0
LINE
  8
CSLAYER1
  6
CONTINUOUS
 62
     3
 10
153.479900
 20
117.335776
 11
153.479900
 21
117.836547
  0
LINE
  8
CSLAYER1
  6
CONTINUOUS
 62
     3
 10
153.479900
 20
118.336547
 11
153.479900
 21
118.836547
  0
LINE
  8
CSLAYER1
  6
CONTINUOUS
 62
     3
 10
151.719799
 20
118.836547
 11
151.719799
 21
118.336547
  0
LINE
  8
CSLAYER1
  6
CONTINUOUS
 62
     3
 10
151.719799
 20
117.836547
 11
151.719799
 21
117.335776
  0
LINE
  8
CSLAYER1
  6
CONTINUOUS
 62
     3
 10
151.719799
 20
116.836547
 11
151.719799
 21
116.336547
  0
LINE
  8
CSLAYER1
  6
CONTINUOUS
 62
     3
 10
153.479900
 20
116.336547
 11
153.479900
 21
116.836547
  0
LINE
  8
CSLAYER1
  6
CENTER
 62
     3
 10
152.599849
 20
122.579196
 11
152.599849
 21
100.374244
  0
LINE
  8
CSLAYER1
  6
CENTER
 62
     3
 10
177.599849
 20
97.764631
 11
177.599849
 21
159.336149
  0
CIRCLE
  8
CSLAYER1
  6
CONTINUOUS
 62
     3
 10
177.599849
 20
146.336149
 40
5.500000
  0
ARC
  8
CSLAYER1
  6
CONTINUOUS
 62
     3
 10
216.599865
 20
162.836119
 40
1.000000
 50
180.000005
 51
270.000001
  0
LINE
  8
CSLAYER1
  6
CONTINUOUS
 62
     3
 10
216.599865
 20
161.836119
 11
252.599849
 21
161.836119
  0
ARC
  8
CSLAYER1
  6
CONTINUOUS
 62
     3
 10
252.599849
 20
162.836119
 40
1.000000
 50
269.999999
 51
359.999995
  0
LINE
  8
CSLAYER1
  6
CONTINUOUS
 62
     3
 10
253.599849
 20
162.836119
 11
253.599849
 21
177.336149
  0
LINE
  8
CSLAYER1
  6
CENTER
 62
     3
 10
283.599856
 20
172.336146
 11
297.599856
 21
172.336142
  0
LINE
  8
CSLAYER1
  6
CENTER
 62
     3
 10
297.599849
 20
210.356010
 11
283.599849
 21
210.356010
  0
ARC
  8
CSLAYER1
  6
CONTINUOUS
 62
     3
 10
252.599849
 20
210.509240
 40
1.000000
 50
270.000001
 51
359.942691
  0
LINE
  8
CSLAYER1
  6
CONTINUOUS
 62
     3
 10
252.599849
 20
209.509240
 11
216.599849
 21
209.509240
  0
ARC
  8
CSLAYER1
  6
CONTINUOUS
 62
     3
 10
216.599849
 20
210.509240
 40
1.000000
 50
180.000005
 51
270.000001
  0
LINE
  8
CSLAYER1
  6
CONTINUOUS
 62
     3
 10
215.599849
 20
210.509240
 11
215.599849
 21
262.202808
  0
ARC
  8
CSLAYER1
  6
CONTINUOUS
 62
     3
 10
216.599849
 20
262.202808
 40
1.000000
 50
90.000009
 51
180.000005
  0
LINE
  8
CSLAYER1
  6
CONTINUOUS
 62
     3
 10
216.599849
 20
263.202808
 11
252.599849
 21
263.202808
  0
ARC
  8
CSLAYER1
  6
CONTINUOUS
 62
     3
 10
252.599849
 20
262.202808
 40
1.000000
 50
0.057319
 51
90.000009
  0
LINE
  8
CSLAYER1
  6
CONTINUOUS
 62
     3
 10
253.599849
 20
262.202808
 11
253.599849
 21
210.509240
  0
LINE
  8
CSLAYER1
  6
CONTINUOUS
 62
     3
 10
215.599865
 20
177.336149
 11
215.599865
 21
162.836119
  0
LINE
  8
CSLAYER1
  6
CENTER
 62
     3
 10
332.599941
 20
146.336135
 11
402.599819
 21
146.336135
  0
ARC
  8
CSLAYER1
  6
CENTER
 62
     3
 10
367.599849
 20
146.336150
 40
24.000000
 50
294.927254
 51
335.072670
  0
LINE
  8
CSLAYER1
  6
CENTER
 62
     3
 10
379.590574
 20
134.345396
 11
389.550228
 21
124.385756
  0
LINE
  8
CSLAYER1
  6
CENTER
 62
     3
 10
388.599849
 20
120.336135
 11
398.539119
 21
120.336135
  0
LINE
  8
CSLAYER1
  6
CENTER
 62
     3
 10
393.599849
 20
115.336135
 11
393.599849
 21
125.336135
  0
LINE
  8
CSLAYER1
  6
CENTER
 62
     3
 10
367.599849
 20
111.336135
 11
367.599849
 21
181.336135
  0
ARC
  8
CSLAYER1
  6
CENTER
 62
     3
 10
367.599849
 20
146.336119
 40
24.000000
 50
114.927254
 51
155.072670
  0
LINE
  8
CSLAYER1
  6
CENTER
 62
     3
 10
355.609125
 20
158.326874
 11
345.649471
 21
168.286513
  0
LINE
  8
CSLAYER1
  6
CENTER
 62
     3
 10
341.599849
 20
167.336135
 11
341.599849
 21
177.275405
  0
LINE
  8
CSLAYER1
  6
CENTER
 62
     3
 10
336.599849
 20
172.336135
 11
346.599849
 21
172.336135
  0
LINE
  8
CSLAYER1
  6
CENTER
 62
     3
 10
388.599849
 20
172.336135
 11
398.539119
 21
172.336135
  0
LINE
  8
CSLAYER1
  6
CENTER
 62
     3
 10
393.599849
 20
177.336135
 11
393.599849
 21
167.336135
  0
LINE
  8
CSLAYER1
  6
CENTER
 62
     3
 10
346.599849
 20
120.336135
 11
336.660579
 21
120.336135
  0
LINE
  8
CSLAYER1
  6
CENTER
 62
     3
 10
341.599849
 20
115.336135
 11
341.599849
 21
125.336135
  0
LINE
  8
CSLAYER1
  6
CENTER
 62
     3
 10
297.599880
 20
26.989030
 11
283.599880
 21
26.989030
  0
LINE
  8
CSLAYER1
  6
CENTER
 62
     3
 10
177.599895
 20
41.989051
 11
177.599895
 21
63.989051
  0
LINE
  8
CSLAYER1
  6
CENTER
 62
     3
 10
163.599895
 20
44.989051
 11
140.828899
 21
44.989051
  0
LINE
  8
CSLAYER1
  6
CENTER
 62
     3
 10
152.599895
 20
52.208625
 11
152.599895
 21
37.600135
  0
LINE
  8
CSLAYER1
  6
CENTER
 62
     3
 10
98.599849
 20
236.356021
 11
324.099859
 21
236.356021
  0
LINE
  8
CSLAYER1
  6
CENTER
 62
     3
 10
297.599856
 20
262.356017
 11
283.599856
 21
262.356020
  0
TEXT
  8
CSLAYER1
 62
     3
 10
232.137589
 20
174.836121
 40
3.500000
 41
1.125000
  1
N P
 50
270.000000
 51
10.000000
  7
JX_FONT
 72
     5
 11
232.137589
 21
164.336121
  0
POLYLINE
  8
CSLAYER1
  6
CONTINUOUS
 62
     3
 66
     1
 10
0.0
 20
0.0
 30
0.0
  0
VERTEX
  8
CSLAYER1
  6
CONTINUOUS
 62
     3
 10
157.849849
 20
117.335387
 30
0.0
  0
VERTEX
  8
CSLAYER1
  6
CONTINUOUS
 62
     3
 10
157.829872
 20
117.553277
 30
0.0
  0
VERTEX
  8
CSLAYER1
  6
CONTINUOUS
 62
     3
 10
157.770091
 20
117.769508
 30
0.0
  0
VERTEX
  8
CSLAYER1
  6
CONTINUOUS
 62
     3
 10
157.735005
 20
117.855438
 30
0.0
  0
SEQEND
  0
POLYLINE
  8
CSLAYER1
  6
CONTINUOUS
 62
     3
 66
     1
 10
0.0
 20
0.0
 30
0.0
  0
VERTEX
  8
CSLAYER1
  6
CONTINUOUS
 62
     3
 10
147.626998
 20
116.854472
 30
0.0
  0
VERTEX
  8
CSLAYER1
  6
CONTINUOUS
 62
     3
 10
147.792623
 20
116.732470
 30
0.0
  0
VERTEX
  8
CSLAYER1
  6
CONTINUOUS
 62
     3
 10
147.994835
 20
116.615056
 30
0.0
  0
VERTEX
  8
CSLAYER1
  6
CONTINUOUS
 62
     3
 10
148.147600
 20
116.540512
 30
0.0
  0
SEQEND
  0
POLYLINE
  8
CSLAYER1
  6
CONTINUOUS
 62
     3
 66
     1
 10
0.0
 20
0.0
 30
0.0
  0
VERTEX
  8
CSLAYER1
  6
CONTINUOUS
 62
     3
 10
157.464260
 20
118.275792
 30
0.0
  0
VERTEX
  8
CSLAYER1
  6
CONTINUOUS
 62
     3
 10
157.273631
 20
118.474100
 30
0.0
  0
VERTEX
  8
CSLAYER1
  6
CONTINUOUS
 62
     3
 10
157.047431
 20
118.663742
 30
0.0
  0
VERTEX
  8
CSLAYER1
  6
CONTINUOUS
 62
     3
 10
156.787383
 20
118.843274
 30
0.0
  0
VERTEX
  8
CSLAYER1
  6
CONTINUOUS
 62
     3
 10
156.689617
 20
118.902940
 30
0.0
  0
SEQEND
  0
POLYLINE
  8
CSLAYER1
  6
CONTINUOUS
 62
     3
 66
     1
 10
0.0
 20
0.0
 30
0.0
  0
VERTEX
  8
CSLAYER1
  6
CONTINUOUS
 62
     3
 10
156.244789
 20
119.134667
 30
0.0
  0
VERTEX
  8
CSLAYER1
  6
CONTINUOUS
 62
     3
 10
155.901603
 20
119.279095
 30
0.0
  0
VERTEX
  8
CSLAYER1
  6
CONTINUOUS
 62
     3
 10
155.533288
 20
119.408731
 30
0.0
  0
VERTEX
  8
CSLAYER1
  6
CONTINUOUS
 62
     3
 10
155.307701
 20
119.477192
 30
0.0
  0
SEQEND
  0
POLYLINE
  8
CSLAYER1
  6
CONTINUOUS
 62
     3
 66
     1
 10
0.0
 20
0.0
 30
0.0
  0
VERTEX
  8
CSLAYER1
  6
CONTINUOUS
 62
     3
 10
154.823060
 20
119.600168
 30
0.0
  0
VERTEX
  8
CSLAYER1
  6
CONTINUOUS
 62
     3
 10
154.400084
 20
119.683819
 30
0.0
  0
VERTEX
  8
CSLAYER1
  6
CONTINUOUS
 62
     3
 10
153.963408
 20
119.749597
 30
0.0
  0
VERTEX
  8
CSLAYER1
  6
CONTINUOUS
 62
     3
 10
153.837076
 20
119.764978
 30
0.0
  0
SEQEND
  0
POLYLINE
  8
CSLAYER1
  6
CONTINUOUS
 62
     3
 66
     1
 10
0.0
 20
0.0
 30
0.0
  0
VERTEX
  8
CSLAYER1
  6
CONTINUOUS
 62
     3
 10
153.339150
 20
119.810479
 30
0.0
  0
VERTEX
  8
CSLAYER1
  6
CONTINUOUS
 62
     3
 10
152.883329
 20
119.831744
 30
0.0
  0
VERTEX
  8
CSLAYER1
  6
CONTINUOUS
 62
     3
 10
152.425350
 20
119.834009
 30
0.0
  0
VERTEX
  8
CSLAYER1
  6
CONTINUOUS
 62
     3
 10
152.339648
 20
119.832318
 30
0.0
  0
SEQEND
  0
POLYLINE
  8
CSLAYER1
  6
CONTINUOUS
 62
     3
 66
     1
 10
0.0
 20
0.0
 30
0.0
  0
VERTEX
  8
CSLAYER1
  6
CONTINUOUS
 62
     3
 10
151.835693
 20
119.808767
 30
0.0
  0
VERTEX
  8
CSLAYER1
  6
CONTINUOUS
 62
     3
 10
151.385906
 20
119.767640
 30
0.0
  0
VERTEX
  8
CSLAYER1
  6
CONTINUOUS
 62
     3
 10
150.945358
 20
119.708003
 30
0.0
  0
VERTEX
  8
CSLAYER1
  6
CONTINUOUS
 62
     3
 10
150.847365
 20
119.691995
 30
0.0
  0
SEQEND
  0
POLYLINE
  8
CSLAYER1
  6
CONTINUOUS
 62
     3
 66
     1
 10
0.0
 20
0.0
 30
0.0
  0
VERTEX
  8
CSLAYER1
  6
CONTINUOUS
 62
     3
 10
150.356723
 20
119.595710
 30
0.0
  0
VERTEX
  8
CSLAYER1
  6
CONTINUOUS
 62
     3
 10
149.951559
 20
119.494013
 30
0.0
  0
VERTEX
  8
CSLAYER1
  6
CONTINUOUS
 62
     3
 10
149.566550
 20
119.375888
 30
0.0
  0
VERTEX
  8
CSLAYER1
  6
CONTINUOUS
 62
     3
 10
149.396599
 20
119.316119
 30
0.0
  0
SEQEND
  0
POLYLINE
  8
CSLAYER1
  6
CONTINUOUS
 62
     3
 66
     1
 10
0.0
 20
0.0
 30
0.0
  0
VERTEX
  8
CSLAYER1
  6
CONTINUOUS
 62
     3
 10
148.933179
 20
119.124627
 30
0.0
  0
VERTEX
  8
CSLAYER1
  6
CONTINUOUS
 62
     3
 10
148.619653
 20
118.965642
 30
0.0
  0
VERTEX
  8
CSLAYER1
  6
CONTINUOUS
 62
     3
 10
148.336419
 20
118.794249
 30
0.0
  0
VERTEX
  8
CSLAYER1
  6
CONTINUOUS
 62
     3
 10
148.085632
 20
118.611754
 30
0.0
  0
VERTEX
  8
CSLAYER1
  6
CONTINUOUS
 62
     3
 10
148.081222
 20
118.608210
 30
0.0
  0
SEQEND
  0
POLYLINE
  8
CSLAYER1
  6
CONTINUOUS
 62
     3
 66
     1
 10
0.0
 20
0.0
 30
0.0
  0
VERTEX
  8
CSLAYER1
  6
CONTINUOUS
 62
     3
 10
147.722244
 20
118.260165
 30
0.0
  0
VERTEX
  8
CSLAYER1
  6
CONTINUOUS
 62
     3
 10
147.571546
 20
118.054212
 30
0.0
  0
VERTEX
  8
CSLAYER1
  6
CONTINUOUS
 62
     3
 10
147.459117
 20
117.842789
 30
0.0
  0
VERTEX
  8
CSLAYER1
  6
CONTINUOUS
 62
     3
 10
147.385811
 20
117.627503
 30
0.0
  0
VERTEX
  8
CSLAYER1
  6
CONTINUOUS
 62
     3
 10
147.352188
 20
117.409995
 30
0.0
  0
VERTEX
  8
CSLAYER1
  6
CONTINUOUS
 62
     3
 10
147.349849
 20
117.335387
 30
0.0
  0
SEQEND
  0
POLYLINE
  8
CSLAYER1
  6
CONTINUOUS
 62
     3
 66
     1
 10
0.0
 20
0.0
 30
0.0
  0
VERTEX
  8
CSLAYER1
  6
CONTINUOUS
 62
     3
 10
157.038896
 20
116.534508
 30
0.0
  0
VERTEX
  8
CSLAYER1
  6
CONTINUOUS
 62
     3
 10
157.266310
 20
116.648095
 30
0.0
  0
VERTEX
  8
CSLAYER1
  6
CONTINUOUS
 62
     3
 10
157.458210
 20
116.766913
 30
0.0
  0
VERTEX
  8
CSLAYER1
  6
CONTINUOUS
 62
     3
 10
157.570615
 20
116.852715
 30
0.0
  0
SEQEND
  0
TEXT
  8
CSLAYER1
 62
     3
 10
233.378754
 20
241.854416
 40
3.500000
 41
1.125000
  1
N P
 50
-90.000000
 51
10.000000
  7
JX_FONT
 72
     5
 11
233.378754
 21
231.354416
  0
TEXT
  8
CSLAYER1
 62
     3
 10
44.045517
 20
127.126511
 40
2.000000
 41
1.500000
  1
1
 50
0.000000
 51
10.000000
  7
JX_FONT
 72
     5
 11
46.045517
 21
127.126511
  0
TEXT
  8
CSLAYER1
 62
     3
 10
46.545517
 20
127.126511
 40
2.000000
 41
1.500000
  1
2
 50
0.000000
 51
10.000000
  7
JX_FONT
 72
     5
 11
48.545517
 21
127.126511
  0
TEXT
  8
CSLAYER1
 62
     3
 10
49.045517
 20
127.126511
 40
2.000000
 41
1.500000
  1
3
 50
0.000000
 51
10.000000
  7
JX_FONT
 72
     5
 11
51.045517
 21
127.126511
  0
TEXT
  8
CSLAYER1
 62
     3
 10
51.545509
 20
127.126511
 40
2.000000
 41
1.500000
  1
4
 50
0.000000
 51
10.000000
  7
JX_FONT
 72
     5
 11
53.545509
 21
127.126511
  0
TEXT
  8
CSLAYER1
 62
     3
 10
54.045502
 20
127.126511
 40
2.000000
 41
1.500000
  1
5
 50
0.000000
 51
10.000000
  7
JX_FONT
 72
     5
 11
56.045502
 21
127.126511
  0
LINE
  8
CSLAYER1
  6
CONTINUOUS
 62
     6
 10
101.299895
 20
39.989034
 11
101.299895
 21
65.989034
  0
ARC
  8
CSLAYER1
  6
CONTINUOUS
 62
     6
 10
103.299895
 20
65.989034
 40
2.000000
 50
90.000000
 51
180.000000
  0
LINE
  8
CSLAYER1
  6
CONTINUOUS
 62
     6
 10
103.299895
 20
67.989034
 11
119.599895
 21
67.989034
  0
LINE
  8
CSLAYER1
  6
CONTINUOUS
 62
     6
 10
119.599895
 20
65.489034
 11
116.599895
 21
65.489034
  0
LINE
  8
CSLAYER1
  6
CONTINUOUS
 62
     6
 10
116.599895
 20
65.489034
 11
116.599895
 21
67.989034
  0
LINE
  8
CSLAYER1
  6
CONTINUOUS
 62
     6
 10
116.599895
 20
61.989034
 11
116.599895
 21
43.989034
  0
LINE
  8
CSLAYER1
  6
CONTINUOUS
 62
     6
 10
116.599895
 20
43.989034
 11
119.599895
 21
43.989034
  0
LINE
  8
CSLAYER1
  6
CONTINUOUS
 62
     6
 10
116.599895
 20
45.739034
 11
109.499895
 21
45.739034
  0
LINE
  8
CSLAYER1
  6
CONTINUOUS
 62
     6
 10
109.499895
 20
45.739034
 11
109.499895
 21
60.239034
  0
LINE
  8
CSLAYER1
  6
CONTINUOUS
 62
     6
 10
109.499895
 20
60.239034
 11
116.599895
 21
60.239034
  0
LINE
  8
CSLAYER1
  6
CONTINUOUS
 62
     6
 10
116.599895
 20
61.989034
 11
119.599895
 21
61.989034
  0
LINE
  8
CSLAYER1
  6
CONTINUOUS
 62
     6
 10
113.919895
 20
58.389034
 11
113.279895
 21
58.389034
  0
LINE
  8
CSLAYER1
  6
CONTINUOUS
 62
     6
 10
113.279895
 20
58.389034
 11
113.279895
 21
57.749034
  0
LINE
  8
CSLAYER1
  6
CONTINUOUS
 62
     6
 10
113.279895
 20
57.749034
 11
113.919895
 21
57.749034
  0
LINE
  8
CSLAYER1
  6
CONTINUOUS
 62
     6
 10
113.919895
 20
57.749034
 11
113.919895
 21
58.389034
  0
LINE
  8
CSLAYER1
  6
CONTINUOUS
 62
     6
 10
113.919895
 20
55.849034
 11
113.279895
 21
55.849034
  0
LINE
  8
CSLAYER1
  6
CONTINUOUS
 62
     6
 10
113.279895
 20
55.849034
 11
113.279895
 21
55.209034
  0
LINE
  8
CSLAYER1
  6
CONTINUOUS
 62
     6
 10
113.279895
 20
55.209034
 11
113.919895
 21
55.209034
  0
LINE
  8
CSLAYER1
  6
CONTINUOUS
 62
     6
 10
113.919895
 20
55.209034
 11
113.919895
 21
55.849034
  0
LINE
  8
CSLAYER1
  6
CONTINUOUS
 62
     6
 10
113.919895
 20
53.309034
 11
113.279895
 21
53.309034
  0
LINE
  8
CSLAYER1
  6
CONTINUOUS
 62
     6
 10
113.279895
 20
53.309034
 11
113.279895
 21
52.669034
  0
LINE
  8
CSLAYER1
  6
CONTINUOUS
 62
     6
 10
113.279895
 20
52.669034
 11
113.919895
 21
52.669034
  0
LINE
  8
CSLAYER1
  6
CONTINUOUS
 62
     6
 10
113.919895
 20
52.669034
 11
113.919895
 21
53.309034
  0
LINE
  8
CSLAYER1
  6
CONTINUOUS
 62
     6
 10
113.919895
 20
50.769034
 11
113.279895
 21
50.769034
  0
LINE
  8
CSLAYER1
  6
CONTINUOUS
 62
     6
 10
113.279895
 20
50.769034
 11
113.279895
 21
50.129034
  0
LINE
  8
CSLAYER1
  6
CONTINUOUS
 62
     6
 10
113.279895
 20
50.129034
 11
113.919895
 21
50.129034
  0
LINE
  8
CSLAYER1
  6
CONTINUOUS
 62
     6
 10
113.919895
 20
50.129034
 11
113.919895
 21
50.769034
  0
LINE
  8
CSLAYER1
  6
CONTINUOUS
 62
     6
 10
113.919895
 20
48.229034
 11
113.279895
 21
48.229034
  0
LINE
  8
CSLAYER1
  6
CONTINUOUS
 62
     6
 10
113.279895
 20
48.229034
 11
113.279895
 21
47.589034
  0
LINE
  8
CSLAYER1
  6
CONTINUOUS
 62
     6
 10
113.279895
 20
47.589034
 11
113.919895
 21
47.589034
  0
LINE
  8
CSLAYER1
  6
CONTINUOUS
 62
     6
 10
113.919895
 20
47.589034
 11
113.919895
 21
48.229034
  0
LINE
  8
CSLAYER1
  6
CONTINUOUS
 62
     6
 10
116.599895
 20
40.489034
 11
116.599895
 21
37.989034
  0
LINE
  8
CSLAYER1
  6
CONTINUOUS
 62
     6
 10
116.599895
 20
40.489034
 11
119.599895
 21
40.489034
  0
LINE
  8
CSLAYER1
  6
CONTINUOUS
 62
     6
 10
119.599895
 20
37.989034
 11
103.299895
 21
37.989034
  0
ARC
  8
CSLAYER1
  6
CONTINUOUS
 62
     6
 10
103.299895
 20
39.989034
 40
2.000000
 50
180.000000
 51
270.000000
  0
LINE
  8
CSLAYER1
  6
CONTINUOUS
 62
     6
 10
119.599895
 20
22.989051
 11
119.599895
 21
82.989051
  0
LINE
  8
CSLAYER1
  6
CONTINUOUS
 62
     6
 10
119.599895
 20
82.989051
 11
160.599895
 21
82.989051
  0
LINE
  8
CSLAYER1
  6
CONTINUOUS
 62
     6
 10
160.599895
 20
82.989051
 11
160.599895
 21
22.989051
  0
LINE
  8
CSLAYER1
  6
CONTINUOUS
 62
     6
 10
160.599895
 20
22.989051
 11
119.599895
 21
22.989051
  0
LINE
  8
CSLAYER1
  6
CONTINUOUS
 62
     6
 10
126.599895
 20
22.989051
 11
126.599895
 21
82.989051
  0
LINE
  8
CSLAYER1
  6
CONTINUOUS
 62
     6
 10
149.729793
 20
100.856498
 11
151.023525
 21
103.206962
  0
LINE
  8
CSLAYER1
  6
CONTINUOUS
 62
     6
 10
151.414669
 20
103.003654
 11
150.153240
 21
100.597724
  0
LINE
  8
CSLAYER1
  6
CONTINUOUS
 62
     6
 10
150.611980
 20
100.374259
 11
151.733181
 21
102.838096
  0
LINE
  8
CSLAYER1
  6
CONTINUOUS
 62
     6
 10
152.059078
 20
102.668708
 11
150.497432
 21
103.480400
  0
ARC
  8
CSLAYER1
  6
CONTINUOUS
 62
     6
 10
140.872829
 20
108.482917
 40
10.847068
 50
332.536202
 51
359.942691
  0
ARC
  8
CSLAYER1
  6
CONTINUOUS
 62
     6
 10
152.159877
 20
109.245048
 40
0.879999
 50
240.000362
 51
300.000350
  0
ARC
  8
CSLAYER1
  6
CONTINUOUS
 62
     6
 10
153.039882
 20
107.720848
 40
0.879999
 50
60.000350
 51
120.000345
  0
ARC
  8
CSLAYER1
  6
CONTINUOUS
 62
     6
 10
164.326961
 20
108.482917
 40
10.847068
 50
179.999978
 51
207.463868
  0
LINE
  8
CSLAYER1
  6
CONTINUOUS
 62
     6
 10
154.702327
 20
103.480400
 11
153.140682
 21
102.668693
  0
ARC
  8
CSLAYER1
  6
CONTINUOUS
 62
     6
 10
164.326961
 20
108.482917
 40
12.607053
 50
201.534171
 51
207.463868
  0
ARC
  8
CSLAYER1
  6
CONTINUOUS
 62
     6
 10
140.872829
 20
108.482917
 40
12.607053
 50
332.536202
 51
359.942691
  0
ARC
  8
CSLAYER1
  6
CONTINUOUS
 62
     6
 10
152.159877
 20
107.720848
 40
0.879999
 50
60.000350
 51
120.000345
  0
ARC
  8
CSLAYER1
  6
CONTINUOUS
 62
     6
 10
152.159893
 20
111.574821
 40
0.880005
 50
240.000007
 51
299.999995
  0
ARC
  8
CSLAYER1
  6
CONTINUOUS
 62
     6
 10
153.039898
 20
111.574821
 40
0.880005
 50
240.000007
 51
299.999995
  0
LINE
  8
CSLAYER1
  6
CONTINUOUS
 62
     6
 10
153.479900
 20
110.812721
 11
153.479900
 21
115.856618
  0
LINE
  8
CSLAYER1
  6
CONTINUOUS
 62
     6
 10
151.719890
 20
115.856613
 11
151.719890
 21
110.812721
  0
ARC
  8
CSLAYER1
  6
CONTINUOUS
 62
     6
 10
153.039898
 20
110.050621
 40
0.880005
 50
60.000002
 51
120.000003
  0
LINE
  8
CSLAYER1
  6
CONTINUOUS
 62
     6
 10
154.176235
 20
103.206947
 11
155.469997
 21
100.856498
  0
LINE
  8
CSLAYER1
  6
CONTINUOUS
 62
     6
 10
155.046535
 20
100.597724
 11
153.785091
 21
103.003654
  0
LINE
  8
CSLAYER1
  6
CONTINUOUS
 62
     6
 10
153.466594
 20
102.838096
 11
154.587810
 21
100.374244
  0
LINE
  8
CSLAYER1
  6
CONTINUOUS
 62
     6
 10
160.599849
 20
116.336162
 11
160.599849
 21
176.336162
  0
LINE
  8
CSLAYER1
  6
CONTINUOUS
 62
     6
 10
160.599849
 20
176.336162
 11
119.599849
 21
176.336162
  0
LINE
  8
CSLAYER1
  6
CONTINUOUS
 62
     6
 10
119.599849
 20
176.336162
 11
119.599849
 21
116.336162
  0
LINE
  8
CSLAYER1
  6
CONTINUOUS
 62
     6
 10
119.599849
 20
116.336162
 11
160.599849
 21
116.336162
  0
LINE
  8
CSLAYER1
  6
CONTINUOUS
 62
     6
 10
160.599849
 20
116.824908
 11
188.599849
 21
116.336145
  0
LINE
  8
CSLAYER1
  6
CONTINUOUS
 62
     6
 10
188.599849
 20
115.336149
 11
188.599849
 21
177.336149
  0
LINE
  8
CSLAYER1
  6
CONTINUOUS
 62
     6
 10
188.599849
 20
177.336149
 11
285.599849
 21
177.336149
  0
LINE
  8
CSLAYER1
  6
CONTINUOUS
 62
     6
 10
285.599849
 20
177.336149
 11
285.599849
 21
115.336149
  0
LINE
  8
CSLAYER1
  6
CONTINUOUS
 62
     6
 10
285.599849
 20
115.336149
 11
188.599849
 21
115.336149
  0
LINE
  8
CSLAYER1
  6
CONTINUOUS
 62
     6
 10
178.699855
 20
116.508955
 11
178.699855
 21
110.812727
  0
ARC
  8
CSLAYER1
  6
CONTINUOUS
 62
     6
 10
178.149868
 20
111.765364
 40
1.100006
 50
240.000007
 51
299.999995
  0
ARC
  8
CSLAYER1
  6
CONTINUOUS
 62
     6
 10
177.049862
 20
111.765364
 40
1.100006
 50
240.000007
 51
299.999995
  0
LINE
  8
CSLAYER1
  6
CONTINUOUS
 62
     6
 10
176.499859
 20
110.812727
 11
176.499859
 21
116.547362
  0
ARC
  8
CSLAYER1
  6
CONTINUOUS
 62
     6
 10
178.149868
 20
109.860090
 40
1.100006
 50
60.000002
 51
120.000003
  0
ARC
  8
CSLAYER1
  6
CONTINUOUS
 62
     6
 10
178.149837
 20
106.947905
 40
1.099999
 50
60.000350
 51
120.000345
  0
ARC
  8
CSLAYER1
  6
CONTINUOUS
 62
     6
 10
177.049831
 20
108.853148
 40
1.099999
 50
240.000362
 51
300.000350
  0
ARC
  8
CSLAYER1
  6
CONTINUOUS
 62
     6
 10
177.049839
 20
106.947890
 40
1.099999
 50
60.000350
 51
120.000345
  0
ARC
  8
CSLAYER1
  6
CONTINUOUS
 62
     6
 10
192.258693
 20
107.900496
 40
13.558834
 50
179.999978
 51
207.463868
  0
LINE
  8
CSLAYER1
  6
CONTINUOUS
 62
     6
 10
180.227916
 20
101.647322
 11
178.275859
 21
100.632704
  0
ARC
  8
CSLAYER1
  6
CONTINUOUS
 62
     6
 10
192.258693
 20
107.900496
 40
15.758816
 50
202.422068
 51
207.463868
  0
LINE
  8
CSLAYER1
  6
CONTINUOUS
 62
     6
 10
178.683239
 20
100.844450
 11
180.084743
 21
97.764631
  0
LINE
  8
CSLAYER1
  6
CONTINUOUS
 62
     6
 10
180.658153
 20
98.043989
 11
179.081371
 21
101.051390
  0
LINE
  8
CSLAYER1
  6
CONTINUOUS
 62
     6
 10
179.570293
 20
101.305510
 11
181.187465
 21
98.367453
  0
ARC
  8
CSLAYER1
  6
CONTINUOUS
 62
     6
 10
162.941005
 20
107.900496
 40
15.758816
 50
332.536202
 51
359.942691
  0
ARC
  8
CSLAYER1
  6
CONTINUOUS
 62
     6
 10
162.941005
 20
107.900496
 40
13.558834
 50
332.536202
 51
359.942691
  0
LINE
  8
CSLAYER1
  6
CONTINUOUS
 62
     6
 10
174.971782
 20
101.647337
 11
176.923839
 21
100.632719
  0
LINE
  8
CSLAYER1
  6
CONTINUOUS
 62
     6
 10
176.516460
 20
100.844450
 11
175.114971
 21
97.764647
  0
LINE
  8
CSLAYER1
  6
CONTINUOUS
 62
     6
 10
174.541546
 20
98.043989
 11
176.118328
 21
101.051405
  0
LINE
  8
CSLAYER1
  6
CONTINUOUS
 62
     6
 10
175.629406
 20
101.305540
 11
174.012249
 21
98.367468
  0
LINE
  8
CSLAYER1
  6
CONTINUOUS
 62
     6
 10
188.599880
 20
83.989034
 11
188.599880
 21
21.989034
  0
LINE
  8
CSLAYER1
  6
CONTINUOUS
 62
     6
 10
188.599880
 20
21.989034
 11
285.599880
 21
21.989034
  0
LINE
  8
CSLAYER1
  6
CONTINUOUS
 62
     6
 10
285.599880
 20
21.989034
 11
285.599880
 21
83.989034
  0
LINE
  8
CSLAYER1
  6
CONTINUOUS
 62
     6
 10
285.599880
 20
83.989034
 11
188.599880
 21
83.989034
  0
LINE
  8
CSLAYER1
  6
CONTINUOUS
 62
     6
 10
188.599895
 20
82.989051
 11
160.599895
 21
82.500282
  0
LINE
  8
CSLAYER1
  6
CONTINUOUS
 62
     6
 10
126.599849
 20
116.336162
 11
126.599849
 21
176.336162
  0
LINE
  8
CSLAYER1
  6
CONTINUOUS
 62
     6
 10
119.599849
 20
161.336165
 11
103.299849
 21
161.336165
  0
ARC
  8
CSLAYER1
  6
CONTINUOUS
 62
     6
 10
103.299849
 20
159.336165
 40
2.000000
 50
89.999999
 51
179.999995
  0
LINE
  8
CSLAYER1
  6
CONTINUOUS
 62
     6
 10
101.299849
 20
159.336165
 11
101.299849
 21
122.136150
  0
ARC
  8
CSLAYER1
  6
CONTINUOUS
 62
     6
 10
103.299849
 20
122.136150
 40
2.000000
 50
180.000005
 51
270.000001
  0
LINE
  8
CSLAYER1
  6
CONTINUOUS
 62
     6
 10
103.299849
 20
120.136150
 11
119.599849
 21
120.136150
  0
LINE
  8
CSLAYER1
  6
CONTINUOUS
 62
     6
 10
113.919849
 20
120.136150
 11
113.919849
 21
117.636150
  0
LINE
  8
CSLAYER1
  6
CONTINUOUS
 62
     6
 10
113.919849
 20
117.636150
 11
113.279835
 21
117.636150
  0
LINE
  8
CSLAYER1
  6
CONTINUOUS
 62
     6
 10
113.279835
 20
117.636150
 11
113.279835
 21
120.136150
  0
LINE
  8
CSLAYER1
  6
CONTINUOUS
 62
     6
 10
174.849849
 20
145.536146
 11
180.349849
 21
145.536146
  0
LINE
  8
CSLAYER1
  6
CONTINUOUS
 62
     6
 10
180.349849
 20
145.536146
 11
180.349849
 21
147.136152
  0
LINE
  8
CSLAYER1
  6
CONTINUOUS
 62
     6
 10
180.349849
 20
147.136152
 11
174.849849
 21
147.136152
  0
LINE
  8
CSLAYER1
  6
CONTINUOUS
 62
     6
 10
174.849849
 20
147.136152
 11
174.849849
 21
145.536146
  0
CIRCLE
  8
CSLAYER1
  6
CONTINUOUS
 62
     6
 10
177.599849
 20
146.336149
 40
8.000000
  0
CIRCLE
  8
CSLAYER1
  6
CONTINUOUS
 62
     6
 10
177.599849
 20
146.336149
 40
6.000000
  0
LINE
  8
CSLAYER1
  6
CONTINUOUS
 62
     6
 10
188.599849
 20
176.336145
 11
160.599849
 21
175.847384
  0
LINE
  8
CSLAYER1
  6
CONTINUOUS
 62
     6
 10
160.599849
 20
206.356036
 11
119.599849
 21
206.356036
  0
LINE
  8
CSLAYER1
  6
CONTINUOUS
 62
     6
 10
119.599849
 20
206.356036
 11
119.599849
 21
266.356036
  0
LINE
  8
CSLAYER1
  6
CONTINUOUS
 62
     6
 10
119.599849
 20
266.356036
 11
160.599849
 21
266.356036
  0
LINE
  8
CSLAYER1
  6
CONTINUOUS
 62
     6
 10
160.599849
 20
266.356036
 11
160.599849
 21
206.356036
  0
LINE
  8
CSLAYER1
  6
CONTINUOUS
 62
     6
 10
160.599849
 20
206.844777
 11
188.599865
 21
206.356036
  0
LINE
  8
CSLAYER1
  6
CONTINUOUS
 62
     6
 10
188.599849
 20
205.356025
 11
188.599849
 21
267.356025
  0
LINE
  8
CSLAYER1
  6
CONTINUOUS
 62
     6
 10
188.599849
 20
267.356025
 11
285.599849
 21
267.356025
  0
LINE
  8
CSLAYER1
  6
CONTINUOUS
 62
     6
 10
285.599849
 20
267.356025
 11
285.599849
 21
205.356025
  0
LINE
  8
CSLAYER1
  6
CONTINUOUS
 62
     6
 10
285.599849
 20
205.356025
 11
188.599849
 21
205.356025
  0
LINE
  8
CSLAYER1
  6
CONTINUOUS
 62
     6
 10
126.599849
 20
206.356036
 11
126.599849
 21
266.356036
  0
LINE
  8
CSLAYER1
  6
CONTINUOUS
 62
     6
 10
119.599849
 20
251.356021
 11
103.299849
 21
251.356021
  0
ARC
  8
CSLAYER1
  6
CONTINUOUS
 62
     6
 10
103.299849
 20
249.356021
 40
2.000000
 50
90.000000
 51
180.000000
  0
LINE
  8
CSLAYER1
  6
CONTINUOUS
 62
     6
 10
101.299849
 20
249.356021
 11
101.299849
 21
223.356021
  0
ARC
  8
CSLAYER1
  6
CONTINUOUS
 62
     6
 10
103.299849
 20
223.356021
 40
2.000000
 50
180.000000
 51
270.000000
  0
LINE
  8
CSLAYER1
  6
CONTINUOUS
 62
     6
 10
103.299849
 20
221.356021
 11
119.599849
 21
221.356021
  0
LINE
  8
CSLAYER1
  6
CONTINUOUS
 62
     6
 10
105.124068
 20
221.867127
 11
101.964486
 21
221.867127
  0
LINE
  8
CSLAYER1
  6
CONTINUOUS
 62
     6
 10
76.099834
 20
178.336154
 11
24.099895
 21
178.336154
  0
ARC
  8
CSLAYER1
  6
CONTINUOUS
 62
     6
 10
24.099834
 20
172.336154
 40
6.000000
 50
90.000000
 51
180.000003
  0
LINE
  8
CSLAYER1
  6
CONTINUOUS
 62
     6
 10
18.099895
 20
172.336154
 11
18.099895
 21
120.336154
  0
ARC
  8
CSLAYER1
  6
CONTINUOUS
 62
     6
 10
24.099834
 20
120.336154
 40
6.000000
 50
180.000000
 51
270.000003
  0
LINE
  8
CSLAYER1
  6
CONTINUOUS
 62
     6
 10
24.099895
 20
114.336154
 11
39.419779
 21
114.336154
  0
LINE
  8
CSLAYER1
  6
CONTINUOUS
 62
     6
 10
40.003579
 20
116.446135
 11
38.574775
 21
111.282063
  0
ARC
  8
CSLAYER1
  6
CONTINUOUS
 62
     6
 10
39.202071
 20
111.899233
 40
0.880005
 50
224.534030
 51
284.534032
  0
ARC
  8
CSLAYER1
  6
CONTINUOUS
 62
     6
 10
40.050210
 20
111.664565
 40
0.880005
 50
224.534030
 51
284.534032
  0
ARC
  8
CSLAYER1
  6
CONTINUOUS
 62
     6
 10
40.898349
 20
111.429898
 40
0.880005
 50
224.534030
 51
284.534032
  0
ARC
  8
CSLAYER1
  6
CONTINUOUS
 62
     6
 10
41.746488
 20
111.195231
 40
0.880005
 50
224.534030
 51
284.534032
  0
LINE
  8
CSLAYER1
  6
CONTINUOUS
 62
     6
 10
41.967331
 20
110.343393
 11
43.396135
 21
115.507466
  0
LINE
  8
CSLAYER1
  6
CONTINUOUS
 62
     6
 10
43.072051
 20
114.336154
 11
47.899831
 21
114.336154
  0
ARC
  8
CSLAYER1
  6
CONTINUOUS
 62
     6
 10
50.099834
 20
146.336154
 40
31.000000
 50
264.072307
 51
265.930431
  0
ARC
  8
CSLAYER1
  6
CONTINUOUS
 62
     6
 10
45.714060
 20
116.422470
 40
1.500000
 50
254.534033
 51
344.534033
  0
LINE
  8
CSLAYER1
  6
CONTINUOUS
 62
     6
 10
45.314061
 20
114.976786
 11
38.085643
 21
116.976781
  0
ARC
  8
CSLAYER1
  6
CONTINUOUS
 62
     6
 10
38.485642
 20
118.422465
 40
1.500000
 50
164.534033
 51
254.534033
  0
LINE
  8
CSLAYER1
  6
CONTINUOUS
 62
     6
 10
37.039959
 20
118.822463
 11
47.159744
 21
116.022471
  0
LINE
  8
CSLAYER1
  6
CONTINUOUS
 62
     6
 10
47.899841
 20
116.416934
 11
47.899817
 21
111.096616
  0
ARC
  8
CSLAYER1
  6
CONTINUOUS
 62
     6
 10
48.449793
 20
112.049237
 40
1.099999
 50
240.000198
 51
300.000186
  0
ARC
  8
CSLAYER1
  6
CONTINUOUS
 62
     6
 10
49.549791
 20
112.049237
 40
1.099999
 50
240.000198
 51
300.000186
  0
ARC
  8
CSLAYER1
  6
CONTINUOUS
 62
     6
 10
49.549799
 20
110.143994
 40
1.099999
 50
60.000186
 51
120.000181
  0
LINE
  8
CSLAYER1
  6
CONTINUOUS
 62
     6
 10
50.099810
 20
111.096616
 11
50.099842
 21
116.416934
  0
LINE
  8
CSLAYER1
  6
CONTINUOUS
 62
     6
 10
50.099827
 20
117.636154
 11
50.474827
 21
118.011154
  0
LINE
  8
CSLAYER1
  6
CONTINUOUS
 62
     6
 10
50.474827
 20
118.011154
 11
50.474827
 21
120.136154
  0
LINE
  8
CSLAYER1
  6
CONTINUOUS
 62
     6
 10
49.724827
 20
120.136154
 11
49.724827
 21
118.011154
  0
LINE
  8
CSLAYER1
  6
CONTINUOUS
 62
     6
 10
49.724827
 20
118.011154
 11
50.099827
 21
117.636154
  0
LINE
  8
CSLAYER1
  6
CONTINUOUS
 62
     6
 10
52.224827
 20
118.011154
 11
52.599827
 21
117.636154
  0
LINE
  8
CSLAYER1
  6
CONTINUOUS
 62
     6
 10
52.599827
 20
117.636154
 11
52.974827
 21
118.011154
  0
LINE
  8
CSLAYER1
  6
CONTINUOUS
 62
     6
 10
52.974827
 20
118.011154
 11
52.974827
 21
120.136154
  0
LINE
  8
CSLAYER1
  6
CONTINUOUS
 62
     6
 10
52.224827
 20
120.136154
 11
52.224827
 21
118.011154
  0
LINE
  8
CSLAYER1
  6
CONTINUOUS
 62
     6
 10
52.299839
 20
116.416934
 11
52.299814
 21
111.096616
  0
ARC
  8
CSLAYER1
  6
CONTINUOUS
 62
     6
 10
51.749827
 20
110.143994
 40
1.099999
 50
59.999858
 51
119.999853
  0
ARC
  8
CSLAYER1
  6
CONTINUOUS
 62
     6
 10
51.749834
 20
112.049237
 40
1.099999
 50
239.999870
 51
299.999858
  0
ARC
  8
CSLAYER1
  6
CONTINUOUS
 62
     6
 10
50.649836
 20
112.049237
 40
1.099999
 50
239.999870
 51
299.999858
  0
ARC
  8
CSLAYER1
  6
CONTINUOUS
 62
     6
 10
49.549813
 20
107.231784
 40
1.099999
 50
60.000350
 51
120.000345
  0
ARC
  8
CSLAYER1
  6
CONTINUOUS
 62
     6
 10
48.449803
 20
109.137027
 40
1.099999
 50
240.000362
 51
300.000350
  0
ARC
  8
CSLAYER1
  6
CONTINUOUS
 62
     6
 10
34.340856
 20
108.184296
 40
13.558951
 50
-27.463363
 51
0.000417
  0
LINE
  8
CSLAYER1
  6
CONTINUOUS
 62
     6
 10
46.371794
 20
101.931161
 11
48.323838
 21
100.916547
  0
ARC
  8
CSLAYER1
  6
CONTINUOUS
 62
     6
 10
34.340856
 20
108.184296
 40
15.758933
 50
-27.463461
 51
0.000397
  0
ARC
  8
CSLAYER1
  6
CONTINUOUS
 62
     6
 10
50.649826
 20
109.137027
 40
1.099999
 50
239.999733
 51
299.999721
  0
ARC
  8
CSLAYER1
  6
CONTINUOUS
 62
     6
 10
50.649819
 20
107.231769
 40
1.099999
 50
59.999715
 51
119.999716
  0
ARC
  8
CSLAYER1
  6
CONTINUOUS
 62
     6
 10
65.858839
 20
108.184469
 40
15.759004
 50
180.000235
 51
207.463987
  0
LINE
  8
CSLAYER1
  6
CONTINUOUS
 62
     6
 10
51.875861
 20
100.916561
 11
53.827910
 21
101.931179
  0
ARC
  8
CSLAYER1
  6
CONTINUOUS
 62
     6
 10
65.858839
 20
108.184469
 40
13.559023
 50
180.000308
 51
207.464006
  0
ARC
  8
CSLAYER1
  6
CONTINUOUS
 62
     6
 10
51.749817
 20
107.231754
 40
1.099999
 50
59.999715
 51
119.999716
  0
ARC
  8
CSLAYER1
  6
CONTINUOUS
 62
     6
 10
48.449814
 20
107.231769
 40
1.099999
 50
60.000350
 51
120.000345
  0
ARC
  8
CSLAYER1
  6
CONTINUOUS
 62
     6
 10
41.340036
 20
109.726223
 40
0.880005
 50
44.534022
 51
104.534010
  0
ARC
  8
CSLAYER1
  6
CONTINUOUS
 62
     6
 10
39.643758
 20
110.195558
 40
0.880005
 50
44.534022
 51
104.534010
  0
LINE
  8
CSLAYER1
  6
CONTINUOUS
 62
     6
 10
40.271053
 20
110.812728
 11
41.699857
 21
115.976801
  0
LINE
  8
CSLAYER1
  6
CONTINUOUS
 62
     6
 10
44.724827
 20
118.011154
 11
45.099827
 21
117.636154
  0
LINE
  8
CSLAYER1
  6
CONTINUOUS
 62
     6
 10
45.099827
 20
117.636154
 11
45.474827
 21
118.011154
  0
LINE
  8
CSLAYER1
  6
CONTINUOUS
 62
     6
 10
45.474827
 20
118.011154
 11
45.474827
 21
120.136154
  0
LINE
  8
CSLAYER1
  6
CONTINUOUS
 62
     6
 10
44.724827
 20
120.136154
 11
44.724827
 21
118.011154
  0
LINE
  8
CSLAYER1
  6
CONTINUOUS
 62
     6
 10
45.776806
 20
116.649247
 11
45.714060
 21
116.422470
  0
LINE
  8
CSLAYER1
  6
CONTINUOUS
 62
     6
 10
47.224827
 20
118.011154
 11
47.224827
 21
120.136154
  0
LINE
  8
CSLAYER1
  6
CONTINUOUS
 62
     6
 10
47.974827
 20
120.136154
 11
47.974827
 21
118.011154
  0
LINE
  8
CSLAYER1
  6
CONTINUOUS
 62
     6
 10
47.974827
 20
118.011154
 11
47.599827
 21
117.636154
  0
LINE
  8
CSLAYER1
  6
CONTINUOUS
 62
     6
 10
47.599827
 20
117.636154
 11
47.224827
 21
118.011154
  0
LINE
  8
CSLAYER1
  6
CONTINUOUS
 62
     6
 10
47.224827
 20
122.336154
 11
47.224827
 21
124.536154
  0
LINE
  8
CSLAYER1
  6
CONTINUOUS
 62
     6
 10
47.224827
 20
124.536154
 11
46.849827
 21
125.036154
  0
LINE
  8
CSLAYER1
  6
CONTINUOUS
 62
     6
 10
46.849827
 20
125.036154
 11
46.849827
 21
126.536154
  0
LINE
  8
CSLAYER1
  6
CONTINUOUS
 62
     6
 10
45.849827
 20
126.536154
 11
45.849827
 21
125.036154
  0
LINE
  8
CSLAYER1
  6
CONTINUOUS
 62
     6
 10
45.849827
 20
125.036154
 11
45.474827
 21
124.536154
  0
LINE
  8
CSLAYER1
  6
CONTINUOUS
 62
     6
 10
45.474827
 20
124.536154
 11
45.474827
 21
122.336154
  0
LINE
  8
CSLAYER1
  6
CONTINUOUS
 62
     6
 10
44.724827
 20
122.336154
 11
44.724827
 21
124.536154
  0
LINE
  8
CSLAYER1
  6
CONTINUOUS
 62
     6
 10
44.724827
 20
124.536154
 11
44.349827
 21
125.036154
  0
LINE
  8
CSLAYER1
  6
CONTINUOUS
 62
     6
 10
44.349827
 20
125.036154
 11
44.349827
 21
126.536154
  0
LINE
  8
CSLAYER1
  6
CONTINUOUS
 62
     6
 10
43.599827
 20
126.536154
 11
56.599827
 21
126.536154
  0
ARC
  8
CSLAYER1
  6
CONTINUOUS
 62
     6
 10
56.599827
 20
125.536154
 40
1.000000
 50
0.000000
 51
90.000000
  0
ARC
  8
CSLAYER1
  6
CONTINUOUS
 62
     6
 10
58.599827
 20
125.536154
 40
1.000000
 50
180.000000
 51
270.000000
  0
LINE
  8
CSLAYER1
  6
CONTINUOUS
 62
     6
 10
58.599827
 20
124.536154
 11
63.099827
 21
124.536154
  0
LINE
  8
CSLAYER1
  6
CONTINUOUS
 62
     6
 10
63.099827
 20
124.536154
 11
63.099827
 21
123.836154
  0
ARC
  8
CSLAYER1
  6
CONTINUOUS
 62
     6
 10
61.599827
 20
123.836154
 40
1.500000
 50
270.000000
 51
360.000000
  0
LINE
  8
CSLAYER1
  6
CONTINUOUS
 62
     6
 10
61.599827
 20
122.336154
 11
38.599827
 21
122.336154
  0
ARC
  8
CSLAYER1
  6
CONTINUOUS
 62
     6
 10
38.599827
 20
123.836154
 40
1.500000
 50
180.000000
 51
270.000000
  0
LINE
  8
CSLAYER1
  6
CONTINUOUS
 62
     6
 10
37.099827
 20
123.836154
 11
37.099827
 21
124.536154
  0
LINE
  8
CSLAYER1
  6
CONTINUOUS
 62
     6
 10
37.099827
 20
124.536154
 11
41.599827
 21
124.536154
  0
ARC
  8
CSLAYER1
  6
CONTINUOUS
 62
     6
 10
41.599827
 20
125.536154
 40
1.000000
 50
270.000000
 51
360.000000
  0
ARC
  8
CSLAYER1
  6
CONTINUOUS
 62
     6
 10
43.599827
 20
125.536154
 40
1.000000
 50
90.000000
 51
180.000000
  0
LINE
  8
CSLAYER1
  6
CONTINUOUS
 62
     6
 10
48.349827
 20
126.536154
 11
48.349827
 21
125.036154
  0
LINE
  8
CSLAYER1
  6
CONTINUOUS
 62
     6
 10
48.349827
 20
125.036154
 11
47.974827
 21
124.536154
  0
LINE
  8
CSLAYER1
  6
CONTINUOUS
 62
     6
 10
47.974827
 20
124.536154
 11
47.974827
 21
122.336154
  0
LINE
  8
CSLAYER1
  6
CONTINUOUS
 62
     6
 10
49.724827
 20
122.336154
 11
49.724827
 21
124.536154
  0
LINE
  8
CSLAYER1
  6
CONTINUOUS
 62
     6
 10
49.724827
 20
124.536154
 11
49.349827
 21
125.036154
  0
LINE
  8
CSLAYER1
  6
CONTINUOUS
 62
     6
 10
49.349827
 20
125.036154
 11
49.349827
 21
126.536154
  0
LINE
  8
CSLAYER1
  6
CONTINUOUS
 62
     6
 10
50.849827
 20
126.536154
 11
50.849827
 21
125.036154
  0
LINE
  8
CSLAYER1
  6
CONTINUOUS
 62
     6
 10
50.849827
 20
125.036154
 11
50.474827
 21
124.536154
  0
LINE
  8
CSLAYER1
  6
CONTINUOUS
 62
     6
 10
50.474827
 20
124.536154
 11
50.474827
 21
122.336154
  0
LINE
  8
CSLAYER1
  6
CONTINUOUS
 62
     6
 10
52.224827
 20
122.336154
 11
52.224827
 21
124.536154
  0
LINE
  8
CSLAYER1
  6
CONTINUOUS
 62
     6
 10
52.224827
 20
124.536154
 11
51.849827
 21
125.036154
  0
LINE
  8
CSLAYER1
  6
CONTINUOUS
 62
     6
 10
51.849827
 20
125.036154
 11
51.849827
 21
126.536154
  0
LINE
  8
CSLAYER1
  6
CONTINUOUS
 62
     6
 10
53.349827
 20
126.536154
 11
53.349827
 21
125.036154
  0
LINE
  8
CSLAYER1
  6
CONTINUOUS
 62
     6
 10
53.349827
 20
125.036154
 11
52.974827
 21
124.536154
  0
LINE
  8
CSLAYER1
  6
CONTINUOUS
 62
     6
 10
52.974827
 20
124.536154
 11
52.974827
 21
122.336154
  0
LINE
  8
CSLAYER1
  6
CONTINUOUS
 62
     6
 10
54.724827
 20
122.336154
 11
54.724827
 21
124.536154
  0
LINE
  8
CSLAYER1
  6
CONTINUOUS
 62
     6
 10
54.724827
 20
124.536154
 11
54.349827
 21
125.036154
  0
LINE
  8
CSLAYER1
  6
CONTINUOUS
 62
     6
 10
54.349827
 20
125.036154
 11
54.349827
 21
126.536154
  0
LINE
  8
CSLAYER1
  6
CONTINUOUS
 62
     6
 10
55.849827
 20
126.536154
 11
55.849827
 21
125.036154
  0
LINE
  8
CSLAYER1
  6
CONTINUOUS
 62
     6
 10
55.849827
 20
125.036154
 11
55.474827
 21
124.536154
  0
LINE
  8
CSLAYER1
  6
CONTINUOUS
 62
     6
 10
55.474827
 20
124.536154
 11
55.474827
 21
122.336154
  0
LINE
  8
CSLAYER1
  6
CONTINUOUS
 62
     6
 10
55.474827
 20
120.136154
 11
55.474827
 21
118.011154
  0
LINE
  8
CSLAYER1
  6
CONTINUOUS
 62
     6
 10
55.474827
 20
118.011154
 11
55.099827
 21
117.636154
  0
LINE
  8
CSLAYER1
  6
CONTINUOUS
 62
     6
 10
55.099827
 20
117.636154
 11
54.724827
 21
118.011154
  0
LINE
  8
CSLAYER1
  6
CONTINUOUS
 62
     6
 10
54.724827
 20
118.011154
 11
54.724827
 21
120.136154
  0
ARC
  8
CSLAYER1
  6
CONTINUOUS
 62
     6
 10
50.099834
 20
146.336154
 40
31.000000
 50
-85.930427
 51
244.995759
  0
LINE
  8
CSLAYER1
  6
CONTINUOUS
 62
     6
 10
38.485642
 20
118.422465
 11
38.548388
 21
118.649242
  0
LINE
  8
CSLAYER1
  6
CONTINUOUS
 62
     6
 10
37.099827
 20
120.136154
 11
63.099827
 21
120.136154
  0
ARC
  8
CSLAYER1
  6
CONTINUOUS
 62
     6
 10
63.099827
 20
122.136154
 40
2.000000
 50
270.000000
 51
360.000000
  0
LINE
  8
CSLAYER1
  6
CONTINUOUS
 62
     6
 10
65.099827
 20
122.136154
 11
65.099827
 21
146.336154
  0
ARC
  8
CSLAYER1
  6
CONTINUOUS
 62
     6
 10
50.099827
 20
146.336154
 40
15.000000
 50
-0.000000
 51
180.000000
  0
LINE
  8
CSLAYER1
  6
CONTINUOUS
 62
     6
 10
35.099827
 20
146.336154
 11
35.099827
 21
122.136154
  0
ARC
  8
CSLAYER1
  6
CONTINUOUS
 62
     6
 10
37.099827
 20
122.136154
 40
2.000000
 50
180.000000
 51
270.000000
  0
ARC
  8
CSLAYER1
  6
CONTINUOUS
 62
     6
 10
27.765877
 20
112.892988
 40
10.847068
 50
317.070225
 51
344.534116
  0
LINE
  8
CSLAYER1
  6
CONTINUOUS
 62
     6
 10
35.707988
 20
105.505040
 11
36.996630
 21
104.306288
  0
ARC
  8
CSLAYER1
  6
CONTINUOUS
 62
     6
 10
27.765877
 20
112.892988
 40
12.607053
 50
317.070225
 51
344.534143
  0
ARC
  8
CSLAYER1
  6
CONTINUOUS
 62
     6
 10
39.289152
 20
108.913937
 40
0.879999
 50
44.534377
 51
104.534365
  0
ARC
  8
CSLAYER1
  6
CONTINUOUS
 62
     6
 10
38.847466
 20
110.617612
 40
0.879999
 50
224.534385
 51
284.534387
  0
ARC
  8
CSLAYER1
  6
CONTINUOUS
 62
     6
 10
38.441013
 20
109.148605
 40
0.879999
 50
44.534377
 51
104.534365
  0
ARC
  8
CSLAYER1
  6
CONTINUOUS
 62
     6
 10
40.543744
 20
110.148278
 40
0.879999
 50
224.533689
 51
284.533690
  0
ARC
  8
CSLAYER1
  6
CONTINUOUS
 62
     6
 10
40.137291
 20
108.679270
 40
0.879999
 50
44.533687
 51
104.533689
  0
ARC
  8
CSLAYER1
  6
CONTINUOUS
 62
     6
 10
52.067019
 20
106.169227
 40
12.607053
 50
164.533933
 51
191.997850
  0
LINE
  8
CSLAYER1
  6
CONTINUOUS
 62
     6
 10
39.735346
 20
103.548526
 11
41.456898
 21
103.914403
  0
ARC
  8
CSLAYER1
  6
CONTINUOUS
 62
     6
 10
52.067019
 20
106.169227
 40
10.847068
 50
164.533960
 51
191.997850
  0
ARC
  8
CSLAYER1
  6
CONTINUOUS
 62
     6
 10
40.985430
 20
108.444603
 40
0.879999
 50
44.533687
 51
104.533689
  0
ARC
  8
CSLAYER1
  6
CONTINUOUS
 62
     6
 10
41.022716
 20
113.529383
 40
5.250000
 50
254.007657
 51
255.060304
  0
LINE
  8
CSLAYER1
  6
CONTINUOUS
 62
     6
 10
36.142114
 20
105.101213
 11
34.609998
 21
103.530917
  0
LINE
  8
CSLAYER1
  6
CONTINUOUS
 62
     6
 10
34.964132
 20
103.199157
 11
36.464878
 21
104.800962
  0
LINE
  8
CSLAYER1
  6
CONTINUOUS
 62
     6
 10
36.727708
 20
104.556463
 11
35.332958
 21
102.890404
  0
LINE
  8
CSLAYER1
  6
CONTINUOUS
 62
     6
 10
40.094617
 20
103.624890
 11
40.412346
 21
101.619460
  0
LINE
  8
CSLAYER1
  6
CONTINUOUS
 62
     6
 10
40.873953
 20
101.719279
 11
40.445744
 21
103.699516
  0
LINE
  8
CSLAYER1
  6
CONTINUOUS
 62
     6
 10
40.876939
 20
103.791157
 11
41.342674
 21
101.830618
  0
LINE
  8
CSLAYER1
  6
CONTINUOUS
 62
     6
 10
45.082931
 20
98.656523
 11
46.859775
 21
101.677523
  0
LINE
  8
CSLAYER1
  6
CONTINUOUS
 62
     6
 10
47.347791
 20
101.423875
 11
45.733614
 21
98.318318
  0
LINE
  8
CSLAYER1
  6
CONTINUOUS
 62
     6
 10
46.384298
 20
97.980112
 11
47.835803
 21
101.170223
  0
LINE
  8
CSLAYER1
  6
CONTINUOUS
 62
     6
 10
52.363869
 20
101.170224
 11
53.815376
 21
97.980114
  0
LINE
  8
CSLAYER1
  6
CONTINUOUS
 62
     6
 10
54.466059
 20
98.318320
 11
52.851882
 21
101.423877
  0
LINE
  8
CSLAYER1
  6
CONTINUOUS
 62
     6
 10
53.339897
 20
101.677524
 11
55.116742
 21
98.656525
  0
LINE
  8
CSLAYER1
  6
CONTINUOUS
 62
     6
 10
52.299829
 20
114.336154
 11
76.099834
 21
114.336154
  0
ARC
  8
CSLAYER1
  6
CONTINUOUS
 62
     6
 10
76.099834
 20
120.336154
 40
6.000000
 50
269.999997
 51
360.000000
  0
LINE
  8
CSLAYER1
  6
CONTINUOUS
 62
     6
 10
82.099834
 20
120.336154
 11
82.099834
 21
172.336154
  0
ARC
  8
CSLAYER1
  6
CONTINUOUS
 62
     6
 10
76.099834
 20
172.336154
 40
6.000000
 50
0.000000
 51
90.000003
  0
CIRCLE
  8
CSLAYER1
  6
CONTINUOUS
 62
     6
 10
76.099834
 20
172.336154
 40
2.250000
  0
LINE
  8
CSLAYER1
  6
CONTINUOUS
 62
     6
 10
56.439101
 20
159.930771
 11
55.171246
 21
157.211848
  0
ARC
  8
CSLAYER1
  6
CONTINUOUS
 62
     6
 10
50.099827
 20
146.336154
 40
12.000000
 50
15.000000
 51
65.000000
  0
LINE
  8
CSLAYER1
  6
CONTINUOUS
 62
     6
 10
61.690937
 20
149.441983
 11
64.588715
 21
150.218440
  0
LINE
  8
CSLAYER1
  6
CONTINUOUS
 62
     6
 10
52.099827
 20
153.564570
 11
52.099827
 21
155.367350
  0
ARC
  8
CSLAYER1
  6
CONTINUOUS
 62
     6
 10
50.099827
 20
146.336154
 40
9.250000
 50
77.513110
 51
102.486890
  0
LINE
  8
CSLAYER1
  6
CONTINUOUS
 62
     6
 10
48.099827
 20
155.367350
 11
48.099827
 21
153.564570
  0
ARC
  8
CSLAYER1
  6
CONTINUOUS
 62
     6
 10
50.099827
 20
146.336154
 40
12.000000
 50
115.000000
 51
165.000000
  0
LINE
  8
CSLAYER1
  6
CONTINUOUS
 62
     6
 10
38.508717
 20
149.441983
 11
35.610940
 21
150.218440
  0
LINE
  8
CSLAYER1
  6
CONTINUOUS
 62
     6
 10
45.028408
 20
157.211848
 11
43.760553
 21
159.930771
  0
CIRCLE
  8
CSLAYER1
  6
CONTINUOUS
 62
     6
 10
24.099834
 20
172.336154
 40
2.250000
  0
LINE
  8
CSLAYER1
  6
CONTINUOUS
 62
     6
 10
101.390303
 20
159.930831
 11
105.124068
 21
159.930831
  0
LINE
  8
CSLAYER1
  6
CONTINUOUS
 62
     6
 10
105.124068
 20
159.930831
 11
105.124068
 21
150.218489
  0
LINE
  8
CSLAYER1
  6
CONTINUOUS
 62
     6
 10
105.124068
 20
150.218489
 11
101.299849
 21
150.218489
  0
LINE
  8
CSLAYER1
  6
CONTINUOUS
 62
     6
 10
105.124068
 20
155.275801
 11
119.599849
 21
155.275801
  0
LINE
  8
CSLAYER1
  6
CONTINUOUS
 62
     6
 10
119.599849
 20
158.705245
 11
105.124068
 21
158.705245
  0
LINE
  8
CSLAYER1
  6
CONTINUOUS
 62
     6
 10
105.124068
 20
157.407637
 11
111.107192
 21
157.407637
  0
LINE
  8
CSLAYER1
  6
CONTINUOUS
 62
     6
 10
111.107192
 20
157.407637
 11
111.107192
 21
156.371199
  0
LINE
  8
CSLAYER1
  6
CONTINUOUS
 62
     6
 10
111.107192
 20
156.371199
 11
105.124068
 21
156.371199
  0
LINE
  8
CSLAYER1
  6
CONTINUOUS
 62
     6
 10
116.899868
 20
158.705245
 11
116.899868
 21
161.336165
  0
LINE
  8
CSLAYER1
  6
CONTINUOUS
 62
     6
 10
105.124068
 20
221.867127
 11
105.124068
 21
230.016743
  0
LINE
  8
CSLAYER1
  6
CONTINUOUS
 62
     6
 10
105.124068
 20
230.016743
 11
101.299849
 21
230.016743
  0
LINE
  8
CSLAYER1
  6
CONTINUOUS
 62
     6
 10
101.299849
 20
242.695299
 11
105.124068
 21
242.695299
  0
LINE
  8
CSLAYER1
  6
CONTINUOUS
 62
     6
 10
105.124068
 20
242.695299
 11
105.124068
 21
250.844914
  0
LINE
  8
CSLAYER1
  6
CONTINUOUS
 62
     6
 10
105.124068
 20
250.844914
 11
101.964486
 21
250.844914
  0
LINE
  8
CSLAYER1
  6
CONTINUOUS
 62
     6
 10
105.124068
 20
248.401051
 11
119.599849
 21
248.401051
  0
LINE
  8
CSLAYER1
  6
CONTINUOUS
 62
     6
 10
119.599849
 20
244.841631
 11
105.124068
 21
244.841631
  0
LINE
  8
CSLAYER1
  6
CONTINUOUS
 62
     6
 10
105.124068
 20
227.870411
 11
119.599849
 21
227.870411
  0
LINE
  8
CSLAYER1
  6
CONTINUOUS
 62
     6
 10
119.599849
 20
224.310991
 11
105.124068
 21
224.310991
  0
LINE
  8
CSLAYER1
  6
CONTINUOUS
 62
     6
 10
105.124068
 20
225.207124
 11
111.107192
 21
225.207124
  0
LINE
  8
CSLAYER1
  6
CONTINUOUS
 62
     6
 10
111.107192
 20
225.207124
 11
111.107192
 21
226.235632
  0
LINE
  8
CSLAYER1
  6
CONTINUOUS
 62
     6
 10
111.107192
 20
226.235632
 11
105.124068
 21
226.235632
  0
LINE
  8
CSLAYER1
  6
CONTINUOUS
 62
     6
 10
160.599849
 20
265.867265
 11
188.599865
 21
266.356006
  0
LINE
  8
CSLAYER1
  6
CONTINUOUS
 62
     6
 10
285.599834
 20
266.356041
 11
286.599834
 21
266.356041
  0
ARC
  8
CSLAYER1
  6
CONTINUOUS
 62
     6
 10
288.599849
 20
266.356025
 40
2.000000
 50
90.000003
 51
179.999991
  0
LINE
  8
CSLAYER1
  6
CONTINUOUS
 62
     6
 10
288.599849
 20
268.356025
 11
295.599849
 21
268.356025
  0
LINE
  8
CSLAYER1
  6
CONTINUOUS
 62
     6
 10
295.599849
 20
268.356025
 11
295.599849
 21
204.355995
  0
LINE
  8
CSLAYER1
  6
CONTINUOUS
 62
     6
 10
295.599849
 20
204.355995
 11
288.599849
 21
204.355995
  0
ARC
  8
CSLAYER1
  6
CONTINUOUS
 62
     6
 10
288.599849
 20
206.355995
 40
2.000000
 50
180.000005
 51
269.999973
  0
LINE
  8
CSLAYER1
  6
CONTINUOUS
 62
     6
 10
286.599849
 20
206.355995
 11
286.599849
 21
266.356025
  0
LINE
  8
CSLAYER1
  6
CONTINUOUS
 62
     6
 10
286.599849
 20
266.356025
 11
285.599849
 21
266.356025
  0
LINE
  8
CSLAYER1
  6
CONTINUOUS
 62
     6
 10
295.599849
 20
251.356025
 11
297.599849
 21
251.356025
  0
LINE
  8
CSLAYER1
  6
CONTINUOUS
 62
     6
 10
297.599849
 20
251.356025
 11
297.599849
 21
221.356025
  0
LINE
  8
CSLAYER1
  6
CONTINUOUS
 62
     6
 10
297.599849
 20
221.356025
 11
295.599849
 21
221.356025
  0
LINE
  8
CSLAYER1
  6
CONTINUOUS
 62
     6
 10
286.599849
 20
206.356025
 11
285.599849
 21
206.356025
  0
LINE
  8
CSLAYER1
  6
CONTINUOUS
 62
     6
 10
288.599849
 20
178.336139
 11
295.599849
 21
178.336139
  0
LINE
  8
CSLAYER1
  6
CONTINUOUS
 62
     6
 10
295.599849
 20
178.336139
 11
295.599849
 21
114.336139
  0
LINE
  8
CSLAYER1
  6
CONTINUOUS
 62
     6
 10
295.599849
 20
114.336139
 11
288.599849
 21
114.336139
  0
ARC
  8
CSLAYER1
  6
CONTINUOUS
 62
     6
 10
288.599849
 20
116.336139
 40
2.000000
 50
180.000000
 51
270.000000
  0
LINE
  8
CSLAYER1
  6
CONTINUOUS
 62
     6
 10
286.599849
 20
116.336139
 11
286.599849
 21
176.336139
  0
ARC
  8
CSLAYER1
  6
CONTINUOUS
 62
     6
 10
288.599849
 20
176.336139
 40
2.000000
 50
90.000000
 51
180.000000
  0
LINE
  8
CSLAYER1
  6
CONTINUOUS
 62
     6
 10
286.599849
 20
176.336139
 11
285.599849
 21
176.336139
  0
LINE
  8
CSLAYER1
  6
CONTINUOUS
 62
     6
 10
295.599849
 20
161.336139
 11
297.599849
 21
161.336139
  0
LINE
  8
CSLAYER1
  6
CONTINUOUS
 62
     6
 10
297.599849
 20
161.336139
 11
297.599849
 21
131.336139
  0
LINE
  8
CSLAYER1
  6
CONTINUOUS
 62
     6
 10
297.599849
 20
131.336139
 11
295.599849
 21
131.336139
  0
LINE
  8
CSLAYER1
  6
CONTINUOUS
 62
     6
 10
297.599849
 20
142.336139
 11
322.099849
 21
142.336139
  0
LINE
  8
CSLAYER1
  6
CONTINUOUS
 62
     6
 10
322.099849
 20
142.336139
 11
322.099849
 21
150.336139
  0
LINE
  8
CSLAYER1
  6
CONTINUOUS
 62
     6
 10
322.099849
 20
150.336139
 11
297.599849
 21
150.336139
  0
LINE
  8
CSLAYER1
  6
CONTINUOUS
 62
     6
 10
286.599849
 20
116.336139
 11
285.599849
 21
116.336139
  0
LINE
  8
CSLAYER1
  6
CONTINUOUS
 62
     6
 10
288.599880
 20
84.989034
 11
295.599880
 21
84.989034
  0
LINE
  8
CSLAYER1
  6
CONTINUOUS
 62
     6
 10
295.599880
 20
84.989034
 11
295.599880
 21
20.989034
  0
LINE
  8
CSLAYER1
  6
CONTINUOUS
 62
     6
 10
295.599880
 20
20.989034
 11
288.599880
 21
20.989034
  0
ARC
  8
CSLAYER1
  6
CONTINUOUS
 62
     6
 10
288.599880
 20
22.989034
 40
2.000000
 50
180.000000
 51
270.000000
  0
LINE
  8
CSLAYER1
  6
CONTINUOUS
 62
     6
 10
286.599880
 20
22.989034
 11
286.599880
 21
82.989034
  0
ARC
  8
CSLAYER1
  6
CONTINUOUS
 62
     6
 10
288.599880
 20
82.989034
 40
2.000000
 50
90.000000
 51
180.000000
  0
LINE
  8
CSLAYER1
  6
CONTINUOUS
 62
     6
 10
286.599880
 20
82.989034
 11
285.599880
 21
82.989034
  0
LINE
  8
CSLAYER1
  6
CONTINUOUS
 62
     6
 10
295.599880
 20
67.989034
 11
297.599880
 21
67.989034
  0
LINE
  8
CSLAYER1
  6
CONTINUOUS
 62
     6
 10
297.599880
 20
67.989034
 11
297.599880
 21
37.989034
  0
LINE
  8
CSLAYER1
  6
CONTINUOUS
 62
     6
 10
297.599880
 20
37.989034
 11
295.599880
 21
37.989034
  0
LINE
  8
CSLAYER1
  6
CONTINUOUS
 62
     6
 10
297.599880
 20
48.989034
 11
322.099880
 21
48.989034
  0
LINE
  8
CSLAYER1
  6
CONTINUOUS
 62
     6
 10
322.099880
 20
48.989034
 11
322.099880
 21
56.989034
  0
LINE
  8
CSLAYER1
  6
CONTINUOUS
 62
     6
 10
322.099880
 20
56.989034
 11
297.599880
 21
56.989034
  0
LINE
  8
CSLAYER1
  6
CONTINUOUS
 62
     6
 10
286.599880
 20
22.989034
 11
285.599880
 21
22.989034
  0
LINE
  8
CSLAYER1
  6
CONTINUOUS
 62
     6
 10
188.599895
 20
22.989051
 11
160.599895
 21
23.477821
  0
LINE
  8
CSLAYER1
  6
CONTINUOUS
 62
     6
 10
160.599895
 20
40.989051
 11
156.000257
 21
40.989051
  0
LINE
  8
CSLAYER1
  6
CONTINUOUS
 62
     6
 10
152.599895
 20
43.229041
 11
149.781170
 21
43.229041
  0
ARC
  8
CSLAYER1
  6
CONTINUOUS
 62
     6
 10
149.019069
 20
43.669044
 40
0.880005
 50
-30.000011
 51
29.999977
  0
ARC
  8
CSLAYER1
  6
CONTINUOUS
 62
     6
 10
150.543270
 20
43.669044
 40
0.880005
 50
149.999997
 51
209.999999
  0
ARC
  8
CSLAYER1
  6
CONTINUOUS
 62
     6
 10
150.543270
 20
44.549049
 40
0.880005
 50
149.999997
 51
209.999999
  0
ARC
  8
CSLAYER1
  6
CONTINUOUS
 62
     6
 10
150.543270
 20
45.429054
 40
0.880005
 50
149.999997
 51
209.999999
  0
ARC
  8
CSLAYER1
  6
CONTINUOUS
 62
     6
 10
150.543270
 20
46.309058
 40
0.880005
 50
149.999997
 51
209.999999
  0
LINE
  8
CSLAYER1
  6
CONTINUOUS
 62
     6
 10
149.781170
 20
46.749061
 11
152.599895
 21
46.749061
  0
ARC
  8
CSLAYER1
  6
CONTINUOUS
 62
     6
 10
152.599895
 20
45.869056
 40
0.880000
 50
-89.999999
 51
90.000019
  0
LINE
  8
CSLAYER1
  6
CONTINUOUS
 62
     6
 10
152.599895
 20
44.989051
 11
149.781170
 21
44.989051
  0
ARC
  8
CSLAYER1
  6
CONTINUOUS
 62
     6
 10
149.019069
 20
45.429054
 40
0.880005
 50
-30.000011
 51
29.999977
  0
ARC
  8
CSLAYER1
  6
CONTINUOUS
 62
     6
 10
147.689296
 20
46.309058
 40
0.879999
 50
-29.999656
 51
30.000332
  0
ARC
  8
CSLAYER1
  6
CONTINUOUS
 62
     6
 10
149.213497
 20
46.309058
 40
0.879999
 50
150.000353
 51
210.000354
  0
ARC
  8
CSLAYER1
  6
CONTINUOUS
 62
     6
 10
147.689296
 20
45.429054
 40
0.879999
 50
-29.999656
 51
30.000332
  0
ARC
  8
CSLAYER1
  6
CONTINUOUS
 62
     6
 10
149.213497
 20
44.549049
 40
0.879999
 50
149.999656
 51
209.999658
  0
ARC
  8
CSLAYER1
  6
CONTINUOUS
 62
     6
 10
147.689296
 20
44.549049
 40
0.879999
 50
-30.000346
 51
29.999656
  0
ARC
  8
CSLAYER1
  6
CONTINUOUS
 62
     6
 10
148.451397
 20
32.381965
 40
12.607053
 50
89.999900
 51
117.463817
  0
LINE
  8
CSLAYER1
  6
CONTINUOUS
 62
     6
 10
142.637157
 20
43.568244
 11
143.448864
 21
42.006599
  0
ARC
  8
CSLAYER1
  6
CONTINUOUS
 62
     6
 10
148.451397
 20
32.381965
 40
10.847068
 50
89.999927
 51
117.463817
  0
ARC
  8
CSLAYER1
  6
CONTINUOUS
 62
     6
 10
147.689296
 20
43.669044
 40
0.879999
 50
-30.000346
 51
29.999656
  0
ARC
  8
CSLAYER1
  6
CONTINUOUS
 62
     6
 10
148.451397
 20
57.596137
 40
12.607053
 50
242.536193
 51
270.000110
  0
LINE
  8
CSLAYER1
  6
CONTINUOUS
 62
     6
 10
142.637157
 20
46.409858
 11
143.448864
 21
47.971504
  0
ARC
  8
CSLAYER1
  6
CONTINUOUS
 62
     6
 10
148.451397
 20
57.596137
 40
10.847068
 50
242.536193
 51
270.000083
  0
ARC
  8
CSLAYER1
  6
CONTINUOUS
 62
     6
 10
152.599895
 20
44.989046
 40
5.250000
 50
-160.080973
 51
160.080864
  0
ARC
  8
CSLAYER1
  6
CONTINUOUS
 62
     6
 10
152.599895
 20
44.989046
 40
5.250000
 50
179.473624
 51
180.526271
  0
ARC
  8
CSLAYER1
  6
CONTINUOUS
 62
     6
 10
152.599895
 20
44.989046
 40
2.500000
 50
-135.251029
 51
135.250717
  0
ARC
  8
CSLAYER1
  6
CONTINUOUS
 62
     6
 10
152.599895
 20
44.109046
 40
0.880000
 50
-89.999999
 51
90.000019
  0
LINE
  8
CSLAYER1
  6
CONTINUOUS
 62
     6
 10
156.000257
 20
48.989051
 11
160.599895
 21
48.989051
  0
LINE
  8
CSLAYER1
  6
CONTINUOUS
 62
     6
 10
161.798137
 20
49.754432
 11
164.108196
 21
50.805641
  0
LINE
  8
CSLAYER1
  6
CONTINUOUS
 62
     6
 10
164.315166
 20
50.407508
 11
162.072246
 21
49.231574
  0
LINE
  8
CSLAYER1
  6
CONTINUOUS
 62
     6
 10
162.362651
 20
48.704017
 11
164.569317
 21
49.918617
  0
ARC
  8
CSLAYER1
  6
CONTINUOUS
 62
     6
 10
171.164287
 20
37.230201
 40
13.558834
 50
89.999927
 51
117.463817
  0
ARC
  8
CSLAYER1
  6
CONTINUOUS
 62
     6
 10
170.211651
 20
51.339027
 40
1.099999
 50
-30.000346
 51
29.999656
  0
ARC
  8
CSLAYER1
  6
CONTINUOUS
 62
     6
 10
170.211666
 20
52.439018
 40
1.099999
 50
-30.000346
 51
29.999656
  0
ARC
  8
CSLAYER1
  6
CONTINUOUS
 62
     6
 10
172.116924
 20
52.439002
 40
1.099999
 50
149.999656
 51
209.999658
  0
ARC
  8
CSLAYER1
  6
CONTINUOUS
 62
     6
 10
171.164287
 20
37.230201
 40
15.758816
 50
89.999900
 51
117.463817
  0
LINE
  8
CSLAYER1
  6
CONTINUOUS
 62
     6
 10
163.896465
 20
51.213050
 11
164.911113
 21
49.260963
  0
ARC
  8
CSLAYER1
  6
CONTINUOUS
 62
     6
 10
177.599895
 20
52.989051
 40
8.000000
 50
-164.038007
 51
163.614510
  0
ARC
  8
CSLAYER1
  6
CONTINUOUS
 62
     6
 10
170.211651
 20
54.639076
 40
1.099999
 50
-29.999656
 51
30.000332
  0
ARC
  8
CSLAYER1
  6
CONTINUOUS
 62
     6
 10
172.116909
 20
54.639091
 40
1.099999
 50
150.000353
 51
210.000354
  0
ARC
  8
CSLAYER1
  6
CONTINUOUS
 62
     6
 10
171.164287
 20
68.747901
 40
13.558834
 50
242.536193
 51
270.000083
  0
LINE
  8
CSLAYER1
  6
CONTINUOUS
 62
     6
 10
164.911113
 20
56.717140
 11
163.896465
 21
54.765052
  0
ARC
  8
CSLAYER1
  6
CONTINUOUS
 62
     6
 10
171.164287
 20
68.747901
 40
15.758816
 50
242.536193
 51
270.000110
  0
ARC
  8
CSLAYER1
  6
CONTINUOUS
 62
     6
 10
170.211666
 20
53.539085
 40
1.099999
 50
-29.999656
 51
30.000332
  0
ARC
  8
CSLAYER1
  6
CONTINUOUS
 62
     6
 10
177.599895
 20
52.989051
 40
8.000000
 50
179.442517
 51
180.557483
  0
ARC
  8
CSLAYER1
  6
CONTINUOUS
 62
     6
 10
173.123821
 20
53.539024
 40
1.100006
 50
-30.000011
 51
29.999977
  0
ARC
  8
CSLAYER1
  6
CONTINUOUS
 62
     6
 10
175.029094
 20
54.639030
 40
1.100006
 50
149.999997
 51
209.999999
  0
LINE
  8
CSLAYER1
  6
CONTINUOUS
 62
     6
 10
174.076458
 20
55.189063
 11
177.599895
 21
55.189063
  0
ARC
  8
CSLAYER1
  6
CONTINUOUS
 62
     6
 10
177.599895
 20
54.089057
 40
1.100000
 50
-89.999999
 51
90.000019
  0
LINE
  8
CSLAYER1
  6
CONTINUOUS
 62
     6
 10
177.599895
 20
52.989051
 11
174.076458
 21
52.989051
  0
ARC
  8
CSLAYER1
  6
CONTINUOUS
 62
     6
 10
175.029094
 20
53.539024
 40
1.100006
 50
149.999997
 51
209.999999
  0
ARC
  8
CSLAYER1
  6
CONTINUOUS
 62
     6
 10
175.029094
 20
52.439079
 40
1.100006
 50
149.999997
 51
209.999999
  0
ARC
  8
CSLAYER1
  6
CONTINUOUS
 62
     6
 10
175.029094
 20
51.339073
 40
1.100006
 50
149.999997
 51
209.999999
  0
ARC
  8
CSLAYER1
  6
CONTINUOUS
 62
     6
 10
173.123821
 20
51.339073
 40
1.100006
 50
-30.000011
 51
29.999977
  0
LINE
  8
CSLAYER1
  6
CONTINUOUS
 62
     6
 10
174.076458
 20
50.789039
 11
177.599895
 21
50.789039
  0
ARC
  8
CSLAYER1
  6
CONTINUOUS
 62
     6
 10
177.599895
 20
51.889045
 40
1.100000
 50
-89.999999
 51
90.000019
  0
LINE
  8
CSLAYER1
  6
CONTINUOUS
 62
     6
 10
178.699871
 20
51.889045
 11
178.699871
 21
54.089057
  0
LINE
  8
CSLAYER1
  6
CONTINUOUS
 62
     6
 10
164.569317
 20
56.059486
 11
162.166820
 21
57.381873
  0
LINE
  8
CSLAYER1
  6
CONTINUOUS
 62
     6
 10
161.885173
 20
56.844642
 11
164.315166
 21
55.570594
  0
LINE
  8
CSLAYER1
  6
CONTINUOUS
 62
     6
 10
164.108196
 20
55.172462
 11
161.636150
 21
56.297401
  0
LINE
  8
CSLAYER1
  6
CONTINUOUS
 62
     6
 10
143.175426
 20
47.445411
 11
141.253429
 21
48.503303
  0
LINE
  8
CSLAYER1
  6
CONTINUOUS
 62
     6
 10
141.028118
 20
48.073524
 11
142.972118
 21
47.054267
  0
LINE
  8
CSLAYER1
  6
CONTINUOUS
 62
     6
 10
142.806560
 20
46.735755
 11
140.828899
 21
47.635719
  0
LINE
  8
CSLAYER1
  6
CONTINUOUS
 62
     6
 10
142.806560
 20
43.242347
 11
140.958477
 21
42.401344
  0
LINE
  8
CSLAYER1
  6
CONTINUOUS
 62
     6
 10
141.177776
 20
41.983070
 11
142.972118
 21
42.923835
  0
LINE
  8
CSLAYER1
  6
CONTINUOUS
 62
     6
 10
143.175426
 20
42.532691
 11
141.410076
 21
41.561012
  0
CIRCLE
  8
CSLAYER1
  6
CONTINUOUS
 62
     6
 10
76.099834
 20
120.336154
 40
2.250000
  0
ARC
  8
CSLAYER1
  6
CONTINUOUS
 62
     6
 10
50.099827
 20
146.336154
 40
9.250000
 50
317.513110
 51
342.486890
  0
LINE
  8
CSLAYER1
  6
CONTINUOUS
 62
     6
 10
58.921072
 20
143.552607
 11
57.359819
 21
144.453997
  0
LINE
  8
CSLAYER1
  6
CONTINUOUS
 62
     6
 10
54.099827
 20
145.836154
 11
54.099827
 21
146.836154
  0
LINE
  8
CSLAYER1
  6
CONTINUOUS
 62
     6
 10
54.099827
 20
146.836154
 11
46.099827
 21
146.836154
  0
LINE
  8
CSLAYER1
  6
CONTINUOUS
 62
     6
 10
46.099827
 20
146.836154
 11
46.099827
 21
145.836154
  0
LINE
  8
CSLAYER1
  6
CONTINUOUS
 62
     6
 10
46.099827
 20
145.836154
 11
54.099827
 21
145.836154
  0
CIRCLE
  8
CSLAYER1
  6
CONTINUOUS
 62
     6
 10
50.099834
 20
146.336154
 40
30.000017
  0
CIRCLE
  8
CSLAYER1
  6
CONTINUOUS
 62
     6
 10
50.099827
 20
146.336154
 40
7.500000
  0
LINE
  8
CSLAYER1
  6
CONTINUOUS
 62
     6
 10
44.839835
 20
140.989895
 11
43.278582
 21
140.088505
  0
ARC
  8
CSLAYER1
  6
CONTINUOUS
 62
     6
 10
50.099827
 20
146.336154
 40
9.250000
 50
197.513110
 51
222.486890
  0
LINE
  8
CSLAYER1
  6
CONTINUOUS
 62
     6
 10
41.278582
 20
143.552607
 11
42.839835
 21
144.453997
  0
LINE
  8
CSLAYER1
  6
CONTINUOUS
 62
     6
 10
55.359819
 20
140.989895
 11
56.921072
 21
140.088505
  0
CIRCLE
  8
CSLAYER1
  6
CONTINUOUS
 62
     6
 10
24.099834
 20
120.336154
 40
2.250000
  0
LINE
  8
CSLAYER1
  6
CONTINUOUS
 62
     6
 10
297.599865
 20
232.356025
 11
322.099849
 21
232.356025
  0
LINE
  8
CSLAYER1
  6
CONTINUOUS
 62
     6
 10
322.099849
 20
232.356025
 11
322.099849
 21
240.356025
  0
LINE
  8
CSLAYER1
  6
CONTINUOUS
 62
     6
 10
322.099849
 20
240.356025
 11
297.599849
 21
240.356025
  0
ARC
  8
CSLAYER1
  6
CONTINUOUS
 62
     6
 10
341.599849
 20
172.336135
 40
6.000000
 50
90.000000
 51
180.000003
  0
LINE
  8
CSLAYER1
  6
CONTINUOUS
 62
     6
 10
335.599910
 20
172.336135
 11
335.599910
 21
120.336135
  0
ARC
  8
CSLAYER1
  6
CONTINUOUS
 62
     6
 10
341.599849
 20
120.336135
 40
6.000000
 50
180.000000
 51
270.000003
  0
LINE
  8
CSLAYER1
  6
CONTINUOUS
 62
     6
 10
341.599910
 20
114.336135
 11
393.599849
 21
114.336135
  0
ARC
  8
CSLAYER1
  6
CONTINUOUS
 62
     6
 10
393.599849
 20
120.336135
 40
6.000000
 50
269.999997
 51
360.000000
  0
LINE
  8
CSLAYER1
  6
CONTINUOUS
 62
     6
 10
399.599849
 20
120.336135
 11
399.599849
 21
172.336135
  0
ARC
  8
CSLAYER1
  6
CONTINUOUS
 62
     6
 10
393.599849
 20
172.336135
 40
6.000000
 50
0.000000
 51
90.000003
  0
LINE
  8
CSLAYER1
  6
CONTINUOUS
 62
     6
 10
393.599849
 20
178.336135
 11
341.599910
 21
178.336135
  0
CIRCLE
  8
CSLAYER1
  6
CONTINUOUS
 62
     6
 10
341.599849
 20
172.336135
 40
2.250000
  0
ARC
  8
CSLAYER1
  6
CONTINUOUS
 62
     6
 10
350.629329
 20
163.306685
 40
2.397500
 50
163.398424
 51
196.601586
  0
LINE
  8
CSLAYER1
  6
CONTINUOUS
 62
     6
 10
348.331783
 20
162.621688
 11
349.259334
 21
162.621688
  0
ARC
  8
CSLAYER1
  6
CONTINUOUS
 62
     6
 10
349.259334
 20
161.936690
 40
0.685000
 50
0.000000
 51
90.000009
  0
LINE
  8
CSLAYER1
  6
CONTINUOUS
 62
     6
 10
349.944332
 20
161.936690
 11
349.944332
 21
161.009124
  0
ARC
  8
CSLAYER1
  6
CONTINUOUS
 62
     6
 10
350.629329
 20
163.306685
 40
2.397500
 50
253.398434
 51
286.601595
  0
LINE
  8
CSLAYER1
  6
CONTINUOUS
 62
     6
 10
351.314327
 20
161.009124
 11
351.314327
 21
161.936690
  0
ARC
  8
CSLAYER1
  6
CONTINUOUS
 62
     6
 10
351.999324
 20
161.936690
 40
0.685000
 50
90.000009
 51
180.000005
  0
LINE
  8
CSLAYER1
  6
CONTINUOUS
 62
     6
 10
351.999324
 20
162.621688
 11
352.926876
 21
162.621688
  0
ARC
  8
CSLAYER1
  6
CONTINUOUS
 62
     6
 10
350.629329
 20
163.306685
 40
2.397500
 50
-16.601584
 51
16.601604
  0
LINE
  8
CSLAYER1
  6
CONTINUOUS
 62
     6
 10
352.926876
 20
163.991683
 11
351.999324
 21
163.991683
  0
ARC
  8
CSLAYER1
  6
CONTINUOUS
 62
     6
 10
351.999324
 20
164.676680
 40
0.685000
 50
180.000005
 51
270.000001
  0
LINE
  8
CSLAYER1
  6
CONTINUOUS
 62
     6
 10
351.314327
 20
164.676680
 11
351.314327
 21
165.604247
  0
ARC
  8
CSLAYER1
  6
CONTINUOUS
 62
     6
 10
350.629329
 20
163.306685
 40
2.397500
 50
73.398442
 51
106.601576
  0
LINE
  8
CSLAYER1
  6
CONTINUOUS
 62
     6
 10
349.944332
 20
165.604247
 11
349.944332
 21
164.676680
  0
ARC
  8
CSLAYER1
  6
CONTINUOUS
 62
     6
 10
349.259334
 20
164.676680
 40
0.685000
 50
270.000001
 51
359.942691
  0
LINE
  8
CSLAYER1
  6
CONTINUOUS
 62
     6
 10
349.259334
 20
163.991683
 11
348.331783
 21
163.991683
  0
CIRCLE
  8
CSLAYER1
  6
CONTINUOUS
 62
     6
 10
350.629329
 20
163.306685
 40
4.500000
  0
CIRCLE
  8
CSLAYER1
  6
CONTINUOUS
 62
     6
 10
350.629329
 20
163.306685
 40
5.500000
  0
CIRCLE
  8
CSLAYER1
  6
CONTINUOUS
 62
     6
 10
393.599849
 20
172.336135
 40
2.250000
  0
CIRCLE
  8
CSLAYER1
  6
CONTINUOUS
 62
     6
 10
367.599849
 20
146.336150
 40
4.000000
  0
CIRCLE
  8
CSLAYER1
  6
CONTINUOUS
 62
     6
 10
367.599849
 20
146.336150
 40
15.000000
  0
CIRCLE
  8
CSLAYER1
  6
CONTINUOUS
 62
     6
 10
367.599849
 20
146.336150
 40
17.500000
  0
CIRCLE
  8
CSLAYER1
  6
CONTINUOUS
 62
     6
 10
367.599849
 20
146.336135
 40
13.000000
  0
CIRCLE
  8
CSLAYER1
  6
CONTINUOUS
 62
     6
 10
367.599849
 20
146.336135
 40
5.000000
  0
ARC
  8
CSLAYER1
  6
CONTINUOUS
 62
     6
 10
359.597366
 20
139.418362
 40
1.181817
 50
217.903402
 51
309.763723
  0
ARC
  8
CSLAYER1
  6
CONTINUOUS
 62
     6
 10
367.599849
 20
145.648784
 40
11.323712
 50
-37.903087
 51
217.903071
  0
ARC
  8
CSLAYER1
  6
CONTINUOUS
 62
     6
 10
375.602332
 20
139.418362
 40
1.181817
 50
230.236306
 51
322.096613
  0
ARC
  8
CSLAYER1
  6
CONTINUOUS
 62
     6
 10
373.226361
 20
136.562980
 40
2.532799
 50
50.235874
 51
203.481567
  0
LINE
  8
CSLAYER1
  6
CONTINUOUS
 62
     6
 10
370.903300
 20
135.553793
 11
371.408010
 21
133.906450
  0
CIRCLE
  8
CSLAYER1
  6
CONTINUOUS
 62
     6
 10
373.226361
 20
136.562980
 40
1.181817
  0
LINE
  8
CSLAYER1
  6
CONTINUOUS
 62
     6
 10
364.296399
 20
135.553793
 11
363.791688
 21
133.906450
  0
ARC
  8
CSLAYER1
  6
CONTINUOUS
 62
     6
 10
361.973337
 20
136.562980
 40
2.532799
 50
-23.481552
 51
129.764124
  0
CIRCLE
  8
CSLAYER1
  6
CONTINUOUS
 62
     6
 10
361.973337
 20
136.562980
 40
1.181817
  0
ARC
  8
CSLAYER1
  6
CONTINUOUS
 62
     6
 10
384.570369
 20
129.365584
 40
2.397500
 50
163.398416
 51
196.601604
  0
LINE
  8
CSLAYER1
  6
CONTINUOUS
 62
     6
 10
382.272823
 20
128.680587
 11
383.200374
 21
128.680587
  0
ARC
  8
CSLAYER1
  6
CONTINUOUS
 62
     6
 10
383.200374
 20
127.995589
 40
0.685000
 50
0.000005
 51
90.000001
  0
LINE
  8
CSLAYER1
  6
CONTINUOUS
 62
     6
 10
383.885372
 20
127.995589
 11
383.885372
 21
127.068023
  0
ARC
  8
CSLAYER1
  6
CONTINUOUS
 62
     6
 10
384.570369
 20
129.365584
 40
2.397500
 50
253.398442
 51
286.601576
  0
LINE
  8
CSLAYER1
  6
CONTINUOUS
 62
     6
 10
385.255367
 20
127.068023
 11
385.255367
 21
127.995589
  0
ARC
  8
CSLAYER1
  6
CONTINUOUS
 62
     6
 10
385.940364
 20
127.995589
 40
0.685000
 50
90.000001
 51
179.942691
  0
LINE
  8
CSLAYER1
  6
CONTINUOUS
 62
     6
 10
385.940364
 20
128.680587
 11
386.867916
 21
128.680587
  0
ARC
  8
CSLAYER1
  6
CONTINUOUS
 62
     6
 10
384.570369
 20
129.365584
 40
2.397500
 50
-16.601576
 51
16.601586
  0
LINE
  8
CSLAYER1
  6
CONTINUOUS
 62
     6
 10
386.867916
 20
130.050582
 11
385.940364
 21
130.050582
  0
ARC
  8
CSLAYER1
  6
CONTINUOUS
 62
     6
 10
385.940364
 20
130.735579
 40
0.685000
 50
180.000000
 51
270.000009
  0
LINE
  8
CSLAYER1
  6
CONTINUOUS
 62
     6
 10
385.255367
 20
130.735579
 11
385.255367
 21
131.663146
  0
ARC
  8
CSLAYER1
  6
CONTINUOUS
 62
     6
 10
384.570369
 20
129.365584
 40
2.397500
 50
73.398434
 51
106.601595
  0
LINE
  8
CSLAYER1
  6
CONTINUOUS
 62
     6
 10
383.885372
 20
131.663146
 11
383.885372
 21
130.735579
  0
ARC
  8
CSLAYER1
  6
CONTINUOUS
 62
     6
 10
383.200374
 20
130.735579
 40
0.685000
 50
-89.999991
 51
0.000005
  0
LINE
  8
CSLAYER1
  6
CONTINUOUS
 62
     6
 10
383.200374
 20
130.050582
 11
382.272823
 21
130.050582
  0
CIRCLE
  8
CSLAYER1
  6
CONTINUOUS
 62
     6
 10
384.570369
 20
129.365584
 40
4.500000
  0
CIRCLE
  8
CSLAYER1
  6
CONTINUOUS
 62
     6
 10
384.570369
 20
129.365584
 40
5.500000
  0
CIRCLE
  8
CSLAYER1
  6
CONTINUOUS
 62
     6
 10
393.599849
 20
120.336135
 40
2.250000
  0
CIRCLE
  8
CSLAYER1
  6
CONTINUOUS
 62
     6
 10
341.599849
 20
120.336135
 40
2.250000
  0
POLYLINE
  8
CSLAYER1
  6
CONTINUOUS
 62
     6
 66
     1
 10
0.0
 20
0.0
 30
0.0
  0
VERTEX
  8
CSLAYER1
  6
CONTINUOUS
 62
     6
 10
148.684326
 20
116.336162
 30
0.0
  0
VERTEX
  8
CSLAYER1
  6
CONTINUOUS
 62
     6
 10
149.004037
 20
116.242461
 30
0.0
  0
VERTEX
  8
CSLAYER1
  6
CONTINUOUS
 62
     6
 10
149.351113
 20
116.157078
 30
0.0
  0
VERTEX
  8
CSLAYER1
  6
CONTINUOUS
 62
     6
 10
149.722915
 20
116.080663
 30
0.0
  0
VERTEX
  8
CSLAYER1
  6
CONTINUOUS
 62
     6
 10
150.116612
 20
116.013798
 30
0.0
  0
VERTEX
  8
CSLAYER1
  6
CONTINUOUS
 62
     6
 10
150.529207
 20
115.956990
 30
0.0
  0
VERTEX
  8
CSLAYER1
  6
CONTINUOUS
 62
     6
 10
150.957562
 20
115.910673
 30
0.0
  0
VERTEX
  8
CSLAYER1
  6
CONTINUOUS
 62
     6
 10
151.398415
 20
115.875199
 30
0.0
  0
VERTEX
  8
CSLAYER1
  6
CONTINUOUS
 62
     6
 10
151.848412
 20
115.850837
 30
0.0
  0
VERTEX
  8
CSLAYER1
  6
CONTINUOUS
 62
     6
 10
152.304128
 20
115.837775
 30
0.0
  0
VERTEX
  8
CSLAYER1
  6
CONTINUOUS
 62
     6
 10
152.762095
 20
115.836109
 30
0.0
  0
VERTEX
  8
CSLAYER1
  6
CONTINUOUS
 62
     6
 10
153.218826
 20
115.845855
 30
0.0
  0
VERTEX
  8
CSLAYER1
  6
CONTINUOUS
 62
     6
 10
153.670847
 20
115.866937
 30
0.0
  0
VERTEX
  8
CSLAYER1
  6
CONTINUOUS
 62
     6
 10
154.114717
 20
115.899194
 30
0.0
  0
VERTEX
  8
CSLAYER1
  6
CONTINUOUS
 62
     6
 10
154.547058
 20
115.942382
 30
0.0
  0
VERTEX
  8
CSLAYER1
  6
CONTINUOUS
 62
     6
 10
154.964580
 20
115.996171
 30
0.0
  0
VERTEX
  8
CSLAYER1
  6
CONTINUOUS
 62
     6
 10
155.364104
 20
116.060153
 30
0.0
  0
VERTEX
  8
CSLAYER1
  6
CONTINUOUS
 62
     6
 10
155.742591
 20
116.133840
 30
0.0
  0
VERTEX
  8
CSLAYER1
  6
CONTINUOUS
 62
     6
 10
156.097160
 20
116.216672
 30
0.0
  0
VERTEX
  8
CSLAYER1
  6
CONTINUOUS
 62
     6
 10
156.425112
 20
116.308018
 30
0.0
  0
VERTEX
  8
CSLAYER1
  6
CONTINUOUS
 62
     6
 10
156.515373
 20
116.336162
 30
0.0
  0
SEQEND
  0
TEXT
  8
CSLAYER1
 62
     6
 10
38.790298
 20
128.168030
 40
2.000000
 41
0.934615
  1
HEDS-5500
 50
90.000000
 51
0.000000
  7
JX_FONT
 72
     5
 11
38.790298
 21
144.368029
  0
ENDSEC
  0
EOF
