  0
SECTION
  2
HEADER
  9
$ACADVER
  1
AC1006
  9
$INSBASE
 10
0.000000
 20
0.000000
 30
0.0
  9
$EXTMIN
 10
0.000000
 20
0.000000
  9
$EXTMAX
 10
594.000000
 20
420.000000
  9
$LIMMIN
 10
0.000000
 20
0.000000
  9
$LIMMAX
 10
594.000000
 20
420.000000
  9
$VIEWCTR
 10
297.000000
 20
210.000000
  9
$VIEWSIZE
 40
420.000000
  9
$SNAPMODE
 70
     0
  9
$SNAPUNIT
 10
1.0
 20
1.0
  9
$SNAPBASE
 10
0.0
 20
0.0
  9
$SNAPANG
 50
0.0
  9
$SNAPSTYLE
 70
     0
  9
$SNAPISOPAIR
 70
     0
  9
$GRIDMODE
 70
     0
  9
$GRIDUNIT
 10
0.0
 20
0.0
  9
$ORTHOMODE
 70
     0
  9
$REGENMODE
 70
     1
  9
$FILLMODE
 70
     1
  9
$QTEXTMODE
 70
     0
  9
$DRAGMODE
 70
     2
  9
$LTSCALE
 40
15.000000
  9
$OSMODE
 70
     0
  9
$ATTMODE
 70
     1
  9
$TEXTSIZE
 40
0.2
  9
$TRACEWID
 40
0.05
  9
$TEXTSTYLE
  7
STANDARD
  9
$CLAYER
  8
CSLAYER1
  9
$CELTYPE
  6
BYLAYER
  9
$CECOLOR
 62
   256
  9
$DIMSCALE
 40
1.0
  9
$DIMASZ
 40
0.18
  9
$DIMEXO
 40
0.0625
  9
$DIMDLI
 40
0.38
  9
$DIMRND
 40
0.0
  9
$DIMDLE
 40
0.0
  9
$DIMEXE
 40
0.18
  9
$DIMTP
 40
0.0
  9
$DIMTM
 40
0.0
  9
$DIMTXT
 40
0.18
  9
$DIMCEN
 40
0.09
  9
$DIMTSZ
 40
0.0
  9
$DIMTOL
 70
     0
  9
$DIMLIM
 70
     0
  9
$DIMTIH
 70
     1
  9
$DIMTOH
 70
     1
  9
$DIMSE1
 70
     0
  9
$DIMSE2
 70
     0
  9
$DIMTAD
 70
     0
  9
$DIMZIN
 70
     0
  9
$DIMBLK
  1

  9
$LUNITS
 70
     2
  9
$LUPREC
 70
     4
  9
$AXISMODE
 70
     0
  9
$AXISUNIT
 10
0.0
 20
0.0
  9
$SKETCHINC
 40
0.1
  9
$FILLETRAD
 40
0.0
  9
$AUNITS
 70
     0
  9
$AUPREC
 70
     0
  9
$MENU
  1
ACAD
  9
$ELEVATION
 40
0.0
  9
$THICKNESS
 40
0.0
  9
$VIEWDIR
 10
0.0
 20
0.0
 30
1.0
  9
$LIMCHECK
 70
     0
  9
$BLIPMODE
 70
     1
  9
$CHAMFERA
 40
0.0
  9
$CHAMFERB
 40
0.0
  9
$FASTZOOM
 70
     1
  9
$SKPOLY
 70
     0
  9
$TDCREATE
 40
0.000000
  9
$TDUPDATE
 40
0.000000
  9
$TDINDWG
 40
0.0
  9
$TDUSRTIMER
 40
0.0
  9
$USRTIMER
 70
     1
  9
$ANGBASE
 50
0.0
  9
$ANGDIR
 70
     0
  9
$PDMODE
 70
     0
  9
$PDSIZE
 40
0.0
  9
$PLINEWID
 40
0.0
  9
$COORDS
 70
     0
  9
$USERI1
 70
     0
  9
$USERI2
 70
     0
  9
$USERI3
 70
     0
  9
$USERI4
 70
     0
  9
$USERI5
 70
     0
  9
$USERR1
 40
0.0
  9
$USERR2
 40
0.0
  9
$USERR3
 40
0.0
  9
$USERR4
 40
0.0
  9
$USERR5
 40
0.0
  0
ENDSEC
  0
SECTION
  2
TABLES
  0
TABLE
  2
LTYPE
 70
     9
  0
LTYPE
  2
CONTINUOUS
 70
    64
  3
Solid line
 72
    65
 73
     0
 40
0.0
  0
LTYPE
  2
DASHED
 70
    64
  3
__ __ __ __ __ __ __ __ __ __ __ __ __ __ __
 72
    65
 73
     2
 40
0.75
 49
0.5
 49
-0.25
  0
LTYPE
  2
HIDDEN
 70
    64
  3
_ _ _ _ _ _ _ _ _ _ _ _ _ _ _ _ _ _ _ _ _ _ _
 72
    65
 73
     2
 40
0.375
 49
0.25
 49
-0.125
  0
LTYPE
  2
DOT
 70
    64
  3
...............................................
 72
    65
 73
     2
 40
0.25
 49
0.0
 49
-0.25
  0
LTYPE
  2
DASHDOT
 70
    64
  3
__ . __ . __ . __ . __ . __ . __ . __ . __ . __
 72
    65
 73
     4
 40
1.0
 49
0.5
 49
-0.25
 49
0.0
 49
-0.25
  0
LTYPE
  2
DIVIDE
 70
    64
  3
__ . . __ . . __ . . __ . . __ . . __ . . __
 72
    65
 73
     6
 40
1.25
 49
0.5
 49
-0.25
 49
0.0
 49
-0.25
 49
0.0
 49
-0.25
  0
LTYPE
  2
CENTER
 70
    64
  3
____ _ ____ _ ____ _ ____ _ ____ _ ____ _ ____ 
 72
    65
 73
     4
 40
2.0
 49
1.25
 49
-0.25
 49
0.25
 49
-0.25
  0
LTYPE
  2
PHANTOM
 70
    64
  3
______  __  __  ______  __  __  ______  __  __ 
 72
    65
 73
     6
 40
2.5
 49
1.25
 49
-0.25
 49
0.25
 49
-0.25
 49
0.25
 49
-0.25
  0
LTYPE
  2
BORDER
 70
    64
  3
__ __ . __ __ . __ __ . __ __ . __ __ . __ __ .
 72
    65
 73
     6
 40
1.75
 49
0.5
 49
-0.25
 49
0.5
 49
-0.25
 49
0.0
 49
-0.25
  0
ENDTAB
  0
TABLE
  2
LAYER
 70
    16
  0
LAYER
  2
CSLAYER1
 70
    64
 62
     7
  6
CONTINUOUS
  0
LAYER
  2
CSLAYER2
 70
    64
 62
     7
  6
CONTINUOUS
  0
LAYER
  2
CSLAYER3
 70
    64
 62
     7
  6
CONTINUOUS
  0
LAYER
  2
CSLAYER4
 70
    64
 62
     7
  6
CONTINUOUS
  0
LAYER
  2
CSLAYER5
 70
    64
 62
     7
  6
CONTINUOUS
  0
LAYER
  2
CSLAYER6
 70
    64
 62
     7
  6
CONTINUOUS
  0
LAYER
  2
CSLAYER7
 70
    64
 62
     7
  6
CONTINUOUS
  0
LAYER
  2
CSLAYER8
 70
    64
 62
     7
  6
CONTINUOUS
  0
LAYER
  2
CSLAYER9
 70
    64
 62
     7
  6
CONTINUOUS
  0
LAYER
  2
CSLAYER10
 70
    64
 62
     7
  6
CONTINUOUS
  0
LAYER
  2
CSLAYER11
 70
    64
 62
     7
  6
CONTINUOUS
  0
LAYER
  2
CSLAYER12
 70
    64
 62
     7
  6
CONTINUOUS
  0
LAYER
  2
CSLAYER13
 70
    64
 62
     7
  6
CONTINUOUS
  0
LAYER
  2
CSLAYER14
 70
    64
 62
     7
  6
CONTINUOUS
  0
LAYER
  2
CSLAYER15
 70
    64
 62
     7
  6
CONTINUOUS
  0
LAYER
  2
CSLAYER16
 70
    64
 62
     7
  6
CONTINUOUS
  0
ENDTAB
  0
TABLE
  2
STYLE
 70
     1
  0
STYLE
  2
JX_FONT
 70
     0
 40
1.0
 41
1.0
 50
0.0
 71
     0
 42
1.0
  3
monotxt
  4
bigfont
  0
ENDTAB
  0
TABLE
  2
VIEW
 70
     0
  0
ENDTAB
  0
ENDSEC
  0
SECTION
  2
BLOCKS
  0
ENDSEC
  0
SECTION
  2
ENTITIES
  0
LINE
  8
CSLAYER1
  6
CONTINUOUS
 62
     6
 10
380.376853
 20
192.000000
 11
380.376853
 21
228.000003
  0
LINE
  8
CSLAYER1
  6
CONTINUOUS
 62
     6
 10
376.376853
 20
232.000003
 11
363.376853
 21
232.000003
  0
LINE
  8
CSLAYER1
  6
CONTINUOUS
 62
     6
 10
359.376853
 20
180.500001
 11
359.376853
 21
239.500005
  0
LINE
  8
CSLAYER1
  6
CONTINUOUS
 62
     6
 10
355.376853
 20
243.500005
 11
327.376838
 21
243.500006
  0
LINE
  8
CSLAYER1
  6
CONTINUOUS
 62
     6
 10
320.876853
 20
254.000006
 11
326.376838
 21
254.000006
  0
LINE
  8
CSLAYER1
  6
CONTINUOUS
 62
     6
 10
320.876853
 20
178.481855
 11
320.876853
 21
254.000006
  0
LINE
  8
CSLAYER1
  6
CENTER
 62
     3
 10
522.485420
 20
210.000016
 11
428.485420
 21
210.000016
  0
LINE
  8
CSLAYER1
  6
CENTER
 62
     3
 10
475.485420
 20
257.000016
 11
475.485420
 21
163.000016
  0
CIRCLE
  8
CSLAYER1
  6
CONTINUOUS
 62
     6
 10
475.485420
 20
210.000016
 40
6.000000
  0
LINE
  8
CSLAYER1
  6
CONTINUOUS
 62
     6
 10
471.985420
 20
212.000016
 11
469.828565
 21
212.000016
  0
LINE
  8
CSLAYER1
  6
CONTINUOUS
 62
     6
 10
471.985420
 20
208.000016
 11
469.828565
 21
208.000016
  0
LINE
  8
CSLAYER1
  6
CONTINUOUS
 62
     6
 10
471.985420
 20
212.000016
 11
471.985420
 21
208.000016
  0
LINE
  8
CSLAYER1
  6
CONTINUOUS
 62
     6
 10
215.376853
 20
241.000016
 11
215.376853
 21
179.000016
  0
CIRCLE
  8
CSLAYER1
  6
CONTINUOUS
 62
     6
 10
204.376853
 20
210.000016
 40
8.000000
  0
CIRCLE
  8
CSLAYER1
  6
CONTINUOUS
 62
     6
 10
204.376853
 20
210.000016
 40
6.000000
  0
CIRCLE
  8
CSLAYER1
  6
CONTINUOUS
 62
     3
 10
204.376853
 20
210.000016
 40
5.500000
  0
LINE
  8
CSLAYER1
  6
CONTINUOUS
 62
     6
 10
207.126853
 20
210.800019
 11
201.626853
 21
210.800019
  0
LINE
  8
CSLAYER1
  6
CONTINUOUS
 62
     6
 10
207.126853
 20
209.200013
 11
201.626853
 21
209.200013
  0
LINE
  8
CSLAYER1
  6
CONTINUOUS
 62
     6
 10
201.626853
 20
210.800019
 11
201.626853
 21
209.200013
  0
LINE
  8
CSLAYER1
  6
CONTINUOUS
 62
     6
 10
207.126853
 20
210.800019
 11
207.126853
 21
209.200013
  0
LINE
  8
CSLAYER1
  6
CONTINUOUS
 62
     6
 10
184.376853
 20
181.523682
 11
184.376853
 21
238.476349
  0
LINE
  8
CSLAYER1
  6
CONTINUOUS
 62
     6
 10
185.376853
 20
180.523682
 11
185.376853
 21
239.476349
  0
LINE
  8
CSLAYER1
  6
CONTINUOUS
 62
     6
 10
185.376853
 20
239.476349
 11
215.376869
 21
240.000000
  0
LINE
  8
CSLAYER1
  6
CONTINUOUS
 62
     6
 10
185.376853
 20
239.476349
 11
184.376853
 21
238.476349
  0
LINE
  8
CSLAYER1
  6
CONTINUOUS
 62
     6
 10
185.376853
 20
180.523682
 11
215.376869
 21
180.000031
  0
LINE
  8
CSLAYER1
  6
CONTINUOUS
 62
     6
 10
185.376853
 20
180.523682
 11
184.376853
 21
181.523682
  0
ARC
  8
CSLAYER1
  6
CONTINUOUS
 62
     6
 10
189.717994
 20
166.527911
 40
15.758816
 50
332.536202
 51
359.942691
  0
ARC
  8
CSLAYER1
  6
CONTINUOUS
 62
     6
 10
189.717994
 20
166.527911
 40
13.558834
 50
332.536202
 51
359.942691
  0
ARC
  8
CSLAYER1
  6
CONTINUOUS
 62
     6
 10
204.926826
 20
165.575320
 40
1.099999
 50
60.000350
 51
120.000345
  0
ARC
  8
CSLAYER1
  6
CONTINUOUS
 62
     6
 10
203.826827
 20
165.575305
 40
1.099999
 50
60.000350
 51
120.000345
  0
ARC
  8
CSLAYER1
  6
CONTINUOUS
 62
     6
 10
203.826820
 20
167.480563
 40
1.099999
 50
240.000362
 51
300.000350
  0
LINE
  8
CSLAYER1
  6
CONTINUOUS
 62
     6
 10
201.748771
 20
160.274752
 11
203.700828
 21
159.260134
  0
ARC
  8
CSLAYER1
  6
CONTINUOUS
 62
     6
 10
219.035682
 20
166.527911
 40
15.758816
 50
201.534034
 51
207.463868
  0
ARC
  8
CSLAYER1
  6
CONTINUOUS
 62
     6
 10
219.035682
 20
166.527911
 40
13.558834
 50
179.999978
 51
207.463868
  0
LINE
  8
CSLAYER1
  6
CONTINUOUS
 62
     6
 10
207.004905
 20
160.274737
 11
205.052848
 21
159.260119
  0
ARC
  8
CSLAYER1
  6
CONTINUOUS
 62
     6
 10
203.826850
 20
170.392779
 40
1.100006
 50
240.000007
 51
299.999995
  0
ARC
  8
CSLAYER1
  6
CONTINUOUS
 62
     6
 10
204.926856
 20
170.392779
 40
1.100006
 50
240.000007
 51
299.999995
  0
ARC
  8
CSLAYER1
  6
CONTINUOUS
 62
     6
 10
204.926856
 20
168.487506
 40
1.100006
 50
60.000002
 51
120.000003
  0
LINE
  8
CSLAYER1
  6
CENTER
 62
     3
 10
204.376853
 20
223.000016
 11
204.376838
 21
156.493777
  0
LINE
  8
CSLAYER1
  6
CONTINUOUS
 62
     6
 10
205.476859
 20
180.171708
 11
205.476844
 21
169.440142
  0
LINE
  8
CSLAYER1
  6
CONTINUOUS
 62
     6
 10
203.276863
 20
180.213334
 11
203.276847
 21
169.440142
  0
LINE
  8
CSLAYER1
  6
CONTINUOUS
 62
     6
 10
206.543006
 20
160.034655
 11
208.160194
 21
157.096606
  0
LINE
  8
CSLAYER1
  6
CONTINUOUS
 62
     6
 10
206.054084
 20
159.780535
 11
207.630866
 21
156.773135
  0
LINE
  8
CSLAYER1
  6
CONTINUOUS
 62
     6
 10
205.655952
 20
159.573596
 11
207.057472
 21
156.493777
  0
LINE
  8
CSLAYER1
  6
CONTINUOUS
 62
     6
 10
202.212989
 20
160.033465
 11
200.595832
 21
157.095385
  0
LINE
  8
CSLAYER1
  6
CONTINUOUS
 62
     6
 10
202.701911
 20
159.779330
 11
201.125129
 21
156.771914
  0
LINE
  8
CSLAYER1
  6
CONTINUOUS
 62
     6
 10
203.100044
 20
159.572375
 11
201.698554
 21
156.492571
  0
LINE
  8
CSLAYER1
  6
CONTINUOUS
 62
     6
 10
307.906156
 20
241.000016
 11
215.376853
 21
241.000016
  0
LINE
  8
CSLAYER1
  6
CONTINUOUS
 62
     6
 10
288.825440
 20
179.000016
 11
215.376853
 21
179.000016
  0
LINE
  8
CSLAYER1
  6
CENTER
 62
     3
 10
405.376853
 20
210.000000
 11
181.075721
 21
210.000016
  0
LINE
  8
CSLAYER1
  6
CONTINUOUS
 62
     3
 10
244.626848
 20
241.000016
 11
244.626848
 21
226.499985
  0
LINE
  8
CSLAYER1
  6
CONTINUOUS
 62
     3
 10
245.626848
 20
225.499985
 11
281.626848
 21
225.499985
  0
LINE
  8
CSLAYER1
  6
CONTINUOUS
 62
     3
 10
282.626848
 20
226.499985
 11
282.626833
 21
241.000016
  0
ARC
  8
CSLAYER1
  6
CONTINUOUS
 62
     3
 10
245.626848
 20
226.499985
 40
1.000000
 50
180.000019
 51
270.000028
  0
ARC
  8
CSLAYER1
  6
CONTINUOUS
 62
     3
 10
281.626848
 20
226.499985
 40
1.000000
 50
270.000028
 51
359.942691
  0
TEXT
  8
CSLAYER1
 62
     3
 10
262.402069
 20
238.931549
 40
3.500000
 41
1.125000
  1
N P
 50
-89.999992
 51
10.000000
  7
JX_FONT
 72
     5
 11
262.402070
 21
228.431549
  0
CIRCLE
  8
CSLAYER1
  6
CONTINUOUS
 62
     6
 10
475.485430
 20
249.000035
 40
4.500000
  0
ARC
  8
CSLAYER1
  6
CONTINUOUS
 62
     6
 10
475.485414
 20
249.000036
 40
2.500000
 50
163.398416
 51
196.601577
  0
ARC
  8
CSLAYER1
  6
CONTINUOUS
 62
     6
 10
475.485414
 20
249.000036
 40
2.500000
 50
253.398422
 51
286.601583
  0
ARC
  8
CSLAYER1
  6
CONTINUOUS
 62
     6
 10
475.485414
 20
249.000036
 40
2.500000
 50
-16.601562
 51
16.601572
  0
ARC
  8
CSLAYER1
  6
CONTINUOUS
 62
     6
 10
475.485414
 20
249.000036
 40
2.500000
 50
73.398406
 51
106.601595
  0
LINE
  8
CSLAYER1
  6
CONTINUOUS
 62
     6
 10
476.914003
 20
248.285741
 11
477.881190
 21
248.285741
  0
LINE
  8
CSLAYER1
  6
CONTINUOUS
 62
     6
 10
474.056825
 20
248.285741
 11
473.089638
 21
248.285741
  0
LINE
  8
CSLAYER1
  6
CONTINUOUS
 62
     6
 10
476.914003
 20
249.714330
 11
477.881190
 21
249.714330
  0
LINE
  8
CSLAYER1
  6
CONTINUOUS
 62
     6
 10
474.056825
 20
249.714330
 11
473.089638
 21
249.714330
  0
LINE
  8
CSLAYER1
  6
CONTINUOUS
 62
     6
 10
474.771119
 20
247.571484
 11
474.771119
 21
246.604223
  0
LINE
  8
CSLAYER1
  6
CONTINUOUS
 62
     6
 10
474.771119
 20
250.428588
 11
474.771119
 21
251.395849
  0
LINE
  8
CSLAYER1
  6
CONTINUOUS
 62
     6
 10
476.199708
 20
247.571484
 11
476.199708
 21
246.604223
  0
LINE
  8
CSLAYER1
  6
CONTINUOUS
 62
     6
 10
476.199708
 20
250.428588
 11
476.199708
 21
251.395849
  0
ARC
  8
CSLAYER1
  6
CONTINUOUS
 62
     6
 10
476.914003
 20
247.571484
 40
0.714286
 50
90.000001
 51
179.942691
  0
ARC
  8
CSLAYER1
  6
CONTINUOUS
 62
     6
 10
476.914003
 20
250.428588
 40
0.714286
 50
180.000010
 51
270.000016
  0
ARC
  8
CSLAYER1
  6
CONTINUOUS
 62
     6
 10
474.056825
 20
250.428588
 40
0.714286
 50
-89.999984
 51
0.000005
  0
ARC
  8
CSLAYER1
  6
CONTINUOUS
 62
     6
 10
474.056825
 20
247.571484
 40
0.714286
 50
0.000005
 51
89.942654
  0
LINE
  8
CSLAYER1
  6
CONTINUOUS
 62
     6
 10
215.376853
 20
44.922246
 11
215.376853
 21
106.922246
  0
LINE
  8
CSLAYER1
  6
CONTINUOUS
 62
     6
 10
253.376884
 20
44.922246
 11
215.376853
 21
44.922246
  0
LINE
  8
CSLAYER1
  6
CONTINUOUS
 62
     6
 10
253.376884
 20
106.922246
 11
215.376853
 21
106.922246
  0
LINE
  8
CSLAYER1
  6
CENTER
 62
     3
 10
405.376830
 20
75.922262
 11
181.075721
 21
75.922246
  0
LINE
  8
CSLAYER1
  6
CONTINUOUS
 62
     6
 10
327.376853
 20
253.344945
 11
327.376853
 21
168.081854
  0
LINE
  8
CSLAYER1
  6
CONTINUOUS
 62
     6
 10
326.376838
 20
254.000006
 11
327.376853
 21
252.999991
  0
ARC
  8
CSLAYER1
  6
CONTINUOUS
 62
     6
 10
355.376853
 20
239.500005
 40
4.000000
 50
0.000000
 51
90.000000
  0
ARC
  8
CSLAYER1
  6
CONTINUOUS
 62
     6
 10
376.376853
 20
228.000003
 40
4.000000
 50
0.000000
 51
90.000000
  0
LINE
  8
CSLAYER1
  6
CONTINUOUS
 62
     6
 10
376.376850
 20
188.000001
 11
363.376854
 21
188.000003
  0
LINE
  8
CSLAYER1
  6
CONTINUOUS
 62
     6
 10
355.376848
 20
176.500002
 11
327.376833
 21
176.500006
  0
ARC
  8
CSLAYER1
  6
CONTINUOUS
 62
     6
 10
355.376849
 20
180.500002
 40
4.000000
 50
269.999991
 51
359.999991
  0
ARC
  8
CSLAYER1
  6
CONTINUOUS
 62
     6
 10
376.376851
 20
192.000001
 40
4.000000
 50
269.999991
 51
359.999991
  0
ARC
  8
CSLAYER1
  6
CONTINUOUS
 62
     6
 10
363.376853
 20
236.000003
 40
4.000000
 50
180.000000
 51
270.000000
  0
ARC
  8
CSLAYER1
  6
CONTINUOUS
 62
     6
 10
363.376853
 20
184.000003
 40
4.000000
 50
89.999991
 51
180.000000
  0
CIRCLE
  8
CSLAYER1
  6
CONTINUOUS
 62
     6
 10
475.485420
 20
210.000016
 40
22.000000
  0
CIRCLE
  8
CSLAYER1
  6
CONTINUOUS
 62
     6
 10
475.485420
 20
210.000016
 40
33.500000
  0
CIRCLE
  8
CSLAYER1
  6
CONTINUOUS
 62
     6
 10
475.485420
 20
210.000016
 40
44.000000
  0
ARC
  8
CSLAYER1
  6
CENTER
 62
     3
 10
475.485420
 20
210.000016
 40
39.000000
 50
79.712489
 51
100.287511
  0
ARC
  8
CSLAYER1
  6
CENTER
 62
     3
 10
475.485420
 20
210.000016
 40
39.000000
 50
169.712489
 51
190.287511
  0
ARC
  8
CSLAYER1
  6
CENTER
 62
     3
 10
475.485420
 20
210.000016
 40
39.000000
 50
259.712489
 51
280.287511
  0
ARC
  8
CSLAYER1
  6
CENTER
 62
     3
 10
475.485420
 20
210.000016
 40
39.000000
 50
-10.287511
 51
10.287511
  0
CIRCLE
  8
CSLAYER1
  6
CONTINUOUS
 62
     6
 10
475.485420
 20
210.000016
 40
7.500000
  0
LINE
  8
CSLAYER1
  6
CONTINUOUS
 62
     6
 10
428.485450
 20
160.000000
 11
428.485450
 21
166.000000
  0
LINE
  8
CSLAYER1
  6
DASHED
 62
     6
 10
445.485450
 20
168.000016
 11
445.485450
 21
160.000000
  0
LINE
  8
CSLAYER1
  6
DASHED
 62
     6
 10
432.485450
 20
160.000000
 11
432.485450
 21
168.000000
  0
LINE
  8
CSLAYER1
  6
CONTINUOUS
 62
     6
 10
455.485450
 20
160.000000
 11
428.485450
 21
160.000000
  0
LINE
  8
CSLAYER1
  6
CONTINUOUS
 62
     6
 10
453.485450
 20
168.000000
 11
430.485450
 21
168.000000
  0
LINE
  8
CSLAYER1
  6
CONTINUOUS
 62
     6
 10
431.485450
 20
210.000016
 11
431.485450
 21
169.000000
  0
LINE
  8
CSLAYER1
  6
CONTINUOUS
 62
     6
 10
437.485450
 20
170.000000
 11
437.485450
 21
180.000016
  0
ARC
  8
CSLAYER1
  6
CONTINUOUS
 62
     6
 10
430.485450
 20
166.000000
 40
2.000000
 50
90.000003
 51
180.000005
  0
ARC
  8
CSLAYER1
  6
CONTINUOUS
 62
     6
 10
453.485450
 20
166.000000
 40
2.000000
 50
0.000000
 51
90.000003
  0
ARC
  8
CSLAYER1
  6
CONTINUOUS
 62
     6
 10
439.485450
 20
170.000000
 40
2.000000
 50
180.000005
 51
270.000001
  0
ARC
  8
CSLAYER1
  6
CONTINUOUS
 62
     6
 10
430.485450
 20
169.000000
 40
1.000000
 50
270.000001
 51
359.942691
  0
LINE
  8
CSLAYER1
  6
CONTINUOUS
 62
     6
 10
522.485450
 20
160.000000
 11
522.485450
 21
166.000000
  0
LINE
  8
CSLAYER1
  6
DASHED
 62
     6
 10
505.485450
 20
168.000016
 11
505.485450
 21
160.000000
  0
LINE
  8
CSLAYER1
  6
DASHED
 62
     6
 10
518.485450
 20
160.000000
 11
518.485450
 21
168.000000
  0
LINE
  8
CSLAYER1
  6
CONTINUOUS
 62
     6
 10
495.485450
 20
160.000000
 11
522.485450
 21
160.000000
  0
LINE
  8
CSLAYER1
  6
CONTINUOUS
 62
     6
 10
497.485450
 20
168.000000
 11
520.485450
 21
168.000000
  0
ARC
  8
CSLAYER1
  6
CONTINUOUS
 62
     6
 10
520.485450
 20
166.000000
 40
2.000000
 50
0.000010
 51
90.000016
  0
ARC
  8
CSLAYER1
  6
CONTINUOUS
 62
     6
 10
497.485450
 20
166.000000
 40
2.000000
 50
90.000016
 51
179.942686
  0
LINE
  8
CSLAYER1
  6
CONTINUOUS
 62
     6
 10
513.485450
 20
170.000000
 11
513.485450
 21
180.000016
  0
ARC
  8
CSLAYER1
  6
CONTINUOUS
 62
     6
 10
511.485450
 20
170.000000
 40
2.000000
 50
270.000001
 51
359.942691
  0
ARC
  8
CSLAYER1
  6
CONTINUOUS
 62
     6
 10
520.485450
 20
169.000000
 40
1.000000
 50
180.000019
 51
270.000001
  0
LINE
  8
CSLAYER1
  6
CONTINUOUS
 62
     6
 10
519.485450
 20
210.000016
 11
519.485450
 21
169.000000
  0
LINE
  8
CSLAYER1
  6
CENTER
 62
     3
 10
438.985420
 20
170.122223
 11
438.985420
 21
157.737580
  0
LINE
  8
CSLAYER1
  6
CENTER
 62
     3
 10
511.985420
 20
170.122223
 11
511.985420
 21
157.737580
  0
LINE
  8
CSLAYER1
  6
CONTINUOUS
 62
     6
 10
494.485450
 20
165.000016
 11
456.485450
 21
165.000000
  0
ARC
  8
CSLAYER1
  6
CONTINUOUS
 62
     6
 10
456.485450
 20
164.000000
 40
1.000000
 50
90.000023
 51
180.000005
  0
ARC
  8
CSLAYER1
  6
CONTINUOUS
 62
     6
 10
494.485450
 20
164.000000
 40
1.000000
 50
0.000010
 51
90.000016
  0
LINE
  8
CSLAYER1
  6
CONTINUOUS
 62
     6
 10
455.485450
 20
166.000000
 11
455.485450
 21
160.000000
  0
LINE
  8
CSLAYER1
  6
CONTINUOUS
 62
     6
 10
495.485450
 20
166.001999
 11
495.485450
 21
160.000000
  0
LINE
  8
CSLAYER1
  6
CONTINUOUS
 62
     6
 10
319.876853
 20
180.081854
 11
319.876853
 21
205.081839
  0
LINE
  8
CSLAYER1
  6
CONTINUOUS
 62
     6
 10
253.376853
 20
160.081854
 11
353.376853
 21
160.081854
  0
LINE
  8
CSLAYER1
  6
CONTINUOUS
 62
     6
 10
353.376853
 20
160.081854
 11
353.376853
 21
166.081854
  0
LINE
  8
CSLAYER1
  6
CONTINUOUS
 62
     6
 10
351.376853
 20
168.081854
 11
255.376853
 21
168.081854
  0
LINE
  8
CSLAYER1
  6
CONTINUOUS
 62
     6
 10
253.376853
 20
166.081854
 11
253.376853
 21
160.081854
  0
LINE
  8
CSLAYER1
  6
CONTINUOUS
 62
     6
 10
327.376857
 20
168.081854
 11
319.876853
 21
180.081854
  0
LINE
  8
CSLAYER1
  6
CONTINUOUS
 62
     6
 10
280.677101
 20
168.469870
 11
312.813506
 21
210.000007
  0
LINE
  8
CSLAYER1
  6
CONTINUOUS
 62
     6
 10
314.876853
 20
254.081839
 11
319.876853
 21
254.081839
  0
LINE
  8
CSLAYER1
  6
CONTINUOUS
 62
     6
 10
312.876853
 20
210.000007
 11
312.876853
 21
252.081839
  0
ARC
  8
CSLAYER1
  6
CONTINUOUS
 62
     6
 10
314.876853
 20
252.081839
 40
2.000000
 50
90.000003
 51
180.000005
  0
ARC
  8
CSLAYER1
  6
CONTINUOUS
 62
     6
 10
279.886238
 20
169.081854
 40
1.000000
 50
270.000001
 51
322.266958
  0
ARC
  8
CSLAYER1
  6
CONTINUOUS
 62
     6
 10
255.376853
 20
166.081854
 40
2.000000
 50
90.000003
 51
180.000005
  0
ARC
  8
CSLAYER1
  6
CONTINUOUS
 62
     6
 10
351.376853
 20
166.081854
 40
2.000000
 50
0.000000
 51
90.000003
  0
ARC
  8
CSLAYER1
  6
CONTINUOUS
 62
     6
 10
319.876853
 20
252.081839
 40
2.000000
 50
60.000070
 51
90.000003
  0
LINE
  8
CSLAYER1
  6
CENTER
 62
     3
 10
335.876853
 20
157.588339
 11
335.876853
 21
170.207983
  0
LINE
  8
CSLAYER1
  6
CENTER
 62
     3
 10
270.876853
 20
157.658072
 11
270.876853
 21
171.044653
  0
LINE
  8
CSLAYER1
  6
DASHED
 62
     6
 10
339.376853
 20
160.081870
 11
339.376853
 21
168.081870
  0
LINE
  8
CSLAYER1
  6
DASHED
 62
     6
 10
274.376853
 20
160.081854
 11
274.376853
 21
168.081854
  0
LINE
  8
CSLAYER1
  6
DASHED
 62
     6
 10
332.376853
 20
160.081870
 11
332.376853
 21
168.081870
  0
LINE
  8
CSLAYER1
  6
DASHED
 62
     6
 10
267.376853
 20
160.081854
 11
267.376853
 21
168.081854
  0
ARC
  8
CSLAYER1
  6
CONTINUOUS
 62
     6
 10
307.876853
 20
245.999930
 40
5.000000
 50
-89.999999
 51
0.000010
  0
LINE
  8
CSLAYER1
  6
CENTER
 62
     3
 10
319.876869
 20
171.000016
 11
333.913158
 21
171.000016
  0
LINE
  8
CSLAYER1
  6
CONTINUOUS
 62
     6
 10
328.463034
 20
175.344810
 11
328.463034
 21
168.081854
  0
ARC
  8
CSLAYER1
  6
CONTINUOUS
 62
     6
 10
320.704397
 20
170.999992
 40
10.862092
 50
-15.584151
 51
16.257016
  0
LINE
  8
CSLAYER1
  6
CONTINUOUS
 62
     6
 10
328.800486
 20
175.237717
 11
329.777797
 21
175.152217
  0
ARC
  8
CSLAYER1
  6
CONTINUOUS
 62
     6
 10
329.642552
 20
173.606385
 40
1.551727
 50
16.257399
 51
84.999892
  0
ARC
  8
CSLAYER1
  6
CONTINUOUS
 62
     6
 10
328.773399
 20
174.928560
 40
0.310345
 50
84.999865
 51
179.942691
  0
ARC
  8
CSLAYER1
  6
CONTINUOUS
 62
     6
 10
328.307899
 20
175.344810
 40
0.155173
 50
0.000005
 51
90.000001
  0
LINE
  8
CSLAYER1
  6
CONTINUOUS
 62
     6
 10
328.307899
 20
175.499992
 11
327.532036
 21
175.499992
  0
ARC
  8
CSLAYER1
  6
CONTINUOUS
 62
     6
 10
327.532036
 20
175.344810
 40
0.155173
 50
90.000001
 51
179.942691
  0
LINE
  8
CSLAYER1
  6
CONTINUOUS
 62
     6
 10
328.463034
 20
171.924716
 11
327.376853
 21
171.235962
  0
LINE
  8
CSLAYER1
  6
CONTINUOUS
 62
     6
 10
328.463034
 20
171.148852
 11
327.376853
 21
170.460098
  0
LINE
  8
CSLAYER1
  6
CONTINUOUS
 62
     6
 10
328.463034
 20
214.344800
 11
328.463034
 21
205.655164
  0
ARC
  8
CSLAYER1
  6
CONTINUOUS
 62
     6
 10
320.704397
 20
209.999982
 40
10.862092
 50
-16.257006
 51
16.257016
  0
LINE
  8
CSLAYER1
  6
CONTINUOUS
 62
     6
 10
328.800486
 20
205.762257
 11
329.777797
 21
205.847757
  0
ARC
  8
CSLAYER1
  6
CONTINUOUS
 62
     6
 10
329.642552
 20
207.393589
 40
1.551727
 50
275.000111
 51
343.742611
  0
ARC
  8
CSLAYER1
  6
CONTINUOUS
 62
     6
 10
328.773399
 20
206.071414
 40
0.310345
 50
180.000000
 51
275.000152
  0
LINE
  8
CSLAYER1
  6
CONTINUOUS
 62
     6
 10
328.307899
 20
205.499982
 11
327.532036
 21
205.499982
  0
ARC
  8
CSLAYER1
  6
CONTINUOUS
 62
     6
 10
328.307899
 20
205.655164
 40
0.155173
 50
-89.999997
 51
0.000005
  0
ARC
  8
CSLAYER1
  6
CONTINUOUS
 62
     6
 10
327.532036
 20
205.655164
 40
0.155173
 50
180.000000
 51
270.000003
  0
LINE
  8
CSLAYER1
  6
CONTINUOUS
 62
     6
 10
328.800486
 20
214.237707
 11
329.777797
 21
214.152207
  0
ARC
  8
CSLAYER1
  6
CONTINUOUS
 62
     6
 10
329.642552
 20
212.606375
 40
1.551727
 50
16.257399
 51
84.999892
  0
ARC
  8
CSLAYER1
  6
CONTINUOUS
 62
     6
 10
328.773399
 20
213.928550
 40
0.310345
 50
84.999865
 51
179.942691
  0
ARC
  8
CSLAYER1
  6
CONTINUOUS
 62
     6
 10
328.307899
 20
214.344800
 40
0.155173
 50
0.000005
 51
90.000001
  0
LINE
  8
CSLAYER1
  6
CONTINUOUS
 62
     6
 10
328.307899
 20
214.499982
 11
327.532036
 21
214.499982
  0
ARC
  8
CSLAYER1
  6
CONTINUOUS
 62
     6
 10
327.532036
 20
214.344800
 40
0.155173
 50
90.000001
 51
179.942691
  0
LINE
  8
CSLAYER1
  6
CONTINUOUS
 62
     6
 10
328.463034
 20
210.924706
 11
327.376853
 21
210.235952
  0
LINE
  8
CSLAYER1
  6
CONTINUOUS
 62
     6
 10
328.463034
 20
210.148842
 11
327.376853
 21
209.460088
  0
LINE
  8
CSLAYER1
  6
CENTER
 62
     3
 10
311.621549
 20
248.999998
 11
333.913154
 21
248.999995
  0
LINE
  8
CSLAYER1
  6
CONTINUOUS
 62
     6
 10
328.463034
 20
253.344790
 11
328.463034
 21
244.655154
  0
ARC
  8
CSLAYER1
  6
CONTINUOUS
 62
     6
 10
320.704397
 20
248.999972
 40
10.862092
 50
-16.257006
 51
16.257016
  0
LINE
  8
CSLAYER1
  6
CONTINUOUS
 62
     6
 10
328.800486
 20
244.762248
 11
329.777797
 21
244.847747
  0
ARC
  8
CSLAYER1
  6
CONTINUOUS
 62
     6
 10
329.642552
 20
246.393579
 40
1.551727
 50
275.000111
 51
343.742611
  0
ARC
  8
CSLAYER1
  6
CONTINUOUS
 62
     6
 10
328.773399
 20
245.071404
 40
0.310345
 50
180.000000
 51
275.000152
  0
LINE
  8
CSLAYER1
  6
CONTINUOUS
 62
     6
 10
328.307899
 20
244.499972
 11
327.532036
 21
244.499972
  0
ARC
  8
CSLAYER1
  6
CONTINUOUS
 62
     6
 10
328.307899
 20
244.655154
 40
0.155173
 50
-89.999997
 51
0.000005
  0
ARC
  8
CSLAYER1
  6
CONTINUOUS
 62
     6
 10
327.532036
 20
244.655154
 40
0.155173
 50
180.000000
 51
270.000003
  0
LINE
  8
CSLAYER1
  6
CONTINUOUS
 62
     6
 10
328.800486
 20
253.237697
 11
329.777797
 21
253.152197
  0
ARC
  8
CSLAYER1
  6
CONTINUOUS
 62
     6
 10
329.642552
 20
251.606365
 40
1.551727
 50
16.257399
 51
84.999892
  0
ARC
  8
CSLAYER1
  6
CONTINUOUS
 62
     6
 10
328.773399
 20
252.928540
 40
0.310345
 50
84.999865
 51
179.942691
  0
ARC
  8
CSLAYER1
  6
CONTINUOUS
 62
     6
 10
328.307899
 20
253.344790
 40
0.155173
 50
0.000005
 51
90.000001
  0
LINE
  8
CSLAYER1
  6
CONTINUOUS
 62
     6
 10
328.307899
 20
253.499972
 11
327.532036
 21
253.499972
  0
ARC
  8
CSLAYER1
  6
CONTINUOUS
 62
     6
 10
327.532036
 20
253.344790
 40
0.155173
 50
90.000001
 51
179.942691
  0
LINE
  8
CSLAYER1
  6
CONTINUOUS
 62
     6
 10
328.463034
 20
249.924696
 11
327.376853
 21
249.235942
  0
LINE
  8
CSLAYER1
  6
CONTINUOUS
 62
     6
 10
328.463034
 20
249.148832
 11
327.376853
 21
248.460078
  0
CIRCLE
  8
CSLAYER1
  6
CONTINUOUS
 62
     6
 10
436.485400
 20
210.000026
 40
4.500000
  0
ARC
  8
CSLAYER1
  6
CONTINUOUS
 62
     6
 10
436.485400
 20
210.000010
 40
2.500000
 50
253.398416
 51
286.601577
  0
ARC
  8
CSLAYER1
  6
CONTINUOUS
 62
     6
 10
436.485400
 20
210.000010
 40
2.500000
 50
-16.601578
 51
16.601583
  0
ARC
  8
CSLAYER1
  6
CONTINUOUS
 62
     6
 10
436.485400
 20
210.000010
 40
2.500000
 50
73.398438
 51
106.601572
  0
ARC
  8
CSLAYER1
  6
CONTINUOUS
 62
     6
 10
436.485400
 20
210.000010
 40
2.500000
 50
163.398406
 51
196.601595
  0
LINE
  8
CSLAYER1
  6
CONTINUOUS
 62
     6
 10
437.199694
 20
211.428599
 11
437.199694
 21
212.395786
  0
LINE
  8
CSLAYER1
  6
CONTINUOUS
 62
     6
 10
437.199694
 20
208.571421
 11
437.199694
 21
207.604234
  0
LINE
  8
CSLAYER1
  6
CONTINUOUS
 62
     6
 10
435.771105
 20
211.428599
 11
435.771105
 21
212.395786
  0
LINE
  8
CSLAYER1
  6
CONTINUOUS
 62
     6
 10
435.771105
 20
208.571421
 11
435.771105
 21
207.604234
  0
LINE
  8
CSLAYER1
  6
CONTINUOUS
 62
     6
 10
437.913951
 20
209.285715
 11
438.881213
 21
209.285715
  0
LINE
  8
CSLAYER1
  6
CONTINUOUS
 62
     6
 10
435.056848
 20
209.285715
 11
434.089586
 21
209.285715
  0
LINE
  8
CSLAYER1
  6
CONTINUOUS
 62
     6
 10
437.913951
 20
210.714304
 11
438.881213
 21
210.714304
  0
LINE
  8
CSLAYER1
  6
CONTINUOUS
 62
     6
 10
435.056848
 20
210.714304
 11
434.089586
 21
210.714304
  0
ARC
  8
CSLAYER1
  6
CONTINUOUS
 62
     6
 10
437.913951
 20
211.428599
 40
0.714286
 50
180.000001
 51
269.942691
  0
ARC
  8
CSLAYER1
  6
CONTINUOUS
 62
     6
 10
435.056848
 20
211.428599
 40
0.714286
 50
-89.999990
 51
0.000016
  0
ARC
  8
CSLAYER1
  6
CONTINUOUS
 62
     6
 10
435.056848
 20
208.571421
 40
0.714286
 50
0.000016
 51
90.000005
  0
ARC
  8
CSLAYER1
  6
CONTINUOUS
 62
     6
 10
437.913951
 20
208.571421
 40
0.714286
 50
90.000005
 51
179.942654
  0
CIRCLE
  8
CSLAYER1
  6
CONTINUOUS
 62
     6
 10
475.485409
 20
170.999996
 40
4.500000
  0
ARC
  8
CSLAYER1
  6
CONTINUOUS
 62
     6
 10
475.485425
 20
170.999996
 40
2.500000
 50
-16.601584
 51
16.601577
  0
ARC
  8
CSLAYER1
  6
CONTINUOUS
 62
     6
 10
475.485425
 20
170.999996
 40
2.500000
 50
73.398422
 51
106.601583
  0
ARC
  8
CSLAYER1
  6
CONTINUOUS
 62
     6
 10
475.485425
 20
170.999996
 40
2.500000
 50
163.398438
 51
196.601572
  0
ARC
  8
CSLAYER1
  6
CONTINUOUS
 62
     6
 10
475.485425
 20
170.999996
 40
2.500000
 50
253.398406
 51
286.601595
  0
LINE
  8
CSLAYER1
  6
CONTINUOUS
 62
     6
 10
474.056836
 20
171.714290
 11
473.089649
 21
171.714290
  0
LINE
  8
CSLAYER1
  6
CONTINUOUS
 62
     6
 10
476.914014
 20
171.714290
 11
477.881201
 21
171.714290
  0
LINE
  8
CSLAYER1
  6
CONTINUOUS
 62
     6
 10
474.056836
 20
170.285701
 11
473.089649
 21
170.285701
  0
LINE
  8
CSLAYER1
  6
CONTINUOUS
 62
     6
 10
476.914014
 20
170.285701
 11
477.881201
 21
170.285701
  0
LINE
  8
CSLAYER1
  6
CONTINUOUS
 62
     6
 10
476.199720
 20
172.428547
 11
476.199720
 21
173.395809
  0
LINE
  8
CSLAYER1
  6
CONTINUOUS
 62
     6
 10
476.199720
 20
169.571444
 11
476.199720
 21
168.604182
  0
LINE
  8
CSLAYER1
  6
CONTINUOUS
 62
     6
 10
474.771131
 20
172.428547
 11
474.771131
 21
173.395809
  0
LINE
  8
CSLAYER1
  6
CONTINUOUS
 62
     6
 10
474.771131
 20
169.571444
 11
474.771131
 21
168.604182
  0
ARC
  8
CSLAYER1
  6
CONTINUOUS
 62
     6
 10
474.056836
 20
172.428547
 40
0.714286
 50
270.000001
 51
359.942691
  0
ARC
  8
CSLAYER1
  6
CONTINUOUS
 62
     6
 10
474.056836
 20
169.571444
 40
0.714286
 50
0.000010
 51
90.000016
  0
ARC
  8
CSLAYER1
  6
CONTINUOUS
 62
     6
 10
476.914014
 20
169.571444
 40
0.714286
 50
90.000016
 51
180.000005
  0
ARC
  8
CSLAYER1
  6
CONTINUOUS
 62
     6
 10
476.914014
 20
172.428547
 40
0.714286
 50
180.000005
 51
269.942654
  0
CIRCLE
  8
CSLAYER1
  6
CONTINUOUS
 62
     6
 10
514.485439
 20
210.000005
 40
4.500000
  0
ARC
  8
CSLAYER1
  6
CONTINUOUS
 62
     6
 10
514.485440
 20
210.000021
 40
2.500000
 50
73.398416
 51
106.601577
  0
ARC
  8
CSLAYER1
  6
CONTINUOUS
 62
     6
 10
514.485440
 20
210.000021
 40
2.500000
 50
163.398422
 51
196.601583
  0
ARC
  8
CSLAYER1
  6
CONTINUOUS
 62
     6
 10
514.485440
 20
210.000021
 40
2.500000
 50
253.398438
 51
286.601572
  0
ARC
  8
CSLAYER1
  6
CONTINUOUS
 62
     6
 10
514.485440
 20
210.000021
 40
2.500000
 50
-16.601594
 51
16.601595
  0
LINE
  8
CSLAYER1
  6
CONTINUOUS
 62
     6
 10
513.771145
 20
208.571432
 11
513.771145
 21
207.604245
  0
LINE
  8
CSLAYER1
  6
CONTINUOUS
 62
     6
 10
513.771145
 20
211.428610
 11
513.771145
 21
212.395797
  0
LINE
  8
CSLAYER1
  6
CONTINUOUS
 62
     6
 10
515.199734
 20
208.571432
 11
515.199734
 21
207.604245
  0
LINE
  8
CSLAYER1
  6
CONTINUOUS
 62
     6
 10
515.199734
 20
211.428610
 11
515.199734
 21
212.395797
  0
LINE
  8
CSLAYER1
  6
CONTINUOUS
 62
     6
 10
513.056888
 20
210.714316
 11
512.089627
 21
210.714316
  0
LINE
  8
CSLAYER1
  6
CONTINUOUS
 62
     6
 10
515.913992
 20
210.714316
 11
516.881253
 21
210.714316
  0
LINE
  8
CSLAYER1
  6
CONTINUOUS
 62
     6
 10
513.056888
 20
209.285727
 11
512.089627
 21
209.285727
  0
LINE
  8
CSLAYER1
  6
CONTINUOUS
 62
     6
 10
515.913992
 20
209.285727
 11
516.881253
 21
209.285727
  0
ARC
  8
CSLAYER1
  6
CONTINUOUS
 62
     6
 10
513.056888
 20
208.571432
 40
0.714286
 50
0.000001
 51
89.942691
  0
ARC
  8
CSLAYER1
  6
CONTINUOUS
 62
     6
 10
515.913992
 20
208.571432
 40
0.714286
 50
90.000010
 51
180.000016
  0
ARC
  8
CSLAYER1
  6
CONTINUOUS
 62
     6
 10
515.913992
 20
211.428610
 40
0.714286
 50
180.000016
 51
270.000005
  0
ARC
  8
CSLAYER1
  6
CONTINUOUS
 62
     6
 10
513.056888
 20
211.428610
 40
0.714286
 50
270.000005
 51
359.942654
  0
LINE
  8
CSLAYER1
  6
CONTINUOUS
 62
     6
 10
320.876853
 20
95.922258
 11
320.876853
 21
55.922258
  0
LINE
  8
CSLAYER1
  6
CONTINUOUS
 62
     6
 10
297.376853
 20
92.922258
 11
297.376853
 21
58.922258
  0
LINE
  8
CSLAYER1
  6
CONTINUOUS
 62
     6
 10
327.376853
 20
95.922258
 11
327.376853
 21
55.922258
  0
LINE
  8
CSLAYER1
  6
CONTINUOUS
 62
     6
 10
263.376869
 20
122.922258
 11
343.376853
 21
122.922258
  0
LINE
  8
CSLAYER1
  6
CONTINUOUS
 62
     6
 10
353.376853
 20
112.922258
 11
353.376853
 21
105.922258
  0
LINE
  8
CSLAYER1
  6
CONTINUOUS
 62
     6
 10
343.376853
 20
95.922258
 11
263.376869
 21
95.922258
  0
LINE
  8
CSLAYER1
  6
CONTINUOUS
 62
     6
 10
253.376869
 20
105.922258
 11
253.376869
 21
112.922258
  0
ARC
  8
CSLAYER1
  6
CONTINUOUS
 62
     6
 10
343.376853
 20
112.922258
 40
10.000000
 50
0.000000
 51
90.000000
  0
ARC
  8
CSLAYER1
  6
CONTINUOUS
 62
     6
 10
343.376853
 20
105.922258
 40
10.000000
 50
270.000000
 51
360.000000
  0
ARC
  8
CSLAYER1
  6
CONTINUOUS
 62
     6
 10
263.376869
 20
112.922258
 40
10.000000
 50
90.000000
 51
180.000000
  0
ARC
  8
CSLAYER1
  6
CONTINUOUS
 62
     6
 10
263.376869
 20
105.922258
 40
10.000000
 50
180.000000
 51
270.000000
  0
ARC
  8
CSLAYER1
  6
CONTINUOUS
 62
     6
 10
335.876853
 20
115.422258
 40
3.500000
 50
0.000000
 51
180.000000
  0
ARC
  8
CSLAYER1
  6
CONTINUOUS
 62
     6
 10
335.876853
 20
109.422258
 40
3.500000
 50
180.000000
 51
360.000000
  0
LINE
  8
CSLAYER1
  6
CONTINUOUS
 62
     6
 10
332.376853
 20
115.422258
 11
332.376853
 21
109.422258
  0
LINE
  8
CSLAYER1
  6
CONTINUOUS
 62
     6
 10
339.376853
 20
115.422258
 11
339.376853
 21
109.422258
  0
ARC
  8
CSLAYER1
  6
CONTINUOUS
 62
     6
 10
294.376853
 20
92.922258
 40
3.000000
 50
0.000000
 51
90.000000
  0
LINE
  8
CSLAYER1
  6
CONTINUOUS
 62
     6
 10
263.376853
 20
28.922252
 11
343.376853
 21
28.922252
  0
LINE
  8
CSLAYER1
  6
CONTINUOUS
 62
     6
 10
353.376853
 20
38.922252
 11
353.376853
 21
45.922252
  0
LINE
  8
CSLAYER1
  6
CONTINUOUS
 62
     6
 10
343.376853
 20
55.922252
 11
263.376853
 21
55.922252
  0
ARC
  8
CSLAYER1
  6
CONTINUOUS
 62
     6
 10
343.376853
 20
38.922252
 40
10.000000
 50
270.000000
 51
360.000000
  0
ARC
  8
CSLAYER1
  6
CONTINUOUS
 62
     6
 10
343.376853
 20
45.922252
 40
10.000000
 50
0.000000
 51
90.000000
  0
ARC
  8
CSLAYER1
  6
CONTINUOUS
 62
     6
 10
294.376853
 20
58.922258
 40
3.000000
 50
270.000000
 51
360.000000
  0
LINE
  8
CSLAYER1
  6
CENTER
 62
     3
 10
335.876853
 20
120.922258
 11
335.876853
 21
103.922258
  0
LINE
  8
CSLAYER1
  6
CENTER
 62
     3
 10
328.376853
 20
115.422258
 11
343.376853
 21
115.422258
  0
LINE
  8
CSLAYER1
  6
CONTINUOUS
 62
     6
 10
328.463034
 20
80.267050
 11
328.463034
 21
71.577414
  0
ARC
  8
CSLAYER1
  6
CONTINUOUS
 62
     6
 10
320.704397
 20
75.922232
 40
10.862092
 50
-16.257006
 51
16.257016
  0
LINE
  8
CSLAYER1
  6
CONTINUOUS
 62
     6
 10
328.800486
 20
71.684508
 11
329.777797
 21
71.770007
  0
ARC
  8
CSLAYER1
  6
CONTINUOUS
 62
     6
 10
329.642552
 20
73.315839
 40
1.551727
 50
275.000111
 51
343.742611
  0
ARC
  8
CSLAYER1
  6
CONTINUOUS
 62
     6
 10
328.773399
 20
71.993664
 40
0.310345
 50
180.000000
 51
275.000152
  0
LINE
  8
CSLAYER1
  6
CONTINUOUS
 62
     6
 10
328.307899
 20
71.422232
 11
327.532036
 21
71.422232
  0
ARC
  8
CSLAYER1
  6
CONTINUOUS
 62
     6
 10
328.307899
 20
71.577414
 40
0.155173
 50
-89.999997
 51
0.000005
  0
ARC
  8
CSLAYER1
  6
CONTINUOUS
 62
     6
 10
327.532036
 20
71.577414
 40
0.155173
 50
180.000000
 51
270.000003
  0
LINE
  8
CSLAYER1
  6
CONTINUOUS
 62
     6
 10
328.800486
 20
80.159957
 11
329.777797
 21
80.074457
  0
ARC
  8
CSLAYER1
  6
CONTINUOUS
 62
     6
 10
329.642552
 20
78.528626
 40
1.551727
 50
16.257399
 51
84.999892
  0
ARC
  8
CSLAYER1
  6
CONTINUOUS
 62
     6
 10
328.773399
 20
79.850800
 40
0.310345
 50
84.999865
 51
179.942691
  0
ARC
  8
CSLAYER1
  6
CONTINUOUS
 62
     6
 10
328.307899
 20
80.267050
 40
0.155173
 50
0.000005
 51
90.000001
  0
LINE
  8
CSLAYER1
  6
CONTINUOUS
 62
     6
 10
328.307899
 20
80.422232
 11
327.532036
 21
80.422232
  0
ARC
  8
CSLAYER1
  6
CONTINUOUS
 62
     6
 10
327.532036
 20
80.267050
 40
0.155173
 50
90.000001
 51
179.942691
  0
LINE
  8
CSLAYER1
  6
CONTINUOUS
 62
     6
 10
328.463034
 20
76.846956
 11
327.376853
 21
76.158202
  0
LINE
  8
CSLAYER1
  6
CONTINUOUS
 62
     6
 10
328.463034
 20
76.071092
 11
327.376853
 21
75.382338
  0
LINE
  8
CSLAYER1
  6
CENTER
 62
     3
 10
328.376853
 20
109.422235
 11
332.376853
 21
109.422235
  0
LINE
  8
CSLAYER1
  6
CENTER
 62
     3
 10
339.376853
 20
109.422235
 11
343.376853
 21
109.422235
  0
LINE
  8
CSLAYER1
  6
CONTINUOUS
 62
     6
 10
332.376853
 20
109.422235
 11
339.376853
 21
109.422235
  0
ARC
  8
CSLAYER1
  6
CONTINUOUS
 62
     6
 10
335.876853
 20
36.422250
 40
3.500000
 50
-179.999991
 51
0.000009
  0
ARC
  8
CSLAYER1
  6
CONTINUOUS
 62
     6
 10
335.876852
 20
42.422250
 40
3.500000
 50
0.000009
 51
180.000009
  0
LINE
  8
CSLAYER1
  6
CONTINUOUS
 62
     6
 10
332.376853
 20
36.422249
 11
332.376852
 21
42.422249
  0
LINE
  8
CSLAYER1
  6
CONTINUOUS
 62
     6
 10
339.376853
 20
36.422251
 11
339.376852
 21
42.422251
  0
LINE
  8
CSLAYER1
  6
CENTER
 62
     3
 10
335.876854
 20
30.922250
 11
335.876852
 21
47.922250
  0
LINE
  8
CSLAYER1
  6
CENTER
 62
     3
 10
328.376853
 20
36.422249
 11
343.376853
 21
36.422251
  0
LINE
  8
CSLAYER1
  6
CENTER
 62
     3
 10
328.376852
 20
42.422271
 11
332.376852
 21
42.422272
  0
LINE
  8
CSLAYER1
  6
CENTER
 62
     3
 10
339.376852
 20
42.422273
 11
343.376852
 21
42.422273
  0
LINE
  8
CSLAYER1
  6
CONTINUOUS
 62
     6
 10
332.376852
 20
42.422272
 11
339.376852
 21
42.422273
  0
ARC
  8
CSLAYER1
  6
CONTINUOUS
 62
     6
 10
270.876869
 20
115.422258
 40
3.500000
 50
0.000000
 51
180.000000
  0
ARC
  8
CSLAYER1
  6
CONTINUOUS
 62
     6
 10
270.876869
 20
109.422258
 40
3.500000
 50
180.000000
 51
360.000000
  0
LINE
  8
CSLAYER1
  6
CONTINUOUS
 62
     6
 10
267.376869
 20
115.422258
 11
267.376869
 21
109.422258
  0
LINE
  8
CSLAYER1
  6
CONTINUOUS
 62
     6
 10
274.376869
 20
115.422258
 11
274.376869
 21
109.422258
  0
LINE
  8
CSLAYER1
  6
CENTER
 62
     3
 10
270.876869
 20
120.922258
 11
270.876869
 21
103.922258
  0
LINE
  8
CSLAYER1
  6
CENTER
 62
     3
 10
263.376869
 20
115.422258
 11
278.376869
 21
115.422258
  0
LINE
  8
CSLAYER1
  6
CENTER
 62
     3
 10
263.376869
 20
109.422235
 11
278.376869
 21
109.422235
  0
LINE
  8
CSLAYER1
  6
CONTINUOUS
 62
     6
 10
268.427391
 20
106.922246
 11
273.326346
 21
106.922246
  0
ARC
  8
CSLAYER1
  6
CONTINUOUS
 62
     6
 10
270.876853
 20
36.422250
 40
3.500000
 50
-179.999991
 51
0.000009
  0
ARC
  8
CSLAYER1
  6
CONTINUOUS
 62
     6
 10
270.876852
 20
42.422250
 40
3.500000
 50
0.000009
 51
180.000009
  0
LINE
  8
CSLAYER1
  6
CONTINUOUS
 62
     6
 10
267.376853
 20
36.422249
 11
267.376852
 21
42.422249
  0
LINE
  8
CSLAYER1
  6
CONTINUOUS
 62
     6
 10
274.376853
 20
36.422251
 11
274.376852
 21
42.422251
  0
LINE
  8
CSLAYER1
  6
CENTER
 62
     3
 10
270.876854
 20
30.922250
 11
270.876852
 21
47.922250
  0
LINE
  8
CSLAYER1
  6
CENTER
 62
     3
 10
263.376853
 20
36.422249
 11
278.376853
 21
36.422251
  0
LINE
  8
CSLAYER1
  6
CENTER
 62
     3
 10
263.376852
 20
42.422271
 11
278.376852
 21
42.422273
  0
LINE
  8
CSLAYER1
  6
CONTINUOUS
 62
     6
 10
268.427375
 20
44.922262
 11
273.326330
 21
44.922262
  0
LINE
  8
CSLAYER1
  6
CENTER
 62
     3
 10
154.485435
 20
210.000016
 11
60.485435
 21
210.000016
  0
LINE
  8
CSLAYER1
  6
CENTER
 62
     3
 10
107.485435
 20
257.000016
 11
107.485435
 21
156.323648
  0
ARC
  8
CSLAYER1
  6
CONTINUOUS
 62
     6
 10
107.485435
 20
210.000016
 40
31.000000
 50
-85.930420
 51
265.930438
  0
ARC
  8
CSLAYER1
  6
CONTINUOUS
 62
     6
 10
107.485435
 20
210.000016
 40
44.000000
 50
0.000000
 51
180.000000
  0
ARC
  8
CSLAYER1
  6
CENTER
 62
     3
 10
107.485435
 20
210.000016
 40
39.000000
 50
81.918109
 51
98.081891
  0
LINE
  8
CSLAYER1
  6
CONTINUOUS
 62
     6
 10
60.485465
 20
160.000000
 11
60.485465
 21
166.000000
  0
LINE
  8
CSLAYER1
  6
DASHED
 62
     6
 10
77.485465
 20
168.000016
 11
77.485465
 21
160.000000
  0
LINE
  8
CSLAYER1
  6
DASHED
 62
     6
 10
64.485465
 20
160.000000
 11
64.485465
 21
168.000000
  0
LINE
  8
CSLAYER1
  6
CONTINUOUS
 62
     6
 10
87.485465
 20
160.000000
 11
60.485465
 21
160.000000
  0
LINE
  8
CSLAYER1
  6
CONTINUOUS
 62
     6
 10
63.485465
 20
210.000016
 11
63.485465
 21
169.000000
  0
LINE
  8
CSLAYER1
  6
CONTINUOUS
 62
     6
 10
69.485465
 20
170.000000
 11
69.485465
 21
207.708741
  0
ARC
  8
CSLAYER1
  6
CONTINUOUS
 62
     6
 10
62.485465
 20
166.000000
 40
2.000000
 50
90.000003
 51
180.000005
  0
ARC
  8
CSLAYER1
  6
CONTINUOUS
 62
     6
 10
85.485465
 20
166.000000
 40
2.000000
 50
0.000000
 51
90.000003
  0
ARC
  8
CSLAYER1
  6
CONTINUOUS
 62
     6
 10
71.485465
 20
170.000000
 40
2.000000
 50
180.000005
 51
270.000001
  0
ARC
  8
CSLAYER1
  6
CONTINUOUS
 62
     6
 10
62.485465
 20
169.000000
 40
1.000000
 50
270.000001
 51
359.942691
  0
LINE
  8
CSLAYER1
  6
CONTINUOUS
 62
     6
 10
154.485465
 20
160.000000
 11
154.485465
 21
166.000000
  0
LINE
  8
CSLAYER1
  6
DASHED
 62
     6
 10
137.485465
 20
168.000016
 11
137.485465
 21
160.000000
  0
LINE
  8
CSLAYER1
  6
DASHED
 62
     6
 10
150.485465
 20
160.000000
 11
150.485465
 21
168.000000
  0
LINE
  8
CSLAYER1
  6
CONTINUOUS
 62
     6
 10
127.485465
 20
160.000000
 11
154.485465
 21
160.000000
  0
LINE
  8
CSLAYER1
  6
CONTINUOUS
 62
     6
 10
152.485465
 20
168.000000
 11
62.485465
 21
168.000000
  0
ARC
  8
CSLAYER1
  6
CONTINUOUS
 62
     6
 10
152.485465
 20
166.000000
 40
2.000000
 50
0.000010
 51
90.000016
  0
ARC
  8
CSLAYER1
  6
CONTINUOUS
 62
     6
 10
129.485465
 20
166.000000
 40
2.000000
 50
90.000016
 51
179.942686
  0
LINE
  8
CSLAYER1
  6
CONTINUOUS
 62
     6
 10
145.485465
 20
170.000000
 11
145.485465
 21
207.708715
  0
ARC
  8
CSLAYER1
  6
CONTINUOUS
 62
     6
 10
143.485465
 20
170.000000
 40
2.000000
 50
270.000001
 51
359.942691
  0
ARC
  8
CSLAYER1
  6
CONTINUOUS
 62
     6
 10
152.485465
 20
169.000000
 40
1.000000
 50
180.000019
 51
270.000001
  0
LINE
  8
CSLAYER1
  6
CONTINUOUS
 62
     6
 10
151.485465
 20
210.000016
 11
151.485465
 21
169.000000
  0
LINE
  8
CSLAYER1
  6
CENTER
 62
     3
 10
70.985435
 20
170.122223
 11
70.985435
 21
157.737580
  0
LINE
  8
CSLAYER1
  6
CENTER
 62
     3
 10
143.985435
 20
170.122223
 11
143.985435
 21
157.737580
  0
LINE
  8
CSLAYER1
  6
CONTINUOUS
 62
     6
 10
126.485465
 20
165.000016
 11
109.771805
 21
165.000009
  0
ARC
  8
CSLAYER1
  6
CONTINUOUS
 62
     6
 10
88.485465
 20
164.000000
 40
1.000000
 50
90.000023
 51
180.000005
  0
ARC
  8
CSLAYER1
  6
CONTINUOUS
 62
     6
 10
126.485465
 20
164.000000
 40
1.000000
 50
0.000010
 51
90.000016
  0
LINE
  8
CSLAYER1
  6
CONTINUOUS
 62
     6
 10
87.485465
 20
166.000000
 11
87.485465
 21
160.000000
  0
LINE
  8
CSLAYER1
  6
CONTINUOUS
 62
     6
 10
127.485465
 20
166.001999
 11
127.485465
 21
160.000000
  0
CIRCLE
  8
CSLAYER1
  6
CONTINUOUS
 62
     6
 10
107.485435
 20
210.000016
 40
30.000000
  0
LINE
  8
CSLAYER1
  6
CONTINUOUS
 62
     6
 10
109.685432
 20
169.440150
 11
109.685440
 21
180.080796
  0
LINE
  8
CSLAYER1
  6
CONTINUOUS
 62
     6
 10
105.285434
 20
169.440150
 11
105.285442
 21
180.080796
  0
LINE
  8
CSLAYER1
  6
CONTINUOUS
 62
     6
 10
107.485427
 20
169.440150
 11
107.485443
 21
180.080796
  0
ARC
  8
CSLAYER1
  6
CONTINUOUS
 62
     6
 10
123.244456
 20
166.528003
 40
15.759004
 50
180.000235
 51
207.463987
  0
ARC
  8
CSLAYER1
  6
CONTINUOUS
 62
     6
 10
123.244456
 20
166.528003
 40
13.559023
 50
180.000308
 51
207.464006
  0
ARC
  8
CSLAYER1
  6
CONTINUOUS
 62
     6
 10
108.035453
 20
170.392772
 40
1.099999
 50
239.999870
 51
299.999858
  0
ARC
  8
CSLAYER1
  6
CONTINUOUS
 62
     6
 10
109.135452
 20
170.392772
 40
1.099999
 50
239.999870
 51
299.999858
  0
ARC
  8
CSLAYER1
  6
CONTINUOUS
 62
     6
 10
109.135444
 20
168.487529
 40
1.099999
 50
59.999858
 51
119.999853
  0
ARC
  8
CSLAYER1
  6
CONTINUOUS
 62
     6
 10
109.135434
 20
165.575288
 40
1.099999
 50
59.999715
 51
119.999716
  0
ARC
  8
CSLAYER1
  6
CONTINUOUS
 62
     6
 10
108.035436
 20
165.575303
 40
1.099999
 50
59.999715
 51
119.999716
  0
ARC
  8
CSLAYER1
  6
CONTINUOUS
 62
     6
 10
108.035444
 20
167.480561
 40
1.099999
 50
239.999733
 51
299.999721
  0
LINE
  8
CSLAYER1
  6
CONTINUOUS
 62
     6
 10
110.725515
 20
160.021059
 11
112.502359
 21
157.000060
  0
LINE
  8
CSLAYER1
  6
CONTINUOUS
 62
     6
 10
110.237499
 20
159.767411
 11
111.851676
 21
156.661854
  0
LINE
  8
CSLAYER1
  6
CONTINUOUS
 62
     6
 10
109.749486
 20
159.513758
 11
111.200993
 21
156.323648
  0
LINE
  8
CSLAYER1
  6
CONTINUOUS
 62
     6
 10
111.213527
 20
160.274713
 11
109.261478
 21
159.260095
  0
ARC
  8
CSLAYER1
  6
CONTINUOUS
 62
     6
 10
91.726473
 20
166.527830
 40
15.758933
 50
-27.463461
 51
0.000397
  0
ARC
  8
CSLAYER1
  6
CONTINUOUS
 62
     6
 10
91.726473
 20
166.527830
 40
13.558951
 50
-27.463363
 51
0.000417
  0
ARC
  8
CSLAYER1
  6
CONTINUOUS
 62
     6
 10
105.835410
 20
170.392772
 40
1.099999
 50
240.000198
 51
300.000186
  0
ARC
  8
CSLAYER1
  6
CONTINUOUS
 62
     6
 10
106.935409
 20
170.392772
 40
1.099999
 50
240.000198
 51
300.000186
  0
ARC
  8
CSLAYER1
  6
CONTINUOUS
 62
     6
 10
106.935416
 20
168.487529
 40
1.099999
 50
60.000186
 51
120.000181
  0
ARC
  8
CSLAYER1
  6
CONTINUOUS
 62
     6
 10
106.935430
 20
165.575319
 40
1.099999
 50
60.000350
 51
120.000345
  0
ARC
  8
CSLAYER1
  6
CONTINUOUS
 62
     6
 10
105.835431
 20
165.575303
 40
1.099999
 50
60.000350
 51
120.000345
  0
ARC
  8
CSLAYER1
  6
CONTINUOUS
 62
     6
 10
105.835420
 20
167.480561
 40
1.099999
 50
240.000362
 51
300.000350
  0
CIRCLE
  8
CSLAYER1
  6
CONTINUOUS
 62
     6
 10
107.485427
 20
210.000016
 40
6.818180
  0
CIRCLE
  8
CSLAYER1
  6
CONTINUOUS
 62
     6
 10
107.485427
 20
210.000016
 40
7.909089
  0
LINE
  8
CSLAYER1
  6
CONTINUOUS
 62
     6
 10
100.667247
 20
210.000016
 11
110.894515
 21
206.590928
  0
LINE
  8
CSLAYER1
  6
CONTINUOUS
 62
     6
 10
110.894515
 20
206.590928
 11
110.936210
 21
210.000016
  0
LINE
  8
CSLAYER1
  6
CONTINUOUS
 62
     6
 10
110.936210
 20
210.000016
 11
114.303611
 21
210.000016
  0
LINE
  8
CSLAYER1
  6
CONTINUOUS
 62
     6
 10
104.076339
 20
213.409104
 11
104.099475
 21
210.000016
  0
LINE
  8
CSLAYER1
  6
CONTINUOUS
 62
     6
 10
104.099475
 20
210.000016
 11
100.667247
 21
210.000016
  0
TEXT
  8
CSLAYER1
 62
     6
 10
92.652603
 20
208.031937
 40
3.409090
 41
1.200000
  1
S
 50
282.000000
 51
3.000000
  7
JX_FONT
 72
     5
 11
93.219635
 21
205.364262
  0
TEXT
  8
CSLAYER1
 62
     6
 10
93.385925
 20
204.991043
 40
3.409090
 41
1.200000
  1
A
 50
294.000031
 51
3.000000
  7
JX_FONT
 72
     5
 11
94.495208
 21
202.499557
  0
TEXT
  8
CSLAYER1
 62
     6
 10
94.735474
 20
202.169052
 40
3.409090
 41
1.596000
  1
W
 50
306.000031
 51
3.000000
  7
JX_FONT
 72
     5
 11
96.867532
 21
199.234529
  0
TEXT
  8
CSLAYER1
 62
     6
 10
96.642227
 20
199.689316
 40
3.409090
 41
1.200000
  1
A
 50
318.000000
 51
3.000000
  7
JX_FONT
 72
     5
 11
98.668985
 21
197.864415
  0
TEXT
  8
CSLAYER1
 62
     6
 10
99.022888
 20
197.660202
 40
3.409090
 41
1.200000
  1
M
 50
330.000000
 51
3.000000
  7
JX_FONT
 72
     5
 11
101.384775
 21
196.296566
  0
TEXT
  8
CSLAYER1
 62
     6
 10
101.773392
 20
196.170425
 40
3.409090
 41
1.200000
  1
U
 50
342.000000
 51
3.000000
  7
JX_FONT
 72
     5
 11
104.367182
 21
195.327652
  0
TEXT
  8
CSLAYER1
 62
     6
 10
104.773544
 20
195.285049
 40
3.409090
 41
1.200000
  1
R
 50
353.999969
 51
3.000000
  7
JX_FONT
 72
     5
 11
107.485876
 21
194.999970
  0
TEXT
  8
CSLAYER1
 62
     6
 10
107.892242
 20
195.042770
 40
3.409090
 41
1.200000
  1
A
 50
6.000000
 51
3.000000
  7
JX_FONT
 72
     5
 11
110.604574
 21
195.327848
  0
TEXT
  8
CSLAYER1
 62
     6
 10
120.642136
 20
202.873734
 40
3.409090
 41
1.200000
  1
K
 50
66.000046
 51
3.000000
  7
JX_FONT
 72
     5
 11
121.751415
 21
205.365221
  0
TEXT
  8
CSLAYER1
 62
     6
 10
121.836258
 20
205.764877
 40
3.409090
 41
0.792000
  1
I
 50
78.000000
 51
3.000000
  7
JX_FONT
 72
     5
 11
122.210499
 21
207.525543
  0
TEXT
  8
CSLAYER1
 62
     6
 10
113.940735
 20
196.501358
 40
3.409090
 41
1.200000
  1
D
 50
30.000032
 51
3.000000
  7
JX_FONT
 72
     5
 11
116.302621
 21
197.864995
  0
TEXT
  8
CSLAYER1
 62
     6
 10
116.606186
 20
198.138474
 40
3.409090
 41
1.200000
  1
E
 50
41.999962
 51
3.000000
  7
JX_FONT
 72
     5
 11
118.632945
 21
199.963373
  0
TEXT
  8
CSLAYER1
 62
     6
 10
118.873001
 20
200.294022
 40
3.409090
 41
1.200000
  1
N
 50
54.000061
 51
3.000000
  7
JX_FONT
 72
     5
 11
120.476049
 21
202.500433
  0
TEXT
  8
CSLAYER1
 62
     6
 10
92.567551
 20
211.158737
 40
3.410000
 41
1.200000
  1
*
 50
-90.000000
 51
3.000000
  7
JX_FONT
 72
     5
 11
92.567551
 21
208.430737
  0
TEXT
  8
CSLAYER1
 62
     6
 10
113.197449
 20
223.829605
 40
3.409090
 41
1.200000
  1
U
 50
162.000000
 51
3.000000
  7
JX_FONT
 72
     5
 11
110.603659
 21
224.672379
  0
TEXT
  8
CSLAYER1
 62
     6
 10
110.197296
 20
224.714981
 40
3.409090
 41
1.200000
  1
R
 50
173.999985
 51
3.000000
  7
JX_FONT
 72
     5
 11
107.484964
 21
225.000059
  0
TEXT
  8
CSLAYER1
 62
     6
 10
107.078613
 20
224.957260
 40
3.409090
 41
1.200000
  1
A
 50
186.000015
 51
3.000000
  7
JX_FONT
 72
     5
 11
104.366282
 21
224.672182
  0
TEXT
  8
CSLAYER1
 62
     6
 10
94.328690
 20
217.126266
 40
3.409090
 41
1.200000
  1
K
 50
246.000061
 51
3.000000
  7
JX_FONT
 72
     5
 11
93.219411
 21
214.634778
  0
TEXT
  8
CSLAYER1
 62
     6
 10
93.134567
 20
214.235123
 40
3.409090
 41
0.792000
  1
I
 50
258.000000
 51
3.000000
  7
JX_FONT
 72
     5
 11
92.760326
 21
212.474457
  0
TEXT
  8
CSLAYER1
 62
     6
 10
101.030106
 20
223.498642
 40
3.409090
 41
1.200000
  1
D
 50
210.000046
 51
3.000000
  7
JX_FONT
 72
     5
 11
98.668220
 21
222.135004
  0
TEXT
  8
CSLAYER1
 62
     6
 10
98.364670
 20
221.861526
 40
3.409090
 41
1.200000
  1
E
 50
221.999969
 51
3.000000
  7
JX_FONT
 72
     5
 11
96.337911
 21
220.036626
  0
TEXT
  8
CSLAYER1
 62
     6
 10
96.097839
 20
219.705978
 40
3.409090
 41
1.200000
  1
N
 50
234.000061
 51
3.000000
  7
JX_FONT
 72
     5
 11
94.494791
 21
217.499567
  0
TEXT
  8
CSLAYER1
 62
     6
 10
122.318222
 20
211.968094
 40
3.409090
 41
1.200000
  1
S
 50
102.000000
 51
3.000000
  7
JX_FONT
 72
     5
 11
121.751190
 21
214.635768
  0
TEXT
  8
CSLAYER1
 62
     6
 10
121.584915
 20
215.008987
 40
3.409090
 41
1.200000
  1
A
 50
114.000046
 51
3.000000
  7
JX_FONT
 72
     5
 11
120.475632
 21
217.500474
  0
TEXT
  8
CSLAYER1
 62
     6
 10
120.235367
 20
217.830978
 40
3.409090
 41
1.596000
  1
W
 50
126.000038
 51
3.000000
  7
JX_FONT
 72
     5
 11
118.103308
 21
220.765502
  0
TEXT
  8
CSLAYER1
 62
     6
 10
118.328598
 20
220.310715
 40
3.409090
 41
1.200000
  1
A
 50
138.000031
 51
3.000000
  7
JX_FONT
 72
     5
 11
116.301839
 21
222.135615
  0
TEXT
  8
CSLAYER1
 62
     6
 10
115.947952
 20
222.339798
 40
3.409090
 41
1.200000
  1
M
 50
150.000015
 51
3.000000
  7
JX_FONT
 72
     5
 11
113.586065
 21
223.703433
  0
TEXT
  8
CSLAYER1
 62
     6
 10
122.403275
 20
208.841263
 40
3.410000
 41
1.200000
  1
*
 50
90.000000
 51
3.000000
  7
JX_FONT
 72
     5
 11
122.403275
 21
211.569263
  0
CIRCLE
  8
CSLAYER1
  6
CONTINUOUS
 62
     6
 10
107.485427
 20
210.000016
 40
16.000000
  0
CIRCLE
  8
CSLAYER1
  6
CONTINUOUS
 62
     6
 10
107.485427
 20
210.000016
 40
17.000000
  0
LINE
  8
CSLAYER1
  6
CONTINUOUS
 62
     6
 10
114.303603
 20
210.000018
 11
104.076339
 21
213.409104
  0
LINE
  8
CSLAYER1
  6
CONTINUOUS
 62
     6
 10
104.099475
 20
210.000031
 11
104.099475
 21
210.000016
  0
LINE
  8
CSLAYER1
  6
CONTINUOUS
 62
     6
 10
104.245392
 20
160.021057
 11
102.468548
 21
157.000058
  0
LINE
  8
CSLAYER1
  6
CONTINUOUS
 62
     6
 10
104.733408
 20
159.767410
 11
103.119232
 21
156.661852
  0
LINE
  8
CSLAYER1
  6
CONTINUOUS
 62
     6
 10
105.221421
 20
159.513757
 11
103.769915
 21
156.323646
  0
LINE
  8
CSLAYER1
  6
CONTINUOUS
 62
     6
 10
103.757411
 20
160.274695
 11
105.709455
 21
159.260081
  0
LINE
  8
CSLAYER1
  6
CONTINUOUS
 62
     6
 10
105.199072
 20
165.000007
 11
88.485465
 21
165.000000
  0
LINE
  8
CSLAYER1
  6
CONTINUOUS
 62
     6
 10
107.559704
 20
165.000008
 11
107.411170
 21
165.000008
  0
LINE
  8
CSLAYER1
  6
CONTINUOUS
 62
     6
 10
63.485465
 20
210.000016
 11
65.985435
 21
210.000016
  0
LINE
  8
CSLAYER1
  6
CONTINUOUS
 62
     6
 10
148.985435
 20
210.000016
 11
151.485465
 21
210.000016
  0
LINE
  8
CSLAYER1
  6
CENTER
 62
     3
 10
118.588135
 20
251.435857
 11
116.052982
 21
241.974537
  0
CIRCLE
  8
CSLAYER1
  6
CONTINUOUS
 62
     6
 10
117.320559
 20
246.705197
 40
2.500000
  0
CIRCLE
  8
CSLAYER1
  6
CONTINUOUS
 62
     6
 10
117.320559
 20
246.705197
 40
2.900000
  0
LINE
  8
CSLAYER1
  6
CONTINUOUS
 62
     6
 10
114.905744
 20
247.352245
 11
118.204442
 21
245.174267
  0
LINE
  8
CSLAYER1
  6
CONTINUOUS
 62
     6
 10
118.204442
 20
245.174267
 11
118.542732
 21
246.377717
  0
LINE
  8
CSLAYER1
  6
CONTINUOUS
 62
     6
 10
118.542732
 20
246.377717
 11
119.735375
 21
246.058149
  0
LINE
  8
CSLAYER1
  6
CONTINUOUS
 62
     6
 10
116.436676
 20
248.236127
 11
116.121346
 21
247.026525
  0
LINE
  8
CSLAYER1
  6
CONTINUOUS
 62
     6
 10
116.121346
 20
247.026525
 11
114.905744
 21
247.352245
  0
LINE
  8
CSLAYER1
  6
CONTINUOUS
 62
     6
 10
119.735372
 20
246.058151
 11
116.436676
 21
248.236127
  0
LINE
  8
CSLAYER1
  6
CONTINUOUS
 62
     6
 10
116.121348
 20
247.026530
 11
116.121346
 21
247.026525
  0
ARC
  8
CSLAYER1
  6
CENTER
 62
     3
 10
107.485435
 20
210.000016
 40
38.000000
 50
67.610450
 51
82.389550
  0
ARC
  8
CSLAYER1
  6
CENTER
 62
     3
 10
107.485435
 20
210.000016
 40
39.000000
 50
171.918109
 51
188.081891
  0
ARC
  8
CSLAYER1
  6
CENTER
 62
     3
 10
107.485435
 20
210.000016
 40
39.000000
 50
261.918109
 51
278.081891
  0
ARC
  8
CSLAYER1
  6
CENTER
 62
     3
 10
107.485435
 20
210.000016
 40
39.000000
 50
-8.081891
 51
8.081891
  0
LINE
  8
CSLAYER1
  6
CENTER
 62
     3
 10
405.376860
 20
344.077738
 11
181.075742
 21
344.077785
  0
LINE
  8
CSLAYER1
  6
CONTINUOUS
 62
     6
 10
215.376853
 20
313.077736
 11
215.376853
 21
375.077736
  0
LINE
  8
CSLAYER1
  6
CONTINUOUS
 62
     6
 10
184.376853
 20
372.554069
 11
184.376853
 21
315.601402
  0
LINE
  8
CSLAYER1
  6
CONTINUOUS
 62
     6
 10
185.376853
 20
373.554069
 11
185.376853
 21
314.601402
  0
LINE
  8
CSLAYER1
  6
CONTINUOUS
 62
     6
 10
185.376853
 20
314.601402
 11
215.376869
 21
314.077751
  0
LINE
  8
CSLAYER1
  6
CONTINUOUS
 62
     6
 10
185.376853
 20
314.601402
 11
184.376853
 21
315.601402
  0
LINE
  8
CSLAYER1
  6
CONTINUOUS
 62
     6
 10
185.376853
 20
373.554069
 11
215.376869
 21
374.077721
  0
LINE
  8
CSLAYER1
  6
CONTINUOUS
 62
     6
 10
185.376853
 20
373.554069
 11
184.376853
 21
372.554069
  0
LINE
  8
CSLAYER1
  6
CONTINUOUS
 62
     6
 10
297.376833
 20
313.077736
 11
215.376853
 21
313.077736
  0
LINE
  8
CSLAYER1
  6
CONTINUOUS
 62
     6
 10
297.376833
 20
375.077736
 11
215.376853
 21
375.077736
  0
LINE
  8
CSLAYER1
  6
CONTINUOUS
 62
     6
 10
380.376853
 20
326.077720
 11
380.376853
 21
362.077723
  0
LINE
  8
CSLAYER1
  6
CONTINUOUS
 62
     6
 10
376.376853
 20
366.077723
 11
363.376853
 21
366.077723
  0
LINE
  8
CSLAYER1
  6
CONTINUOUS
 62
     6
 10
359.376853
 20
314.577721
 11
359.376853
 21
373.577725
  0
LINE
  8
CSLAYER1
  6
CONTINUOUS
 62
     6
 10
355.376853
 20
377.577725
 11
327.376853
 21
377.577726
  0
ARC
  8
CSLAYER1
  6
CONTINUOUS
 62
     6
 10
355.376853
 20
373.577725
 40
4.000000
 50
0.000000
 51
90.000000
  0
ARC
  8
CSLAYER1
  6
CONTINUOUS
 62
     6
 10
376.376853
 20
362.077723
 40
4.000000
 50
0.000000
 51
90.000000
  0
LINE
  8
CSLAYER1
  6
CONTINUOUS
 62
     6
 10
376.376850
 20
322.077721
 11
363.376854
 21
322.077723
  0
LINE
  8
CSLAYER1
  6
CONTINUOUS
 62
     6
 10
355.376848
 20
310.577722
 11
327.376853
 21
310.577726
  0
ARC
  8
CSLAYER1
  6
CONTINUOUS
 62
     6
 10
355.376849
 20
314.577722
 40
4.000000
 50
269.999991
 51
359.999991
  0
ARC
  8
CSLAYER1
  6
CONTINUOUS
 62
     6
 10
376.376851
 20
326.077721
 40
4.000000
 50
269.999991
 51
359.999991
  0
ARC
  8
CSLAYER1
  6
CONTINUOUS
 62
     6
 10
363.376853
 20
370.077723
 40
4.000000
 50
180.000000
 51
270.000000
  0
ARC
  8
CSLAYER1
  6
CONTINUOUS
 62
     6
 10
363.376853
 20
318.077723
 40
4.000000
 50
89.999991
 51
180.000000
  0
LINE
  8
CSLAYER1
  6
CONTINUOUS
 62
     6
 10
320.876853
 20
388.077759
 11
320.876853
 21
300.077759
  0
LINE
  8
CSLAYER1
  6
CONTINUOUS
 62
     6
 10
327.376853
 20
388.077759
 11
327.376853
 21
300.077759
  0
LINE
  8
CSLAYER1
  6
CONTINUOUS
 62
     6
 10
263.376889
 20
297.077748
 11
343.376874
 21
297.077748
  0
LINE
  8
CSLAYER1
  6
CONTINUOUS
 62
     6
 10
353.376853
 20
307.077748
 11
353.376853
 21
310.577722
  0
LINE
  8
CSLAYER1
  6
CONTINUOUS
 62
     6
 10
253.376853
 20
313.077736
 11
253.376853
 21
307.077748
  0
ARC
  8
CSLAYER1
  6
CONTINUOUS
 62
     6
 10
343.376874
 20
307.077748
 40
10.000000
 50
270.000000
 51
360.000000
  0
ARC
  8
CSLAYER1
  6
CONTINUOUS
 62
     6
 10
263.376853
 20
307.077748
 40
10.000000
 50
180.000000
 51
270.000000
  0
LINE
  8
CSLAYER1
  6
CONTINUOUS
 62
     6
 10
328.463025
 20
348.422540
 11
328.463025
 21
339.732904
  0
ARC
  8
CSLAYER1
  6
CONTINUOUS
 62
     6
 10
320.704388
 20
344.077722
 40
10.862092
 50
-16.257006
 51
16.257016
  0
LINE
  8
CSLAYER1
  6
CONTINUOUS
 62
     6
 10
328.800476
 20
339.839998
 11
329.777788
 21
339.925497
  0
ARC
  8
CSLAYER1
  6
CONTINUOUS
 62
     6
 10
329.642542
 20
341.471329
 40
1.551727
 50
275.000111
 51
343.742611
  0
ARC
  8
CSLAYER1
  6
CONTINUOUS
 62
     6
 10
328.773389
 20
340.149154
 40
0.310345
 50
180.000000
 51
275.000152
  0
LINE
  8
CSLAYER1
  6
CONTINUOUS
 62
     6
 10
328.307890
 20
339.577722
 11
327.532026
 21
339.577722
  0
ARC
  8
CSLAYER1
  6
CONTINUOUS
 62
     6
 10
328.307890
 20
339.732904
 40
0.155173
 50
-89.999997
 51
0.000005
  0
ARC
  8
CSLAYER1
  6
CONTINUOUS
 62
     6
 10
327.532026
 20
339.732904
 40
0.155173
 50
180.000000
 51
270.000003
  0
LINE
  8
CSLAYER1
  6
CONTINUOUS
 62
     6
 10
328.800476
 20
348.315447
 11
329.777788
 21
348.229947
  0
ARC
  8
CSLAYER1
  6
CONTINUOUS
 62
     6
 10
329.642542
 20
346.684116
 40
1.551727
 50
16.257399
 51
84.999892
  0
ARC
  8
CSLAYER1
  6
CONTINUOUS
 62
     6
 10
328.773389
 20
348.006290
 40
0.310345
 50
84.999865
 51
179.942691
  0
ARC
  8
CSLAYER1
  6
CONTINUOUS
 62
     6
 10
328.307890
 20
348.422540
 40
0.155173
 50
0.000005
 51
90.000001
  0
LINE
  8
CSLAYER1
  6
CONTINUOUS
 62
     6
 10
328.307890
 20
348.577722
 11
327.532026
 21
348.577722
  0
ARC
  8
CSLAYER1
  6
CONTINUOUS
 62
     6
 10
327.532026
 20
348.422540
 40
0.155173
 50
90.000001
 51
179.942691
  0
LINE
  8
CSLAYER1
  6
CONTINUOUS
 62
     6
 10
328.463025
 20
345.002446
 11
327.376844
 21
344.313692
  0
LINE
  8
CSLAYER1
  6
CONTINUOUS
 62
     6
 10
328.463025
 20
344.226582
 11
327.376844
 21
343.537828
  0
ARC
  8
CSLAYER1
  6
CONTINUOUS
 62
     6
 10
335.876854
 20
304.577745
 40
3.500000
 50
-179.999991
 51
0.000009
  0
LINE
  8
CSLAYER1
  6
CONTINUOUS
 62
     6
 10
332.376854
 20
304.577745
 11
332.376853
 21
310.577745
  0
LINE
  8
CSLAYER1
  6
CONTINUOUS
 62
     6
 10
339.376854
 20
304.577746
 11
339.376853
 21
310.577746
  0
LINE
  8
CSLAYER1
  6
CENTER
 62
     3
 10
335.876855
 20
299.077745
 11
335.876853
 21
316.077745
  0
LINE
  8
CSLAYER1
  6
CENTER
 62
     3
 10
328.376854
 20
304.577744
 11
343.376854
 21
304.577746
  0
LINE
  8
CSLAYER1
  6
CENTER
 62
     3
 10
328.376853
 20
310.577766
 11
343.839133
 21
310.577769
  0
ARC
  8
CSLAYER1
  6
CONTINUOUS
 62
     6
 10
270.876854
 20
304.577736
 40
3.500000
 50
-179.999991
 51
0.000009
  0
ARC
  8
CSLAYER1
  6
CONTINUOUS
 62
     6
 10
270.876853
 20
310.577736
 40
3.500000
 50
0.000009
 51
45.584705
  0
LINE
  8
CSLAYER1
  6
CONTINUOUS
 62
     6
 10
267.376854
 20
304.577735
 11
267.376853
 21
310.577735
  0
LINE
  8
CSLAYER1
  6
CONTINUOUS
 62
     6
 10
274.376854
 20
304.577736
 11
274.376853
 21
310.577736
  0
LINE
  8
CSLAYER1
  6
CENTER
 62
     3
 10
270.876855
 20
299.077736
 11
270.876853
 21
316.077736
  0
LINE
  8
CSLAYER1
  6
CENTER
 62
     3
 10
263.376854
 20
304.577734
 11
278.376854
 21
304.577737
  0
LINE
  8
CSLAYER1
  6
CENTER
 62
     3
 10
263.376853
 20
310.577757
 11
278.376853
 21
310.577759
  0
ARC
  8
CSLAYER1
  6
CONTINUOUS
 62
     6
 10
270.876853
 20
310.577736
 40
3.500000
 50
134.415295
 51
180.000009
  0
LINE
  8
CSLAYER1
  6
CONTINUOUS
 62
     6
 10
312.876853
 20
302.077759
 11
312.876853
 21
386.077759
  0
LINE
  8
CSLAYER1
  6
CONTINUOUS
 62
     6
 10
297.376853
 20
375.077736
 11
312.876853
 21
375.077736
  0
LINE
  8
CSLAYER1
  6
CONTINUOUS
 62
     6
 10
297.376853
 20
313.077736
 11
312.876853
 21
313.077736
  0
LINE
  8
CSLAYER1
  6
CONTINUOUS
 62
     6
 10
327.376853
 20
300.077759
 11
279.886238
 21
300.077759
  0
LINE
  8
CSLAYER1
  6
CONTINUOUS
 62
     6
 10
279.886258
 20
388.077759
 11
327.376853
 21
388.077759
  0
ARC
  8
CSLAYER1
  6
CONTINUOUS
 62
     6
 10
314.876853
 20
386.077759
 40
2.000000
 50
90.000000
 51
180.000000
  0
ARC
  8
CSLAYER1
  6
CONTINUOUS
 62
     6
 10
314.876853
 20
302.077759
 40
2.000000
 50
180.000000
 51
270.000000
  0
LINE
  8
CSLAYER1
  6
CONTINUOUS
 62
     6
 10
312.876853
 20
306.077759
 11
279.886238
 21
306.077759
  0
LINE
  8
CSLAYER1
  6
CONTINUOUS
 62
     6
 10
279.886238
 20
306.077759
 11
279.886238
 21
300.077759
  0
LINE
  8
CSLAYER1
  6
CENTER
 62
     3
 10
311.121550
 20
383.077748
 11
333.413156
 21
383.077745
  0
LINE
  8
CSLAYER1
  6
CONTINUOUS
 62
     6
 10
328.463015
 20
387.422540
 11
328.463015
 21
378.732904
  0
ARC
  8
CSLAYER1
  6
CONTINUOUS
 62
     6
 10
320.704378
 20
383.077722
 40
10.862092
 50
-16.257006
 51
16.257016
  0
LINE
  8
CSLAYER1
  6
CONTINUOUS
 62
     6
 10
328.800466
 20
378.839997
 11
329.777778
 21
378.925497
  0
ARC
  8
CSLAYER1
  6
CONTINUOUS
 62
     6
 10
329.642532
 20
380.471328
 40
1.551727
 50
275.000111
 51
343.742611
  0
ARC
  8
CSLAYER1
  6
CONTINUOUS
 62
     6
 10
328.773379
 20
379.149154
 40
0.310345
 50
180.000000
 51
275.000152
  0
LINE
  8
CSLAYER1
  6
CONTINUOUS
 62
     6
 10
328.307880
 20
378.577722
 11
327.532016
 21
378.577722
  0
ARC
  8
CSLAYER1
  6
CONTINUOUS
 62
     6
 10
328.307880
 20
378.732904
 40
0.155173
 50
-89.999997
 51
0.000005
  0
ARC
  8
CSLAYER1
  6
CONTINUOUS
 62
     6
 10
327.532016
 20
378.732904
 40
0.155173
 50
180.000000
 51
270.000003
  0
LINE
  8
CSLAYER1
  6
CONTINUOUS
 62
     6
 10
328.800466
 20
387.315446
 11
329.777778
 21
387.229947
  0
ARC
  8
CSLAYER1
  6
CONTINUOUS
 62
     6
 10
329.642532
 20
385.684115
 40
1.551727
 50
16.257399
 51
84.999892
  0
ARC
  8
CSLAYER1
  6
CONTINUOUS
 62
     6
 10
328.773379
 20
387.006290
 40
0.310345
 50
84.999865
 51
179.942691
  0
ARC
  8
CSLAYER1
  6
CONTINUOUS
 62
     6
 10
328.307880
 20
387.422540
 40
0.155173
 50
0.000005
 51
90.000001
  0
LINE
  8
CSLAYER1
  6
CONTINUOUS
 62
     6
 10
328.307880
 20
387.577722
 11
327.532016
 21
387.577722
  0
ARC
  8
CSLAYER1
  6
CONTINUOUS
 62
     6
 10
327.532016
 20
387.422540
 40
0.155173
 50
90.000001
 51
179.942691
  0
LINE
  8
CSLAYER1
  6
CONTINUOUS
 62
     6
 10
328.463015
 20
384.002446
 11
327.376834
 21
383.313692
  0
LINE
  8
CSLAYER1
  6
CONTINUOUS
 62
     6
 10
328.463015
 20
383.226582
 11
327.376834
 21
382.537828
  0
LINE
  8
CSLAYER1
  6
CENTER
 62
     3
 10
311.121533
 20
305.077770
 11
333.413138
 21
305.077764
  0
LINE
  8
CSLAYER1
  6
CONTINUOUS
 62
     6
 10
328.463025
 20
309.422561
 11
328.463025
 21
300.732925
  0
ARC
  8
CSLAYER1
  6
CONTINUOUS
 62
     6
 10
320.704388
 20
305.077743
 40
10.862092
 50
-16.257006
 51
16.257016
  0
LINE
  8
CSLAYER1
  6
CONTINUOUS
 62
     6
 10
328.800476
 20
300.840018
 11
329.777788
 21
300.925518
  0
ARC
  8
CSLAYER1
  6
CONTINUOUS
 62
     6
 10
329.642542
 20
302.471349
 40
1.551727
 50
275.000111
 51
343.742611
  0
ARC
  8
CSLAYER1
  6
CONTINUOUS
 62
     6
 10
328.773389
 20
301.149175
 40
0.310345
 50
180.000000
 51
275.000152
  0
LINE
  8
CSLAYER1
  6
CONTINUOUS
 62
     6
 10
328.307890
 20
300.577743
 11
327.532026
 21
300.577743
  0
ARC
  8
CSLAYER1
  6
CONTINUOUS
 62
     6
 10
328.307890
 20
300.732925
 40
0.155173
 50
-89.999997
 51
0.000005
  0
ARC
  8
CSLAYER1
  6
CONTINUOUS
 62
     6
 10
327.532026
 20
300.732925
 40
0.155173
 50
180.000000
 51
270.000003
  0
LINE
  8
CSLAYER1
  6
CONTINUOUS
 62
     6
 10
328.800476
 20
309.315467
 11
329.777788
 21
309.229968
  0
ARC
  8
CSLAYER1
  6
CONTINUOUS
 62
     6
 10
329.642542
 20
307.684136
 40
1.551727
 50
16.257399
 51
84.999892
  0
ARC
  8
CSLAYER1
  6
CONTINUOUS
 62
     6
 10
328.773389
 20
309.006310
 40
0.310345
 50
84.999865
 51
179.942691
  0
ARC
  8
CSLAYER1
  6
CONTINUOUS
 62
     6
 10
328.307890
 20
309.422561
 40
0.155173
 50
0.000005
 51
90.000001
  0
LINE
  8
CSLAYER1
  6
CONTINUOUS
 62
     6
 10
328.307890
 20
309.577743
 11
327.532026
 21
309.577743
  0
ARC
  8
CSLAYER1
  6
CONTINUOUS
 62
     6
 10
327.532026
 20
309.422561
 40
0.155173
 50
90.000001
 51
179.942691
  0
LINE
  8
CSLAYER1
  6
CONTINUOUS
 62
     6
 10
328.463025
 20
306.002467
 11
327.376844
 21
305.313713
  0
LINE
  8
CSLAYER1
  6
CONTINUOUS
 62
     6
 10
328.463025
 20
305.226603
 11
327.376844
 21
304.537849
  0
LINE
  8
CSLAYER1
  6
CONTINUOUS
 62
     3
 10
245.626833
 20
317.230983
 11
281.626833
 21
317.230983
  0
ARC
  8
CSLAYER1
  6
CONTINUOUS
 62
     3
 10
245.626833
 20
318.230983
 40
1.000000
 50
180.000005
 51
270.000001
  0
ARC
  8
CSLAYER1
  6
CONTINUOUS
 62
     3
 10
281.626833
 20
318.230983
 40
1.000000
 50
270.000001
 51
359.942691
  0
LINE
  8
CSLAYER1
  6
CONTINUOUS
 62
     3
 10
244.626833
 20
369.924551
 11
244.626833
 21
318.230983
  0
LINE
  8
CSLAYER1
  6
CONTINUOUS
 62
     3
 10
282.626833
 20
369.924551
 11
282.626833
 21
318.230983
  0
TEXT
  8
CSLAYER1
 62
     3
 10
262.405762
 20
349.576141
 40
3.500000
 41
1.125000
  1
N P
 50
-90.000000
 51
10.000000
  7
JX_FONT
 72
     5
 11
262.405762
 21
339.076141
  0
LINE
  8
CSLAYER1
  6
CONTINUOUS
 62
     3
 10
245.626833
 20
370.924551
 11
281.626833
 21
370.924551
  0
ARC
  8
CSLAYER1
  6
CONTINUOUS
 62
     3
 10
245.626833
 20
369.924551
 40
1.000000
 50
90.000009
 51
180.000005
  0
ARC
  8
CSLAYER1
  6
CONTINUOUS
 62
     3
 10
281.626833
 20
369.924551
 40
1.000000
 50
0.057319
 51
90.000009
  0
LINE
  8
CSLAYER1
  6
CONTINUOUS
 62
     6
 10
312.876871
 20
382.077759
 11
279.886255
 21
382.077774
  0
LINE
  8
CSLAYER1
  6
CONTINUOUS
 62
     6
 10
279.886255
 20
382.077774
 11
279.886258
 21
388.077774
  0
CIRCLE
  8
CSLAYER1
  6
CONTINUOUS
 62
     3
 10
107.485435
 20
249.000016
 40
2.500000
  0
CIRCLE
  8
CSLAYER1
  6
CONTINUOUS
 62
     6
 10
107.485435
 20
249.000016
 40
2.000000
  0
CIRCLE
  8
CSLAYER1
  6
CONTINUOUS
 62
     3
 10
146.485435
 20
210.000016
 40
2.500000
  0
CIRCLE
  8
CSLAYER1
  6
CONTINUOUS
 62
     6
 10
146.485435
 20
210.000016
 40
2.000000
  0
CIRCLE
  8
CSLAYER1
  6
CONTINUOUS
 62
     3
 10
68.485435
 20
210.000016
 40
2.500000
  0
CIRCLE
  8
CSLAYER1
  6
CONTINUOUS
 62
     6
 10
68.485435
 20
210.000016
 40
2.000000
  0
ARC
  8
CSLAYER1
  6
CONTINUOUS
 62
     3
 10
107.485429
 20
171.000016
 40
2.500000
 50
151.642044
 51
208.357872
  0
ARC
  8
CSLAYER1
  6
CONTINUOUS
 62
     6
 10
107.485429
 20
171.000016
 40
2.000000
 50
233.457153
 51
306.542889
  0
ARC
  8
CSLAYER1
  6
CONTINUOUS
 62
     3
 10
107.485429
 20
171.000016
 40
2.500000
 50
-28.357512
 51
28.357428
  0
ARC
  8
CSLAYER1
  6
CONTINUOUS
 62
     3
 10
107.485429
 20
171.000016
 40
2.500000
 50
222.543571
 51
317.456409
  0
CIRCLE
  8
CSLAYER1
  6
CONTINUOUS
 62
     6
 10
475.485420
 20
210.000016
 40
14.000000
  0
LINE
  8
CSLAYER1
  6
CONTINUOUS
 62
     6
 10
402.376853
 20
349.577738
 11
402.376853
 21
338.577738
  0
LINE
  8
CSLAYER1
  6
CONTINUOUS
 62
     6
 10
401.876853
 20
350.077739
 11
382.376853
 21
350.077743
  0
LINE
  8
CSLAYER1
  6
CONTINUOUS
 62
     6
 10
401.876853
 20
338.077739
 11
382.376853
 21
338.077743
  0
LINE
  8
CSLAYER1
  6
CONTINUOUS
 62
     6
 10
401.876853
 20
350.077739
 11
402.376853
 21
349.577738
  0
LINE
  8
CSLAYER1
  6
CONTINUOUS
 62
     6
 10
401.876853
 20
338.077739
 11
402.376853
 21
338.577738
  0
LINE
  8
CSLAYER1
  6
CONTINUOUS
 62
     6
 10
382.376853
 20
351.577743
 11
382.376853
 21
336.577743
  0
LINE
  8
CSLAYER1
  6
CONTINUOUS
 62
     6
 10
382.376853
 20
351.577743
 11
381.376853
 21
351.577743
  0
LINE
  8
CSLAYER1
  6
CONTINUOUS
 62
     6
 10
382.376853
 20
336.577743
 11
381.376853
 21
336.577743
  0
LINE
  8
CSLAYER1
  6
CONTINUOUS
 62
     6
 10
381.376853
 20
357.077743
 11
381.376853
 21
331.077743
  0
ARC
  8
CSLAYER1
  6
CONTINUOUS
 62
     6
 10
380.376853
 20
357.077743
 40
1.000000
 50
0.000000
 51
89.999987
  0
ARC
  8
CSLAYER1
  6
CONTINUOUS
 62
     6
 10
380.376853
 20
331.077743
 40
1.000000
 50
269.999987
 51
360.000000
  0
LINE
  8
CSLAYER1
  6
CONTINUOUS
 62
     6
 10
402.376853
 20
215.499997
 11
402.376853
 21
204.499997
  0
LINE
  8
CSLAYER1
  6
CONTINUOUS
 62
     6
 10
401.876853
 20
215.999997
 11
382.376853
 21
216.000001
  0
LINE
  8
CSLAYER1
  6
CONTINUOUS
 62
     6
 10
401.876853
 20
203.999997
 11
382.376853
 21
204.000001
  0
LINE
  8
CSLAYER1
  6
CONTINUOUS
 62
     6
 10
401.876853
 20
215.999997
 11
402.376853
 21
215.499997
  0
LINE
  8
CSLAYER1
  6
CONTINUOUS
 62
     6
 10
401.876853
 20
203.999997
 11
402.376853
 21
204.499997
  0
LINE
  8
CSLAYER1
  6
CONTINUOUS
 62
     6
 10
382.376853
 20
217.500001
 11
382.376853
 21
202.500001
  0
LINE
  8
CSLAYER1
  6
CONTINUOUS
 62
     6
 10
382.376853
 20
217.500001
 11
381.376853
 21
217.500001
  0
LINE
  8
CSLAYER1
  6
CONTINUOUS
 62
     6
 10
382.376853
 20
202.500001
 11
381.376853
 21
202.500001
  0
LINE
  8
CSLAYER1
  6
CONTINUOUS
 62
     6
 10
381.376853
 20
223.000002
 11
381.376853
 21
197.000002
  0
ARC
  8
CSLAYER1
  6
CONTINUOUS
 62
     6
 10
380.376853
 20
223.000002
 40
1.000000
 50
0.000000
 51
89.999987
  0
ARC
  8
CSLAYER1
  6
CONTINUOUS
 62
     6
 10
380.376853
 20
197.000002
 40
1.000000
 50
269.999987
 51
360.000000
  0
LINE
  8
CSLAYER1
  6
CONTINUOUS
 62
     6
 10
402.376853
 20
212.000000
 11
387.376854
 21
212.000001
  0
LINE
  8
CSLAYER1
  6
CONTINUOUS
 62
     6
 10
402.376853
 20
208.000000
 11
387.376853
 21
208.000001
  0
ARC
  8
CSLAYER1
  6
CONTINUOUS
 62
     6
 10
387.376853
 20
210.000001
 40
2.000000
 50
89.999996
 51
269.999996
  0
LINE
  8
CSLAYER1
  6
CONTINUOUS
 62
     6
 10
380.376853
 20
57.922250
 11
380.376853
 21
93.922253
  0
LINE
  8
CSLAYER1
  6
CONTINUOUS
 62
     6
 10
376.376853
 20
97.922253
 11
363.376853
 21
97.922253
  0
LINE
  8
CSLAYER1
  6
CONTINUOUS
 62
     6
 10
359.376853
 20
46.422251
 11
359.376853
 21
105.422255
  0
LINE
  8
CSLAYER1
  6
CONTINUOUS
 62
     6
 10
355.376853
 20
109.422255
 11
353.376853
 21
109.422255
  0
ARC
  8
CSLAYER1
  6
CONTINUOUS
 62
     6
 10
355.376853
 20
105.422255
 40
4.000000
 50
0.000000
 51
90.000000
  0
ARC
  8
CSLAYER1
  6
CONTINUOUS
 62
     6
 10
376.376853
 20
93.922253
 40
4.000000
 50
0.000000
 51
90.000000
  0
LINE
  8
CSLAYER1
  6
CONTINUOUS
 62
     6
 10
376.376850
 20
53.922251
 11
363.376854
 21
53.922253
  0
LINE
  8
CSLAYER1
  6
CONTINUOUS
 62
     6
 10
355.376848
 20
42.422252
 11
353.376853
 21
42.422252
  0
ARC
  8
CSLAYER1
  6
CONTINUOUS
 62
     6
 10
355.376849
 20
46.422252
 40
4.000000
 50
269.999991
 51
359.999991
  0
ARC
  8
CSLAYER1
  6
CONTINUOUS
 62
     6
 10
376.376851
 20
57.922251
 40
4.000000
 50
269.999991
 51
359.999991
  0
ARC
  8
CSLAYER1
  6
CONTINUOUS
 62
     6
 10
363.376853
 20
101.922253
 40
4.000000
 50
180.000000
 51
270.000000
  0
ARC
  8
CSLAYER1
  6
CONTINUOUS
 62
     6
 10
363.376853
 20
49.922253
 40
4.000000
 50
89.999991
 51
180.000000
  0
LINE
  8
CSLAYER1
  6
CONTINUOUS
 62
     6
 10
402.376853
 20
81.422247
 11
402.376853
 21
70.422247
  0
LINE
  8
CSLAYER1
  6
CONTINUOUS
 62
     6
 10
401.876853
 20
81.922247
 11
382.376853
 21
81.922251
  0
LINE
  8
CSLAYER1
  6
CONTINUOUS
 62
     6
 10
401.876853
 20
69.922247
 11
382.376853
 21
69.922251
  0
LINE
  8
CSLAYER1
  6
CONTINUOUS
 62
     6
 10
401.876853
 20
81.922247
 11
402.376853
 21
81.422247
  0
LINE
  8
CSLAYER1
  6
CONTINUOUS
 62
     6
 10
401.876853
 20
69.922247
 11
402.376853
 21
70.422247
  0
LINE
  8
CSLAYER1
  6
CONTINUOUS
 62
     6
 10
382.376853
 20
83.422251
 11
382.376853
 21
68.422251
  0
LINE
  8
CSLAYER1
  6
CONTINUOUS
 62
     6
 10
382.376853
 20
83.422251
 11
381.376853
 21
83.422251
  0
LINE
  8
CSLAYER1
  6
CONTINUOUS
 62
     6
 10
382.376853
 20
68.422251
 11
381.376853
 21
68.422251
  0
LINE
  8
CSLAYER1
  6
CONTINUOUS
 62
     6
 10
381.376853
 20
88.922252
 11
381.376853
 21
62.922252
  0
ARC
  8
CSLAYER1
  6
CONTINUOUS
 62
     6
 10
380.376853
 20
88.922252
 40
1.000000
 50
0.000000
 51
89.999987
  0
ARC
  8
CSLAYER1
  6
CONTINUOUS
 62
     6
 10
380.376853
 20
62.922252
 40
1.000000
 50
269.999987
 51
360.000000
  0
LINE
  8
CSLAYER1
  6
CONTINUOUS
 62
     6
 10
263.376910
 20
391.077792
 11
343.376895
 21
391.077756
  0
LINE
  8
CSLAYER1
  6
CONTINUOUS
 62
     6
 10
353.376870
 20
381.077751
 11
353.376869
 21
377.577777
  0
LINE
  8
CSLAYER1
  6
CONTINUOUS
 62
     6
 10
253.376868
 20
375.077809
 11
253.376870
 21
381.077797
  0
ARC
  8
CSLAYER1
  6
CONTINUOUS
 62
     6
 10
343.376891
 20
381.077756
 40
10.000000
 50
-0.000026
 51
89.999974
  0
ARC
  8
CSLAYER1
  6
CONTINUOUS
 62
     6
 10
263.376870
 20
381.077792
 40
10.000000
 50
89.999974
 51
179.999974
  0
ARC
  8
CSLAYER1
  6
CONTINUOUS
 62
     6
 10
335.876872
 20
383.577762
 40
3.500000
 50
-0.000035
 51
179.999965
  0
LINE
  8
CSLAYER1
  6
CONTINUOUS
 62
     6
 10
332.376872
 20
383.577764
 11
332.376869
 21
377.577764
  0
LINE
  8
CSLAYER1
  6
CONTINUOUS
 62
     6
 10
339.376872
 20
383.577760
 11
339.376869
 21
377.577760
  0
LINE
  8
CSLAYER1
  6
CENTER
 62
     3
 10
335.876876
 20
389.077762
 11
335.876865
 21
372.077762
  0
LINE
  8
CSLAYER1
  6
CENTER
 62
     3
 10
328.376872
 20
383.577767
 11
343.376872
 21
383.577758
  0
LINE
  8
CSLAYER1
  6
CENTER
 62
     3
 10
328.376869
 20
377.577744
 11
343.839149
 21
377.577735
  0
ARC
  8
CSLAYER1
  6
CONTINUOUS
 62
     6
 10
270.876872
 20
383.577801
 40
3.500000
 50
-0.000035
 51
179.999965
  0
ARC
  8
CSLAYER1
  6
CONTINUOUS
 62
     6
 10
270.876869
 20
377.577801
 40
3.500000
 50
314.415269
 51
359.999965
  0
LINE
  8
CSLAYER1
  6
CONTINUOUS
 62
     6
 10
267.376872
 20
383.577803
 11
267.376869
 21
377.577803
  0
LINE
  8
CSLAYER1
  6
CONTINUOUS
 62
     6
 10
274.376872
 20
383.577799
 11
274.376869
 21
377.577799
  0
LINE
  8
CSLAYER1
  6
CENTER
 62
     3
 10
270.876876
 20
389.077801
 11
270.876865
 21
372.077801
  0
LINE
  8
CSLAYER1
  6
CENTER
 62
     3
 10
263.376872
 20
383.577806
 11
278.376872
 21
383.577797
  0
LINE
  8
CSLAYER1
  6
CENTER
 62
     3
 10
263.376869
 20
377.577784
 11
278.376869
 21
377.577774
  0
ARC
  8
CSLAYER1
  6
CONTINUOUS
 62
     6
 10
270.876869
 20
377.577801
 40
3.500000
 50
179.999965
 51
225.584679
  0
LINE
  8
CSLAYER1
  6
CONTINUOUS
 62
     6
 10
253.376853
 20
38.922252
 11
253.376853
 21
45.922252
  0
ARC
  8
CSLAYER1
  6
CONTINUOUS
 62
     6
 10
263.376853
 20
45.922252
 40
10.000000
 50
90.000000
 51
180.000000
  0
ARC
  8
CSLAYER1
  6
CONTINUOUS
 62
     6
 10
263.376853
 20
38.922252
 40
10.000000
 50
180.000000
 51
270.000000
  0
LINE
  8
CSLAYER1
  6
CONTINUOUS
 62
     6
 10
297.376853
 20
313.077736
 11
297.376853
 21
375.077736
  0
LINE
  8
CSLAYER1
  6
CONTINUOUS
 62
     6
 10
297.376853
 20
190.051096
 11
297.376853
 21
240.999930
  0
LINE
  8
CSLAYER1
  6
CONTINUOUS
 62
     6
 10
307.876853
 20
240.999930
 11
297.376853
 21
240.999930
  0
LINE
  8
CSLAYER1
  6
CENTER
 62
     3
 10
204.376853
 20
64.922249
 11
204.376853
 21
86.922249
  0
LINE
  8
CSLAYER1
  6
CONTINUOUS
 62
     6
 10
204.376853
 20
75.922249
 11
198.943382
 21
75.922249
  0
LINE
  8
CSLAYER1
  6
CONTINUOUS
 62
     6
 10
204.376853
 20
78.122245
 11
198.943382
 21
78.122245
  0
ARC
  8
CSLAYER1
  6
CONTINUOUS
 62
     6
 10
196.031150
 20
91.681099
 40
15.758816
 50
242.536193
 51
269.942682
  0
ARC
  8
CSLAYER1
  6
CONTINUOUS
 62
     6
 10
196.031150
 20
91.681099
 40
13.558834
 50
242.536193
 51
269.942682
  0
ARC
  8
CSLAYER1
  6
CONTINUOUS
 62
     6
 10
199.896018
 20
77.572242
 40
1.100006
 50
149.999997
 51
209.999999
  0
ARC
  8
CSLAYER1
  6
CONTINUOUS
 62
     6
 10
199.896018
 20
76.472236
 40
1.100006
 50
149.999997
 51
209.999999
  0
ARC
  8
CSLAYER1
  6
CONTINUOUS
 62
     6
 10
197.990745
 20
76.472236
 40
1.100006
 50
-30.000011
 51
29.999977
  0
ARC
  8
CSLAYER1
  6
CONTINUOUS
 62
     6
 10
196.031150
 20
60.163398
 40
13.558834
 50
89.999975
 51
117.463872
  0
ARC
  8
CSLAYER1
  6
CONTINUOUS
 62
     6
 10
196.031181
 20
60.163414
 40
15.758816
 50
90.000003
 51
117.463872
  0
ARC
  8
CSLAYER1
  6
CONTINUOUS
 62
     6
 10
199.896018
 20
75.372230
 40
1.100006
 50
149.999997
 51
209.999999
  0
ARC
  8
CSLAYER1
  6
CONTINUOUS
 62
     6
 10
199.896018
 20
74.272224
 40
1.100006
 50
149.999997
 51
209.999999
  0
ARC
  8
CSLAYER1
  6
CONTINUOUS
 62
     6
 10
197.990745
 20
74.272224
 40
1.100006
 50
-30.000011
 51
29.999977
  0
ARC
  8
CSLAYER1
  6
CONTINUOUS
 62
     6
 10
204.376853
 20
77.022255
 40
1.100006
 50
-89.999999
 51
90.000019
  0
ARC
  8
CSLAYER1
  6
CONTINUOUS
 62
     6
 10
204.376853
 20
74.822242
 40
1.100006
 50
-90.000027
 51
89.999992
  0
LINE
  8
CSLAYER1
  6
CONTINUOUS
 62
     6
 10
204.376853
 20
73.722252
 11
198.943382
 21
73.722252
  0
LINE
  8
CSLAYER1
  6
CONTINUOUS
 62
     6
 10
205.476890
 20
77.022255
 11
205.476890
 21
74.822242
  0
ARC
  8
CSLAYER1
  6
CONTINUOUS
 62
     6
 10
196.351783
 20
76.472282
 40
1.099999
 50
-29.999656
 51
30.000332
  0
ARC
  8
CSLAYER1
  6
CONTINUOUS
 62
     6
 10
196.351776
 20
77.572273
 40
1.099999
 50
-29.999656
 51
30.000332
  0
ARC
  8
CSLAYER1
  6
CONTINUOUS
 62
     6
 10
198.257026
 20
77.572288
 40
1.099999
 50
150.000353
 51
210.000354
  0
ARC
  8
CSLAYER1
  6
CONTINUOUS
 62
     6
 10
196.351783
 20
74.272270
 40
1.099999
 50
-29.999656
 51
30.000332
  0
ARC
  8
CSLAYER1
  6
CONTINUOUS
 62
     6
 10
196.351776
 20
75.372261
 40
1.099999
 50
-29.999656
 51
30.000332
  0
ARC
  8
CSLAYER1
  6
CONTINUOUS
 62
     6
 10
198.257026
 20
75.372276
 40
1.099999
 50
150.000353
 51
210.000354
  0
LINE
  8
CSLAYER1
  6
CONTINUOUS
 62
     6
 10
196.031211
 20
78.122261
 11
197.304405
 21
78.122261
  0
LINE
  8
CSLAYER1
  6
CONTINUOUS
 62
     6
 10
196.031181
 20
75.922233
 11
197.304405
 21
75.922233
  0
LINE
  8
CSLAYER1
  6
CONTINUOUS
 62
     6
 10
196.031211
 20
73.722267
 11
197.304405
 21
73.722267
  0
ARC
  8
CSLAYER1
  6
CONTINUOUS
 62
     6
 10
204.376853
 20
75.922249
 40
8.000000
 50
-164.038116
 51
164.037904
  0
LINE
  8
CSLAYER1
  6
CONTINUOUS
 62
     6
 10
189.436241
 20
78.992698
 11
186.498130
 21
80.609855
  0
LINE
  8
CSLAYER1
  6
CONTINUOUS
 62
     6
 10
189.778037
 20
79.650322
 11
188.763389
 21
77.698265
  0
LINE
  8
CSLAYER1
  6
CONTINUOUS
 62
     6
 10
189.436180
 20
72.851799
 11
186.498130
 21
71.234626
  0
LINE
  8
CSLAYER1
  6
CONTINUOUS
 62
     6
 10
189.777976
 20
72.194175
 11
188.763389
 21
74.146232
  0
LINE
  8
CSLAYER1
  6
CONTINUOUS
 62
     6
 10
189.182090
 20
78.503776
 11
187.174644
 21
80.080558
  0
LINE
  8
CSLAYER1
  6
CONTINUOUS
 62
     6
 10
188.975120
 20
78.105644
 11
186.895347
 21
79.507133
  0
LINE
  8
CSLAYER1
  6
CONTINUOUS
 62
     6
 10
189.182090
 20
73.340721
 11
187.174644
 21
71.763939
  0
LINE
  8
CSLAYER1
  6
CONTINUOUS
 62
     6
 10
188.975120
 20
73.738853
 11
186.895286
 21
72.337349
  0
LINE
  8
CSLAYER1
  6
CONTINUOUS
 62
     6
 10
184.376853
 20
47.463381
 11
184.376853
 21
104.381138
  0
LINE
  8
CSLAYER1
  6
CONTINUOUS
 62
     6
 10
185.376853
 20
46.445925
 11
185.376853
 21
105.398593
  0
LINE
  8
CSLAYER1
  6
CONTINUOUS
 62
     6
 10
185.376701
 20
105.398590
 11
215.376869
 21
105.922244
  0
LINE
  8
CSLAYER1
  6
CONTINUOUS
 62
     6
 10
215.376853
 20
45.922266
 11
185.376701
 21
46.445928
  0
LINE
  8
CSLAYER1
  6
CONTINUOUS
 62
     6
 10
184.376853
 20
47.463381
 11
185.376701
 21
46.445928
  0
LINE
  8
CSLAYER1
  6
CONTINUOUS
 62
     6
 10
185.376701
 20
105.398590
 11
184.376853
 21
104.381138
  0
LINE
  8
CSLAYER1
  6
DASHED
 62
     6
 10
402.376853
 20
340.577738
 11
385.376837
 21
340.577738
  0
LINE
  8
CSLAYER1
  6
DASHED
 62
     6
 10
385.376837
 20
338.077746
 11
385.376837
 21
340.577738
  0
ENDSEC
  0
EOF
