  0
SECTION
  2
HEADER
  9
$ACADVER
  1
AC1006
  9
$INSBASE
 10
0.000000
 20
0.000000
 30
0.0
  9
$EXTMIN
 10
0.000000
 20
0.000000
  9
$EXTMAX
 10
420.000000
 20
297.000000
  9
$LIMMIN
 10
0.000000
 20
0.000000
  9
$LIMMAX
 10
420.000000
 20
297.000000
  9
$VIEWCTR
 10
210.000000
 20
148.500000
  9
$VIEWSIZE
 40
297.000000
  9
$SNAPMODE
 70
     0
  9
$SNAPUNIT
 10
1.0
 20
1.0
  9
$SNAPBASE
 10
0.0
 20
0.0
  9
$SNAPANG
 50
0.0
  9
$SNAPSTYLE
 70
     0
  9
$SNAPISOPAIR
 70
     0
  9
$GRIDMODE
 70
     0
  9
$GRIDUNIT
 10
0.0
 20
0.0
  9
$ORTHOMODE
 70
     0
  9
$REGENMODE
 70
     1
  9
$FILLMODE
 70
     1
  9
$QTEXTMODE
 70
     0
  9
$DRAGMODE
 70
     2
  9
$LTSCALE
 40
15.000000
  9
$OSMODE
 70
     0
  9
$ATTMODE
 70
     1
  9
$TEXTSIZE
 40
0.2
  9
$TRACEWID
 40
0.05
  9
$TEXTSTYLE
  7
STANDARD
  9
$CLAYER
  8
CSLAYER1
  9
$CELTYPE
  6
BYLAYER
  9
$CECOLOR
 62
   256
  9
$DIMSCALE
 40
1.0
  9
$DIMASZ
 40
0.18
  9
$DIMEXO
 40
0.0625
  9
$DIMDLI
 40
0.38
  9
$DIMRND
 40
0.0
  9
$DIMDLE
 40
0.0
  9
$DIMEXE
 40
0.18
  9
$DIMTP
 40
0.0
  9
$DIMTM
 40
0.0
  9
$DIMTXT
 40
0.18
  9
$DIMCEN
 40
0.09
  9
$DIMTSZ
 40
0.0
  9
$DIMTOL
 70
     0
  9
$DIMLIM
 70
     0
  9
$DIMTIH
 70
     1
  9
$DIMTOH
 70
     1
  9
$DIMSE1
 70
     0
  9
$DIMSE2
 70
     0
  9
$DIMTAD
 70
     0
  9
$DIMZIN
 70
     0
  9
$DIMBLK
  1

  9
$LUNITS
 70
     2
  9
$LUPREC
 70
     4
  9
$AXISMODE
 70
     0
  9
$AXISUNIT
 10
0.0
 20
0.0
  9
$SKETCHINC
 40
0.1
  9
$FILLETRAD
 40
0.0
  9
$AUNITS
 70
     0
  9
$AUPREC
 70
     0
  9
$MENU
  1
ACAD
  9
$ELEVATION
 40
0.0
  9
$THICKNESS
 40
0.0
  9
$VIEWDIR
 10
0.0
 20
0.0
 30
1.0
  9
$LIMCHECK
 70
     0
  9
$BLIPMODE
 70
     1
  9
$CHAMFERA
 40
0.0
  9
$CHAMFERB
 40
0.0
  9
$FASTZOOM
 70
     1
  9
$SKPOLY
 70
     0
  9
$TDCREATE
 40
0.000000
  9
$TDUPDATE
 40
0.000000
  9
$TDINDWG
 40
0.0
  9
$TDUSRTIMER
 40
0.0
  9
$USRTIMER
 70
     1
  9
$ANGBASE
 50
0.0
  9
$ANGDIR
 70
     0
  9
$PDMODE
 70
     0
  9
$PDSIZE
 40
0.0
  9
$PLINEWID
 40
0.0
  9
$COORDS
 70
     0
  9
$USERI1
 70
     0
  9
$USERI2
 70
     0
  9
$USERI3
 70
     0
  9
$USERI4
 70
     0
  9
$USERI5
 70
     0
  9
$USERR1
 40
0.0
  9
$USERR2
 40
0.0
  9
$USERR3
 40
0.0
  9
$USERR4
 40
0.0
  9
$USERR5
 40
0.0
  0
ENDSEC
  0
SECTION
  2
TABLES
  0
TABLE
  2
LTYPE
 70
     9
  0
LTYPE
  2
CONTINUOUS
 70
    64
  3
Solid line
 72
    65
 73
     0
 40
0.0
  0
LTYPE
  2
DASHED
 70
    64
  3
__ __ __ __ __ __ __ __ __ __ __ __ __ __ __
 72
    65
 73
     2
 40
0.75
 49
0.5
 49
-0.25
  0
LTYPE
  2
HIDDEN
 70
    64
  3
_ _ _ _ _ _ _ _ _ _ _ _ _ _ _ _ _ _ _ _ _ _ _
 72
    65
 73
     2
 40
0.375
 49
0.25
 49
-0.125
  0
LTYPE
  2
DOT
 70
    64
  3
...............................................
 72
    65
 73
     2
 40
0.25
 49
0.0
 49
-0.25
  0
LTYPE
  2
DASHDOT
 70
    64
  3
__ . __ . __ . __ . __ . __ . __ . __ . __ . __
 72
    65
 73
     4
 40
1.0
 49
0.5
 49
-0.25
 49
0.0
 49
-0.25
  0
LTYPE
  2
DIVIDE
 70
    64
  3
__ . . __ . . __ . . __ . . __ . . __ . . __
 72
    65
 73
     6
 40
1.25
 49
0.5
 49
-0.25
 49
0.0
 49
-0.25
 49
0.0
 49
-0.25
  0
LTYPE
  2
CENTER
 70
    64
  3
____ _ ____ _ ____ _ ____ _ ____ _ ____ _ ____ 
 72
    65
 73
     4
 40
2.0
 49
1.25
 49
-0.25
 49
0.25
 49
-0.25
  0
LTYPE
  2
PHANTOM
 70
    64
  3
______  __  __  ______  __  __  ______  __  __ 
 72
    65
 73
     6
 40
2.5
 49
1.25
 49
-0.25
 49
0.25
 49
-0.25
 49
0.25
 49
-0.25
  0
LTYPE
  2
BORDER
 70
    64
  3
__ __ . __ __ . __ __ . __ __ . __ __ . __ __ .
 72
    65
 73
     6
 40
1.75
 49
0.5
 49
-0.25
 49
0.5
 49
-0.25
 49
0.0
 49
-0.25
  0
ENDTAB
  0
TABLE
  2
LAYER
 70
    16
  0
LAYER
  2
CSLAYER1
 70
    64
 62
     7
  6
CONTINUOUS
  0
LAYER
  2
CSLAYER2
 70
    64
 62
     7
  6
CONTINUOUS
  0
LAYER
  2
CSLAYER3
 70
    64
 62
     7
  6
CONTINUOUS
  0
LAYER
  2
CSLAYER4
 70
    64
 62
     7
  6
CONTINUOUS
  0
LAYER
  2
CSLAYER5
 70
    64
 62
     7
  6
CONTINUOUS
  0
LAYER
  2
CSLAYER6
 70
    64
 62
     7
  6
CONTINUOUS
  0
LAYER
  2
CSLAYER7
 70
    64
 62
     7
  6
CONTINUOUS
  0
LAYER
  2
CSLAYER8
 70
    64
 62
     7
  6
CONTINUOUS
  0
LAYER
  2
CSLAYER9
 70
    64
 62
     7
  6
CONTINUOUS
  0
LAYER
  2
CSLAYER10
 70
    64
 62
     7
  6
CONTINUOUS
  0
LAYER
  2
CSLAYER11
 70
    64
 62
     7
  6
CONTINUOUS
  0
LAYER
  2
CSLAYER12
 70
    64
 62
     7
  6
CONTINUOUS
  0
LAYER
  2
CSLAYER13
 70
    64
 62
     7
  6
CONTINUOUS
  0
LAYER
  2
CSLAYER14
 70
    64
 62
     7
  6
CONTINUOUS
  0
LAYER
  2
CSLAYER15
 70
    64
 62
     7
  6
CONTINUOUS
  0
LAYER
  2
CSLAYER16
 70
    64
 62
     7
  6
CONTINUOUS
  0
ENDTAB
  0
TABLE
  2
STYLE
 70
     1
  0
STYLE
  2
JX_FONT
 70
     0
 40
1.0
 41
1.0
 50
0.0
 71
     0
 42
1.0
  3
monotxt
  4
bigfont
  0
ENDTAB
  0
TABLE
  2
VIEW
 70
     0
  0
ENDTAB
  0
ENDSEC
  0
SECTION
  2
BLOCKS
  0
ENDSEC
  0
SECTION
  2
ENTITIES
  0
LINE
  8
CSLAYER1
  6
CONTINUOUS
 62
     6
 10
333.599849
 20
172.336136
 11
333.599849
 21
120.336197
  0
LINE
  8
CSLAYER1
  6
CENTER
 62
     3
 10
400.599849
 20
146.336136
 11
330.599849
 21
146.336136
  0
LINE
  8
CSLAYER1
  6
CONTINUOUS
 62
     6
 10
391.599849
 20
178.336136
 11
339.599849
 21
178.336136
  0
ARC
  8
CSLAYER1
  6
CONTINUOUS
 62
     6
 10
339.599849
 20
172.336136
 40
6.000000
 50
90.000000
 51
180.000003
  0
LINE
  8
CSLAYER1
  6
CONTINUOUS
 62
     6
 10
397.599849
 20
172.336136
 11
397.599849
 21
120.336197
  0
CIRCLE
  8
CSLAYER1
  6
CONTINUOUS
 62
     6
 10
365.599834
 20
146.336136
 40
4.000000
  0
CIRCLE
  8
CSLAYER1
  6
CONTINUOUS
 62
     6
 10
365.599834
 20
146.336136
 40
15.000000
  0
CIRCLE
  8
CSLAYER1
  6
CONTINUOUS
 62
     6
 10
365.599834
 20
146.336136
 40
17.500000
  0
LINE
  8
CSLAYER1
  6
CONTINUOUS
 62
     6
 10
391.599849
 20
114.336197
 11
339.599849
 21
114.336197
  0
LINE
  8
CSLAYER1
  6
CENTER
 62
     3
 10
365.599849
 20
181.336105
 11
365.599849
 21
111.336227
  0
CIRCLE
  8
CSLAYER1
  6
CONTINUOUS
 62
     6
 10
365.599849
 20
146.336136
 40
13.000000
  0
ARC
  8
CSLAYER1
  6
CONTINUOUS
 62
     6
 10
339.599849
 20
120.336136
 40
6.000000
 50
180.000000
 51
270.000003
  0
ARC
  8
CSLAYER1
  6
CONTINUOUS
 62
     6
 10
391.599849
 20
120.336136
 40
6.000000
 50
-90.000000
 51
0.000003
  0
ARC
  8
CSLAYER1
  6
CONTINUOUS
 62
     6
 10
391.599849
 20
172.336136
 40
6.000000
 50
-0.000003
 51
90.000000
  0
LINE
  8
CSLAYER1
  6
CENTER
 62
     3
 10
391.599849
 20
177.275406
 11
391.599849
 21
167.336136
  0
LINE
  8
CSLAYER1
  6
CENTER
 62
     3
 10
386.599849
 20
172.336136
 11
396.599849
 21
172.336136
  0
CIRCLE
  8
CSLAYER1
  6
CONTINUOUS
 62
     6
 10
391.599849
 20
172.336136
 40
2.250000
  0
LINE
  8
CSLAYER1
  6
CENTER
 62
     3
 10
391.599849
 20
115.396866
 11
391.599849
 21
125.336136
  0
LINE
  8
CSLAYER1
  6
CENTER
 62
     3
 10
386.599849
 20
120.336136
 11
396.599849
 21
120.336136
  0
CIRCLE
  8
CSLAYER1
  6
CONTINUOUS
 62
     6
 10
391.599849
 20
120.336136
 40
2.250000
  0
LINE
  8
CSLAYER1
  6
CENTER
 62
     3
 10
334.660579
 20
120.336136
 11
344.599849
 21
120.336136
  0
LINE
  8
CSLAYER1
  6
CENTER
 62
     3
 10
339.599849
 20
125.336136
 11
339.599849
 21
115.336136
  0
CIRCLE
  8
CSLAYER1
  6
CONTINUOUS
 62
     6
 10
339.599849
 20
120.336136
 40
2.250000
  0
LINE
  8
CSLAYER1
  6
CENTER
 62
     3
 10
339.599849
 20
177.275406
 11
339.599849
 21
167.336136
  0
LINE
  8
CSLAYER1
  6
CENTER
 62
     3
 10
344.599849
 20
172.336136
 11
334.599849
 21
172.336136
  0
CIRCLE
  8
CSLAYER1
  6
CONTINUOUS
 62
     6
 10
339.599849
 20
172.336136
 40
2.250000
  0
ARC
  8
CSLAYER1
  6
CENTER
 62
     3
 10
365.599849
 20
146.336121
 40
24.000000
 50
114.927254
 51
155.072670
  0
CIRCLE
  8
CSLAYER1
  6
CONTINUOUS
 62
     6
 10
348.629329
 20
163.306686
 40
4.500000
  0
ARC
  8
CSLAYER1
  6
CONTINUOUS
 62
     6
 10
348.629329
 20
163.306686
 40
2.397500
 50
253.398434
 51
286.601595
  0
ARC
  8
CSLAYER1
  6
CONTINUOUS
 62
     6
 10
348.629329
 20
163.306686
 40
2.397500
 50
163.398424
 51
196.601586
  0
ARC
  8
CSLAYER1
  6
CONTINUOUS
 62
     6
 10
348.629329
 20
163.306686
 40
2.397500
 50
73.398442
 51
106.601576
  0
ARC
  8
CSLAYER1
  6
CONTINUOUS
 62
     6
 10
348.629329
 20
163.306686
 40
2.397500
 50
-16.601584
 51
16.601604
  0
LINE
  8
CSLAYER1
  6
CONTINUOUS
 62
     6
 10
347.944332
 20
164.676681
 11
347.944332
 21
165.604248
  0
LINE
  8
CSLAYER1
  6
CONTINUOUS
 62
     6
 10
347.944332
 20
161.936691
 11
347.944332
 21
161.009125
  0
LINE
  8
CSLAYER1
  6
CONTINUOUS
 62
     6
 10
349.314327
 20
164.676681
 11
349.314327
 21
165.604248
  0
LINE
  8
CSLAYER1
  6
CONTINUOUS
 62
     6
 10
349.314327
 20
161.936691
 11
349.314327
 21
161.009125
  0
LINE
  8
CSLAYER1
  6
CONTINUOUS
 62
     6
 10
347.259334
 20
162.621689
 11
346.331783
 21
162.621689
  0
LINE
  8
CSLAYER1
  6
CONTINUOUS
 62
     6
 10
349.999324
 20
162.621689
 11
350.926876
 21
162.621689
  0
LINE
  8
CSLAYER1
  6
CONTINUOUS
 62
     6
 10
347.259334
 20
163.991684
 11
346.331783
 21
163.991684
  0
LINE
  8
CSLAYER1
  6
CONTINUOUS
 62
     6
 10
349.999324
 20
163.991684
 11
350.926876
 21
163.991684
  0
ARC
  8
CSLAYER1
  6
CONTINUOUS
 62
     6
 10
347.259334
 20
164.676681
 40
0.685000
 50
270.000001
 51
359.942691
  0
ARC
  8
CSLAYER1
  6
CONTINUOUS
 62
     6
 10
349.999324
 20
164.676681
 40
0.685000
 50
180.000005
 51
270.000001
  0
ARC
  8
CSLAYER1
  6
CONTINUOUS
 62
     6
 10
349.999324
 20
161.936691
 40
0.685000
 50
90.000009
 51
180.000005
  0
ARC
  8
CSLAYER1
  6
CONTINUOUS
 62
     6
 10
347.259334
 20
161.936691
 40
0.685000
 50
0.000000
 51
90.000009
  0
CIRCLE
  8
CSLAYER1
  6
CONTINUOUS
 62
     6
 10
348.629329
 20
163.306686
 40
5.500000
  0
LINE
  8
CSLAYER1
  6
CENTER
 62
     3
 10
343.649471
 20
168.286514
 11
353.609125
 21
158.326875
  0
ARC
  8
CSLAYER1
  6
CENTER
 62
     3
 10
365.599849
 20
146.336151
 40
24.000000
 50
294.927254
 51
335.072670
  0
CIRCLE
  8
CSLAYER1
  6
CONTINUOUS
 62
     6
 10
382.570369
 20
129.365585
 40
4.500000
  0
ARC
  8
CSLAYER1
  6
CONTINUOUS
 62
     6
 10
382.570369
 20
129.365585
 40
2.397500
 50
73.398434
 51
106.601595
  0
ARC
  8
CSLAYER1
  6
CONTINUOUS
 62
     6
 10
382.570369
 20
129.365585
 40
2.397500
 50
-16.601576
 51
16.601586
  0
ARC
  8
CSLAYER1
  6
CONTINUOUS
 62
     6
 10
382.570369
 20
129.365585
 40
2.397500
 50
253.398442
 51
286.601576
  0
ARC
  8
CSLAYER1
  6
CONTINUOUS
 62
     6
 10
382.570369
 20
129.365585
 40
2.397500
 50
163.398416
 51
196.601604
  0
LINE
  8
CSLAYER1
  6
CONTINUOUS
 62
     6
 10
383.255367
 20
127.995590
 11
383.255367
 21
127.068024
  0
LINE
  8
CSLAYER1
  6
CONTINUOUS
 62
     6
 10
383.255367
 20
130.735580
 11
383.255367
 21
131.663147
  0
LINE
  8
CSLAYER1
  6
CONTINUOUS
 62
     6
 10
381.885372
 20
127.995590
 11
381.885372
 21
127.068024
  0
LINE
  8
CSLAYER1
  6
CONTINUOUS
 62
     6
 10
381.885372
 20
130.735580
 11
381.885372
 21
131.663147
  0
LINE
  8
CSLAYER1
  6
CONTINUOUS
 62
     6
 10
383.940364
 20
130.050583
 11
384.867916
 21
130.050583
  0
LINE
  8
CSLAYER1
  6
CONTINUOUS
 62
     6
 10
381.200374
 20
130.050583
 11
380.272823
 21
130.050583
  0
LINE
  8
CSLAYER1
  6
CONTINUOUS
 62
     6
 10
383.940364
 20
128.680588
 11
384.867916
 21
128.680588
  0
LINE
  8
CSLAYER1
  6
CONTINUOUS
 62
     6
 10
381.200374
 20
128.680588
 11
380.272823
 21
128.680588
  0
ARC
  8
CSLAYER1
  6
CONTINUOUS
 62
     6
 10
383.940364
 20
127.995590
 40
0.685000
 50
90.000001
 51
179.942691
  0
ARC
  8
CSLAYER1
  6
CONTINUOUS
 62
     6
 10
381.200374
 20
127.995590
 40
0.685000
 50
0.000005
 51
90.000001
  0
ARC
  8
CSLAYER1
  6
CONTINUOUS
 62
     6
 10
381.200374
 20
130.735580
 40
0.685000
 50
-89.999991
 51
0.000005
  0
ARC
  8
CSLAYER1
  6
CONTINUOUS
 62
     6
 10
383.940364
 20
130.735580
 40
0.685000
 50
180.000000
 51
270.000009
  0
CIRCLE
  8
CSLAYER1
  6
CONTINUOUS
 62
     6
 10
382.570369
 20
129.365585
 40
5.500000
  0
LINE
  8
CSLAYER1
  6
CENTER
 62
     3
 10
387.550228
 20
124.385757
 11
377.590574
 21
134.345397
  0
CIRCLE
  8
CSLAYER1
  6
CONTINUOUS
 62
     6
 10
371.226361
 20
136.562981
 40
1.181817
  0
ARC
  8
CSLAYER1
  6
CONTINUOUS
 62
     6
 10
371.226361
 20
136.562981
 40
2.532799
 50
50.235874
 51
203.481567
  0
LINE
  8
CSLAYER1
  6
CONTINUOUS
 62
     6
 10
368.903300
 20
135.553794
 11
369.408010
 21
133.906451
  0
CIRCLE
  8
CSLAYER1
  6
CONTINUOUS
 62
     6
 10
359.973337
 20
136.562981
 40
1.181817
  0
ARC
  8
CSLAYER1
  6
CONTINUOUS
 62
     6
 10
359.973337
 20
136.562981
 40
2.532799
 50
-23.481552
 51
129.764124
  0
LINE
  8
CSLAYER1
  6
CONTINUOUS
 62
     6
 10
362.296399
 20
135.553794
 11
361.791688
 21
133.906451
  0
ARC
  8
CSLAYER1
  6
CONTINUOUS
 62
     6
 10
365.599849
 20
145.648786
 40
11.323712
 50
-37.903087
 51
217.903071
  0
ARC
  8
CSLAYER1
  6
CONTINUOUS
 62
     6
 10
373.602332
 20
139.418363
 40
1.181817
 50
230.236306
 51
322.096613
  0
ARC
  8
CSLAYER1
  6
CONTINUOUS
 62
     6
 10
357.597366
 20
139.418363
 40
1.181817
 50
217.903402
 51
309.763723
  0
LINE
  8
CSLAYER1
  6
CENTER
 62
     3
 10
118.099849
 20
49.989024
 11
314.599849
 21
49.989024
  0
LINE
  8
CSLAYER1
  6
CONTINUOUS
 62
     6
 10
285.099849
 20
81.989024
 11
285.099849
 21
17.989024
  0
LINE
  8
CSLAYER1
  6
CONTINUOUS
 62
     6
 10
287.099849
 20
64.989024
 11
287.099849
 21
34.989024
  0
LINE
  8
CSLAYER1
  6
CONTINUOUS
 62
     6
 10
311.599849
 20
53.989024
 11
311.599849
 21
45.989024
  0
LINE
  8
CSLAYER1
  6
CONTINUOUS
 62
     6
 10
193.099849
 20
80.989024
 11
193.099849
 21
18.989024
  0
LINE
  8
CSLAYER1
  6
CONTINUOUS
 62
     6
 10
287.099849
 20
53.989024
 11
311.599849
 21
53.989024
  0
LINE
  8
CSLAYER1
  6
CONTINUOUS
 62
     6
 10
287.099849
 20
45.989024
 11
311.599849
 21
45.989024
  0
LINE
  8
CSLAYER1
  6
CONTINUOUS
 62
     6
 10
276.099849
 20
79.989024
 11
275.099849
 21
79.989024
  0
LINE
  8
CSLAYER1
  6
CONTINUOUS
 62
     6
 10
275.099849
 20
19.989024
 11
276.099849
 21
19.989024
  0
LINE
  8
CSLAYER1
  6
CONTINUOUS
 62
     6
 10
285.099849
 20
64.989024
 11
287.099849
 21
64.989024
  0
LINE
  8
CSLAYER1
  6
CONTINUOUS
 62
     6
 10
285.099849
 20
34.989024
 11
287.099849
 21
34.989024
  0
LINE
  8
CSLAYER1
  6
CONTINUOUS
 62
     6
 10
193.099849
 20
18.989024
 11
275.099849
 21
18.989024
  0
LINE
  8
CSLAYER1
  6
CONTINUOUS
 62
     6
 10
193.099849
 20
80.989024
 11
275.099849
 21
80.989024
  0
LINE
  8
CSLAYER1
  6
CONTINUOUS
 62
     6
 10
276.099849
 20
79.989024
 11
276.099849
 21
19.989024
  0
LINE
  8
CSLAYER1
  6
CONTINUOUS
 62
     6
 10
285.099849
 20
81.989024
 11
278.099849
 21
81.989024
  0
LINE
  8
CSLAYER1
  6
CONTINUOUS
 62
     6
 10
275.099849
 20
80.989024
 11
275.099849
 21
18.989024
  0
LINE
  8
CSLAYER1
  6
CONTINUOUS
 62
     6
 10
285.099849
 20
17.989024
 11
278.099849
 21
17.989024
  0
ARC
  8
CSLAYER1
  6
CONTINUOUS
 62
     6
 10
278.099849
 20
79.989024
 40
2.000000
 50
90.000000
 51
180.000000
  0
ARC
  8
CSLAYER1
  6
CONTINUOUS
 62
     6
 10
278.099849
 20
19.989024
 40
2.000000
 50
180.000000
 51
270.000000
  0
LINE
  8
CSLAYER1
  6
CENTER
 62
     3
 10
273.099849
 20
23.989021
 11
287.099849
 21
23.989021
  0
LINE
  8
CSLAYER1
  6
CENTER
 62
     3
 10
273.099856
 20
75.989031
 11
287.099856
 21
75.989027
  0
LINE
  8
CSLAYER1
  6
CENTER
 62
     3
 10
182.099849
 20
38.989070
 11
182.099849
 21
60.989070
  0
LINE
  8
CSLAYER1
  6
CONTINUOUS
 62
     6
 10
159.099849
 20
74.989070
 11
159.099849
 21
24.989070
  0
LINE
  8
CSLAYER1
  6
CONTINUOUS
 62
     6
 10
139.099849
 20
67.989024
 11
139.099849
 21
31.989070
  0
LINE
  8
CSLAYER1
  6
CONTINUOUS
 62
     6
 10
159.099849
 20
24.989070
 11
163.099849
 21
24.989070
  0
LINE
  8
CSLAYER1
  6
CONTINUOUS
 62
     6
 10
159.099849
 20
74.989070
 11
163.099849
 21
74.989070
  0
LINE
  8
CSLAYER1
  6
CENTER
 62
     3
 10
132.099849
 20
23.489101
 11
132.099849
 21
76.489101
  0
LINE
  8
CSLAYER1
  6
CONTINUOUS
 62
     6
 10
138.099849
 20
72.989101
 11
138.099849
 21
67.988997
  0
LINE
  8
CSLAYER1
  6
CONTINUOUS
 62
     6
 10
126.099849
 20
72.989101
 11
126.099849
 21
67.989024
  0
LINE
  8
CSLAYER1
  6
CONTINUOUS
 62
     6
 10
137.849849
 20
74.989101
 11
137.849849
 21
73.989101
  0
ARC
  8
CSLAYER1
  6
CONTINUOUS
 62
     6
 10
137.099849
 20
73.489101
 40
0.500000
 50
-89.999999
 51
90.000019
  0
LINE
  8
CSLAYER1
  6
CONTINUOUS
 62
     6
 10
126.349849
 20
74.989101
 11
126.349849
 21
73.989101
  0
ARC
  8
CSLAYER1
  6
CONTINUOUS
 62
     6
 10
127.099849
 20
73.489101
 40
0.500000
 50
90.000003
 51
269.942682
  0
LINE
  8
CSLAYER1
  6
CONTINUOUS
 62
     6
 10
137.849849
 20
74.989101
 11
126.349849
 21
74.989101
  0
LINE
  8
CSLAYER1
  6
CONTINUOUS
 62
     6
 10
137.849849
 20
73.989101
 11
126.349849
 21
73.989101
  0
LINE
  8
CSLAYER1
  6
CONTINUOUS
 62
     6
 10
126.099849
 20
72.989101
 11
138.099849
 21
72.989101
  0
LINE
  8
CSLAYER1
  6
CONTINUOUS
 62
     6
 10
133.099849
 20
32.962007
 11
133.099849
 21
67.016044
  0
LINE
  8
CSLAYER1
  6
CONTINUOUS
 62
     6
 10
131.099849
 20
32.962009
 11
131.099849
 21
67.016044
  0
LINE
  8
CSLAYER1
  6
CONTINUOUS
 62
     6
 10
121.099849
 20
32.989024
 11
121.099849
 21
66.989024
  0
LINE
  8
CSLAYER1
  6
CONTINUOUS
 62
     6
 10
156.946143
 20
31.989024
 11
138.099849
 21
31.989024
  0
LINE
  8
CSLAYER1
  6
CONTINUOUS
 62
     6
 10
156.946032
 20
67.989024
 11
138.099849
 21
67.989024
  0
LINE
  8
CSLAYER1
  6
CONTINUOUS
 62
     6
 10
126.099849
 20
39.560512
 11
126.099849
 21
35.317836
  0
LINE
  8
CSLAYER1
  6
CONTINUOUS
 62
     6
 10
135.599819
 20
72.989101
 11
135.599819
 21
68.989101
  0
LINE
  8
CSLAYER1
  6
CONTINUOUS
 62
     6
 10
128.599849
 20
72.989101
 11
128.599849
 21
68.989101
  0
LINE
  8
CSLAYER1
  6
CONTINUOUS
 62
     6
 10
126.099849
 20
35.317836
 11
122.099849
 21
35.317836
  0
LINE
  8
CSLAYER1
  6
CONTINUOUS
 62
     6
 10
126.099849
 20
39.560512
 11
122.099849
 21
39.560512
  0
LINE
  8
CSLAYER1
  6
CONTINUOUS
 62
     6
 10
122.099849
 20
35.317836
 11
121.099849
 21
36.317836
  0
LINE
  8
CSLAYER1
  6
CONTINUOUS
 62
     6
 10
122.099849
 20
39.560512
 11
121.099849
 21
40.560512
  0
LINE
  8
CSLAYER1
  6
CONTINUOUS
 62
     6
 10
122.099849
 20
35.317836
 11
122.099849
 21
31.989024
  0
LINE
  8
CSLAYER1
  6
CONTINUOUS
 62
     6
 10
125.168880
 20
37.358608
 11
124.539058
 21
37.413722
  0
ARC
  8
CSLAYER1
  6
CONTINUOUS
 62
     6
 10
124.626217
 20
38.409938
 40
1.000000
 50
196.257399
 51
264.999892
  0
ARC
  8
CSLAYER1
  6
CONTINUOUS
 62
     6
 10
125.186306
 20
37.557887
 40
0.200000
 50
264.999865
 51
359.942691
  0
ARC
  8
CSLAYER1
  6
CONTINUOUS
 62
     6
 10
125.486293
 20
37.289638
 40
0.100000
 50
179.999991
 51
269.942682
  0
LINE
  8
CSLAYER1
  6
CONTINUOUS
 62
     6
 10
125.486293
 20
37.189601
 11
125.986293
 21
37.189601
  0
ARC
  8
CSLAYER1
  6
CONTINUOUS
 62
     6
 10
125.986293
 20
37.289638
 40
0.100000
 50
270.000001
 51
359.942691
  0
ARC
  8
CSLAYER1
  6
CONTINUOUS
 62
     6
 10
130.386287
 20
40.089626
 40
7.000000
 50
184.334839
 51
196.257016
  0
LINE
  8
CSLAYER1
  6
CONTINUOUS
 62
     6
 10
125.386287
 20
39.560512
 11
125.386287
 21
37.289638
  0
LINE
  8
CSLAYER1
  6
CONTINUOUS
 62
     6
 10
134.099849
 20
70.389064
 11
134.099849
 21
72.989070
  0
LINE
  8
CSLAYER1
  6
CONTINUOUS
 62
     6
 10
130.099849
 20
70.389064
 11
130.099849
 21
72.989070
  0
LINE
  8
CSLAYER1
  6
CONTINUOUS
 62
     6
 10
130.099849
 20
70.889064
 11
134.099849
 21
70.889064
  0
LINE
  8
CSLAYER1
  6
CONTINUOUS
 62
     6
 10
130.699855
 20
69.083369
 11
130.699855
 21
70.889064
  0
LINE
  8
CSLAYER1
  6
CONTINUOUS
 62
     6
 10
133.499843
 20
69.083369
 11
133.499843
 21
70.889064
  0
LINE
  8
CSLAYER1
  6
CONTINUOUS
 62
     6
 10
130.699825
 20
70.389064
 11
130.099849
 21
70.389064
  0
LINE
  8
CSLAYER1
  6
CONTINUOUS
 62
     6
 10
133.499843
 20
70.389064
 11
134.099849
 21
70.389064
  0
LINE
  8
CSLAYER1
  6
CONTINUOUS
 62
     6
 10
130.825538
 20
68.989101
 11
128.599849
 21
68.989101
  0
LINE
  8
CSLAYER1
  6
CONTINUOUS
 62
     6
 10
133.374161
 20
68.989101
 11
135.599819
 21
68.989101
  0
LINE
  8
CSLAYER1
  6
CONTINUOUS
 62
     6
 10
133.095577
 20
69.000514
 11
131.095577
 21
69.000514
  0
LINE
  8
CSLAYER1
  6
CONTINUOUS
 62
     6
 10
130.699855
 20
69.297298
 11
131.095577
 21
69.000514
  0
LINE
  8
CSLAYER1
  6
CONTINUOUS
 62
     6
 10
133.095577
 20
69.000514
 11
133.499843
 21
69.303683
  0
LINE
  8
CSLAYER1
  6
CONTINUOUS
 62
     6
 10
131.099849
 20
68.783351
 11
133.099849
 21
68.783351
  0
LINE
  8
CSLAYER1
  6
CONTINUOUS
 62
     6
 10
130.699855
 20
69.083369
 11
131.099849
 21
68.783351
  0
LINE
  8
CSLAYER1
  6
CONTINUOUS
 62
     6
 10
133.099849
 20
68.783351
 11
133.499843
 21
69.083369
  0
LINE
  8
CSLAYER1
  6
CONTINUOUS
 62
     6
 10
163.099849
 20
21.512721
 11
163.099849
 21
78.465419
  0
LINE
  8
CSLAYER1
  6
CONTINUOUS
 62
     6
 10
164.099849
 20
20.512721
 11
164.099849
 21
79.465419
  0
LINE
  8
CSLAYER1
  6
CONTINUOUS
 62
     6
 10
164.099849
 20
79.465419
 11
163.099849
 21
78.465419
  0
LINE
  8
CSLAYER1
  6
CONTINUOUS
 62
     6
 10
164.099849
 20
20.512721
 11
163.099849
 21
21.512721
  0
LINE
  8
CSLAYER1
  6
CONTINUOUS
 62
     6
 10
164.099849
 20
79.465419
 11
193.099849
 21
79.989024
  0
LINE
  8
CSLAYER1
  6
CONTINUOUS
 62
     6
 10
164.099849
 20
20.512721
 11
193.099849
 21
19.989024
  0
CIRCLE
  8
CSLAYER1
  6
CONTINUOUS
 62
     6
 10
132.100948
 20
69.691127
 40
0.470497
  0
ARC
  8
CSLAYER1
  6
CONTINUOUS
 62
     6
 10
163.399837
 20
34.389079
 40
7.000000
 50
163.742994
 51
196.257016
  0
LINE
  8
CSLAYER1
  6
CONTINUOUS
 62
     6
 10
158.182399
 20
37.120036
 11
157.552578
 21
37.064922
  0
ARC
  8
CSLAYER1
  6
CONTINUOUS
 62
     6
 10
157.639736
 20
36.068736
 40
1.000000
 50
95.000111
 51
163.742611
  0
ARC
  8
CSLAYER1
  6
CONTINUOUS
 62
     6
 10
158.199825
 20
36.920818
 40
0.200000
 50
0.000000
 51
95.000152
  0
LINE
  8
CSLAYER1
  6
CONTINUOUS
 62
     6
 10
158.499813
 20
37.289043
 11
158.999813
 21
37.289043
  0
ARC
  8
CSLAYER1
  6
CONTINUOUS
 62
     6
 10
158.499813
 20
37.189067
 40
0.100000
 50
90.000003
 51
180.000005
  0
ARC
  8
CSLAYER1
  6
CONTINUOUS
 62
     6
 10
158.999813
 20
37.189067
 40
0.100000
 50
0.000000
 51
90.000003
  0
LINE
  8
CSLAYER1
  6
CONTINUOUS
 62
     6
 10
158.182399
 20
31.658092
 11
157.552578
 21
31.713176
  0
ARC
  8
CSLAYER1
  6
CONTINUOUS
 62
     6
 10
157.639736
 20
32.709392
 40
1.000000
 50
196.257399
 51
264.999892
  0
ARC
  8
CSLAYER1
  6
CONTINUOUS
 62
     6
 10
158.199825
 20
31.857341
 40
0.200000
 50
264.999865
 51
359.942691
  0
LINE
  8
CSLAYER1
  6
CONTINUOUS
 62
     6
 10
158.399837
 20
37.189067
 11
158.399837
 21
31.589092
  0
ARC
  8
CSLAYER1
  6
CONTINUOUS
 62
     6
 10
158.499813
 20
31.589092
 40
0.100000
 50
180.000005
 51
270.000001
  0
LINE
  8
CSLAYER1
  6
CONTINUOUS
 62
     6
 10
158.499813
 20
31.489055
 11
158.999813
 21
31.489055
  0
ARC
  8
CSLAYER1
  6
CONTINUOUS
 62
     6
 10
158.999813
 20
31.589092
 40
0.100000
 50
270.000001
 51
359.942691
  0
LINE
  8
CSLAYER1
  6
CONTINUOUS
 62
     6
 10
158.399837
 20
33.793132
 11
159.099819
 21
34.236980
  0
LINE
  8
CSLAYER1
  6
CONTINUOUS
 62
     6
 10
158.399837
 20
34.293132
 11
159.099819
 21
34.736980
  0
LINE
  8
CSLAYER1
  6
CENTER
 62
     3
 10
154.359977
 20
34.388982
 11
167.099849
 21
34.388979
  0
LINE
  8
CSLAYER1
  6
CENTER
 62
     3
 10
154.359981
 20
65.589076
 11
167.099849
 21
65.589076
  0
ARC
  8
CSLAYER1
  6
CONTINUOUS
 62
     6
 10
163.399837
 20
65.589107
 40
7.000000
 50
163.742994
 51
196.257016
  0
LINE
  8
CSLAYER1
  6
CONTINUOUS
 62
     6
 10
158.182399
 20
68.320064
 11
157.552578
 21
68.264949
  0
ARC
  8
CSLAYER1
  6
CONTINUOUS
 62
     6
 10
157.639736
 20
67.268764
 40
1.000000
 50
95.000111
 51
163.742611
  0
ARC
  8
CSLAYER1
  6
CONTINUOUS
 62
     6
 10
158.199825
 20
68.120845
 40
0.200000
 50
0.000000
 51
95.000152
  0
LINE
  8
CSLAYER1
  6
CONTINUOUS
 62
     6
 10
158.499813
 20
68.489070
 11
158.999813
 21
68.489070
  0
ARC
  8
CSLAYER1
  6
CONTINUOUS
 62
     6
 10
158.499813
 20
68.389095
 40
0.100000
 50
90.000003
 51
180.000005
  0
ARC
  8
CSLAYER1
  6
CONTINUOUS
 62
     6
 10
158.999813
 20
68.389095
 40
0.100000
 50
0.000000
 51
90.000003
  0
LINE
  8
CSLAYER1
  6
CONTINUOUS
 62
     6
 10
158.182399
 20
62.858119
 11
157.552578
 21
62.913203
  0
ARC
  8
CSLAYER1
  6
CONTINUOUS
 62
     6
 10
157.639736
 20
63.909419
 40
1.000000
 50
196.257399
 51
264.999892
  0
ARC
  8
CSLAYER1
  6
CONTINUOUS
 62
     6
 10
158.199825
 20
63.057368
 40
0.200000
 50
264.999865
 51
359.942691
  0
LINE
  8
CSLAYER1
  6
CONTINUOUS
 62
     6
 10
158.399837
 20
68.389095
 11
158.399837
 21
62.789119
  0
ARC
  8
CSLAYER1
  6
CONTINUOUS
 62
     6
 10
158.499813
 20
62.789119
 40
0.100000
 50
180.000005
 51
270.000001
  0
LINE
  8
CSLAYER1
  6
CONTINUOUS
 62
     6
 10
158.499813
 20
62.689082
 11
158.999813
 21
62.689082
  0
ARC
  8
CSLAYER1
  6
CONTINUOUS
 62
     6
 10
158.999813
 20
62.789119
 40
0.100000
 50
270.000001
 51
359.942691
  0
LINE
  8
CSLAYER1
  6
CONTINUOUS
 62
     6
 10
158.399837
 20
64.993160
 11
159.099819
 21
65.437007
  0
LINE
  8
CSLAYER1
  6
CONTINUOUS
 62
     6
 10
158.399837
 20
65.493160
 11
159.099819
 21
65.937007
  0
LINE
  8
CSLAYER1
  6
CONTINUOUS
 62
     6
 10
182.099849
 20
49.989070
 11
176.666378
 21
49.989070
  0
LINE
  8
CSLAYER1
  6
CONTINUOUS
 62
     6
 10
182.099849
 20
52.189052
 11
176.666378
 21
52.189052
  0
ARC
  8
CSLAYER1
  6
CONTINUOUS
 62
     6
 10
173.754146
 20
65.747920
 40
15.758816
 50
242.536193
 51
269.942682
  0
ARC
  8
CSLAYER1
  6
CONTINUOUS
 62
     6
 10
173.754146
 20
65.747920
 40
13.558834
 50
242.536193
 51
269.942682
  0
LINE
  8
CSLAYER1
  6
CONTINUOUS
 62
     6
 10
167.159206
 20
53.059535
 11
164.221126
 21
54.676662
  0
LINE
  8
CSLAYER1
  6
CONTINUOUS
 62
     6
 10
167.501003
 20
53.717128
 11
166.486385
 21
51.765102
  0
ARC
  8
CSLAYER1
  6
CONTINUOUS
 62
     6
 10
177.619014
 20
51.639079
 40
1.100006
 50
149.999997
 51
209.999999
  0
ARC
  8
CSLAYER1
  6
CONTINUOUS
 62
     6
 10
177.619014
 20
50.539073
 40
1.100006
 50
149.999997
 51
209.999999
  0
ARC
  8
CSLAYER1
  6
CONTINUOUS
 62
     6
 10
175.713741
 20
50.539073
 40
1.100006
 50
-30.000011
 51
29.999977
  0
ARC
  8
CSLAYER1
  6
CONTINUOUS
 62
     6
 10
173.754146
 20
34.230220
 40
13.558834
 50
89.999975
 51
117.463872
  0
LINE
  8
CSLAYER1
  6
CONTINUOUS
 62
     6
 10
167.159176
 20
46.918605
 11
164.221096
 21
45.301448
  0
LINE
  8
CSLAYER1
  6
CONTINUOUS
 62
     6
 10
167.500972
 20
46.261012
 11
166.486354
 21
48.213039
  0
ARC
  8
CSLAYER1
  6
CONTINUOUS
 62
     6
 10
173.754146
 20
34.230251
 40
15.758816
 50
90.000003
 51
117.463872
  0
ARC
  8
CSLAYER1
  6
CONTINUOUS
 62
     6
 10
177.619014
 20
49.439067
 40
1.100006
 50
149.999997
 51
209.999999
  0
ARC
  8
CSLAYER1
  6
CONTINUOUS
 62
     6
 10
177.619014
 20
48.339061
 40
1.100006
 50
149.999997
 51
209.999999
  0
ARC
  8
CSLAYER1
  6
CONTINUOUS
 62
     6
 10
175.713741
 20
48.339061
 40
1.100006
 50
-30.000011
 51
29.999977
  0
ARC
  8
CSLAYER1
  6
CONTINUOUS
 62
     6
 10
182.099849
 20
51.089076
 40
1.100006
 50
-89.999999
 51
90.000019
  0
ARC
  8
CSLAYER1
  6
CONTINUOUS
 62
     6
 10
182.099849
 20
48.889064
 40
1.100006
 50
-90.000027
 51
89.999992
  0
LINE
  8
CSLAYER1
  6
CONTINUOUS
 62
     6
 10
182.099849
 20
47.789088
 11
176.666378
 21
47.789088
  0
LINE
  8
CSLAYER1
  6
CONTINUOUS
 62
     6
 10
183.199855
 20
51.089076
 11
183.199855
 21
48.889064
  0
ARC
  8
CSLAYER1
  6
CONTINUOUS
 62
     6
 10
174.074779
 20
50.539104
 40
1.099999
 50
-29.999656
 51
30.000332
  0
ARC
  8
CSLAYER1
  6
CONTINUOUS
 62
     6
 10
174.074764
 20
51.639095
 40
1.099999
 50
-29.999656
 51
30.000332
  0
ARC
  8
CSLAYER1
  6
CONTINUOUS
 62
     6
 10
175.980022
 20
51.639110
 40
1.099999
 50
150.000353
 51
210.000354
  0
ARC
  8
CSLAYER1
  6
CONTINUOUS
 62
     6
 10
174.074779
 20
48.339092
 40
1.099999
 50
-29.999656
 51
30.000332
  0
ARC
  8
CSLAYER1
  6
CONTINUOUS
 62
     6
 10
174.074764
 20
49.439082
 40
1.099999
 50
-29.999656
 51
30.000332
  0
ARC
  8
CSLAYER1
  6
CONTINUOUS
 62
     6
 10
175.980022
 20
49.439098
 40
1.099999
 50
150.000353
 51
210.000354
  0
LINE
  8
CSLAYER1
  6
CONTINUOUS
 62
     6
 10
173.754177
 20
52.189082
 11
175.027401
 21
52.189082
  0
LINE
  8
CSLAYER1
  6
CONTINUOUS
 62
     6
 10
173.754146
 20
49.989040
 11
175.027401
 21
49.989040
  0
LINE
  8
CSLAYER1
  6
CONTINUOUS
 62
     6
 10
173.754177
 20
47.789088
 11
175.027401
 21
47.789088
  0
ARC
  8
CSLAYER1
  6
CONTINUOUS
 62
     6
 10
182.099849
 20
49.989070
 40
8.000000
 50
-164.038116
 51
164.037904
  0
LINE
  8
CSLAYER1
  6
CONTINUOUS
 62
     6
 10
166.905056
 20
52.570583
 11
164.897640
 21
54.147365
  0
LINE
  8
CSLAYER1
  6
CONTINUOUS
 62
     6
 10
166.698116
 20
52.172450
 11
164.618312
 21
53.573940
  0
LINE
  8
CSLAYER1
  6
CONTINUOUS
 62
     6
 10
166.905056
 20
47.407558
 11
164.897640
 21
45.830775
  0
LINE
  8
CSLAYER1
  6
CONTINUOUS
 62
     6
 10
166.698116
 20
47.805690
 11
164.618282
 21
46.404170
  0
LINE
  8
CSLAYER1
  6
CONTINUOUS
 62
     6
 10
122.099849
 20
67.989024
 11
121.099849
 21
66.989024
  0
LINE
  8
CSLAYER1
  6
CONTINUOUS
 62
     6
 10
122.099849
 20
39.560512
 11
122.099849
 21
67.989024
  0
LINE
  8
CSLAYER1
  6
CONTINUOUS
 62
     6
 10
121.099849
 20
32.989024
 11
122.099849
 21
31.989024
  0
LINE
  8
CSLAYER1
  6
CONTINUOUS
 62
     6
 10
138.099849
 20
26.988948
 11
138.099849
 21
31.989049
  0
LINE
  8
CSLAYER1
  6
CONTINUOUS
 62
     6
 10
126.099849
 20
26.988948
 11
126.099849
 21
31.989061
  0
LINE
  8
CSLAYER1
  6
CONTINUOUS
 62
     6
 10
137.849849
 20
24.988948
 11
137.849849
 21
25.988948
  0
ARC
  8
CSLAYER1
  6
CONTINUOUS
 62
     6
 10
137.099849
 20
26.488948
 40
0.500000
 50
-90.000019
 51
89.999999
  0
LINE
  8
CSLAYER1
  6
CONTINUOUS
 62
     6
 10
126.349849
 20
24.988948
 11
126.349849
 21
25.988948
  0
ARC
  8
CSLAYER1
  6
CONTINUOUS
 62
     6
 10
127.099849
 20
26.488948
 40
0.500000
 50
90.057318
 51
269.999997
  0
LINE
  8
CSLAYER1
  6
CONTINUOUS
 62
     6
 10
137.849849
 20
24.988948
 11
126.349849
 21
24.988948
  0
LINE
  8
CSLAYER1
  6
CONTINUOUS
 62
     6
 10
137.849849
 20
25.988948
 11
126.349849
 21
25.988948
  0
LINE
  8
CSLAYER1
  6
CONTINUOUS
 62
     6
 10
126.099849
 20
26.988948
 11
138.099849
 21
26.988948
  0
LINE
  8
CSLAYER1
  6
CONTINUOUS
 62
     6
 10
135.599819
 20
26.988948
 11
135.599819
 21
30.988948
  0
LINE
  8
CSLAYER1
  6
CONTINUOUS
 62
     6
 10
128.599849
 20
26.988948
 11
128.599849
 21
30.988948
  0
LINE
  8
CSLAYER1
  6
CONTINUOUS
 62
     6
 10
134.099849
 20
29.588985
 11
134.099849
 21
26.988979
  0
LINE
  8
CSLAYER1
  6
CONTINUOUS
 62
     6
 10
130.099849
 20
29.588985
 11
130.099849
 21
26.988979
  0
LINE
  8
CSLAYER1
  6
CONTINUOUS
 62
     6
 10
130.099849
 20
29.088985
 11
134.099849
 21
29.088985
  0
LINE
  8
CSLAYER1
  6
CONTINUOUS
 62
     6
 10
130.699855
 20
30.894679
 11
130.699855
 21
29.088985
  0
LINE
  8
CSLAYER1
  6
CONTINUOUS
 62
     6
 10
133.499843
 20
30.894679
 11
133.499843
 21
29.088985
  0
LINE
  8
CSLAYER1
  6
CONTINUOUS
 62
     6
 10
130.699825
 20
29.588985
 11
130.099849
 21
29.588985
  0
LINE
  8
CSLAYER1
  6
CONTINUOUS
 62
     6
 10
133.499843
 20
29.588985
 11
134.099849
 21
29.588985
  0
LINE
  8
CSLAYER1
  6
CONTINUOUS
 62
     6
 10
130.825538
 20
30.988948
 11
128.599849
 21
30.988948
  0
LINE
  8
CSLAYER1
  6
CONTINUOUS
 62
     6
 10
133.374161
 20
30.988948
 11
135.599819
 21
30.988948
  0
LINE
  8
CSLAYER1
  6
CONTINUOUS
 62
     6
 10
133.095577
 20
30.977535
 11
131.095577
 21
30.977535
  0
LINE
  8
CSLAYER1
  6
CONTINUOUS
 62
     6
 10
130.699855
 20
30.680751
 11
131.095577
 21
30.977535
  0
LINE
  8
CSLAYER1
  6
CONTINUOUS
 62
     6
 10
133.095577
 20
30.977535
 11
133.499843
 21
30.674366
  0
LINE
  8
CSLAYER1
  6
CONTINUOUS
 62
     6
 10
131.099849
 20
31.194698
 11
133.099849
 21
31.194698
  0
LINE
  8
CSLAYER1
  6
CONTINUOUS
 62
     6
 10
130.699855
 20
30.894679
 11
131.099849
 21
31.194698
  0
LINE
  8
CSLAYER1
  6
CONTINUOUS
 62
     6
 10
133.099849
 20
31.194698
 11
133.499843
 21
30.894679
  0
CIRCLE
  8
CSLAYER1
  6
CONTINUOUS
 62
     6
 10
132.100948
 20
30.286922
 40
0.470497
  0
LINE
  8
CSLAYER1
  6
CONTINUOUS
 62
     6
 10
275.099849
 20
177.336140
 11
275.099849
 21
115.336140
  0
LINE
  8
CSLAYER1
  6
CONTINUOUS
 62
     6
 10
193.099849
 20
177.336140
 11
193.099849
 21
115.336140
  0
LINE
  8
CSLAYER1
  6
CENTER
 62
     3
 10
182.099849
 20
159.336140
 11
182.099849
 21
114.619526
  0
CIRCLE
  8
CSLAYER1
  6
CONTINUOUS
 62
     6
 10
182.099849
 20
146.336140
 40
8.000000
  0
CIRCLE
  8
CSLAYER1
  6
CONTINUOUS
 62
     6
 10
182.099849
 20
146.336140
 40
6.000000
  0
CIRCLE
  8
CSLAYER1
  6
CONTINUOUS
 62
     3
 10
182.099849
 20
146.336140
 40
5.500000
  0
LINE
  8
CSLAYER1
  6
CONTINUOUS
 62
     6
 10
184.849849
 20
147.136143
 11
179.349849
 21
147.136143
  0
LINE
  8
CSLAYER1
  6
CONTINUOUS
 62
     6
 10
184.849849
 20
145.536137
 11
179.349849
 21
145.536137
  0
LINE
  8
CSLAYER1
  6
CONTINUOUS
 62
     6
 10
179.349849
 20
147.136143
 11
179.349849
 21
145.536137
  0
LINE
  8
CSLAYER1
  6
CONTINUOUS
 62
     6
 10
184.849849
 20
147.136143
 11
184.849849
 21
145.536137
  0
ARC
  8
CSLAYER1
  6
CONTINUOUS
 62
     6
 10
167.441005
 20
107.900486
 40
15.758816
 50
332.536202
 51
359.942691
  0
ARC
  8
CSLAYER1
  6
CONTINUOUS
 62
     6
 10
167.441005
 20
107.900486
 40
13.558834
 50
332.536202
 51
359.942691
  0
ARC
  8
CSLAYER1
  6
CONTINUOUS
 62
     6
 10
182.649837
 20
106.947895
 40
1.099999
 50
60.000350
 51
120.000345
  0
ARC
  8
CSLAYER1
  6
CONTINUOUS
 62
     6
 10
181.549839
 20
106.947880
 40
1.099999
 50
60.000350
 51
120.000345
  0
ARC
  8
CSLAYER1
  6
CONTINUOUS
 62
     6
 10
181.549831
 20
108.853138
 40
1.099999
 50
240.000362
 51
300.000350
  0
LINE
  8
CSLAYER1
  6
CONTINUOUS
 62
     6
 10
180.129406
 20
101.305531
 11
178.512249
 21
98.367458
  0
LINE
  8
CSLAYER1
  6
CONTINUOUS
 62
     6
 10
180.618328
 20
101.051396
 11
179.041546
 21
98.043980
  0
LINE
  8
CSLAYER1
  6
CONTINUOUS
 62
     6
 10
181.016460
 20
100.844441
 11
179.614971
 21
97.764637
  0
LINE
  8
CSLAYER1
  6
CONTINUOUS
 62
     6
 10
179.471782
 20
101.647328
 11
181.423839
 21
100.632710
  0
ARC
  8
CSLAYER1
  6
CONTINUOUS
 62
     6
 10
196.758693
 20
107.900486
 40
15.758816
 50
202.422068
 51
207.463868
  0
ARC
  8
CSLAYER1
  6
CONTINUOUS
 62
     6
 10
196.758693
 20
107.900486
 40
13.558834
 50
179.999978
 51
207.463868
  0
LINE
  8
CSLAYER1
  6
CONTINUOUS
 62
     6
 10
184.070293
 20
101.305500
 11
185.687465
 21
98.367443
  0
LINE
  8
CSLAYER1
  6
CONTINUOUS
 62
     6
 10
183.581371
 20
101.051380
 11
185.158153
 21
98.043980
  0
LINE
  8
CSLAYER1
  6
CONTINUOUS
 62
     6
 10
183.183239
 20
100.844441
 11
184.584743
 21
97.764622
  0
LINE
  8
CSLAYER1
  6
CONTINUOUS
 62
     6
 10
184.727916
 20
101.647312
 11
182.775859
 21
100.632694
  0
ARC
  8
CSLAYER1
  6
CONTINUOUS
 62
     6
 10
181.549862
 20
111.765354
 40
1.100006
 50
240.000007
 51
299.999995
  0
ARC
  8
CSLAYER1
  6
CONTINUOUS
 62
     6
 10
182.649868
 20
111.765354
 40
1.100006
 50
240.000007
 51
299.999995
  0
ARC
  8
CSLAYER1
  6
CONTINUOUS
 62
     6
 10
182.649868
 20
109.860081
 40
1.100006
 50
60.000002
 51
120.000003
  0
LINE
  8
CSLAYER1
  6
CONTINUOUS
 62
     6
 10
183.199855
 20
116.508946
 11
183.199855
 21
110.812718
  0
LINE
  8
CSLAYER1
  6
CONTINUOUS
 62
     6
 10
180.999859
 20
116.547352
 11
180.999859
 21
110.812718
  0
LINE
  8
CSLAYER1
  6
CONTINUOUS
 62
     6
 10
275.099849
 20
177.336140
 11
193.099849
 21
177.336140
  0
LINE
  8
CSLAYER1
  6
CONTINUOUS
 62
     6
 10
275.099849
 20
115.336140
 11
193.099849
 21
115.336140
  0
LINE
  8
CSLAYER1
  6
CENTER
 62
     3
 10
118.099866
 20
146.336145
 11
314.599859
 21
146.336125
  0
LINE
  8
CSLAYER1
  6
CONTINUOUS
 62
     3
 10
220.099865
 20
177.336140
 11
220.099865
 21
162.836109
  0
LINE
  8
CSLAYER1
  6
CONTINUOUS
 62
     3
 10
221.099865
 20
161.836109
 11
257.099849
 21
161.836109
  0
ARC
  8
CSLAYER1
  6
CONTINUOUS
 62
     3
 10
221.099865
 20
162.836109
 40
1.000000
 50
180.000005
 51
270.000001
  0
TEXT
  8
CSLAYER1
 62
     3
 10
236.637589
 20
174.836121
 40
3.500000
 41
1.125000
  1
N P
 50
270.000000
 51
10.000000
  7
JX_FONT
 72
     5
 11
236.637589
 21
164.336121
  0
LINE
  8
CSLAYER1
  6
CONTINUOUS
 62
     6
 10
159.099849
 20
171.336138
 11
159.099849
 21
121.336138
  0
LINE
  8
CSLAYER1
  6
CONTINUOUS
 62
     6
 10
139.099849
 20
164.336184
 11
139.099849
 21
128.336142
  0
LINE
  8
CSLAYER1
  6
CONTINUOUS
 62
     6
 10
156.946142
 20
128.336140
 11
133.099849
 21
128.336143
  0
LINE
  8
CSLAYER1
  6
CENTER
 62
     3
 10
154.359981
 20
161.936190
 11
167.099849
 21
161.936190
  0
ARC
  8
CSLAYER1
  6
CONTINUOUS
 62
     6
 10
163.399837
 20
161.936221
 40
7.000000
 50
163.742994
 51
196.257016
  0
LINE
  8
CSLAYER1
  6
CONTINUOUS
 62
     6
 10
158.182399
 20
164.667178
 11
157.552578
 21
164.612063
  0
ARC
  8
CSLAYER1
  6
CONTINUOUS
 62
     6
 10
157.639736
 20
163.615878
 40
1.000000
 50
95.000111
 51
163.742611
  0
ARC
  8
CSLAYER1
  6
CONTINUOUS
 62
     6
 10
158.199825
 20
164.467959
 40
0.200000
 50
0.000000
 51
95.000152
  0
LINE
  8
CSLAYER1
  6
CONTINUOUS
 62
     6
 10
158.499813
 20
164.836184
 11
158.999813
 21
164.836184
  0
ARC
  8
CSLAYER1
  6
CONTINUOUS
 62
     6
 10
158.499813
 20
164.736209
 40
0.100000
 50
90.000003
 51
180.000005
  0
ARC
  8
CSLAYER1
  6
CONTINUOUS
 62
     6
 10
158.999813
 20
164.736209
 40
0.100000
 50
0.000000
 51
90.000003
  0
LINE
  8
CSLAYER1
  6
CONTINUOUS
 62
     6
 10
158.182399
 20
159.205233
 11
157.552578
 21
159.260318
  0
ARC
  8
CSLAYER1
  6
CONTINUOUS
 62
     6
 10
157.639736
 20
160.256533
 40
1.000000
 50
196.257399
 51
264.999892
  0
ARC
  8
CSLAYER1
  6
CONTINUOUS
 62
     6
 10
158.199825
 20
159.404483
 40
0.200000
 50
264.999865
 51
359.942691
  0
LINE
  8
CSLAYER1
  6
CONTINUOUS
 62
     6
 10
158.399837
 20
164.736209
 11
158.399837
 21
159.136233
  0
ARC
  8
CSLAYER1
  6
CONTINUOUS
 62
     6
 10
158.499813
 20
159.136233
 40
0.100000
 50
180.000005
 51
270.000001
  0
LINE
  8
CSLAYER1
  6
CONTINUOUS
 62
     6
 10
158.499813
 20
159.036197
 11
158.999813
 21
159.036197
  0
ARC
  8
CSLAYER1
  6
CONTINUOUS
 62
     6
 10
158.999813
 20
159.136233
 40
0.100000
 50
270.000001
 51
359.942691
  0
LINE
  8
CSLAYER1
  6
CONTINUOUS
 62
     6
 10
158.399837
 20
161.340274
 11
159.099819
 21
161.784121
  0
LINE
  8
CSLAYER1
  6
CONTINUOUS
 62
     6
 10
158.399837
 20
161.840274
 11
159.099819
 21
162.284121
  0
LINE
  8
CSLAYER1
  6
CENTER
 62
     3
 10
132.099849
 20
125.336143
 11
132.099849
 21
167.336143
  0
LINE
  8
CSLAYER1
  6
CONTINUOUS
 62
     6
 10
133.099849
 20
164.860937
 11
133.099849
 21
151.998505
  0
LINE
  8
CSLAYER1
  6
CONTINUOUS
 62
     6
 10
131.099849
 20
164.861003
 11
131.099849
 21
151.998505
  0
LINE
  8
CSLAYER1
  6
CONTINUOUS
 62
     6
 10
121.099839
 20
163.336144
 11
121.099860
 21
129.336144
  0
LINE
  8
CSLAYER1
  6
CONTINUOUS
 62
     6
 10
122.099843
 20
156.764627
 11
122.099861
 21
128.336144
  0
LINE
  8
CSLAYER1
  6
CONTINUOUS
 62
     6
 10
126.099843
 20
156.764630
 11
126.099840
 21
161.007305
  0
LINE
  8
CSLAYER1
  6
CONTINUOUS
 62
     6
 10
126.099840
 20
161.007305
 11
122.099840
 21
161.007303
  0
LINE
  8
CSLAYER1
  6
CONTINUOUS
 62
     6
 10
126.099843
 20
156.764630
 11
122.099843
 21
156.764627
  0
LINE
  8
CSLAYER1
  6
CONTINUOUS
 62
     6
 10
122.099840
 20
161.007303
 11
121.099841
 21
160.007302
  0
LINE
  8
CSLAYER1
  6
CONTINUOUS
 62
     6
 10
122.099843
 20
156.764627
 11
121.099843
 21
155.764626
  0
LINE
  8
CSLAYER1
  6
CONTINUOUS
 62
     6
 10
122.099840
 20
161.007303
 11
122.099838
 21
164.336144
  0
LINE
  8
CSLAYER1
  6
CONTINUOUS
 62
     6
 10
125.168872
 20
158.966533
 11
124.539050
 21
158.911418
  0
ARC
  8
CSLAYER1
  6
CONTINUOUS
 62
     6
 10
124.626209
 20
157.915202
 40
1.000000
 50
95.000143
 51
163.742637
  0
ARC
  8
CSLAYER1
  6
CONTINUOUS
 62
     6
 10
125.186298
 20
158.767253
 40
0.200000
 50
0.057345
 51
95.000171
  0
ARC
  8
CSLAYER1
  6
CONTINUOUS
 62
     6
 10
125.486286
 20
159.035503
 40
0.100000
 50
90.057354
 51
180.000044
  0
LINE
  8
CSLAYER1
  6
CONTINUOUS
 62
     6
 10
125.486285
 20
159.135540
 11
125.986285
 21
159.135540
  0
ARC
  8
CSLAYER1
  6
CONTINUOUS
 62
     6
 10
125.986286
 20
159.035503
 40
0.100000
 50
0.057345
 51
90.000035
  0
ARC
  8
CSLAYER1
  6
CONTINUOUS
 62
     6
 10
130.386281
 20
156.235518
 40
7.000000
 50
163.743019
 51
175.665197
  0
LINE
  8
CSLAYER1
  6
CONTINUOUS
 62
     6
 10
125.386281
 20
156.764629
 11
125.386279
 21
159.035503
  0
ARC
  8
CSLAYER1
  6
CONTINUOUS
 62
     6
 10
163.399837
 20
130.736193
 40
7.000000
 50
163.742994
 51
196.257016
  0
LINE
  8
CSLAYER1
  6
CONTINUOUS
 62
     6
 10
158.182399
 20
133.467151
 11
157.552578
 21
133.412036
  0
ARC
  8
CSLAYER1
  6
CONTINUOUS
 62
     6
 10
157.639736
 20
132.415850
 40
1.000000
 50
95.000111
 51
163.742611
  0
ARC
  8
CSLAYER1
  6
CONTINUOUS
 62
     6
 10
158.199825
 20
133.267932
 40
0.200000
 50
0.000000
 51
95.000152
  0
LINE
  8
CSLAYER1
  6
CONTINUOUS
 62
     6
 10
158.499813
 20
133.636157
 11
158.999813
 21
133.636157
  0
ARC
  8
CSLAYER1
  6
CONTINUOUS
 62
     6
 10
158.499813
 20
133.536181
 40
0.100000
 50
90.000003
 51
180.000005
  0
ARC
  8
CSLAYER1
  6
CONTINUOUS
 62
     6
 10
158.999813
 20
133.536181
 40
0.100000
 50
0.000000
 51
90.000003
  0
LINE
  8
CSLAYER1
  6
CONTINUOUS
 62
     6
 10
158.182399
 20
128.005206
 11
157.552578
 21
128.060290
  0
ARC
  8
CSLAYER1
  6
CONTINUOUS
 62
     6
 10
157.639736
 20
129.056506
 40
1.000000
 50
196.257399
 51
264.999892
  0
ARC
  8
CSLAYER1
  6
CONTINUOUS
 62
     6
 10
158.199825
 20
128.204455
 40
0.200000
 50
264.999865
 51
359.942691
  0
LINE
  8
CSLAYER1
  6
CONTINUOUS
 62
     6
 10
158.399837
 20
133.536181
 11
158.399837
 21
127.936206
  0
ARC
  8
CSLAYER1
  6
CONTINUOUS
 62
     6
 10
158.499813
 20
127.936206
 40
0.100000
 50
180.000005
 51
270.000001
  0
LINE
  8
CSLAYER1
  6
CONTINUOUS
 62
     6
 10
158.499813
 20
127.836169
 11
158.999813
 21
127.836169
  0
ARC
  8
CSLAYER1
  6
CONTINUOUS
 62
     6
 10
158.999813
 20
127.936206
 40
0.100000
 50
270.000001
 51
359.942691
  0
LINE
  8
CSLAYER1
  6
CONTINUOUS
 62
     6
 10
158.399837
 20
130.140246
 11
159.099819
 21
130.584094
  0
LINE
  8
CSLAYER1
  6
CONTINUOUS
 62
     6
 10
158.399837
 20
130.640246
 11
159.099819
 21
131.084094
  0
LINE
  8
CSLAYER1
  6
CENTER
 62
     3
 10
154.359977
 20
130.736096
 11
167.099842
 21
130.736093
  0
LINE
  8
CSLAYER1
  6
CONTINUOUS
 62
     6
 10
163.099849
 20
171.336139
 11
159.099849
 21
171.336138
  0
LINE
  8
CSLAYER1
  6
CONTINUOUS
 62
     6
 10
163.099849
 20
121.336139
 11
159.099865
 21
121.336138
  0
CIRCLE
  8
CSLAYER1
  6
CONTINUOUS
 62
     6
 10
132.099849
 20
146.336130
 40
5.750000
  0
LINE
  8
CSLAYER1
  6
CONTINUOUS
 62
     6
 10
131.099849
 20
134.336129
 11
131.099849
 21
127.828542
  0
LINE
  8
CSLAYER1
  6
CONTINUOUS
 62
     6
 10
133.099849
 20
134.336130
 11
133.099849
 21
127.828536
  0
LINE
  8
CSLAYER1
  6
CONTINUOUS
 62
     6
 10
131.599849
 20
143.336115
 11
131.599849
 21
149.336144
  0
LINE
  8
CSLAYER1
  6
CONTINUOUS
 62
     6
 10
132.599849
 20
143.336115
 11
132.599849
 21
149.336144
  0
LINE
  8
CSLAYER1
  6
CONTINUOUS
 62
     6
 10
131.099849
 20
128.336143
 11
122.099861
 21
128.336144
  0
ARC
  8
CSLAYER1
  6
CONTINUOUS
 62
     6
 10
132.099849
 20
128.597779
 40
1.261636
 50
217.568822
 51
322.431165
  0
ARC
  8
CSLAYER1
  6
CONTINUOUS
 62
     6
 10
132.099820
 20
164.046312
 40
1.289831
 50
39.166091
 51
140.829784
  0
LINE
  8
CSLAYER1
  6
CONTINUOUS
 62
     6
 10
131.599849
 20
143.336115
 11
132.599849
 21
143.336115
  0
LINE
  8
CSLAYER1
  6
CONTINUOUS
 62
     6
 10
131.599849
 20
149.336144
 11
132.599849
 21
149.336145
  0
LINE
  8
CSLAYER1
  6
CONTINUOUS
 62
     6
 10
130.699851
 20
140.759168
 11
130.699855
 21
134.336129
  0
LINE
  8
CSLAYER1
  6
CONTINUOUS
 62
     6
 10
133.499839
 20
140.759166
 11
133.499843
 21
134.336130
  0
LINE
  8
CSLAYER1
  6
CONTINUOUS
 62
     6
 10
133.499843
 20
134.336130
 11
130.699855
 21
134.336129
  0
LINE
  8
CSLAYER1
  6
CENTER
 62
     3
 10
133.599856
 20
135.836130
 11
130.599856
 21
135.836129
  0
CIRCLE
  8
CSLAYER1
  6
CONTINUOUS
 62
     6
 10
132.099856
 20
135.836130
 40
0.500000
  0
LINE
  8
CSLAYER1
  6
CONTINUOUS
 62
     3
 10
258.099849
 20
177.336140
 11
258.099849
 21
162.836109
  0
ARC
  8
CSLAYER1
  6
CONTINUOUS
 62
     3
 10
257.099849
 20
162.836109
 40
1.000000
 50
269.999999
 51
359.999995
  0
LINE
  8
CSLAYER1
  6
CONTINUOUS
 62
     6
 10
285.099849
 20
178.336130
 11
285.099849
 21
114.336130
  0
LINE
  8
CSLAYER1
  6
CONTINUOUS
 62
     6
 10
287.099849
 20
161.336130
 11
287.099849
 21
131.336130
  0
LINE
  8
CSLAYER1
  6
CONTINUOUS
 62
     6
 10
311.599849
 20
150.336130
 11
311.599849
 21
142.336130
  0
LINE
  8
CSLAYER1
  6
CONTINUOUS
 62
     6
 10
287.099849
 20
150.336130
 11
311.599849
 21
150.336130
  0
LINE
  8
CSLAYER1
  6
CONTINUOUS
 62
     6
 10
287.099849
 20
142.336130
 11
311.599849
 21
142.336130
  0
LINE
  8
CSLAYER1
  6
CONTINUOUS
 62
     6
 10
276.099849
 20
176.336130
 11
275.099849
 21
176.336130
  0
LINE
  8
CSLAYER1
  6
CONTINUOUS
 62
     6
 10
275.099849
 20
116.336130
 11
276.099849
 21
116.336130
  0
LINE
  8
CSLAYER1
  6
CONTINUOUS
 62
     6
 10
285.099849
 20
161.336130
 11
287.099849
 21
161.336130
  0
LINE
  8
CSLAYER1
  6
CONTINUOUS
 62
     6
 10
285.099849
 20
131.336130
 11
287.099849
 21
131.336130
  0
LINE
  8
CSLAYER1
  6
CONTINUOUS
 62
     6
 10
276.099849
 20
176.336130
 11
276.099849
 21
116.336130
  0
LINE
  8
CSLAYER1
  6
CONTINUOUS
 62
     6
 10
285.099849
 20
178.336130
 11
278.099849
 21
178.336130
  0
LINE
  8
CSLAYER1
  6
CONTINUOUS
 62
     6
 10
285.099849
 20
114.336130
 11
278.099849
 21
114.336130
  0
ARC
  8
CSLAYER1
  6
CONTINUOUS
 62
     6
 10
278.099849
 20
176.336130
 40
2.000000
 50
90.000000
 51
180.000000
  0
ARC
  8
CSLAYER1
  6
CONTINUOUS
 62
     6
 10
278.099849
 20
116.336130
 40
2.000000
 50
180.000000
 51
270.000000
  0
LINE
  8
CSLAYER1
  6
CENTER
 62
     3
 10
273.099849
 20
120.336126
 11
287.099849
 21
120.336126
  0
LINE
  8
CSLAYER1
  6
CENTER
 62
     3
 10
273.099856
 20
172.336136
 11
287.099856
 21
172.336133
  0
LINE
  8
CSLAYER1
  6
CONTINUOUS
 62
     6
 10
163.099849
 20
117.859833
 11
163.099849
 21
174.812530
  0
LINE
  8
CSLAYER1
  6
CONTINUOUS
 62
     6
 10
164.099849
 20
116.859833
 11
164.099849
 21
175.812530
  0
LINE
  8
CSLAYER1
  6
CONTINUOUS
 62
     6
 10
164.099849
 20
175.812530
 11
163.099849
 21
174.812530
  0
LINE
  8
CSLAYER1
  6
CONTINUOUS
 62
     6
 10
164.099849
 20
116.859833
 11
163.099849
 21
117.859833
  0
LINE
  8
CSLAYER1
  6
CONTINUOUS
 62
     6
 10
164.099849
 20
175.812530
 11
193.099849
 21
176.336136
  0
LINE
  8
CSLAYER1
  6
CONTINUOUS
 62
     6
 10
164.099849
 20
116.859833
 11
193.099849
 21
116.336136
  0
LINE
  8
CSLAYER1
  6
CONTINUOUS
 62
     6
 10
156.946034
 20
164.336140
 11
133.099849
 21
164.336143
  0
LINE
  8
CSLAYER1
  6
CONTINUOUS
 62
     6
 10
131.099849
 20
164.336143
 11
122.099838
 21
164.336144
  0
LINE
  8
CSLAYER1
  6
CONTINUOUS
 62
     6
 10
122.099838
 20
164.336144
 11
121.099839
 21
163.336144
  0
LINE
  8
CSLAYER1
  6
CONTINUOUS
 62
     6
 10
121.099860
 20
129.336144
 11
122.099861
 21
128.336144
  0
LINE
  8
CSLAYER1
  6
CONTINUOUS
 62
     6
 10
95.099849
 20
120.336136
 11
95.099849
 21
172.336075
  0
LINE
  8
CSLAYER1
  6
CONTINUOUS
 62
     6
 10
37.099849
 20
114.336136
 11
60.899855
 21
114.336136
  0
ARC
  8
CSLAYER1
  6
CONTINUOUS
 62
     6
 10
89.099849
 20
120.336136
 40
6.000000
 50
-90.000000
 51
0.000003
  0
LINE
  8
CSLAYER1
  6
CONTINUOUS
 62
     6
 10
31.099849
 20
120.336136
 11
31.099849
 21
172.336075
  0
LINE
  8
CSLAYER1
  6
CONTINUOUS
 62
     6
 10
37.099849
 20
178.336075
 11
89.099849
 21
178.336075
  0
ARC
  8
CSLAYER1
  6
CONTINUOUS
 62
     6
 10
89.099849
 20
172.336136
 40
6.000000
 50
0.000000
 51
90.000003
  0
ARC
  8
CSLAYER1
  6
CONTINUOUS
 62
     6
 10
37.099849
 20
172.336136
 40
6.000000
 50
90.000000
 51
180.000003
  0
ARC
  8
CSLAYER1
  6
CONTINUOUS
 62
     6
 10
37.099849
 20
120.336136
 40
6.000000
 50
179.999997
 51
270.000000
  0
LINE
  8
CSLAYER1
  6
CENTER
 62
     3
 10
37.099849
 20
115.396866
 11
37.099849
 21
125.336136
  0
LINE
  8
CSLAYER1
  6
CENTER
 62
     3
 10
42.099849
 20
120.336136
 11
32.099849
 21
120.336136
  0
CIRCLE
  8
CSLAYER1
  6
CONTINUOUS
 62
     6
 10
37.099849
 20
120.336136
 40
2.250000
  0
LINE
  8
CSLAYER1
  6
CENTER
 62
     3
 10
37.099849
 20
177.275406
 11
37.099849
 21
167.336136
  0
LINE
  8
CSLAYER1
  6
CENTER
 62
     3
 10
42.099849
 20
172.336136
 11
32.099849
 21
172.336136
  0
CIRCLE
  8
CSLAYER1
  6
CONTINUOUS
 62
     6
 10
37.099849
 20
172.336136
 40
2.250000
  0
LINE
  8
CSLAYER1
  6
CENTER
 62
     3
 10
94.039119
 20
172.336136
 11
84.099849
 21
172.336136
  0
LINE
  8
CSLAYER1
  6
CENTER
 62
     3
 10
89.099849
 20
167.336136
 11
89.099849
 21
177.336136
  0
CIRCLE
  8
CSLAYER1
  6
CONTINUOUS
 62
     6
 10
89.099849
 20
172.336136
 40
2.250000
  0
LINE
  8
CSLAYER1
  6
CENTER
 62
     3
 10
89.099849
 20
115.396866
 11
89.099849
 21
125.336136
  0
LINE
  8
CSLAYER1
  6
CENTER
 62
     3
 10
84.099849
 20
120.336136
 11
94.099849
 21
120.336136
  0
CIRCLE
  8
CSLAYER1
  6
CONTINUOUS
 62
     6
 10
89.099849
 20
120.336136
 40
2.250000
  0
LINE
  8
CSLAYER1
  6
CENTER
 62
     3
 10
82.191732
 20
127.244253
 11
74.374614
 21
135.061378
  0
LINE
  8
CSLAYER1
  6
CONTINUOUS
 62
     3
 10
76.849849
 20
144.570915
 11
76.849849
 21
146.086136
  0
LINE
  8
CSLAYER1
  6
CONTINUOUS
 62
     3
 10
76.849849
 20
146.086136
 11
75.349849
 21
146.086136
  0
ARC
  8
CSLAYER1
  6
CONTINUOUS
 62
     3
 10
75.349849
 20
146.336136
 40
0.250000
 50
101.471877
 51
270.000021
  0
LINE
  8
CSLAYER1
  6
CONTINUOUS
 62
     3
 10
75.300128
 20
146.586136
 11
76.849849
 21
146.586136
  0
LINE
  8
CSLAYER1
  6
CONTINUOUS
 62
     3
 10
76.849849
 20
146.586136
 11
76.849849
 21
148.076103
  0
ARC
  8
CSLAYER1
  6
CONTINUOUS
 62
     3
 10
77.099849
 20
148.086136
 40
0.250000
 50
0.000020
 51
182.300752
  0
LINE
  8
CSLAYER1
  6
CONTINUOUS
 62
     3
 10
77.349849
 20
148.086136
 11
77.349849
 21
146.586136
  0
LINE
  8
CSLAYER1
  6
CONTINUOUS
 62
     3
 10
77.349849
 20
146.586136
 11
78.849849
 21
146.586136
  0
ARC
  8
CSLAYER1
  6
CONTINUOUS
 62
     3
 10
78.849849
 20
146.336136
 40
0.250000
 50
-90.000019
 51
90.000001
  0
LINE
  8
CSLAYER1
  6
CONTINUOUS
 62
     3
 10
78.849849
 20
146.086136
 11
77.349849
 21
146.086136
  0
LINE
  8
CSLAYER1
  6
CONTINUOUS
 62
     3
 10
77.349849
 20
146.086136
 11
77.349849
 21
144.586136
  0
ARC
  8
CSLAYER1
  6
CONTINUOUS
 62
     3
 10
77.099849
 20
144.586136
 40
0.250000
 50
-176.508968
 51
0.000020
  0
ARC
  8
CSLAYER1
  6
CENTER
 62
     3
 10
63.099849
 20
146.336136
 40
14.000000
 50
20.397443
 51
69.602557
  0
LINE
  8
CSLAYER1
  6
CENTER
 62
     3
 10
82.191732
 20
165.428019
 11
63.099849
 21
146.336136
  0
LINE
  8
CSLAYER1
  6
CENTER
 62
     3
 10
63.099849
 20
146.336136
 11
44.007962
 21
127.244257
  0
ARC
  8
CSLAYER1
  6
CENTER
 62
     3
 10
63.099849
 20
146.336136
 40
22.000000
 50
212.622854
 51
237.377146
  0
LINE
  8
CSLAYER1
  6
CENTER
 62
     3
 10
28.099849
 20
146.336136
 11
98.099849
 21
146.336136
  0
LINE
  8
CSLAYER1
  6
CENTER
 62
     3
 10
44.007962
 20
165.428015
 11
51.234843
 21
158.201149
  0
LINE
  8
CSLAYER1
  6
CONTINUOUS
 62
     3
 10
50.849849
 20
146.086136
 11
47.349849
 21
146.086136
  0
ARC
  8
CSLAYER1
  6
CONTINUOUS
 62
     3
 10
47.349849
 20
146.336136
 40
0.250000
 50
90.000001
 51
270.000021
  0
LINE
  8
CSLAYER1
  6
CONTINUOUS
 62
     3
 10
47.349849
 20
146.586136
 11
50.849849
 21
146.586136
  0
ARC
  8
CSLAYER1
  6
CONTINUOUS
 62
     3
 10
50.849849
 20
146.336136
 40
0.250000
 50
-90.000019
 51
90.000001
  0
LINE
  8
CSLAYER1
  6
CENTER
 62
     3
 10
63.099849
 20
111.336136
 11
63.099849
 21
181.336136
  0
LINE
  8
CSLAYER1
  6
CONTINUOUS
 62
     6
 10
85.599849
 20
141.836136
 11
81.599849
 21
141.836136
  0
LINE
  8
CSLAYER1
  6
CONTINUOUS
 62
     6
 10
81.599849
 20
141.836136
 11
81.599849
 21
140.336136
  0
LINE
  8
CSLAYER1
  6
CONTINUOUS
 62
     6
 10
81.599849
 20
140.336136
 11
80.099841
 21
140.336136
  0
ARC
  8
CSLAYER1
  6
CONTINUOUS
 62
     6
 10
63.099849
 20
146.336136
 40
19.000000
 50
198.408504
 51
341.591516
  0
LINE
  8
CSLAYER1
  6
CONTINUOUS
 62
     6
 10
44.599849
 20
140.336136
 11
46.099864
 21
140.336136
  0
LINE
  8
CSLAYER1
  6
CONTINUOUS
 62
     6
 10
44.599849
 20
140.336136
 11
44.599849
 21
141.836136
  0
LINE
  8
CSLAYER1
  6
CONTINUOUS
 62
     6
 10
44.599849
 20
141.836136
 11
40.599849
 21
141.836136
  0
LINE
  8
CSLAYER1
  6
CONTINUOUS
 62
     6
 10
40.599849
 20
141.336136
 11
40.599849
 21
152.336136
  0
LINE
  8
CSLAYER1
  6
CONTINUOUS
 62
     6
 10
40.599849
 20
152.336136
 11
46.099864
 21
152.336136
  0
ARC
  8
CSLAYER1
  6
CONTINUOUS
 62
     6
 10
63.099849
 20
146.336136
 40
19.000000
 50
18.408466
 51
161.591536
  0
LINE
  8
CSLAYER1
  6
CONTINUOUS
 62
     6
 10
80.099841
 20
152.336136
 11
85.599849
 21
152.336136
  0
LINE
  8
CSLAYER1
  6
CONTINUOUS
 62
     6
 10
85.599849
 20
152.336136
 11
85.599849
 21
141.336136
  0
ARC
  8
CSLAYER1
  6
CONTINUOUS
 62
     6
 10
86.249843
 20
141.298736
 40
0.650002
 50
-183.291660
 51
0.000002
  0
LINE
  8
CSLAYER1
  6
CONTINUOUS
 62
     6
 10
86.899844
 20
140.586120
 11
86.899844
 21
152.086120
  0
LINE
  8
CSLAYER1
  6
CONTINUOUS
 62
     6
 10
86.899844
 20
152.086120
 11
88.099849
 21
152.086120
  0
LINE
  8
CSLAYER1
  6
CONTINUOUS
 62
     6
 10
88.099849
 20
152.086120
 11
88.099849
 21
140.586120
  0
LINE
  8
CSLAYER1
  6
CONTINUOUS
 62
     6
 10
88.099849
 20
140.586120
 11
86.899844
 21
140.586120
  0
ARC
  8
CSLAYER1
  6
CONTINUOUS
 62
     6
 10
63.099849
 20
146.336136
 40
25.000000
 50
193.297090
 51
346.702873
  0
LINE
  8
CSLAYER1
  6
CONTINUOUS
 62
     6
 10
39.299846
 20
140.586120
 11
39.299846
 21
152.086120
  0
LINE
  8
CSLAYER1
  6
CONTINUOUS
 62
     6
 10
39.299846
 20
152.086120
 11
38.099849
 21
152.086120
  0
LINE
  8
CSLAYER1
  6
CONTINUOUS
 62
     6
 10
38.099849
 20
152.086120
 11
38.099849
 21
140.586120
  0
LINE
  8
CSLAYER1
  6
CONTINUOUS
 62
     6
 10
38.099849
 20
140.586120
 11
39.299846
 21
140.586120
  0
ARC
  8
CSLAYER1
  6
CONTINUOUS
 62
     6
 10
39.949855
 20
141.298736
 40
0.650002
 50
-179.999943
 51
3.291720
  0
ARC
  8
CSLAYER1
  6
CONTINUOUS
 62
     6
 10
47.543498
 20
161.892479
 40
1.750000
 50
253.398415
 51
286.601605
  0
LINE
  8
CSLAYER1
  6
CONTINUOUS
 62
     6
 10
47.043498
 20
160.215431
 11
47.043498
 21
160.892479
  0
ARC
  8
CSLAYER1
  6
CONTINUOUS
 62
     6
 10
46.543498
 20
160.892479
 40
0.500000
 50
0.000020
 51
90.000001
  0
LINE
  8
CSLAYER1
  6
CONTINUOUS
 62
     6
 10
46.543498
 20
161.392479
 11
45.866450
 21
161.392479
  0
ARC
  8
CSLAYER1
  6
CONTINUOUS
 62
     6
 10
47.543498
 20
161.892479
 40
1.750000
 50
163.398416
 51
196.601606
  0
LINE
  8
CSLAYER1
  6
CONTINUOUS
 62
     6
 10
45.866450
 20
162.392479
 11
46.543498
 21
162.392479
  0
ARC
  8
CSLAYER1
  6
CONTINUOUS
 62
     6
 10
46.543498
 20
162.892479
 40
0.500000
 50
-90.000019
 51
0.000020
  0
LINE
  8
CSLAYER1
  6
CONTINUOUS
 62
     6
 10
47.043498
 20
162.892479
 11
47.043498
 21
163.569527
  0
ARC
  8
CSLAYER1
  6
CONTINUOUS
 62
     6
 10
47.543498
 20
161.892479
 40
1.750000
 50
73.398434
 51
106.601568
  0
LINE
  8
CSLAYER1
  6
CONTINUOUS
 62
     6
 10
48.043498
 20
163.569527
 11
48.043498
 21
162.892479
  0
ARC
  8
CSLAYER1
  6
CONTINUOUS
 62
     6
 10
48.543498
 20
162.892479
 40
0.500000
 50
180.000000
 51
269.999981
  0
LINE
  8
CSLAYER1
  6
CONTINUOUS
 62
     6
 10
48.543498
 20
162.392479
 11
49.220546
 21
162.392479
  0
ARC
  8
CSLAYER1
  6
CONTINUOUS
 62
     6
 10
47.543498
 20
161.892479
 40
1.750000
 50
-16.601547
 51
16.601587
  0
LINE
  8
CSLAYER1
  6
CONTINUOUS
 62
     6
 10
49.220546
 20
161.392479
 11
48.543498
 21
161.392479
  0
ARC
  8
CSLAYER1
  6
CONTINUOUS
 62
     6
 10
48.543498
 20
160.892479
 40
0.500000
 50
90.000001
 51
179.942687
  0
LINE
  8
CSLAYER1
  6
CONTINUOUS
 62
     6
 10
48.043498
 20
160.892479
 11
48.043498
 21
160.215431
  0
CIRCLE
  8
CSLAYER1
  6
CONTINUOUS
 62
     6
 10
47.543498
 20
161.892479
 40
2.750000
  0
LINE
  8
CSLAYER1
  6
CONTINUOUS
 62
     6
 10
83.499850
 20
134.336128
 11
83.499858
 21
141.836136
  0
LINE
  8
CSLAYER1
  6
CONTINUOUS
 62
     6
 10
82.999858
 20
141.836136
 11
82.999858
 21
134.336136
  0
LINE
  8
CSLAYER1
  6
CONTINUOUS
 62
     6
 10
82.999858
 20
134.336136
 11
83.499850
 21
134.336128
  0
LINE
  8
CSLAYER1
  6
CONTINUOUS
 62
     6
 10
43.199840
 20
141.836136
 11
43.199840
 21
134.336136
  0
LINE
  8
CSLAYER1
  6
CONTINUOUS
 62
     6
 10
43.199840
 20
134.336136
 11
42.699840
 21
134.336128
  0
LINE
  8
CSLAYER1
  6
CONTINUOUS
 62
     6
 10
42.699840
 20
134.336128
 11
42.699840
 21
141.836136
  0
ARC
  8
CSLAYER1
  6
CONTINUOUS
 62
     6
 10
39.949855
 20
151.373505
 40
0.650002
 50
-3.291680
 51
179.942687
  0
ARC
  8
CSLAYER1
  6
CONTINUOUS
 62
     6
 10
63.099849
 20
146.336136
 40
25.000000
 50
13.297052
 51
166.702950
  0
ARC
  8
CSLAYER1
  6
CONTINUOUS
 62
     6
 10
86.249843
 20
151.373505
 40
0.650002
 50
0.000020
 51
183.291682
  0
ARC
  8
CSLAYER1
  6
CONTINUOUS
 62
     6
 10
47.543498
 20
130.779785
 40
1.750000
 50
253.398415
 51
286.601605
  0
LINE
  8
CSLAYER1
  6
CONTINUOUS
 62
     6
 10
47.043498
 20
129.102737
 11
47.043498
 21
129.779785
  0
ARC
  8
CSLAYER1
  6
CONTINUOUS
 62
     6
 10
46.543498
 20
129.779785
 40
0.500000
 50
0.000020
 51
90.000001
  0
LINE
  8
CSLAYER1
  6
CONTINUOUS
 62
     6
 10
46.543498
 20
130.279785
 11
45.866450
 21
130.279785
  0
ARC
  8
CSLAYER1
  6
CONTINUOUS
 62
     6
 10
47.543498
 20
130.779785
 40
1.750000
 50
163.398416
 51
196.601606
  0
LINE
  8
CSLAYER1
  6
CONTINUOUS
 62
     6
 10
45.866450
 20
131.279785
 11
46.543498
 21
131.279785
  0
ARC
  8
CSLAYER1
  6
CONTINUOUS
 62
     6
 10
46.543498
 20
131.779785
 40
0.500000
 50
-90.000019
 51
0.000020
  0
LINE
  8
CSLAYER1
  6
CONTINUOUS
 62
     6
 10
47.043498
 20
131.779785
 11
47.043498
 21
132.456833
  0
ARC
  8
CSLAYER1
  6
CONTINUOUS
 62
     6
 10
47.543498
 20
130.779785
 40
1.750000
 50
73.398434
 51
106.601568
  0
LINE
  8
CSLAYER1
  6
CONTINUOUS
 62
     6
 10
48.043498
 20
132.456833
 11
48.043498
 21
131.779785
  0
ARC
  8
CSLAYER1
  6
CONTINUOUS
 62
     6
 10
48.543498
 20
131.779785
 40
0.500000
 50
180.000000
 51
269.999981
  0
LINE
  8
CSLAYER1
  6
CONTINUOUS
 62
     6
 10
48.543498
 20
131.279785
 11
49.220546
 21
131.279785
  0
ARC
  8
CSLAYER1
  6
CONTINUOUS
 62
     6
 10
47.543498
 20
130.779785
 40
1.750000
 50
-16.601547
 51
16.601587
  0
LINE
  8
CSLAYER1
  6
CONTINUOUS
 62
     6
 10
49.220546
 20
130.279785
 11
48.543498
 21
130.279785
  0
ARC
  8
CSLAYER1
  6
CONTINUOUS
 62
     6
 10
48.543498
 20
129.779785
 40
0.500000
 50
90.000001
 51
179.942687
  0
LINE
  8
CSLAYER1
  6
CONTINUOUS
 62
     6
 10
48.043498
 20
129.779785
 11
48.043498
 21
129.102737
  0
CIRCLE
  8
CSLAYER1
  6
CONTINUOUS
 62
     6
 10
47.543498
 20
130.779785
 40
2.750000
  0
LINE
  8
CSLAYER1
  6
CONTINUOUS
 62
     6
 10
51.523295
 20
136.936638
 11
52.200358
 21
136.936638
  0
ARC
  8
CSLAYER1
  6
CONTINUOUS
 62
     6
 10
52.200358
 20
137.436638
 40
0.500000
 50
-90.000019
 51
0.000020
  0
LINE
  8
CSLAYER1
  6
CONTINUOUS
 62
     6
 10
52.700358
 20
137.436638
 11
52.700358
 21
138.113685
  0
ARC
  8
CSLAYER1
  6
CONTINUOUS
 62
     6
 10
53.200358
 20
136.436638
 40
1.750000
 50
73.398434
 51
106.601568
  0
LINE
  8
CSLAYER1
  6
CONTINUOUS
 62
     6
 10
53.700358
 20
138.113685
 11
53.700358
 21
137.436638
  0
ARC
  8
CSLAYER1
  6
CONTINUOUS
 62
     6
 10
54.200358
 20
137.436638
 40
0.500000
 50
180.000000
 51
269.999981
  0
LINE
  8
CSLAYER1
  6
CONTINUOUS
 62
     6
 10
54.200358
 20
136.936638
 11
54.877391
 21
136.936638
  0
ARC
  8
CSLAYER1
  6
CONTINUOUS
 62
     6
 10
53.200358
 20
136.436638
 40
1.750000
 50
-16.601547
 51
16.601587
  0
LINE
  8
CSLAYER1
  6
CONTINUOUS
 62
     6
 10
54.877391
 20
135.936638
 11
54.200358
 21
135.936638
  0
ARC
  8
CSLAYER1
  6
CONTINUOUS
 62
     6
 10
54.200358
 20
135.436638
 40
0.500000
 50
90.000001
 51
179.942687
  0
LINE
  8
CSLAYER1
  6
CONTINUOUS
 62
     6
 10
53.700358
 20
135.436638
 11
53.700358
 21
134.759590
  0
ARC
  8
CSLAYER1
  6
CONTINUOUS
 62
     6
 10
53.200358
 20
136.436638
 40
1.750000
 50
253.398415
 51
286.601605
  0
LINE
  8
CSLAYER1
  6
CONTINUOUS
 62
     6
 10
52.700358
 20
134.759590
 11
52.700358
 21
135.436638
  0
ARC
  8
CSLAYER1
  6
CONTINUOUS
 62
     6
 10
52.200358
 20
135.436638
 40
0.500000
 50
0.000020
 51
90.000001
  0
LINE
  8
CSLAYER1
  6
CONTINUOUS
 62
     6
 10
52.200358
 20
135.936638
 11
51.523295
 21
135.936638
  0
ARC
  8
CSLAYER1
  6
CONTINUOUS
 62
     6
 10
53.200358
 20
136.436638
 40
1.750000
 50
163.398416
 51
196.601606
  0
ARC
  8
CSLAYER1
  6
CONTINUOUS
 62
     6
 10
53.200358
 20
136.436638
 40
3.000000
 50
-44.999971
 51
134.999992
  0
LINE
  8
CSLAYER1
  6
CONTINUOUS
 62
     6
 10
55.321666
 20
134.315315
 11
52.671275
 21
131.664909
  0
CIRCLE
  8
CSLAYER1
  6
CONTINUOUS
 62
     6
 10
53.200358
 20
136.436638
 40
2.750000
  0
LINE
  8
CSLAYER1
  6
CONTINUOUS
 62
     6
 10
51.079021
 20
138.557960
 11
48.428630
 21
135.907555
  0
LINE
  8
CSLAYER1
  6
CONTINUOUS
 62
     6
 10
65.599818
 20
143.836136
 11
58.099818
 21
146.336136
  0
LINE
  8
CSLAYER1
  6
CONTINUOUS
 62
     6
 10
58.099818
 20
146.336136
 11
60.569240
 21
146.336136
  0
LINE
  8
CSLAYER1
  6
CONTINUOUS
 62
     6
 10
60.569240
 20
146.336136
 11
60.599818
 21
148.836136
  0
LINE
  8
CSLAYER1
  6
CONTINUOUS
 62
     6
 10
60.599818
 20
148.836136
 11
68.099818
 21
146.336136
  0
LINE
  8
CSLAYER1
  6
CONTINUOUS
 62
     6
 10
68.099818
 20
146.336136
 11
65.582851
 21
146.336136
  0
LINE
  8
CSLAYER1
  6
CONTINUOUS
 62
     6
 10
65.582851
 20
146.336136
 11
65.599818
 21
143.836136
  0
ARC
  8
CSLAYER1
  6
CONTINUOUS
 62
     6
 10
72.999347
 20
156.235634
 40
1.750000
 50
163.398416
 51
196.601549
  0
LINE
  8
CSLAYER1
  6
CONTINUOUS
 62
     6
 10
71.322299
 20
156.735634
 11
71.999347
 21
156.735634
  0
ARC
  8
CSLAYER1
  6
CONTINUOUS
 62
     6
 10
71.999347
 20
157.235634
 40
0.500000
 50
-90.000019
 51
0.000020
  0
LINE
  8
CSLAYER1
  6
CONTINUOUS
 62
     6
 10
72.499347
 20
157.235634
 11
72.499347
 21
157.912681
  0
ARC
  8
CSLAYER1
  6
CONTINUOUS
 62
     6
 10
72.999347
 20
156.235634
 40
1.750000
 50
73.398434
 51
106.601568
  0
LINE
  8
CSLAYER1
  6
CONTINUOUS
 62
     6
 10
73.499347
 20
157.912681
 11
73.499347
 21
157.235634
  0
ARC
  8
CSLAYER1
  6
CONTINUOUS
 62
     6
 10
73.999347
 20
157.235634
 40
0.500000
 50
179.999982
 51
269.999964
  0
LINE
  8
CSLAYER1
  6
CONTINUOUS
 62
     6
 10
73.999347
 20
156.735634
 11
74.676395
 21
156.735634
  0
ARC
  8
CSLAYER1
  6
CONTINUOUS
 62
     6
 10
72.999347
 20
156.235634
 40
1.750000
 50
-16.601604
 51
16.601587
  0
LINE
  8
CSLAYER1
  6
CONTINUOUS
 62
     6
 10
74.676395
 20
155.735634
 11
73.999347
 21
155.735634
  0
ARC
  8
CSLAYER1
  6
CONTINUOUS
 62
     6
 10
73.999347
 20
155.235634
 40
0.500000
 50
90.000001
 51
179.942687
  0
LINE
  8
CSLAYER1
  6
CONTINUOUS
 62
     6
 10
73.499347
 20
155.235634
 11
73.499347
 21
154.558586
  0
ARC
  8
CSLAYER1
  6
CONTINUOUS
 62
     6
 10
72.999347
 20
156.235634
 40
1.750000
 50
253.398415
 51
286.601605
  0
LINE
  8
CSLAYER1
  6
CONTINUOUS
 62
     6
 10
72.499347
 20
154.558586
 11
72.499347
 21
155.235634
  0
ARC
  8
CSLAYER1
  6
CONTINUOUS
 62
     6
 10
71.999347
 20
155.235634
 40
0.500000
 50
0.000020
 51
90.000001
  0
LINE
  8
CSLAYER1
  6
CONTINUOUS
 62
     6
 10
71.999347
 20
155.735634
 11
71.322299
 21
155.735634
  0
CIRCLE
  8
CSLAYER1
  6
CONTINUOUS
 62
     6
 10
72.999347
 20
156.235634
 40
2.750000
  0
ARC
  8
CSLAYER1
  6
CONTINUOUS
 62
     6
 10
72.999347
 20
156.235634
 40
3.000000
 50
134.999992
 51
315.000012
  0
LINE
  8
CSLAYER1
  6
CONTINUOUS
 62
     6
 10
70.878024
 20
158.356956
 11
73.528430
 21
161.007362
  0
ARC
  8
CSLAYER1
  6
CONTINUOUS
 62
     6
 10
78.656200
 20
161.892486
 40
1.750000
 50
163.398416
 51
196.601606
  0
LINE
  8
CSLAYER1
  6
CONTINUOUS
 62
     6
 10
76.979152
 20
162.392486
 11
77.656200
 21
162.392486
  0
ARC
  8
CSLAYER1
  6
CONTINUOUS
 62
     6
 10
77.656200
 20
162.892486
 40
0.500000
 50
-90.000019
 51
0.000020
  0
LINE
  8
CSLAYER1
  6
CONTINUOUS
 62
     6
 10
78.156200
 20
162.892486
 11
78.156200
 21
163.569534
  0
ARC
  8
CSLAYER1
  6
CONTINUOUS
 62
     6
 10
78.656200
 20
161.892486
 40
1.750000
 50
73.398434
 51
106.601568
  0
LINE
  8
CSLAYER1
  6
CONTINUOUS
 62
     6
 10
79.156200
 20
163.569534
 11
79.156200
 21
162.892486
  0
ARC
  8
CSLAYER1
  6
CONTINUOUS
 62
     6
 10
79.656200
 20
162.892486
 40
0.500000
 50
180.000000
 51
269.999981
  0
LINE
  8
CSLAYER1
  6
CONTINUOUS
 62
     6
 10
79.656200
 20
162.392486
 11
80.333247
 21
162.392486
  0
ARC
  8
CSLAYER1
  6
CONTINUOUS
 62
     6
 10
78.656200
 20
161.892486
 40
1.750000
 50
-16.601547
 51
16.601587
  0
LINE
  8
CSLAYER1
  6
CONTINUOUS
 62
     6
 10
80.333247
 20
161.392486
 11
79.656200
 21
161.392486
  0
ARC
  8
CSLAYER1
  6
CONTINUOUS
 62
     6
 10
79.656200
 20
160.892486
 40
0.500000
 50
90.000001
 51
179.942687
  0
LINE
  8
CSLAYER1
  6
CONTINUOUS
 62
     6
 10
79.156200
 20
160.892486
 11
79.156200
 21
160.215439
  0
ARC
  8
CSLAYER1
  6
CONTINUOUS
 62
     6
 10
78.656200
 20
161.892486
 40
1.750000
 50
253.398415
 51
286.601605
  0
LINE
  8
CSLAYER1
  6
CONTINUOUS
 62
     6
 10
78.156200
 20
160.215439
 11
78.156200
 21
160.892486
  0
ARC
  8
CSLAYER1
  6
CONTINUOUS
 62
     6
 10
77.656200
 20
160.892486
 40
0.500000
 50
0.000020
 51
90.000001
  0
LINE
  8
CSLAYER1
  6
CONTINUOUS
 62
     6
 10
77.656200
 20
161.392486
 11
76.979152
 21
161.392486
  0
CIRCLE
  8
CSLAYER1
  6
CONTINUOUS
 62
     6
 10
78.656200
 20
161.892486
 40
2.750000
  0
LINE
  8
CSLAYER1
  6
CONTINUOUS
 62
     6
 10
77.771075
 20
156.764717
 11
75.120669
 21
154.114311
  0
ARC
  8
CSLAYER1
  6
CONTINUOUS
 62
     6
 10
78.656200
 20
130.779785
 40
1.750000
 50
253.398415
 51
286.601605
  0
LINE
  8
CSLAYER1
  6
CONTINUOUS
 62
     6
 10
79.156200
 20
129.102737
 11
79.156200
 21
129.779785
  0
ARC
  8
CSLAYER1
  6
CONTINUOUS
 62
     6
 10
79.656200
 20
129.779785
 40
0.500000
 50
90.000001
 51
179.942687
  0
LINE
  8
CSLAYER1
  6
CONTINUOUS
 62
     6
 10
79.656200
 20
130.279785
 11
80.333247
 21
130.279785
  0
ARC
  8
CSLAYER1
  6
CONTINUOUS
 62
     6
 10
78.656200
 20
130.779785
 40
1.750000
 50
-16.601547
 51
16.601587
  0
LINE
  8
CSLAYER1
  6
CONTINUOUS
 62
     6
 10
80.333247
 20
131.279785
 11
79.656200
 21
131.279785
  0
ARC
  8
CSLAYER1
  6
CONTINUOUS
 62
     6
 10
79.656200
 20
131.779785
 40
0.500000
 50
180.000000
 51
269.999981
  0
LINE
  8
CSLAYER1
  6
CONTINUOUS
 62
     6
 10
79.156200
 20
131.779785
 11
79.156200
 21
132.456833
  0
ARC
  8
CSLAYER1
  6
CONTINUOUS
 62
     6
 10
78.656200
 20
130.779785
 40
1.750000
 50
73.398434
 51
106.601568
  0
LINE
  8
CSLAYER1
  6
CONTINUOUS
 62
     6
 10
78.156200
 20
132.456833
 11
78.156200
 21
131.779785
  0
ARC
  8
CSLAYER1
  6
CONTINUOUS
 62
     6
 10
77.656200
 20
131.779785
 40
0.500000
 50
-90.000019
 51
0.000020
  0
LINE
  8
CSLAYER1
  6
CONTINUOUS
 62
     6
 10
77.656200
 20
131.279785
 11
76.979152
 21
131.279785
  0
ARC
  8
CSLAYER1
  6
CONTINUOUS
 62
     6
 10
78.656200
 20
130.779785
 40
1.750000
 50
163.398416
 51
196.601606
  0
LINE
  8
CSLAYER1
  6
CONTINUOUS
 62
     6
 10
76.979152
 20
130.279785
 11
77.656200
 21
130.279785
  0
ARC
  8
CSLAYER1
  6
CONTINUOUS
 62
     6
 10
77.656200
 20
129.779785
 40
0.500000
 50
0.000020
 51
90.000001
  0
LINE
  8
CSLAYER1
  6
CONTINUOUS
 62
     6
 10
78.156200
 20
129.779785
 11
78.156200
 21
129.102737
  0
CIRCLE
  8
CSLAYER1
  6
CONTINUOUS
 62
     6
 10
78.656200
 20
130.779785
 40
2.750000
  0
CIRCLE
  8
CSLAYER1
  6
CONTINUOUS
 62
     6
 10
63.099841
 20
146.336136
 40
18.000000
  0
CIRCLE
  8
CSLAYER1
  6
CONTINUOUS
 62
     6
 10
63.099818
 20
146.336136
 40
5.000000
  0
CIRCLE
  8
CSLAYER1
  6
CONTINUOUS
 62
     6
 10
63.099818
 20
146.336136
 40
5.800000
  0
ARC
  8
CSLAYER1
  6
CENTER
 62
     3
 10
63.099849
 20
146.336136
 40
14.000000
 50
200.397443
 51
249.602557
  0
ARC
  8
CSLAYER1
  6
CENTER
 62
     3
 10
63.099849
 20
146.336136
 40
22.000000
 50
302.622854
 51
327.377146
  0
ARC
  8
CSLAYER1
  6
CENTER
 62
     3
 10
63.099849
 20
146.336136
 40
22.000000
 50
32.622854
 51
57.377146
  0
ARC
  8
CSLAYER1
  6
CENTER
 62
     3
 10
63.099849
 20
146.336136
 40
22.000000
 50
122.622854
 51
147.377146
  0
CIRCLE
  8
CSLAYER1
  6
CONTINUOUS
 62
     6
 10
63.099849
 20
146.336136
 40
30.000000
  0
LINE
  8
CSLAYER1
  6
CONTINUOUS
 62
     6
 10
65.299850
 20
111.096581
 11
65.299854
 21
116.416916
  0
LINE
  8
CSLAYER1
  6
CONTINUOUS
 62
     6
 10
60.899852
 20
111.096581
 11
60.899856
 21
116.416916
  0
LINE
  8
CSLAYER1
  6
CONTINUOUS
 62
     6
 10
63.099845
 20
111.096581
 11
63.099857
 21
116.416916
  0
ARC
  8
CSLAYER1
  6
CONTINUOUS
 62
     6
 10
78.858875
 20
108.184433
 40
15.759004
 50
180.000235
 51
207.463987
  0
ARC
  8
CSLAYER1
  6
CONTINUOUS
 62
     6
 10
78.858875
 20
108.184433
 40
13.559023
 50
180.000308
 51
207.464006
  0
ARC
  8
CSLAYER1
  6
CONTINUOUS
 62
     6
 10
63.649871
 20
112.049202
 40
1.099999
 50
239.999870
 51
299.999858
  0
ARC
  8
CSLAYER1
  6
CONTINUOUS
 62
     6
 10
64.749870
 20
112.049202
 40
1.099999
 50
239.999870
 51
299.999858
  0
ARC
  8
CSLAYER1
  6
CONTINUOUS
 62
     6
 10
64.749862
 20
110.143959
 40
1.099999
 50
59.999858
 51
119.999853
  0
ARC
  8
CSLAYER1
  6
CONTINUOUS
 62
     6
 10
64.749853
 20
107.231718
 40
1.099999
 50
59.999715
 51
119.999716
  0
ARC
  8
CSLAYER1
  6
CONTINUOUS
 62
     6
 10
63.649854
 20
107.231734
 40
1.099999
 50
59.999715
 51
119.999716
  0
ARC
  8
CSLAYER1
  6
CONTINUOUS
 62
     6
 10
63.649862
 20
109.136992
 40
1.099999
 50
239.999733
 51
299.999721
  0
LINE
  8
CSLAYER1
  6
CONTINUOUS
 62
     6
 10
66.339933
 20
101.677489
 11
68.116778
 21
98.656490
  0
LINE
  8
CSLAYER1
  6
CONTINUOUS
 62
     6
 10
65.851917
 20
101.423841
 11
67.466095
 21
98.318284
  0
LINE
  8
CSLAYER1
  6
CONTINUOUS
 62
     6
 10
65.363905
 20
101.170188
 11
66.815412
 21
97.980078
  0
LINE
  8
CSLAYER1
  6
CONTINUOUS
 62
     6
 10
66.827945
 20
101.931143
 11
64.875896
 21
100.916526
  0
ARC
  8
CSLAYER1
  6
CONTINUOUS
 62
     6
 10
47.340892
 20
108.184261
 40
15.758933
 50
-27.463461
 51
0.000397
  0
ARC
  8
CSLAYER1
  6
CONTINUOUS
 62
     6
 10
47.340892
 20
108.184261
 40
13.558951
 50
-27.463363
 51
0.000417
  0
ARC
  8
CSLAYER1
  6
CONTINUOUS
 62
     6
 10
61.449829
 20
112.049202
 40
1.099999
 50
240.000198
 51
300.000186
  0
ARC
  8
CSLAYER1
  6
CONTINUOUS
 62
     6
 10
62.549827
 20
112.049202
 40
1.099999
 50
240.000198
 51
300.000186
  0
ARC
  8
CSLAYER1
  6
CONTINUOUS
 62
     6
 10
62.549835
 20
110.143959
 40
1.099999
 50
60.000186
 51
120.000181
  0
ARC
  8
CSLAYER1
  6
CONTINUOUS
 62
     6
 10
62.549848
 20
107.231749
 40
1.099999
 50
60.000350
 51
120.000345
  0
ARC
  8
CSLAYER1
  6
CONTINUOUS
 62
     6
 10
61.449850
 20
107.231734
 40
1.099999
 50
60.000350
 51
120.000345
  0
ARC
  8
CSLAYER1
  6
CONTINUOUS
 62
     6
 10
61.449838
 20
109.136992
 40
1.099999
 50
240.000362
 51
300.000350
  0
LINE
  8
CSLAYER1
  6
CONTINUOUS
 62
     6
 10
59.859810
 20
101.677488
 11
58.082967
 21
98.656488
  0
LINE
  8
CSLAYER1
  6
CONTINUOUS
 62
     6
 10
60.347826
 20
101.423840
 11
58.733650
 21
98.318282
  0
LINE
  8
CSLAYER1
  6
CONTINUOUS
 62
     6
 10
60.835839
 20
101.170187
 11
59.384333
 21
97.980077
  0
LINE
  8
CSLAYER1
  6
CONTINUOUS
 62
     6
 10
59.371829
 20
101.931126
 11
61.323874
 21
100.916511
  0
LINE
  8
CSLAYER1
  6
CONTINUOUS
 62
     6
 10
65.299852
 20
114.336136
 11
89.099849
 21
114.336136
  0
ARC
  8
CSLAYER1
  6
CONTINUOUS
 62
     6
 10
63.099849
 20
146.336136
 40
31.000000
 50
-85.930420
 51
265.930438
  0
LINE
  8
CSLAYER1
  6
CENTER
 62
     3
 10
118.099872
 20
242.683265
 11
314.599872
 21
242.683226
  0
LINE
  8
CSLAYER1
  6
CONTINUOUS
 62
     3
 10
221.099849
 20
218.183208
 11
257.099849
 21
218.183208
  0
ARC
  8
CSLAYER1
  6
CONTINUOUS
 62
     3
 10
221.099849
 20
219.183208
 40
1.000000
 50
180.000005
 51
270.000001
  0
LINE
  8
CSLAYER1
  6
CONTINUOUS
 62
     3
 10
220.099849
 20
266.183269
 11
220.099849
 21
219.183208
  0
LINE
  8
CSLAYER1
  6
CONTINUOUS
 62
     3
 10
258.099849
 20
266.183269
 11
258.099849
 21
219.183208
  0
TEXT
  8
CSLAYER1
 62
     3
 10
236.469925
 20
247.918655
 40
3.500000
 41
1.125000
  1
N P
 50
-90.000000
 51
10.000000
  7
JX_FONT
 72
     5
 11
236.469925
 21
237.418655
  0
LINE
  8
CSLAYER1
  6
CONTINUOUS
 62
     3
 10
221.099849
 20
267.183269
 11
257.099849
 21
267.183269
  0
ARC
  8
CSLAYER1
  6
CONTINUOUS
 62
     3
 10
221.099849
 20
266.183269
 40
1.000000
 50
90.000009
 51
180.000005
  0
ARC
  8
CSLAYER1
  6
CONTINUOUS
 62
     3
 10
257.099849
 20
219.183208
 40
1.000000
 50
269.999999
 51
359.999995
  0
ARC
  8
CSLAYER1
  6
CONTINUOUS
 62
     3
 10
257.099849
 20
266.183269
 40
1.000000
 50
-0.000005
 51
89.999991
  0
LINE
  8
CSLAYER1
  6
CONTINUOUS
 62
     6
 10
285.099849
 20
274.683233
 11
285.099849
 21
210.683233
  0
LINE
  8
CSLAYER1
  6
CONTINUOUS
 62
     6
 10
287.099849
 20
257.683233
 11
287.099849
 21
227.683233
  0
LINE
  8
CSLAYER1
  6
CONTINUOUS
 62
     6
 10
311.599849
 20
246.683233
 11
311.599849
 21
238.683233
  0
LINE
  8
CSLAYER1
  6
CONTINUOUS
 62
     6
 10
193.099849
 20
273.683233
 11
193.099849
 21
211.683233
  0
LINE
  8
CSLAYER1
  6
CONTINUOUS
 62
     6
 10
287.099849
 20
246.683233
 11
311.599849
 21
246.683233
  0
LINE
  8
CSLAYER1
  6
CONTINUOUS
 62
     6
 10
287.099849
 20
238.683233
 11
311.599849
 21
238.683233
  0
LINE
  8
CSLAYER1
  6
CONTINUOUS
 62
     6
 10
276.099849
 20
272.683233
 11
275.099849
 21
272.683233
  0
LINE
  8
CSLAYER1
  6
CONTINUOUS
 62
     6
 10
275.099849
 20
212.683233
 11
276.099849
 21
212.683233
  0
LINE
  8
CSLAYER1
  6
CONTINUOUS
 62
     6
 10
285.099849
 20
257.683233
 11
287.099849
 21
257.683233
  0
LINE
  8
CSLAYER1
  6
CONTINUOUS
 62
     6
 10
285.099849
 20
227.683233
 11
287.099849
 21
227.683233
  0
LINE
  8
CSLAYER1
  6
CONTINUOUS
 62
     6
 10
193.099849
 20
211.683233
 11
275.099849
 21
211.683233
  0
LINE
  8
CSLAYER1
  6
CONTINUOUS
 62
     6
 10
193.099849
 20
273.683233
 11
275.099849
 21
273.683233
  0
LINE
  8
CSLAYER1
  6
CONTINUOUS
 62
     6
 10
276.099849
 20
272.683233
 11
276.099849
 21
212.683233
  0
LINE
  8
CSLAYER1
  6
CONTINUOUS
 62
     6
 10
285.099849
 20
274.683233
 11
278.099849
 21
274.683233
  0
LINE
  8
CSLAYER1
  6
CONTINUOUS
 62
     6
 10
275.099849
 20
273.683233
 11
275.099849
 21
211.683233
  0
LINE
  8
CSLAYER1
  6
CONTINUOUS
 62
     6
 10
285.099849
 20
210.683233
 11
278.099849
 21
210.683233
  0
ARC
  8
CSLAYER1
  6
CONTINUOUS
 62
     6
 10
278.099849
 20
272.683233
 40
2.000000
 50
90.000000
 51
180.000000
  0
ARC
  8
CSLAYER1
  6
CONTINUOUS
 62
     6
 10
278.099849
 20
212.683233
 40
2.000000
 50
180.000000
 51
270.000000
  0
LINE
  8
CSLAYER1
  6
CENTER
 62
     3
 10
273.099849
 20
216.683229
 11
287.099849
 21
216.683229
  0
LINE
  8
CSLAYER1
  6
CENTER
 62
     3
 10
273.099856
 20
268.683239
 11
287.099856
 21
268.683236
  0
LINE
  8
CSLAYER1
  6
CONTINUOUS
 62
     6
 10
159.099849
 20
267.683278
 11
159.099849
 21
217.683278
  0
LINE
  8
CSLAYER1
  6
CONTINUOUS
 62
     6
 10
139.099849
 20
260.683233
 11
139.099849
 21
224.683278
  0
LINE
  8
CSLAYER1
  6
CONTINUOUS
 62
     6
 10
159.099849
 20
217.683278
 11
163.099849
 21
217.683278
  0
LINE
  8
CSLAYER1
  6
CONTINUOUS
 62
     6
 10
159.099849
 20
267.683278
 11
163.099849
 21
267.683278
  0
LINE
  8
CSLAYER1
  6
CENTER
 62
     3
 10
132.099849
 20
216.183309
 11
132.099849
 21
269.183309
  0
LINE
  8
CSLAYER1
  6
CONTINUOUS
 62
     6
 10
138.099849
 20
265.683309
 11
138.099849
 21
260.683233
  0
LINE
  8
CSLAYER1
  6
CONTINUOUS
 62
     6
 10
126.099849
 20
265.683309
 11
126.099849
 21
260.683233
  0
LINE
  8
CSLAYER1
  6
CONTINUOUS
 62
     6
 10
137.849849
 20
267.683309
 11
137.849849
 21
266.683309
  0
ARC
  8
CSLAYER1
  6
CONTINUOUS
 62
     6
 10
137.099849
 20
266.183309
 40
0.500000
 50
-89.999999
 51
90.000019
  0
LINE
  8
CSLAYER1
  6
CONTINUOUS
 62
     6
 10
126.349849
 20
267.683309
 11
126.349849
 21
266.683309
  0
ARC
  8
CSLAYER1
  6
CONTINUOUS
 62
     6
 10
127.099849
 20
266.183309
 40
0.500000
 50
90.000003
 51
269.942682
  0
LINE
  8
CSLAYER1
  6
CONTINUOUS
 62
     6
 10
137.849849
 20
267.683309
 11
126.349849
 21
267.683309
  0
LINE
  8
CSLAYER1
  6
CONTINUOUS
 62
     6
 10
137.849849
 20
266.683309
 11
126.349849
 21
266.683309
  0
LINE
  8
CSLAYER1
  6
CONTINUOUS
 62
     6
 10
126.099849
 20
265.683309
 11
138.099849
 21
265.683309
  0
LINE
  8
CSLAYER1
  6
CONTINUOUS
 62
     6
 10
133.099849
 20
225.656243
 11
133.099849
 21
259.710279
  0
LINE
  8
CSLAYER1
  6
CONTINUOUS
 62
     6
 10
131.099849
 20
225.656245
 11
131.099849
 21
259.710279
  0
LINE
  8
CSLAYER1
  6
CONTINUOUS
 62
     6
 10
121.099849
 20
225.683233
 11
121.099849
 21
259.683233
  0
LINE
  8
CSLAYER1
  6
CONTINUOUS
 62
     6
 10
156.946143
 20
224.683233
 11
138.099849
 21
224.683233
  0
LINE
  8
CSLAYER1
  6
CONTINUOUS
 62
     6
 10
156.946032
 20
260.683233
 11
138.099849
 21
260.683233
  0
LINE
  8
CSLAYER1
  6
CONTINUOUS
 62
     6
 10
126.099849
 20
232.254720
 11
126.099849
 21
228.012044
  0
LINE
  8
CSLAYER1
  6
CONTINUOUS
 62
     6
 10
126.099849
 20
228.012044
 11
122.099849
 21
228.012044
  0
LINE
  8
CSLAYER1
  6
CONTINUOUS
 62
     6
 10
126.099849
 20
232.254720
 11
122.099849
 21
232.254720
  0
LINE
  8
CSLAYER1
  6
CONTINUOUS
 62
     6
 10
122.099849
 20
228.012044
 11
121.099849
 21
229.012044
  0
LINE
  8
CSLAYER1
  6
CONTINUOUS
 62
     6
 10
122.099849
 20
232.254720
 11
121.099849
 21
233.254720
  0
LINE
  8
CSLAYER1
  6
CONTINUOUS
 62
     6
 10
122.099849
 20
228.012044
 11
122.099849
 21
224.683233
  0
LINE
  8
CSLAYER1
  6
CONTINUOUS
 62
     6
 10
125.168880
 20
230.052816
 11
124.539058
 21
230.107930
  0
ARC
  8
CSLAYER1
  6
CONTINUOUS
 62
     6
 10
124.626217
 20
231.104146
 40
1.000000
 50
196.257399
 51
264.999892
  0
ARC
  8
CSLAYER1
  6
CONTINUOUS
 62
     6
 10
125.186306
 20
230.252095
 40
0.200000
 50
264.999865
 51
359.942691
  0
ARC
  8
CSLAYER1
  6
CONTINUOUS
 62
     6
 10
125.486293
 20
229.983846
 40
0.100000
 50
179.999991
 51
269.942682
  0
LINE
  8
CSLAYER1
  6
CONTINUOUS
 62
     6
 10
125.486293
 20
229.883809
 11
125.986293
 21
229.883809
  0
ARC
  8
CSLAYER1
  6
CONTINUOUS
 62
     6
 10
125.986293
 20
229.983846
 40
0.100000
 50
270.000001
 51
359.942691
  0
ARC
  8
CSLAYER1
  6
CONTINUOUS
 62
     6
 10
130.386287
 20
232.783834
 40
7.000000
 50
184.334839
 51
196.257016
  0
LINE
  8
CSLAYER1
  6
CONTINUOUS
 62
     6
 10
125.386287
 20
232.254720
 11
125.386287
 21
229.983846
  0
LINE
  8
CSLAYER1
  6
CONTINUOUS
 62
     6
 10
163.099849
 20
214.206929
 11
163.099849
 21
271.159627
  0
LINE
  8
CSLAYER1
  6
CONTINUOUS
 62
     6
 10
164.099849
 20
213.206929
 11
164.099849
 21
272.159627
  0
LINE
  8
CSLAYER1
  6
CONTINUOUS
 62
     6
 10
164.099849
 20
272.159627
 11
163.099849
 21
271.159627
  0
LINE
  8
CSLAYER1
  6
CONTINUOUS
 62
     6
 10
164.099849
 20
213.206929
 11
163.099849
 21
214.206929
  0
LINE
  8
CSLAYER1
  6
CONTINUOUS
 62
     6
 10
164.099849
 20
272.159627
 11
193.099849
 21
272.683233
  0
LINE
  8
CSLAYER1
  6
CONTINUOUS
 62
     6
 10
164.099849
 20
213.206929
 11
193.099849
 21
212.683233
  0
ARC
  8
CSLAYER1
  6
CONTINUOUS
 62
     6
 10
163.399837
 20
227.083287
 40
7.000000
 50
163.742994
 51
196.257016
  0
LINE
  8
CSLAYER1
  6
CONTINUOUS
 62
     6
 10
158.182399
 20
229.814244
 11
157.552578
 21
229.759130
  0
ARC
  8
CSLAYER1
  6
CONTINUOUS
 62
     6
 10
157.639736
 20
228.762944
 40
1.000000
 50
95.000111
 51
163.742611
  0
ARC
  8
CSLAYER1
  6
CONTINUOUS
 62
     6
 10
158.199825
 20
229.615026
 40
0.200000
 50
0.000000
 51
95.000152
  0
LINE
  8
CSLAYER1
  6
CONTINUOUS
 62
     6
 10
158.499813
 20
229.983251
 11
158.999813
 21
229.983251
  0
ARC
  8
CSLAYER1
  6
CONTINUOUS
 62
     6
 10
158.499813
 20
229.883275
 40
0.100000
 50
90.000003
 51
180.000005
  0
ARC
  8
CSLAYER1
  6
CONTINUOUS
 62
     6
 10
158.999813
 20
229.883275
 40
0.100000
 50
0.000000
 51
90.000003
  0
LINE
  8
CSLAYER1
  6
CONTINUOUS
 62
     6
 10
158.182399
 20
224.352300
 11
157.552578
 21
224.407384
  0
ARC
  8
CSLAYER1
  6
CONTINUOUS
 62
     6
 10
157.639736
 20
225.403600
 40
1.000000
 50
196.257399
 51
264.999892
  0
ARC
  8
CSLAYER1
  6
CONTINUOUS
 62
     6
 10
158.199825
 20
224.551549
 40
0.200000
 50
264.999865
 51
359.942691
  0
LINE
  8
CSLAYER1
  6
CONTINUOUS
 62
     6
 10
158.399837
 20
229.883275
 11
158.399837
 21
224.283300
  0
ARC
  8
CSLAYER1
  6
CONTINUOUS
 62
     6
 10
158.499813
 20
224.283300
 40
0.100000
 50
180.000005
 51
270.000001
  0
LINE
  8
CSLAYER1
  6
CONTINUOUS
 62
     6
 10
158.499813
 20
224.183263
 11
158.999813
 21
224.183263
  0
ARC
  8
CSLAYER1
  6
CONTINUOUS
 62
     6
 10
158.999813
 20
224.283300
 40
0.100000
 50
270.000001
 51
359.942691
  0
LINE
  8
CSLAYER1
  6
CONTINUOUS
 62
     6
 10
158.399837
 20
226.487340
 11
159.099819
 21
226.931188
  0
LINE
  8
CSLAYER1
  6
CONTINUOUS
 62
     6
 10
158.399837
 20
226.987340
 11
159.099819
 21
227.431188
  0
LINE
  8
CSLAYER1
  6
CENTER
 62
     3
 10
154.359977
 20
227.083190
 11
167.099849
 21
227.083187
  0
LINE
  8
CSLAYER1
  6
CENTER
 62
     3
 10
154.359981
 20
258.283284
 11
167.099849
 21
258.283284
  0
ARC
  8
CSLAYER1
  6
CONTINUOUS
 62
     6
 10
163.399837
 20
258.283315
 40
7.000000
 50
163.742994
 51
196.257016
  0
LINE
  8
CSLAYER1
  6
CONTINUOUS
 62
     6
 10
158.182399
 20
261.014272
 11
157.552578
 21
260.959157
  0
ARC
  8
CSLAYER1
  6
CONTINUOUS
 62
     6
 10
157.639736
 20
259.962972
 40
1.000000
 50
95.000111
 51
163.742611
  0
ARC
  8
CSLAYER1
  6
CONTINUOUS
 62
     6
 10
158.199825
 20
260.815053
 40
0.200000
 50
0.000000
 51
95.000152
  0
LINE
  8
CSLAYER1
  6
CONTINUOUS
 62
     6
 10
158.499813
 20
261.183278
 11
158.999813
 21
261.183278
  0
ARC
  8
CSLAYER1
  6
CONTINUOUS
 62
     6
 10
158.499813
 20
261.083303
 40
0.100000
 50
90.000003
 51
180.000005
  0
ARC
  8
CSLAYER1
  6
CONTINUOUS
 62
     6
 10
158.999813
 20
261.083303
 40
0.100000
 50
0.000000
 51
90.000003
  0
LINE
  8
CSLAYER1
  6
CONTINUOUS
 62
     6
 10
158.182399
 20
255.552327
 11
157.552578
 21
255.607412
  0
ARC
  8
CSLAYER1
  6
CONTINUOUS
 62
     6
 10
157.639736
 20
256.603627
 40
1.000000
 50
196.257399
 51
264.999892
  0
ARC
  8
CSLAYER1
  6
CONTINUOUS
 62
     6
 10
158.199825
 20
255.751577
 40
0.200000
 50
264.999865
 51
359.942691
  0
LINE
  8
CSLAYER1
  6
CONTINUOUS
 62
     6
 10
158.399837
 20
261.083303
 11
158.399837
 21
255.483327
  0
ARC
  8
CSLAYER1
  6
CONTINUOUS
 62
     6
 10
158.499813
 20
255.483327
 40
0.100000
 50
180.000005
 51
270.000001
  0
LINE
  8
CSLAYER1
  6
CONTINUOUS
 62
     6
 10
158.499813
 20
255.383291
 11
158.999813
 21
255.383291
  0
ARC
  8
CSLAYER1
  6
CONTINUOUS
 62
     6
 10
158.999813
 20
255.483327
 40
0.100000
 50
270.000001
 51
359.942691
  0
LINE
  8
CSLAYER1
  6
CONTINUOUS
 62
     6
 10
158.399837
 20
257.687368
 11
159.099819
 21
258.131215
  0
LINE
  8
CSLAYER1
  6
CONTINUOUS
 62
     6
 10
158.399837
 20
258.187368
 11
159.099819
 21
258.631215
  0
LINE
  8
CSLAYER1
  6
CONTINUOUS
 62
     6
 10
122.099849
 20
260.683233
 11
121.099849
 21
259.683233
  0
LINE
  8
CSLAYER1
  6
CONTINUOUS
 62
     6
 10
122.099849
 20
232.254720
 11
122.099849
 21
260.683233
  0
LINE
  8
CSLAYER1
  6
CONTINUOUS
 62
     6
 10
121.099849
 20
225.683233
 11
122.099849
 21
224.683233
  0
LINE
  8
CSLAYER1
  6
CONTINUOUS
 62
     6
 10
138.099849
 20
219.683156
 11
138.099849
 21
224.683285
  0
LINE
  8
CSLAYER1
  6
CONTINUOUS
 62
     6
 10
126.099849
 20
219.683156
 11
126.099849
 21
224.683296
  0
LINE
  8
CSLAYER1
  6
CONTINUOUS
 62
     6
 10
137.849849
 20
217.683156
 11
137.849849
 21
218.683156
  0
ARC
  8
CSLAYER1
  6
CONTINUOUS
 62
     6
 10
137.099849
 20
219.183156
 40
0.500000
 50
-90.000019
 51
89.999999
  0
LINE
  8
CSLAYER1
  6
CONTINUOUS
 62
     6
 10
126.349849
 20
217.683156
 11
126.349849
 21
218.683156
  0
ARC
  8
CSLAYER1
  6
CONTINUOUS
 62
     6
 10
127.099849
 20
219.183156
 40
0.500000
 50
90.057318
 51
269.999997
  0
LINE
  8
CSLAYER1
  6
CONTINUOUS
 62
     6
 10
137.849849
 20
217.683156
 11
126.349849
 21
217.683156
  0
LINE
  8
CSLAYER1
  6
CONTINUOUS
 62
     6
 10
137.849849
 20
218.683156
 11
126.349849
 21
218.683156
  0
LINE
  8
CSLAYER1
  6
CONTINUOUS
 62
     6
 10
126.099849
 20
219.683156
 11
138.099849
 21
219.683156
  0
ARC
  8
CSLAYER1
  6
CONTINUOUS
 62
     6
 10
132.099849
 20
278.183233
 40
18.500000
 50
251.075356
 51
266.901421
  0
ARC
  8
CSLAYER1
  6
CONTINUOUS
 62
     6
 10
132.099849
 20
278.183233
 40
18.500000
 50
273.098579
 51
288.924644
  0
LINE
  8
CSLAYER1
  6
CONTINUOUS
 62
     6
 10
138.099841
 20
224.683288
 11
139.099841
 21
224.683287
  0
ARC
  8
CSLAYER1
  6
CONTINUOUS
 62
     6
 10
132.099833
 20
207.183291
 40
18.500000
 50
93.098552
 51
108.924617
  0
ARC
  8
CSLAYER1
  6
CONTINUOUS
 62
     6
 10
132.099833
 20
207.183291
 40
18.500000
 50
71.075329
 51
86.901394
  0
ARC
  8
CSLAYER1
  6
CONTINUOUS
 62
     6
 10
132.099849
 20
258.889569
 40
1.293664
 50
39.376084
 51
140.623916
  0
ARC
  8
CSLAYER1
  6
CONTINUOUS
 62
     6
 10
132.099846
 20
226.476963
 40
1.293673
 50
219.376242
 51
320.623679
  0
ARC
  8
CSLAYER1
  6
CONTINUOUS
 62
     6
 10
132.099849
 20
85.488997
 40
18.500000
 50
251.075356
 51
266.901421
  0
ARC
  8
CSLAYER1
  6
CONTINUOUS
 62
     6
 10
132.099849
 20
85.488997
 40
18.500000
 50
273.098579
 51
288.924644
  0
ARC
  8
CSLAYER1
  6
CONTINUOUS
 62
     6
 10
132.099833
 20
14.489055
 40
18.500000
 50
93.098552
 51
108.924617
  0
ARC
  8
CSLAYER1
  6
CONTINUOUS
 62
     6
 10
132.099833
 20
14.489055
 40
18.500000
 50
71.075329
 51
86.901394
  0
ARC
  8
CSLAYER1
  6
CONTINUOUS
 62
     6
 10
132.099849
 20
66.195333
 40
1.293664
 50
39.376084
 51
140.623916
  0
ARC
  8
CSLAYER1
  6
CONTINUOUS
 62
     6
 10
132.099846
 20
33.782728
 40
1.293673
 50
219.376242
 51
320.623679
  0
CIRCLE
  8
CSLAYER1
  6
CONTINUOUS
 62
     6
 10
365.599849
 20
146.336136
 40
5.000000
  0
LINE
  8
CSLAYER1
  6
CONTINUOUS
 62
     6
 10
126.099849
 20
260.683233
 11
122.099849
 21
260.683233
  0
LINE
  8
CSLAYER1
  6
CONTINUOUS
 62
     6
 10
126.099849
 20
224.683233
 11
122.099849
 21
224.683233
  0
LINE
  8
CSLAYER1
  6
CONTINUOUS
 62
     6
 10
126.099849
 20
67.989024
 11
122.099849
 21
67.989024
  0
LINE
  8
CSLAYER1
  6
CONTINUOUS
 62
     6
 10
126.099849
 20
31.989024
 11
122.099849
 21
31.989024
  0
ENDSEC
  0
EOF
