  0
SECTION
  2
HEADER
  9
$ACADVER
  1
AC1006
  9
$INSBASE
 10
0.000000
 20
0.000000
 30
0.0
  9
$EXTMIN
 10
0.000000
 20
0.000000
  9
$EXTMAX
 10
594.000000
 20
420.000000
  9
$LIMMIN
 10
0.000000
 20
0.000000
  9
$LIMMAX
 10
594.000000
 20
420.000000
  9
$VIEWCTR
 10
297.000000
 20
210.000000
  9
$VIEWSIZE
 40
420.000000
  9
$SNAPMODE
 70
     0
  9
$SNAPUNIT
 10
1.0
 20
1.0
  9
$SNAPBASE
 10
0.0
 20
0.0
  9
$SNAPANG
 50
0.0
  9
$SNAPSTYLE
 70
     0
  9
$SNAPISOPAIR
 70
     0
  9
$GRIDMODE
 70
     0
  9
$GRIDUNIT
 10
0.0
 20
0.0
  9
$ORTHOMODE
 70
     0
  9
$REGENMODE
 70
     1
  9
$FILLMODE
 70
     1
  9
$QTEXTMODE
 70
     0
  9
$DRAGMODE
 70
     2
  9
$LTSCALE
 40
15.000000
  9
$OSMODE
 70
     0
  9
$ATTMODE
 70
     1
  9
$TEXTSIZE
 40
0.2
  9
$TRACEWID
 40
0.05
  9
$TEXTSTYLE
  7
STANDARD
  9
$CLAYER
  8
CSLAYER1
  9
$CELTYPE
  6
BYLAYER
  9
$CECOLOR
 62
   256
  9
$DIMSCALE
 40
1.0
  9
$DIMASZ
 40
0.18
  9
$DIMEXO
 40
0.0625
  9
$DIMDLI
 40
0.38
  9
$DIMRND
 40
0.0
  9
$DIMDLE
 40
0.0
  9
$DIMEXE
 40
0.18
  9
$DIMTP
 40
0.0
  9
$DIMTM
 40
0.0
  9
$DIMTXT
 40
0.18
  9
$DIMCEN
 40
0.09
  9
$DIMTSZ
 40
0.0
  9
$DIMTOL
 70
     0
  9
$DIMLIM
 70
     0
  9
$DIMTIH
 70
     1
  9
$DIMTOH
 70
     1
  9
$DIMSE1
 70
     0
  9
$DIMSE2
 70
     0
  9
$DIMTAD
 70
     0
  9
$DIMZIN
 70
     0
  9
$DIMBLK
  1

  9
$LUNITS
 70
     2
  9
$LUPREC
 70
     4
  9
$AXISMODE
 70
     0
  9
$AXISUNIT
 10
0.0
 20
0.0
  9
$SKETCHINC
 40
0.1
  9
$FILLETRAD
 40
0.0
  9
$AUNITS
 70
     0
  9
$AUPREC
 70
     0
  9
$MENU
  1
ACAD
  9
$ELEVATION
 40
0.0
  9
$THICKNESS
 40
0.0
  9
$VIEWDIR
 10
0.0
 20
0.0
 30
1.0
  9
$LIMCHECK
 70
     0
  9
$BLIPMODE
 70
     1
  9
$CHAMFERA
 40
0.0
  9
$CHAMFERB
 40
0.0
  9
$FASTZOOM
 70
     1
  9
$SKPOLY
 70
     0
  9
$TDCREATE
 40
0.000000
  9
$TDUPDATE
 40
0.000000
  9
$TDINDWG
 40
0.0
  9
$TDUSRTIMER
 40
0.0
  9
$USRTIMER
 70
     1
  9
$ANGBASE
 50
0.0
  9
$ANGDIR
 70
     0
  9
$PDMODE
 70
     0
  9
$PDSIZE
 40
0.0
  9
$PLINEWID
 40
0.0
  9
$COORDS
 70
     0
  9
$USERI1
 70
     0
  9
$USERI2
 70
     0
  9
$USERI3
 70
     0
  9
$USERI4
 70
     0
  9
$USERI5
 70
     0
  9
$USERR1
 40
0.0
  9
$USERR2
 40
0.0
  9
$USERR3
 40
0.0
  9
$USERR4
 40
0.0
  9
$USERR5
 40
0.0
  0
ENDSEC
  0
SECTION
  2
TABLES
  0
TABLE
  2
LTYPE
 70
     9
  0
LTYPE
  2
CONTINUOUS
 70
    64
  3
Solid line
 72
    65
 73
     0
 40
0.0
  0
LTYPE
  2
DASHED
 70
    64
  3
__ __ __ __ __ __ __ __ __ __ __ __ __ __ __
 72
    65
 73
     2
 40
0.75
 49
0.5
 49
-0.25
  0
LTYPE
  2
HIDDEN
 70
    64
  3
_ _ _ _ _ _ _ _ _ _ _ _ _ _ _ _ _ _ _ _ _ _ _
 72
    65
 73
     2
 40
0.375
 49
0.25
 49
-0.125
  0
LTYPE
  2
DOT
 70
    64
  3
...............................................
 72
    65
 73
     2
 40
0.25
 49
0.0
 49
-0.25
  0
LTYPE
  2
DASHDOT
 70
    64
  3
__ . __ . __ . __ . __ . __ . __ . __ . __ . __
 72
    65
 73
     4
 40
1.0
 49
0.5
 49
-0.25
 49
0.0
 49
-0.25
  0
LTYPE
  2
DIVIDE
 70
    64
  3
__ . . __ . . __ . . __ . . __ . . __ . . __
 72
    65
 73
     6
 40
1.25
 49
0.5
 49
-0.25
 49
0.0
 49
-0.25
 49
0.0
 49
-0.25
  0
LTYPE
  2
CENTER
 70
    64
  3
____ _ ____ _ ____ _ ____ _ ____ _ ____ _ ____ 
 72
    65
 73
     4
 40
2.0
 49
1.25
 49
-0.25
 49
0.25
 49
-0.25
  0
LTYPE
  2
PHANTOM
 70
    64
  3
______  __  __  ______  __  __  ______  __  __ 
 72
    65
 73
     6
 40
2.5
 49
1.25
 49
-0.25
 49
0.25
 49
-0.25
 49
0.25
 49
-0.25
  0
LTYPE
  2
BORDER
 70
    64
  3
__ __ . __ __ . __ __ . __ __ . __ __ . __ __ .
 72
    65
 73
     6
 40
1.75
 49
0.5
 49
-0.25
 49
0.5
 49
-0.25
 49
0.0
 49
-0.25
  0
ENDTAB
  0
TABLE
  2
LAYER
 70
    16
  0
LAYER
  2
CSLAYER1
 70
    64
 62
     7
  6
CONTINUOUS
  0
LAYER
  2
CSLAYER2
 70
    64
 62
     7
  6
CONTINUOUS
  0
LAYER
  2
CSLAYER3
 70
    64
 62
     7
  6
CONTINUOUS
  0
LAYER
  2
CSLAYER4
 70
    64
 62
     7
  6
CONTINUOUS
  0
LAYER
  2
CSLAYER5
 70
    64
 62
     7
  6
CONTINUOUS
  0
LAYER
  2
CSLAYER6
 70
    64
 62
     7
  6
CONTINUOUS
  0
LAYER
  2
CSLAYER7
 70
    64
 62
     7
  6
CONTINUOUS
  0
LAYER
  2
CSLAYER8
 70
    64
 62
     7
  6
CONTINUOUS
  0
LAYER
  2
CSLAYER9
 70
    64
 62
     7
  6
CONTINUOUS
  0
LAYER
  2
CSLAYER10
 70
    64
 62
     7
  6
CONTINUOUS
  0
LAYER
  2
CSLAYER11
 70
    64
 62
     7
  6
CONTINUOUS
  0
LAYER
  2
CSLAYER12
 70
    64
 62
     7
  6
CONTINUOUS
  0
LAYER
  2
CSLAYER13
 70
    64
 62
     7
  6
CONTINUOUS
  0
LAYER
  2
CSLAYER14
 70
    64
 62
     7
  6
CONTINUOUS
  0
LAYER
  2
CSLAYER15
 70
    64
 62
     7
  6
CONTINUOUS
  0
LAYER
  2
CSLAYER16
 70
    64
 62
     7
  6
CONTINUOUS
  0
ENDTAB
  0
TABLE
  2
STYLE
 70
     1
  0
STYLE
  2
JX_FONT
 70
     0
 40
1.0
 41
1.0
 50
0.0
 71
     0
 42
1.0
  3
monotxt
  4
bigfont
  0
ENDTAB
  0
TABLE
  2
VIEW
 70
     0
  0
ENDTAB
  0
ENDSEC
  0
SECTION
  2
BLOCKS
  0
ENDSEC
  0
SECTION
  2
ENTITIES
  0
LINE
  8
CSLAYER1
  6
CENTER
 62
     3
 10
101.200801
 20
177.119532
 11
111.807403
 21
187.726133
  0
CIRCLE
  8
CSLAYER1
  6
CONTINUOUS
 62
     3
 10
106.504102
 20
182.422832
 40
2.500000
  0
ARC
  8
CSLAYER1
  6
CENTER
 62
     3
 10
134.081266
 20
209.999997
 40
39.000000
 50
213.975912
 51
236.024088
  0
ARC
  8
CSLAYER1
  6
CENTER
 62
     3
 10
134.081266
 20
209.999997
 40
39.000000
 50
173.387725
 51
186.613090
  0
ARC
  8
CSLAYER1
  6
CENTER
 62
     3
 10
134.081266
 20
209.999997
 40
39.000000
 50
123.975912
 51
146.024088
  0
CIRCLE
  8
CSLAYER1
  6
CONTINUOUS
 62
     3
 10
106.504102
 20
237.577161
 40
2.500000
  0
LINE
  8
CSLAYER1
  6
CENTER
 62
     3
 10
101.200801
 20
242.880462
 11
111.807403
 21
232.273860
  0
ARC
  8
CSLAYER1
  6
CENTER
 62
     3
 10
134.081266
 20
209.999997
 40
39.000000
 50
83.387725
 51
96.613090
  0
CIRCLE
  8
CSLAYER1
  6
CONTINUOUS
 62
     3
 10
134.081266
 20
248.999997
 40
2.000000
  0
LINE
  8
CSLAYER1
  6
CENTER
 62
     3
 10
134.081266
 20
256.999997
 11
134.081266
 21
154.323629
  0
CIRCLE
  8
CSLAYER1
  6
CONTINUOUS
 62
     3
 10
95.081266
 20
209.999997
 40
2.000000
  0
LINE
  8
CSLAYER1
  6
CENTER
 62
     3
 10
87.081266
 20
209.999997
 11
181.081266
 21
209.999997
  0
CIRCLE
  8
CSLAYER1
  6
CONTINUOUS
 62
     3
 10
173.081266
 20
209.999997
 40
2.000000
  0
ARC
  8
CSLAYER1
  6
CENTER
 62
     3
 10
134.081266
 20
209.999997
 40
39.000000
 50
-6.613090
 51
6.612275
  0
ARC
  8
CSLAYER1
  6
CENTER
 62
     3
 10
134.081266
 20
209.999997
 40
39.000000
 50
33.975912
 51
56.024088
  0
CIRCLE
  8
CSLAYER1
  6
CONTINUOUS
 62
     3
 10
161.658431
 20
237.577161
 40
2.500000
  0
LINE
  8
CSLAYER1
  6
CENTER
 62
     3
 10
166.961732
 20
242.880462
 11
156.355130
 21
232.273860
  0
LINE
  8
CSLAYER1
  6
CENTER
 62
     3
 10
228.189848
 20
222.999999
 11
228.189830
 21
154.493759
  0
LINE
  8
CSLAYER1
  6
CENTER
 62
     3
 10
228.189848
 20
109.922231
 11
228.189848
 21
87.922231
  0
LINE
  8
CSLAYER1
  6
CENTER
 62
     3
 10
204.888731
 20
98.922229
 11
416.189839
 21
98.922245
  0
LINE
  8
CSLAYER1
  6
CENTER
 62
     3
 10
354.189848
 20
59.922240
 11
336.689848
 21
59.922240
  0
LINE
  8
CSLAYER1
  6
CENTER
 62
     3
 10
336.689848
 20
137.922240
 11
354.189848
 21
137.922240
  0
LINE
  8
CSLAYER1
  6
CENTER
 62
     3
 10
354.189848
 20
170.999994
 11
336.689848
 21
170.999994
  0
LINE
  8
CSLAYER1
  6
DOT
 62
     3
 10
334.689843
 20
179.999991
 11
344.689858
 21
179.999989
  0
LINE
  8
CSLAYER1
  6
DOT
 62
     3
 10
344.689859
 20
184.999989
 11
334.689844
 21
184.999989
  0
LINE
  8
CSLAYER1
  6
CENTER
 62
     3
 10
331.689844
 20
182.499990
 11
354.189844
 21
182.499988
  0
LINE
  8
CSLAYER1
  6
CENTER
 62
     3
 10
416.189833
 20
209.999983
 11
204.888731
 21
209.999999
  0
CIRCLE
  8
CSLAYER1
  6
CONTINUOUS
 62
     3
 10
228.189848
 20
209.999999
 40
5.500000
  0
ARC
  8
CSLAYER1
  6
CENTER
 62
     3
 10
134.081266
 20
209.999997
 40
39.000000
 50
303.975912
 51
326.024088
  0
CIRCLE
  8
CSLAYER1
  6
CONTINUOUS
 62
     3
 10
161.658431
 20
182.422832
 40
2.500000
  0
LINE
  8
CSLAYER1
  6
CENTER
 62
     3
 10
166.961732
 20
177.119532
 11
156.355130
 21
187.726133
  0
ARC
  8
CSLAYER1
  6
CONTINUOUS
 62
     3
 10
267.189868
 20
226.499968
 40
1.000000
 50
180.000019
 51
270.000028
  0
LINE
  8
CSLAYER1
  6
CONTINUOUS
 62
     3
 10
267.189868
 20
225.499968
 11
303.189868
 21
225.499968
  0
ARC
  8
CSLAYER1
  6
CONTINUOUS
 62
     3
 10
303.189868
 20
226.499968
 40
1.000000
 50
270.000028
 51
359.942691
  0
LINE
  8
CSLAYER1
  6
CONTINUOUS
 62
     3
 10
304.189868
 20
226.499968
 11
304.189852
 21
240.999999
  0
LINE
  8
CSLAYER1
  6
CENTER
 62
     3
 10
331.689848
 20
237.499990
 11
354.189848
 21
237.499988
  0
LINE
  8
CSLAYER1
  6
DOT
 62
     3
 10
344.689863
 20
239.999989
 11
334.689848
 21
239.999989
  0
LINE
  8
CSLAYER1
  6
DOT
 62
     3
 10
334.689848
 20
234.999991
 11
344.689863
 21
234.999989
  0
LINE
  8
CSLAYER1
  6
CENTER
 62
     3
 10
336.689848
 20
248.999994
 11
354.189848
 21
248.999994
  0
LINE
  8
CSLAYER1
  6
CENTER
 62
     3
 10
354.189865
 20
282.077748
 11
336.689865
 21
282.077748
  0
ARC
  8
CSLAYER1
  6
CONTINUOUS
 62
     3
 10
303.189865
 20
295.230977
 40
1.000000
 50
270.000001
 51
359.942691
  0
LINE
  8
CSLAYER1
  6
CONTINUOUS
 62
     3
 10
303.189865
 20
294.230977
 11
267.189865
 21
294.230977
  0
ARC
  8
CSLAYER1
  6
CONTINUOUS
 62
     3
 10
267.189865
 20
295.230977
 40
1.000000
 50
180.000005
 51
270.000001
  0
LINE
  8
CSLAYER1
  6
CONTINUOUS
 62
     3
 10
266.189865
 20
295.230977
 11
266.189865
 21
346.924545
  0
ARC
  8
CSLAYER1
  6
CONTINUOUS
 62
     3
 10
267.189865
 20
346.924545
 40
1.000000
 50
90.000009
 51
180.000005
  0
LINE
  8
CSLAYER1
  6
CONTINUOUS
 62
     3
 10
267.189865
 20
347.924545
 11
303.189865
 21
347.924545
  0
ARC
  8
CSLAYER1
  6
CONTINUOUS
 62
     3
 10
303.189865
 20
346.924545
 40
1.000000
 50
0.057319
 51
90.000009
  0
LINE
  8
CSLAYER1
  6
CONTINUOUS
 62
     3
 10
304.189865
 20
346.924545
 11
304.189865
 21
295.230977
  0
LINE
  8
CSLAYER1
  6
CONTINUOUS
 62
     3
 10
266.189868
 20
240.999999
 11
266.189868
 21
226.499968
  0
LINE
  8
CSLAYER1
  6
CENTER
 62
     3
 10
204.888748
 20
321.077768
 11
416.189856
 21
321.077721
  0
LINE
  8
CSLAYER1
  6
CENTER
 62
     3
 10
354.189865
 20
360.077748
 11
336.689865
 21
360.077748
  0
LINE
  8
CSLAYER1
  6
CENTER
 62
     3
 10
455.417964
 20
242.880464
 11
466.024566
 21
232.273862
  0
CIRCLE
  8
CSLAYER1
  6
CONTINUOUS
 62
     3
 10
460.721265
 20
237.577163
 40
2.500000
  0
ARC
  8
CSLAYER1
  6
CENTER
 62
     3
 10
488.298429
 20
209.999999
 40
39.000000
 50
123.975912
 51
146.024088
  0
ARC
  8
CSLAYER1
  6
CENTER
 62
     3
 10
488.298429
 20
209.999999
 40
39.000000
 50
169.712489
 51
190.287511
  0
ARC
  8
CSLAYER1
  6
CENTER
 62
     3
 10
488.298429
 20
209.999999
 40
39.000000
 50
213.975912
 51
236.024088
  0
CIRCLE
  8
CSLAYER1
  6
CONTINUOUS
 62
     3
 10
460.721265
 20
182.422834
 40
2.500000
  0
LINE
  8
CSLAYER1
  6
CENTER
 62
     3
 10
455.417964
 20
177.119533
 11
466.024566
 21
187.726135
  0
ARC
  8
CSLAYER1
  6
CENTER
 62
     3
 10
488.298429
 20
209.999999
 40
39.000000
 50
259.712489
 51
280.287511
  0
LINE
  8
CSLAYER1
  6
CENTER
 62
     3
 10
488.298429
 20
162.999999
 11
488.298429
 21
256.999999
  0
ARC
  8
CSLAYER1
  6
CENTER
 62
     3
 10
488.298429
 20
209.999999
 40
39.000000
 50
79.712489
 51
100.287511
  0
ARC
  8
CSLAYER1
  6
CENTER
 62
     3
 10
488.298429
 20
209.999999
 40
39.000000
 50
33.975912
 51
56.024088
  0
CIRCLE
  8
CSLAYER1
  6
CONTINUOUS
 62
     3
 10
515.875594
 20
237.577163
 40
2.500000
  0
LINE
  8
CSLAYER1
  6
CENTER
 62
     3
 10
521.178895
 20
242.880464
 11
510.572293
 21
232.273862
  0
ARC
  8
CSLAYER1
  6
CENTER
 62
     3
 10
488.298429
 20
209.999999
 40
39.000000
 50
-10.287511
 51
10.287511
  0
LINE
  8
CSLAYER1
  6
CENTER
 62
     3
 10
535.298429
 20
209.999999
 11
441.298429
 21
209.999999
  0
LINE
  8
CSLAYER1
  6
CENTER
 62
     3
 10
510.572293
 20
187.726135
 11
521.178895
 21
177.119533
  0
CIRCLE
  8
CSLAYER1
  6
CONTINUOUS
 62
     3
 10
515.875594
 20
182.422834
 40
2.500000
  0
ARC
  8
CSLAYER1
  6
CENTER
 62
     3
 10
488.298429
 20
209.999999
 40
39.000000
 50
303.975912
 51
326.024088
  0
TEXT
  8
CSLAYER1
 62
     3
 10
283.965118
 20
238.931534
 40
3.500000
 41
1.125000
  1
N P
 50
-89.999992
 51
10.000000
  7
JX_FONT
 72
     5
 11
283.965120
 21
228.431534
  0
TEXT
  8
CSLAYER1
 62
     3
 10
283.968781
 20
326.576141
 40
3.500000
 41
1.125000
  1
N P
 50
-90.000000
 51
10.000000
  7
JX_FONT
 72
     5
 11
283.968781
 21
316.076141
  0
LINE
  8
CSLAYER1
  6
CONTINUOUS
 62
     6
 10
129.064380
 20
155.000039
 11
130.841223
 21
158.021038
  0
ARC
  8
CSLAYER1
  6
CONTINUOUS
 62
     6
 10
118.322305
 20
164.527811
 40
13.558951
 50
-27.463363
 51
0.000417
  0
ARC
  8
CSLAYER1
  6
CONTINUOUS
 62
     6
 10
132.431263
 20
163.575284
 40
1.099999
 50
60.000350
 51
120.000345
  0
ARC
  8
CSLAYER1
  6
CONTINUOUS
 62
     6
 10
132.431251
 20
165.480543
 40
1.099999
 50
240.000362
 51
300.000350
  0
ARC
  8
CSLAYER1
  6
CONTINUOUS
 62
     6
 10
133.531261
 20
163.575300
 40
1.099999
 50
60.000350
 51
120.000345
  0
ARC
  8
CSLAYER1
  6
CONTINUOUS
 62
     6
 10
118.322305
 20
164.527811
 40
15.758933
 50
-27.463461
 51
0.000397
  0
LINE
  8
CSLAYER1
  6
CONTINUOUS
 62
     6
 10
132.305287
 20
157.260062
 11
130.353242
 21
158.274676
  0
LINE
  8
CSLAYER1
  6
CONTINUOUS
 62
     6
 10
131.329239
 20
157.767391
 11
129.715063
 21
154.661833
  0
LINE
  8
CSLAYER1
  6
CONTINUOUS
 62
     6
 10
130.365746
 20
154.323627
 11
131.817252
 21
157.513738
  0
LINE
  8
CSLAYER1
  6
CONTINUOUS
 62
     6
 10
135.857309
 20
157.260076
 11
137.809358
 21
158.274694
  0
ARC
  8
CSLAYER1
  6
CONTINUOUS
 62
     6
 10
149.840288
 20
164.527984
 40
13.559023
 50
180.000308
 51
207.464006
  0
ARC
  8
CSLAYER1
  6
CONTINUOUS
 62
     6
 10
135.731266
 20
163.575269
 40
1.099999
 50
59.999715
 51
119.999716
  0
ARC
  8
CSLAYER1
  6
CONTINUOUS
 62
     6
 10
134.631267
 20
163.575284
 40
1.099999
 50
59.999715
 51
119.999716
  0
ARC
  8
CSLAYER1
  6
CONTINUOUS
 62
     6
 10
134.631275
 20
165.480543
 40
1.099999
 50
239.999733
 51
299.999721
  0
ARC
  8
CSLAYER1
  6
CONTINUOUS
 62
     6
 10
149.840288
 20
164.527984
 40
15.759004
 50
180.000235
 51
207.463987
  0
LINE
  8
CSLAYER1
  6
CONTINUOUS
 62
     6
 10
136.345318
 20
157.513739
 11
137.796825
 21
154.323629
  0
LINE
  8
CSLAYER1
  6
CONTINUOUS
 62
     6
 10
138.447508
 20
154.661835
 11
136.833330
 21
157.767392
  0
LINE
  8
CSLAYER1
  6
CONTINUOUS
 62
     6
 10
137.321346
 20
158.021040
 11
139.098191
 21
155.000041
  0
ARC
  8
CSLAYER1
  6
CONTINUOUS
 62
     6
 10
135.731283
 20
168.392753
 40
1.099999
 50
239.999870
 51
299.999858
  0
ARC
  8
CSLAYER1
  6
CONTINUOUS
 62
     6
 10
134.631284
 20
168.392753
 40
1.099999
 50
239.999870
 51
299.999858
  0
LINE
  8
CSLAYER1
  6
CONTINUOUS
 62
     6
 10
134.081258
 20
167.440131
 11
134.081274
 21
180.080777
  0
LINE
  8
CSLAYER1
  6
CONTINUOUS
 62
     6
 10
136.281271
 20
180.080777
 11
136.281263
 21
167.440131
  0
ARC
  8
CSLAYER1
  6
CONTINUOUS
 62
     6
 10
135.731275
 20
166.487510
 40
1.099999
 50
59.999858
 51
119.999853
  0
ARC
  8
CSLAYER1
  6
CONTINUOUS
 62
     6
 10
133.531248
 20
166.487510
 40
1.099999
 50
60.000186
 51
120.000181
  0
ARC
  8
CSLAYER1
  6
CONTINUOUS
 62
     6
 10
132.431242
 20
168.392753
 40
1.099999
 50
240.000198
 51
300.000186
  0
LINE
  8
CSLAYER1
  6
CONTINUOUS
 62
     6
 10
131.881265
 20
167.440131
 11
131.881273
 21
180.080777
  0
ARC
  8
CSLAYER1
  6
CONTINUOUS
 62
     6
 10
134.081266
 20
209.999997
 40
31.000000
 50
-85.930420
 51
265.930438
  0
ARC
  8
CSLAYER1
  6
CONTINUOUS
 62
     6
 10
133.531240
 20
168.392753
 40
1.099999
 50
240.000198
 51
300.000186
  0
ARC
  8
CSLAYER1
  6
CONTINUOUS
 62
     6
 10
118.066240
 20
177.758425
 40
5.000000
 50
63.585500
 51
126.582648
  0
LINE
  8
CSLAYER1
  6
CONTINUOUS
 62
     6
 10
115.086331
 20
181.773415
 11
106.705637
 21
175.553300
  0
CIRCLE
  8
CSLAYER1
  6
CONTINUOUS
 62
     6
 10
106.504102
 20
182.422832
 40
2.067000
  0
LINE
  8
CSLAYER1
  6
CONTINUOUS
 62
     6
 10
99.634569
 20
182.624368
 11
105.854685
 21
191.005062
  0
ARC
  8
CSLAYER1
  6
CONTINUOUS
 62
     6
 10
101.839695
 20
193.984970
 40
5.000000
 50
-36.582648
 51
26.414500
  0
CIRCLE
  8
CSLAYER1
  6
CONTINUOUS
 62
     6
 10
95.081266
 20
209.999997
 40
1.600000
  0
LINE
  8
CSLAYER1
  6
CONTINUOUS
 62
     6
 10
127.263079
 20
209.999997
 11
137.490347
 21
206.590909
  0
LINE
  8
CSLAYER1
  6
CONTINUOUS
 62
     6
 10
137.490347
 20
206.590909
 11
137.532041
 21
209.999997
  0
LINE
  8
CSLAYER1
  6
CONTINUOUS
 62
     6
 10
137.532041
 20
209.999997
 11
140.899443
 21
209.999997
  0
LINE
  8
CSLAYER1
  6
CONTINUOUS
 62
     6
 10
140.899434
 20
210.000000
 11
130.672170
 21
213.409085
  0
LINE
  8
CSLAYER1
  6
CONTINUOUS
 62
     6
 10
130.672170
 20
213.409085
 11
130.695307
 21
209.999997
  0
LINE
  8
CSLAYER1
  6
CONTINUOUS
 62
     6
 10
130.695307
 20
209.999997
 11
127.263079
 21
209.999997
  0
LINE
  8
CSLAYER1
  6
CONTINUOUS
 62
     6
 10
130.695307
 20
209.999997
 11
130.695307
 21
210.000012
  0
ARC
  8
CSLAYER1
  6
CONTINUOUS
 62
     6
 10
101.839695
 20
226.015023
 40
5.000000
 50
-26.414500
 51
36.582648
  0
LINE
  8
CSLAYER1
  6
CONTINUOUS
 62
     6
 10
105.854685
 20
228.994932
 11
99.634569
 21
237.375626
  0
CIRCLE
  8
CSLAYER1
  6
CONTINUOUS
 62
     6
 10
106.504102
 20
237.577161
 40
2.067000
  0
LINE
  8
CSLAYER1
  6
CONTINUOUS
 62
     6
 10
106.705637
 20
244.446694
 11
115.086331
 21
238.226578
  0
ARC
  8
CSLAYER1
  6
CONTINUOUS
 62
     6
 10
118.066240
 20
242.241568
 40
5.000000
 50
233.417352
 51
296.414500
  0
CIRCLE
  8
CSLAYER1
  6
CONTINUOUS
 62
     6
 10
134.081266
 20
248.999997
 40
1.600000
  0
ARC
  8
CSLAYER1
  6
CONTINUOUS
 62
     6
 10
150.096293
 20
242.241568
 40
5.000000
 50
243.585500
 51
306.582648
  0
LINE
  8
CSLAYER1
  6
CONTINUOUS
 62
     6
 10
153.076201
 20
238.226578
 11
161.456895
 21
244.446694
  0
CIRCLE
  8
CSLAYER1
  6
CONTINUOUS
 62
     6
 10
161.658431
 20
237.577161
 40
2.067000
  0
LINE
  8
CSLAYER1
  6
CONTINUOUS
 62
     6
 10
168.527963
 20
237.375626
 11
162.307848
 21
228.994932
  0
ARC
  8
CSLAYER1
  6
CONTINUOUS
 62
     6
 10
166.322838
 20
226.015023
 40
5.000000
 50
143.417352
 51
206.414500
  0
LINE
  8
CSLAYER1
  6
CONTINUOUS
 62
     6
 10
208.189848
 20
238.476332
 11
208.189848
 21
181.523665
  0
LINE
  8
CSLAYER1
  6
CONTINUOUS
 62
     6
 10
208.189848
 20
181.523665
 11
209.189848
 21
180.523665
  0
LINE
  8
CSLAYER1
  6
CONTINUOUS
 62
     6
 10
209.189848
 20
180.523665
 11
209.189848
 21
239.476332
  0
LINE
  8
CSLAYER1
  6
CONTINUOUS
 62
     6
 10
209.189848
 20
239.476332
 11
239.189863
 21
239.999983
  0
LINE
  8
CSLAYER1
  6
CONTINUOUS
 62
     6
 10
239.189848
 20
240.999999
 11
239.189848
 21
178.999999
  0
LINE
  8
CSLAYER1
  6
CONTINUOUS
 62
     6
 10
239.189848
 20
178.999999
 11
334.689843
 21
178.999999
  0
LINE
  8
CSLAYER1
  6
DOT
 62
     6
 10
334.689843
 20
180.499991
 11
344.689859
 21
180.499989
  0
LINE
  8
CSLAYER1
  6
DOT
 62
     6
 10
344.689859
 20
184.499989
 11
334.689844
 21
184.499989
  0
LINE
  8
CSLAYER1
  6
CONTINUOUS
 62
     6
 10
336.689844
 20
182.499996
 11
337.689844
 21
182.499996
  0
ARC
  8
CSLAYER1
  6
CONTINUOUS
 62
     6
 10
337.689844
 20
184.499996
 40
2.000000
 50
269.999991
 51
359.999991
  0
LINE
  8
CSLAYER1
  6
CONTINUOUS
 62
     6
 10
339.689844
 20
184.499996
 11
339.689852
 21
235.407435
  0
ARC
  8
CSLAYER1
  6
CONTINUOUS
 62
     6
 10
337.689848
 20
235.500014
 40
2.000000
 50
-0.000000
 51
90.000000
  0
LINE
  8
CSLAYER1
  6
CONTINUOUS
 62
     6
 10
337.689848
 20
237.500014
 11
336.689848
 21
237.500014
  0
ARC
  8
CSLAYER1
  6
CONTINUOUS
 62
     6
 10
336.689848
 20
239.500014
 40
2.000000
 50
180.000000
 51
270.000000
  0
LINE
  8
CSLAYER1
  6
DOT
 62
     6
 10
334.689848
 20
239.499989
 11
344.689863
 21
239.499989
  0
LINE
  8
CSLAYER1
  6
DOT
 62
     6
 10
344.689863
 20
235.499989
 11
334.689848
 21
235.499991
  0
LINE
  8
CSLAYER1
  6
CONTINUOUS
 62
     6
 10
334.689848
 20
240.999999
 11
239.189848
 21
240.999999
  0
LINE
  8
CSLAYER1
  6
CONTINUOUS
 62
     6
 10
209.189848
 20
239.476332
 11
208.189848
 21
238.476332
  0
LINE
  8
CSLAYER1
  6
CONTINUOUS
 62
     6
 10
225.439848
 20
210.800002
 11
230.939848
 21
210.800002
  0
LINE
  8
CSLAYER1
  6
CONTINUOUS
 62
     6
 10
230.939848
 20
210.800002
 11
230.939848
 21
209.199996
  0
LINE
  8
CSLAYER1
  6
CONTINUOUS
 62
     6
 10
230.939848
 20
209.199996
 11
225.439848
 21
209.199996
  0
LINE
  8
CSLAYER1
  6
CONTINUOUS
 62
     6
 10
225.439848
 20
209.199996
 11
225.439848
 21
210.800002
  0
LINE
  8
CSLAYER1
  6
CONTINUOUS
 62
     6
 10
239.189860
 20
290.077763
 11
334.689860
 21
290.077751
  0
ARC
  8
CSLAYER1
  6
CONTINUOUS
 62
     6
 10
336.689860
 20
291.577751
 40
2.000000
 50
89.999991
 51
179.999991
  0
LINE
  8
CSLAYER1
  6
CONTINUOUS
 62
     6
 10
336.689860
 20
293.577751
 11
337.689860
 21
293.577751
  0
ARC
  8
CSLAYER1
  6
CONTINUOUS
 62
     6
 10
337.689861
 20
295.577751
 40
2.000000
 50
269.999991
 51
359.999991
  0
LINE
  8
CSLAYER1
  6
CONTINUOUS
 62
     6
 10
339.689861
 20
295.577750
 11
339.689869
 21
346.485190
  0
ARC
  8
CSLAYER1
  6
CONTINUOUS
 62
     6
 10
337.689865
 20
346.577768
 40
2.000000
 50
-0.000000
 51
90.000000
  0
LINE
  8
CSLAYER1
  6
CONTINUOUS
 62
     6
 10
337.689865
 20
348.577768
 11
336.689865
 21
348.577768
  0
ARC
  8
CSLAYER1
  6
CONTINUOUS
 62
     6
 10
336.689865
 20
350.577768
 40
2.000000
 50
180.000000
 51
270.000000
  0
LINE
  8
CSLAYER1
  6
CONTINUOUS
 62
     6
 10
334.689865
 20
352.077751
 11
239.189869
 21
352.077763
  0
LINE
  8
CSLAYER1
  6
CONTINUOUS
 62
     6
 10
239.189869
 20
352.077763
 11
239.189860
 21
290.077763
  0
LINE
  8
CSLAYER1
  6
CONTINUOUS
 62
     6
 10
239.189875
 20
291.077778
 11
209.189860
 21
291.601434
  0
LINE
  8
CSLAYER1
  6
CONTINUOUS
 62
     6
 10
209.189860
 20
291.601434
 11
208.189860
 21
292.601434
  0
LINE
  8
CSLAYER1
  6
CONTINUOUS
 62
     6
 10
208.189860
 20
292.601434
 11
208.189869
 21
349.554102
  0
LINE
  8
CSLAYER1
  6
CONTINUOUS
 62
     6
 10
208.189869
 20
349.554102
 11
209.189869
 21
350.554101
  0
LINE
  8
CSLAYER1
  6
CONTINUOUS
 62
     6
 10
209.189869
 20
350.554101
 11
239.189884
 21
351.077748
  0
LINE
  8
CSLAYER1
  6
CONTINUOUS
 62
     6
 10
209.189869
 20
350.554101
 11
209.189860
 21
291.601434
  0
CIRCLE
  8
CSLAYER1
  6
CONTINUOUS
 62
     6
 10
228.189848
 20
209.999999
 40
8.000000
  0
CIRCLE
  8
CSLAYER1
  6
CONTINUOUS
 62
     6
 10
228.189848
 20
209.999999
 40
6.000000
  0
LINE
  8
CSLAYER1
  6
CONTINUOUS
 62
     6
 10
227.089857
 20
180.213316
 11
227.089842
 21
167.440123
  0
ARC
  8
CSLAYER1
  6
CONTINUOUS
 62
     6
 10
227.639845
 20
168.392760
 40
1.100006
 50
240.000007
 51
299.999995
  0
ARC
  8
CSLAYER1
  6
CONTINUOUS
 62
     6
 10
228.739851
 20
168.392760
 40
1.100006
 50
240.000007
 51
299.999995
  0
ARC
  8
CSLAYER1
  6
CONTINUOUS
 62
     6
 10
228.739851
 20
166.487487
 40
1.100006
 50
60.000002
 51
120.000003
  0
LINE
  8
CSLAYER1
  6
CONTINUOUS
 62
     6
 10
229.289839
 20
167.440123
 11
229.289854
 21
180.171690
  0
LINE
  8
CSLAYER1
  6
CONTINUOUS
 62
     6
 10
239.189863
 20
180.000014
 11
209.189848
 21
180.523665
  0
ARC
  8
CSLAYER1
  6
CONTINUOUS
 62
     6
 10
227.639822
 20
163.575286
 40
1.099999
 50
60.000350
 51
120.000345
  0
ARC
  8
CSLAYER1
  6
CONTINUOUS
 62
     6
 10
227.639814
 20
165.480544
 40
1.099999
 50
240.000362
 51
300.000350
  0
ARC
  8
CSLAYER1
  6
CONTINUOUS
 62
     6
 10
213.530989
 20
164.527892
 40
13.558834
 50
332.536202
 51
359.942691
  0
LINE
  8
CSLAYER1
  6
CONTINUOUS
 62
     6
 10
225.561766
 20
158.274733
 11
227.513822
 21
157.260116
  0
ARC
  8
CSLAYER1
  6
CONTINUOUS
 62
     6
 10
213.530989
 20
164.527892
 40
15.758816
 50
332.536202
 51
359.942691
  0
ARC
  8
CSLAYER1
  6
CONTINUOUS
 62
     6
 10
242.848677
 20
164.527892
 40
13.558834
 50
179.999978
 51
207.463868
  0
LINE
  8
CSLAYER1
  6
CONTINUOUS
 62
     6
 10
230.817900
 20
158.274718
 11
228.865843
 21
157.260100
  0
ARC
  8
CSLAYER1
  6
CONTINUOUS
 62
     6
 10
242.848677
 20
164.527892
 40
15.758816
 50
201.534034
 51
207.463868
  0
LINE
  8
CSLAYER1
  6
CONTINUOUS
 62
     6
 10
226.913038
 20
157.572356
 11
225.511549
 21
154.492553
  0
LINE
  8
CSLAYER1
  6
CONTINUOUS
 62
     6
 10
224.938124
 20
154.771895
 11
226.514906
 21
157.779311
  0
LINE
  8
CSLAYER1
  6
CONTINUOUS
 62
     6
 10
226.025984
 20
158.033446
 11
224.408827
 21
155.095366
  0
LINE
  8
CSLAYER1
  6
CONTINUOUS
 62
     6
 10
229.468946
 20
157.573577
 11
230.870466
 21
154.493758
  0
LINE
  8
CSLAYER1
  6
CONTINUOUS
 62
     6
 10
231.443861
 20
154.773116
 11
229.867079
 21
157.780517
  0
LINE
  8
CSLAYER1
  6
CONTINUOUS
 62
     6
 10
230.356001
 20
158.034636
 11
231.973188
 21
155.096587
  0
ARC
  8
CSLAYER1
  6
CONTINUOUS
 62
     6
 10
228.739820
 20
163.575301
 40
1.099999
 50
60.000350
 51
120.000345
  0
LINE
  8
CSLAYER1
  6
CONTINUOUS
 62
     6
 10
239.189848
 20
129.922229
 11
239.189848
 21
67.922229
  0
LINE
  8
CSLAYER1
  6
CONTINUOUS
 62
     6
 10
239.189848
 20
67.922229
 11
334.689843
 21
67.922229
  0
ARC
  8
CSLAYER1
  6
CONTINUOUS
 62
     6
 10
336.689843
 20
69.422242
 40
2.000000
 50
89.999991
 51
179.999991
  0
LINE
  8
CSLAYER1
  6
CONTINUOUS
 62
     6
 10
336.689844
 20
71.422242
 11
337.689844
 21
71.422242
  0
ARC
  8
CSLAYER1
  6
CONTINUOUS
 62
     6
 10
337.689844
 20
73.422242
 40
2.000000
 50
269.999991
 51
359.999991
  0
LINE
  8
CSLAYER1
  6
CONTINUOUS
 62
     6
 10
339.689844
 20
73.422241
 11
339.689852
 21
124.329681
  0
ARC
  8
CSLAYER1
  6
CONTINUOUS
 62
     6
 10
337.689848
 20
124.422260
 40
2.000000
 50
-0.000000
 51
90.000000
  0
LINE
  8
CSLAYER1
  6
CONTINUOUS
 62
     6
 10
337.689848
 20
126.422260
 11
336.689848
 21
126.422260
  0
ARC
  8
CSLAYER1
  6
CONTINUOUS
 62
     6
 10
336.689848
 20
128.422260
 40
2.000000
 50
180.000000
 51
270.000000
  0
LINE
  8
CSLAYER1
  6
CONTINUOUS
 62
     6
 10
334.689848
 20
129.922229
 11
239.189848
 21
129.922229
  0
LINE
  8
CSLAYER1
  6
CONTINUOUS
 62
     6
 10
239.189863
 20
128.922227
 11
209.189695
 21
128.398573
  0
LINE
  8
CSLAYER1
  6
CONTINUOUS
 62
     6
 10
209.189695
 20
128.398573
 11
208.189848
 21
127.381120
  0
LINE
  8
CSLAYER1
  6
CONTINUOUS
 62
     6
 10
208.189848
 20
127.381120
 11
208.189848
 21
70.463364
  0
LINE
  8
CSLAYER1
  6
CONTINUOUS
 62
     6
 10
208.189848
 20
70.463364
 11
209.189695
 21
69.445911
  0
LINE
  8
CSLAYER1
  6
CONTINUOUS
 62
     6
 10
209.189695
 20
69.445911
 11
239.189848
 21
68.922249
  0
ARC
  8
CSLAYER1
  6
CONTINUOUS
 62
     6
 10
228.189848
 20
97.822225
 40
1.100006
 50
-90.000027
 51
89.999992
  0
ARC
  8
CSLAYER1
  6
CONTINUOUS
 62
     6
 10
228.189848
 20
100.022238
 40
1.100006
 50
-89.999999
 51
90.000019
  0
LINE
  8
CSLAYER1
  6
CONTINUOUS
 62
     6
 10
228.189848
 20
101.122228
 11
222.756376
 21
101.122228
  0
ARC
  8
CSLAYER1
  6
CONTINUOUS
 62
     6
 10
223.709013
 20
100.572225
 40
1.100006
 50
149.999997
 51
209.999999
  0
ARC
  8
CSLAYER1
  6
CONTINUOUS
 62
     6
 10
223.709013
 20
99.472219
 40
1.100006
 50
149.999997
 51
209.999999
  0
ARC
  8
CSLAYER1
  6
CONTINUOUS
 62
     6
 10
223.709013
 20
98.372213
 40
1.100006
 50
149.999997
 51
209.999999
  0
ARC
  8
CSLAYER1
  6
CONTINUOUS
 62
     6
 10
223.709013
 20
97.272207
 40
1.100006
 50
149.999997
 51
209.999999
  0
ARC
  8
CSLAYER1
  6
CONTINUOUS
 62
     6
 10
221.803739
 20
97.272207
 40
1.100006
 50
-30.000011
 51
29.999977
  0
LINE
  8
CSLAYER1
  6
CONTINUOUS
 62
     6
 10
222.756376
 20
96.722235
 11
228.189848
 21
96.722235
  0
LINE
  8
CSLAYER1
  6
CONTINUOUS
 62
     6
 10
229.289884
 20
97.822225
 11
229.289884
 21
100.022238
  0
LINE
  8
CSLAYER1
  6
CONTINUOUS
 62
     6
 10
228.189848
 20
98.922231
 11
222.756376
 21
98.922231
  0
ARC
  8
CSLAYER1
  6
CONTINUOUS
 62
     6
 10
221.803739
 20
99.472219
 40
1.100006
 50
-30.000011
 51
29.999977
  0
ARC
  8
CSLAYER1
  6
CONTINUOUS
 62
     6
 10
220.164778
 20
99.472265
 40
1.099999
 50
-29.999656
 51
30.000332
  0
ARC
  8
CSLAYER1
  6
CONTINUOUS
 62
     6
 10
222.070021
 20
98.372259
 40
1.099999
 50
150.000353
 51
210.000354
  0
ARC
  8
CSLAYER1
  6
CONTINUOUS
 62
     6
 10
220.164770
 20
98.372244
 40
1.099999
 50
-29.999656
 51
30.000332
  0
LINE
  8
CSLAYER1
  6
CONTINUOUS
 62
     6
 10
221.117399
 20
98.922216
 11
219.844175
 21
98.922216
  0
ARC
  8
CSLAYER1
  6
CONTINUOUS
 62
     6
 10
219.844175
 20
83.163397
 40
15.758816
 50
90.000003
 51
117.463872
  0
LINE
  8
CSLAYER1
  6
CONTINUOUS
 62
     6
 10
212.576383
 20
97.146215
 11
213.590971
 21
95.194158
  0
ARC
  8
CSLAYER1
  6
CONTINUOUS
 62
     6
 10
219.844145
 20
83.163381
 40
13.558834
 50
89.999975
 51
117.463872
  0
LINE
  8
CSLAYER1
  6
CONTINUOUS
 62
     6
 10
219.844206
 20
96.722250
 11
221.117399
 21
96.722250
  0
ARC
  8
CSLAYER1
  6
CONTINUOUS
 62
     6
 10
220.164778
 20
97.272253
 40
1.099999
 50
-29.999656
 51
30.000332
  0
ARC
  8
CSLAYER1
  6
CONTINUOUS
 62
     6
 10
228.189848
 20
98.922231
 40
8.000000
 50
-164.038116
 51
164.037904
  0
ARC
  8
CSLAYER1
  6
CONTINUOUS
 62
     6
 10
222.070021
 20
100.572271
 40
1.099999
 50
150.000353
 51
210.000354
  0
ARC
  8
CSLAYER1
  6
CONTINUOUS
 62
     6
 10
220.164770
 20
100.572256
 40
1.099999
 50
-29.999656
 51
30.000332
  0
LINE
  8
CSLAYER1
  6
CONTINUOUS
 62
     6
 10
221.117399
 20
101.122244
 11
219.844206
 21
101.122244
  0
ARC
  8
CSLAYER1
  6
CONTINUOUS
 62
     6
 10
219.844145
 20
114.681082
 40
13.558834
 50
242.536193
 51
269.942682
  0
LINE
  8
CSLAYER1
  6
CONTINUOUS
 62
     6
 10
213.591032
 20
102.650305
 11
212.576383
 21
100.698248
  0
ARC
  8
CSLAYER1
  6
CONTINUOUS
 62
     6
 10
219.844145
 20
114.681082
 40
15.758816
 50
242.536193
 51
269.942682
  0
LINE
  8
CSLAYER1
  6
CONTINUOUS
 62
     6
 10
213.249235
 20
101.992681
 11
210.311125
 21
103.609838
  0
LINE
  8
CSLAYER1
  6
CONTINUOUS
 62
     6
 10
210.987638
 20
103.080541
 11
212.995085
 21
101.503759
  0
LINE
  8
CSLAYER1
  6
CONTINUOUS
 62
     6
 10
212.788114
 20
101.105627
 11
210.708341
 21
102.507116
  0
LINE
  8
CSLAYER1
  6
CONTINUOUS
 62
     6
 10
212.788114
 20
96.738836
 11
210.708280
 21
95.337332
  0
LINE
  8
CSLAYER1
  6
CONTINUOUS
 62
     6
 10
210.987638
 20
94.763922
 11
212.995085
 21
96.340704
  0
LINE
  8
CSLAYER1
  6
CONTINUOUS
 62
     6
 10
213.249174
 20
95.851782
 11
210.311125
 21
94.234609
  0
LINE
  8
CSLAYER1
  6
CONTINUOUS
 62
     6
 10
209.189848
 20
69.445908
 11
209.189848
 21
128.398576
  0
LINE
  8
CSLAYER1
  6
CONTINUOUS
 62
     6
 10
161.456895
 20
175.553300
 11
153.076201
 21
181.773415
  0
ARC
  8
CSLAYER1
  6
CONTINUOUS
 62
     6
 10
150.096293
 20
177.758425
 40
5.000000
 50
53.417352
 51
116.414500
  0
CIRCLE
  8
CSLAYER1
  6
CONTINUOUS
 62
     6
 10
134.081266
 20
209.999997
 40
44.000000
  0
CIRCLE
  8
CSLAYER1
  6
CONTINUOUS
 62
     6
 10
134.081266
 20
209.999997
 40
30.000000
  0
CIRCLE
  8
CSLAYER1
  6
CONTINUOUS
 62
     6
 10
134.081259
 20
209.999997
 40
6.818180
  0
CIRCLE
  8
CSLAYER1
  6
CONTINUOUS
 62
     6
 10
134.081259
 20
209.999997
 40
7.909089
  0
CIRCLE
  8
CSLAYER1
  6
CONTINUOUS
 62
     6
 10
134.081259
 20
209.999997
 40
16.000000
  0
CIRCLE
  8
CSLAYER1
  6
CONTINUOUS
 62
     6
 10
134.081259
 20
209.999997
 40
17.000000
  0
ARC
  8
CSLAYER1
  6
CONTINUOUS
 62
     6
 10
166.322838
 20
193.984970
 40
5.000000
 50
153.585500
 51
216.582648
  0
LINE
  8
CSLAYER1
  6
CONTINUOUS
 62
     6
 10
162.307848
 20
191.005062
 11
168.527963
 21
182.624368
  0
CIRCLE
  8
CSLAYER1
  6
CONTINUOUS
 62
     6
 10
161.658431
 20
182.422832
 40
2.067000
  0
CIRCLE
  8
CSLAYER1
  6
CONTINUOUS
 62
     6
 10
173.081266
 20
209.999997
 40
1.600000
  0
LINE
  8
CSLAYER1
  6
CONTINUOUS
 62
     6
 10
321.189848
 20
178.999999
 11
321.189848
 21
240.999999
  0
ARC
  8
CSLAYER1
  6
CONTINUOUS
 62
     6
 10
336.689848
 20
243.000014
 40
2.000000
 50
90.000000
 51
180.000000
  0
LINE
  8
CSLAYER1
  6
CONTINUOUS
 62
     6
 10
336.689848
 20
245.000014
 11
337.689848
 21
245.000014
  0
ARC
  8
CSLAYER1
  6
CONTINUOUS
 62
     6
 10
337.689848
 20
247.000014
 40
2.000000
 50
270.000000
 51
360.000000
  0
LINE
  8
CSLAYER1
  6
CONTINUOUS
 62
     6
 10
339.689848
 20
247.000014
 11
339.689848
 21
252.000005
  0
ARC
  8
CSLAYER1
  6
CONTINUOUS
 62
     6
 10
341.689848
 20
252.000005
 40
2.000000
 50
90.000000
 51
180.000000
  0
LINE
  8
CSLAYER1
  6
CONTINUOUS
 62
     6
 10
341.689848
 20
254.000005
 11
350.189848
 21
254.000005
  0
LINE
  8
CSLAYER1
  6
CONTINUOUS
 62
     6
 10
350.189848
 20
254.000005
 11
351.189848
 21
253.000005
  0
LINE
  8
CSLAYER1
  6
CONTINUOUS
 62
     6
 10
351.189854
 20
253.000005
 11
351.189841
 21
167.000004
  0
LINE
  8
CSLAYER1
  6
CONTINUOUS
 62
     6
 10
351.189841
 20
167.000004
 11
350.189841
 21
166.000004
  0
LINE
  8
CSLAYER1
  6
CONTINUOUS
 62
     6
 10
350.189841
 20
166.000004
 11
341.689841
 21
166.000005
  0
ARC
  8
CSLAYER1
  6
CONTINUOUS
 62
     6
 10
341.689841
 20
168.000005
 40
2.000000
 50
179.999991
 51
269.999991
  0
LINE
  8
CSLAYER1
  6
CONTINUOUS
 62
     6
 10
339.689841
 20
168.000005
 11
339.689842
 21
172.999996
  0
ARC
  8
CSLAYER1
  6
CONTINUOUS
 62
     6
 10
337.689842
 20
172.999996
 40
2.000000
 50
-0.000009
 51
89.999991
  0
LINE
  8
CSLAYER1
  6
CONTINUOUS
 62
     6
 10
337.689842
 20
174.999996
 11
336.689842
 21
174.999996
  0
ARC
  8
CSLAYER1
  6
CONTINUOUS
 62
     6
 10
336.689843
 20
176.999996
 40
2.000000
 50
179.999991
 51
269.999991
  0
LINE
  8
CSLAYER1
  6
CONTINUOUS
 62
     6
 10
334.689843
 20
176.999997
 11
334.689845
 21
192.999997
  0
ARC
  8
CSLAYER1
  6
CONTINUOUS
 62
     6
 10
332.689845
 20
192.999997
 40
2.000000
 50
-0.000009
 51
89.999991
  0
ARC
  8
CSLAYER1
  6
CONTINUOUS
 62
     6
 10
336.689843
 20
180.499996
 40
2.000000
 50
89.999991
 51
179.999991
  0
LINE
  8
CSLAYER1
  6
CONTINUOUS
 62
     6
 10
351.189843
 20
176.500004
 11
366.189843
 21
176.500000
  0
ARC
  8
CSLAYER1
  6
CONTINUOUS
 62
     6
 10
366.189843
 20
180.500000
 40
4.000000
 50
269.999991
 51
359.999991
  0
LINE
  8
CSLAYER1
  6
CONTINUOUS
 62
     6
 10
370.189843
 20
180.500000
 11
370.189852
 21
239.500004
  0
ARC
  8
CSLAYER1
  6
CONTINUOUS
 62
     6
 10
366.189848
 20
239.500004
 40
4.000000
 50
-0.000000
 51
90.000000
  0
LINE
  8
CSLAYER1
  6
CONTINUOUS
 62
     6
 10
366.189848
 20
243.500004
 11
351.189848
 21
243.500004
  0
LINE
  8
CSLAYER1
  6
CONTINUOUS
 62
     6
 10
344.689854
 20
254.000005
 11
344.689841
 21
166.000005
  0
LINE
  8
CSLAYER1
  6
CONTINUOUS
 62
     6
 10
344.689854
 20
142.922250
 11
344.689841
 21
54.922250
  0
LINE
  8
CSLAYER1
  6
CONTINUOUS
 62
     6
 10
341.689841
 20
54.922251
 11
350.189841
 21
54.922249
  0
LINE
  8
CSLAYER1
  6
CONTINUOUS
 62
     6
 10
350.189841
 20
54.922249
 11
351.189841
 21
55.922249
  0
LINE
  8
CSLAYER1
  6
CONTINUOUS
 62
     6
 10
351.189841
 20
55.922249
 11
351.189854
 21
141.922250
  0
LINE
  8
CSLAYER1
  6
CONTINUOUS
 62
     6
 10
351.189848
 20
141.922250
 11
350.189848
 21
142.922250
  0
LINE
  8
CSLAYER1
  6
CONTINUOUS
 62
     6
 10
350.189848
 20
142.922250
 11
341.689848
 21
142.922250
  0
ARC
  8
CSLAYER1
  6
CONTINUOUS
 62
     6
 10
341.689848
 20
140.922250
 40
2.000000
 50
90.000000
 51
180.000000
  0
LINE
  8
CSLAYER1
  6
CONTINUOUS
 62
     6
 10
339.689848
 20
140.922250
 11
339.689848
 21
135.922260
  0
ARC
  8
CSLAYER1
  6
CONTINUOUS
 62
     6
 10
337.689848
 20
135.922260
 40
2.000000
 50
270.000000
 51
360.000000
  0
LINE
  8
CSLAYER1
  6
CONTINUOUS
 62
     6
 10
337.689848
 20
133.922260
 11
336.689848
 21
133.922260
  0
ARC
  8
CSLAYER1
  6
CONTINUOUS
 62
     6
 10
336.689848
 20
131.922260
 40
2.000000
 50
90.000000
 51
180.000000
  0
LINE
  8
CSLAYER1
  6
CONTINUOUS
 62
     6
 10
334.689848
 20
131.922260
 11
334.689848
 21
115.922260
  0
ARC
  8
CSLAYER1
  6
CONTINUOUS
 62
     6
 10
332.689848
 20
115.922260
 40
2.000000
 50
270.000000
 51
360.000000
  0
LINE
  8
CSLAYER1
  6
CONTINUOUS
 62
     6
 10
321.189848
 20
129.922229
 11
321.189848
 21
67.922229
  0
LINE
  8
CSLAYER1
  6
CONTINUOUS
 62
     6
 10
334.689843
 20
65.922242
 11
334.689845
 21
81.922242
  0
ARC
  8
CSLAYER1
  6
CONTINUOUS
 62
     6
 10
332.689845
 20
81.922242
 40
2.000000
 50
-0.000009
 51
89.999991
  0
ARC
  8
CSLAYER1
  6
CONTINUOUS
 62
     6
 10
336.689843
 20
65.922242
 40
2.000000
 50
179.999991
 51
269.999991
  0
LINE
  8
CSLAYER1
  6
CONTINUOUS
 62
     6
 10
336.689842
 20
63.922242
 11
337.689842
 21
63.922242
  0
ARC
  8
CSLAYER1
  6
CONTINUOUS
 62
     6
 10
337.689842
 20
61.922242
 40
2.000000
 50
-0.000009
 51
89.999991
  0
LINE
  8
CSLAYER1
  6
CONTINUOUS
 62
     6
 10
339.689842
 20
61.922241
 11
339.689841
 21
56.922251
  0
ARC
  8
CSLAYER1
  6
CONTINUOUS
 62
     6
 10
341.689841
 20
56.922251
 40
2.000000
 50
179.999991
 51
269.999991
  0
LINE
  8
CSLAYER1
  6
CONTINUOUS
 62
     6
 10
351.189843
 20
65.422250
 11
366.189843
 21
65.422246
  0
ARC
  8
CSLAYER1
  6
CONTINUOUS
 62
     6
 10
366.189843
 20
69.422246
 40
4.000000
 50
269.999991
 51
359.999991
  0
LINE
  8
CSLAYER1
  6
CONTINUOUS
 62
     6
 10
370.189843
 20
69.422245
 11
370.189852
 21
128.422249
  0
ARC
  8
CSLAYER1
  6
CONTINUOUS
 62
     6
 10
366.189848
 20
128.422249
 40
4.000000
 50
-0.000000
 51
90.000000
  0
LINE
  8
CSLAYER1
  6
CONTINUOUS
 62
     6
 10
366.189848
 20
132.422249
 11
351.189848
 21
132.422250
  0
ARC
  8
CSLAYER1
  6
CONTINUOUS
 62
     6
 10
374.189852
 20
124.922247
 40
4.000000
 50
179.999991
 51
270.000000
  0
LINE
  8
CSLAYER1
  6
CONTINUOUS
 62
     6
 10
374.189852
 20
120.922247
 11
387.189848
 21
120.922247
  0
ARC
  8
CSLAYER1
  6
CONTINUOUS
 62
     6
 10
387.189848
 20
116.922247
 40
4.000000
 50
-0.000000
 51
90.000000
  0
LINE
  8
CSLAYER1
  6
CONTINUOUS
 62
     6
 10
391.189851
 20
116.922247
 11
391.189845
 21
80.922244
  0
ARC
  8
CSLAYER1
  6
CONTINUOUS
 62
     6
 10
387.189845
 20
80.922245
 40
4.000000
 50
269.999991
 51
359.999991
  0
LINE
  8
CSLAYER1
  6
CONTINUOUS
 62
     6
 10
387.189844
 20
76.922245
 11
374.189844
 21
76.922247
  0
ARC
  8
CSLAYER1
  6
CONTINUOUS
 62
     6
 10
374.189844
 20
72.922247
 40
4.000000
 50
89.999991
 51
179.999991
  0
ARC
  8
CSLAYER1
  6
CONTINUOUS
 62
     6
 10
391.189846
 20
85.922218
 40
1.000000
 50
269.999987
 51
359.999991
  0
LINE
  8
CSLAYER1
  6
CONTINUOUS
 62
     6
 10
392.189846
 20
85.922217
 11
392.189850
 21
111.922217
  0
ARC
  8
CSLAYER1
  6
CONTINUOUS
 62
     6
 10
391.189850
 20
111.922218
 40
1.000000
 50
-0.000009
 51
89.999987
  0
LINE
  8
CSLAYER1
  6
CONTINUOUS
 62
     6
 10
392.189849
 20
106.422217
 11
393.189849
 21
106.422217
  0
LINE
  8
CSLAYER1
  6
CONTINUOUS
 62
     6
 10
393.189849
 20
106.422217
 11
393.189847
 21
91.422217
  0
LINE
  8
CSLAYER1
  6
CONTINUOUS
 62
     6
 10
393.189847
 20
91.422217
 11
392.189847
 21
91.422217
  0
LINE
  8
CSLAYER1
  6
CONTINUOUS
 62
     6
 10
393.189847
 20
92.922219
 11
412.689847
 21
92.922231
  0
LINE
  8
CSLAYER1
  6
CONTINUOUS
 62
     6
 10
412.689847
 20
92.922231
 11
413.189847
 21
93.422231
  0
LINE
  8
CSLAYER1
  6
CONTINUOUS
 62
     6
 10
413.189847
 20
93.422231
 11
413.189849
 21
104.422200
  0
LINE
  8
CSLAYER1
  6
CONTINUOUS
 62
     6
 10
413.189848
 20
104.422200
 11
412.689848
 21
104.922200
  0
LINE
  8
CSLAYER1
  6
CONTINUOUS
 62
     6
 10
412.689848
 20
104.922200
 11
393.189848
 21
104.922216
  0
ARC
  8
CSLAYER1
  6
CONTINUOUS
 62
     6
 10
374.189844
 20
184.000001
 40
4.000000
 50
89.999991
 51
179.999991
  0
LINE
  8
CSLAYER1
  6
CONTINUOUS
 62
     6
 10
374.189844
 20
188.000001
 11
387.189844
 21
187.999999
  0
ARC
  8
CSLAYER1
  6
CONTINUOUS
 62
     6
 10
387.189845
 20
191.999999
 40
4.000000
 50
269.999991
 51
359.999991
  0
LINE
  8
CSLAYER1
  6
CONTINUOUS
 62
     6
 10
391.189845
 20
191.999998
 11
391.189851
 21
228.000002
  0
ARC
  8
CSLAYER1
  6
CONTINUOUS
 62
     6
 10
387.189848
 20
228.000002
 40
4.000000
 50
-0.000000
 51
90.000000
  0
LINE
  8
CSLAYER1
  6
CONTINUOUS
 62
     6
 10
387.189848
 20
232.000002
 11
374.189852
 21
232.000002
  0
ARC
  8
CSLAYER1
  6
CONTINUOUS
 62
     6
 10
374.189852
 20
236.000002
 40
4.000000
 50
179.999991
 51
270.000000
  0
ARC
  8
CSLAYER1
  6
CONTINUOUS
 62
     6
 10
391.189850
 20
222.999972
 40
1.000000
 50
-0.000009
 51
89.999987
  0
LINE
  8
CSLAYER1
  6
CONTINUOUS
 62
     6
 10
392.189850
 20
222.999972
 11
392.189846
 21
196.999972
  0
ARC
  8
CSLAYER1
  6
CONTINUOUS
 62
     6
 10
391.189846
 20
196.999972
 40
1.000000
 50
269.999987
 51
359.999991
  0
LINE
  8
CSLAYER1
  6
CONTINUOUS
 62
     6
 10
392.189847
 20
202.499972
 11
393.189847
 21
202.499972
  0
LINE
  8
CSLAYER1
  6
CONTINUOUS
 62
     6
 10
393.189847
 20
202.499972
 11
393.189849
 21
217.499972
  0
LINE
  8
CSLAYER1
  6
CONTINUOUS
 62
     6
 10
393.189849
 20
217.499972
 11
392.189849
 21
217.499972
  0
LINE
  8
CSLAYER1
  6
CONTINUOUS
 62
     6
 10
393.189848
 20
215.999970
 11
412.689848
 21
215.999955
  0
LINE
  8
CSLAYER1
  6
CONTINUOUS
 62
     6
 10
412.689848
 20
215.999955
 11
413.189848
 21
215.499955
  0
LINE
  8
CSLAYER1
  6
CONTINUOUS
 62
     6
 10
413.189849
 20
215.499955
 11
413.189847
 21
204.499985
  0
LINE
  8
CSLAYER1
  6
CONTINUOUS
 62
     6
 10
413.189847
 20
204.499985
 11
412.689847
 21
203.999986
  0
LINE
  8
CSLAYER1
  6
CONTINUOUS
 62
     6
 10
412.689847
 20
203.999986
 11
393.189847
 21
203.999973
  0
LINE
  8
CSLAYER1
  6
CONTINUOUS
 62
     6
 10
398.189848
 20
207.999983
 11
413.189848
 21
207.999983
  0
ARC
  8
CSLAYER1
  6
CONTINUOUS
 62
     6
 10
398.189848
 20
209.999983
 40
2.000000
 50
89.999999
 51
269.999999
  0
LINE
  8
CSLAYER1
  6
CONTINUOUS
 62
     6
 10
398.189848
 20
211.999983
 11
413.189848
 21
211.999983
  0
LINE
  8
CSLAYER1
  6
CONTINUOUS
 62
     6
 10
334.689848
 20
227.000014
 11
334.689848
 21
243.000014
  0
ARC
  8
CSLAYER1
  6
CONTINUOUS
 62
     6
 10
332.689848
 20
227.000014
 40
2.000000
 50
270.000000
 51
360.000000
  0
LINE
  8
CSLAYER1
  6
CONTINUOUS
 62
     6
 10
341.689858
 20
277.077759
 11
350.189858
 21
277.077758
  0
LINE
  8
CSLAYER1
  6
CONTINUOUS
 62
     6
 10
350.189858
 20
277.077758
 11
351.189858
 21
278.077758
  0
LINE
  8
CSLAYER1
  6
CONTINUOUS
 62
     6
 10
351.189858
 20
278.077758
 11
351.189871
 21
364.077759
  0
LINE
  8
CSLAYER1
  6
CONTINUOUS
 62
     6
 10
351.189864
 20
364.077759
 11
350.189864
 21
365.077759
  0
LINE
  8
CSLAYER1
  6
CONTINUOUS
 62
     6
 10
350.189864
 20
365.077759
 11
341.689864
 21
365.077759
  0
ARC
  8
CSLAYER1
  6
CONTINUOUS
 62
     6
 10
341.689864
 20
363.077759
 40
2.000000
 50
90.000000
 51
180.000000
  0
LINE
  8
CSLAYER1
  6
CONTINUOUS
 62
     6
 10
339.689864
 20
363.077759
 11
339.689865
 21
358.077768
  0
ARC
  8
CSLAYER1
  6
CONTINUOUS
 62
     6
 10
337.689865
 20
358.077768
 40
2.000000
 50
270.000000
 51
360.000000
  0
LINE
  8
CSLAYER1
  6
CONTINUOUS
 62
     6
 10
337.689865
 20
356.077768
 11
336.689865
 21
356.077768
  0
ARC
  8
CSLAYER1
  6
CONTINUOUS
 62
     6
 10
336.689865
 20
354.077768
 40
2.000000
 50
90.000000
 51
180.000000
  0
LINE
  8
CSLAYER1
  6
CONTINUOUS
 62
     6
 10
334.689865
 20
354.077768
 11
334.689865
 21
338.077768
  0
ARC
  8
CSLAYER1
  6
CONTINUOUS
 62
     6
 10
332.689865
 20
338.077768
 40
2.000000
 50
270.000000
 51
360.000000
  0
LINE
  8
CSLAYER1
  6
CONTINUOUS
 62
     6
 10
321.189869
 20
352.077753
 11
321.189860
 21
290.077753
  0
LINE
  8
CSLAYER1
  6
CONTINUOUS
 62
     6
 10
334.689860
 20
288.077751
 11
334.689862
 21
304.077751
  0
ARC
  8
CSLAYER1
  6
CONTINUOUS
 62
     6
 10
332.689862
 20
304.077751
 40
2.000000
 50
-0.000009
 51
89.999991
  0
ARC
  8
CSLAYER1
  6
CONTINUOUS
 62
     6
 10
336.689860
 20
288.077751
 40
2.000000
 50
179.999991
 51
269.999991
  0
LINE
  8
CSLAYER1
  6
CONTINUOUS
 62
     6
 10
336.689859
 20
286.077751
 11
337.689859
 21
286.077751
  0
ARC
  8
CSLAYER1
  6
CONTINUOUS
 62
     6
 10
337.689859
 20
284.077751
 40
2.000000
 50
-0.000009
 51
89.999991
  0
LINE
  8
CSLAYER1
  6
CONTINUOUS
 62
     6
 10
339.689859
 20
284.077750
 11
339.689858
 21
279.077760
  0
ARC
  8
CSLAYER1
  6
CONTINUOUS
 62
     6
 10
341.689858
 20
279.077759
 40
2.000000
 50
179.999991
 51
269.999991
  0
LINE
  8
CSLAYER1
  6
CONTINUOUS
 62
     6
 10
344.689858
 20
277.077759
 11
344.689871
 21
365.077759
  0
LINE
  8
CSLAYER1
  6
CONTINUOUS
 62
     6
 10
351.189865
 20
354.577758
 11
366.189865
 21
354.577758
  0
ARC
  8
CSLAYER1
  6
CONTINUOUS
 62
     6
 10
366.189865
 20
350.577758
 40
4.000000
 50
-0.000000
 51
90.000000
  0
LINE
  8
CSLAYER1
  6
CONTINUOUS
 62
     6
 10
370.189869
 20
350.577758
 11
370.189860
 21
291.577754
  0
ARC
  8
CSLAYER1
  6
CONTINUOUS
 62
     6
 10
366.189860
 20
291.577755
 40
4.000000
 50
269.999991
 51
359.999991
  0
LINE
  8
CSLAYER1
  6
CONTINUOUS
 62
     6
 10
366.189860
 20
287.577755
 11
351.189860
 21
287.577758
  0
ARC
  8
CSLAYER1
  6
CONTINUOUS
 62
     6
 10
374.189861
 20
295.077755
 40
4.000000
 50
89.999991
 51
179.999991
  0
LINE
  8
CSLAYER1
  6
CONTINUOUS
 62
     6
 10
374.189861
 20
299.077755
 11
387.189861
 21
299.077753
  0
ARC
  8
CSLAYER1
  6
CONTINUOUS
 62
     6
 10
387.189862
 20
303.077753
 40
4.000000
 50
269.999991
 51
359.999991
  0
LINE
  8
CSLAYER1
  6
CONTINUOUS
 62
     6
 10
391.189862
 20
303.077753
 11
391.189867
 21
339.077756
  0
ARC
  8
CSLAYER1
  6
CONTINUOUS
 62
     6
 10
387.189865
 20
339.077756
 40
4.000000
 50
-0.000000
 51
90.000000
  0
LINE
  8
CSLAYER1
  6
CONTINUOUS
 62
     6
 10
387.189865
 20
343.077756
 11
374.189869
 21
343.077756
  0
ARC
  8
CSLAYER1
  6
CONTINUOUS
 62
     6
 10
374.189869
 20
347.077756
 40
4.000000
 50
179.999991
 51
270.000000
  0
ARC
  8
CSLAYER1
  6
CONTINUOUS
 62
     6
 10
391.189867
 20
334.077726
 40
1.000000
 50
-0.000009
 51
89.999987
  0
LINE
  8
CSLAYER1
  6
CONTINUOUS
 62
     6
 10
392.189867
 20
334.077726
 11
392.189863
 21
308.077726
  0
ARC
  8
CSLAYER1
  6
CONTINUOUS
 62
     6
 10
391.189863
 20
308.077726
 40
1.000000
 50
269.999987
 51
359.999991
  0
LINE
  8
CSLAYER1
  6
CONTINUOUS
 62
     6
 10
392.189864
 20
313.577726
 11
393.189864
 21
313.577726
  0
LINE
  8
CSLAYER1
  6
CONTINUOUS
 62
     6
 10
393.189864
 20
313.577726
 11
393.189866
 21
328.577726
  0
LINE
  8
CSLAYER1
  6
CONTINUOUS
 62
     6
 10
393.189866
 20
328.577726
 11
392.189866
 21
328.577726
  0
LINE
  8
CSLAYER1
  6
CONTINUOUS
 62
     6
 10
393.189865
 20
327.077724
 11
412.689865
 21
327.077709
  0
LINE
  8
CSLAYER1
  6
CONTINUOUS
 62
     6
 10
412.689865
 20
327.077709
 11
413.189865
 21
326.577709
  0
LINE
  8
CSLAYER1
  6
CONTINUOUS
 62
     6
 10
413.189865
 20
326.577709
 11
413.189864
 21
315.577740
  0
LINE
  8
CSLAYER1
  6
CONTINUOUS
 62
     6
 10
413.189864
 20
315.577740
 11
412.689864
 21
315.077740
  0
LINE
  8
CSLAYER1
  6
CONTINUOUS
 62
     6
 10
412.689864
 20
315.077740
 11
393.189864
 21
315.077728
  0
LINE
  8
CSLAYER1
  6
DASHED
 62
     6
 10
396.189848
 20
315.077729
 11
396.189848
 21
317.577721
  0
LINE
  8
CSLAYER1
  6
DASHED
 62
     6
 10
396.189848
 20
317.577721
 11
413.189864
 21
317.577721
  0
CIRCLE
  8
CSLAYER1
  6
CONTINUOUS
 62
     6
 10
460.721265
 20
237.577163
 40
2.067000
  0
LINE
  8
CSLAYER1
  6
CONTINUOUS
 62
     6
 10
486.495950
 20
248.025476
 11
487.056534
 21
248.586060
  0
ARC
  8
CSLAYER1
  6
CONTINUOUS
 62
     6
 10
486.642559
 20
249.000035
 40
0.585442
 50
-44.999995
 51
44.942654
  0
LINE
  8
CSLAYER1
  6
CONTINUOUS
 62
     6
 10
487.056512
 20
249.413989
 11
486.495971
 21
249.974530
  0
ARC
  8
CSLAYER1
  6
CONTINUOUS
 62
     6
 10
488.298438
 20
249.000014
 40
2.049047
 50
118.398416
 51
151.601577
  0
LINE
  8
CSLAYER1
  6
CONTINUOUS
 62
     6
 10
487.323922
 20
250.802480
 11
487.884463
 21
250.241939
  0
ARC
  8
CSLAYER1
  6
CONTINUOUS
 62
     6
 10
488.298416
 20
250.655892
 40
0.585442
 50
225.000016
 51
315.000005
  0
LINE
  8
CSLAYER1
  6
CONTINUOUS
 62
     6
 10
488.712391
 20
250.241917
 11
489.272975
 21
250.802501
  0
ARC
  8
CSLAYER1
  6
CONTINUOUS
 62
     6
 10
488.298438
 20
249.000014
 40
2.049047
 50
28.398406
 51
61.601595
  0
LINE
  8
CSLAYER1
  6
CONTINUOUS
 62
     6
 10
490.100926
 20
249.974551
 11
489.540341
 21
249.413967
  0
ARC
  8
CSLAYER1
  6
CONTINUOUS
 62
     6
 10
489.954317
 20
248.999992
 40
0.585442
 50
135.000010
 51
225.000016
  0
LINE
  8
CSLAYER1
  6
CONTINUOUS
 62
     6
 10
489.540363
 20
248.586038
 11
490.100904
 21
248.025498
  0
ARC
  8
CSLAYER1
  6
CONTINUOUS
 62
     6
 10
488.298438
 20
249.000014
 40
2.049047
 50
298.398438
 51
331.601572
  0
LINE
  8
CSLAYER1
  6
CONTINUOUS
 62
     6
 10
489.272954
 20
247.197547
 11
488.712413
 21
247.758088
  0
ARC
  8
CSLAYER1
  6
CONTINUOUS
 62
     6
 10
488.298459
 20
247.344135
 40
0.585442
 50
45.000001
 51
134.942691
  0
LINE
  8
CSLAYER1
  6
CONTINUOUS
 62
     6
 10
487.884484
 20
247.758110
 11
487.323900
 21
247.197526
  0
ARC
  8
CSLAYER1
  6
CONTINUOUS
 62
     6
 10
488.298438
 20
249.000014
 40
2.049047
 50
208.398422
 51
241.601583
  0
CIRCLE
  8
CSLAYER1
  6
CONTINUOUS
 62
     6
 10
488.298438
 20
249.000014
 40
3.499925
  0
CIRCLE
  8
CSLAYER1
  6
CONTINUOUS
 62
     6
 10
488.298438
 20
249.000014
 40
4.000000
  0
CIRCLE
  8
CSLAYER1
  6
CONTINUOUS
 62
     6
 10
515.875594
 20
237.577163
 40
2.067000
  0
LINE
  8
CSLAYER1
  6
CONTINUOUS
 62
     6
 10
526.323907
 20
211.802478
 11
526.884491
 21
211.241894
  0
ARC
  8
CSLAYER1
  6
CONTINUOUS
 62
     6
 10
527.298466
 20
211.655869
 40
0.585442
 50
225.000005
 51
314.942654
  0
LINE
  8
CSLAYER1
  6
CONTINUOUS
 62
     6
 10
527.712419
 20
211.241916
 11
528.272960
 21
211.802457
  0
ARC
  8
CSLAYER1
  6
CONTINUOUS
 62
     6
 10
527.298444
 20
209.999990
 40
2.049047
 50
28.398416
 51
61.601577
  0
LINE
  8
CSLAYER1
  6
CONTINUOUS
 62
     6
 10
529.100911
 20
210.974506
 11
528.540370
 21
210.413965
  0
ARC
  8
CSLAYER1
  6
CONTINUOUS
 62
     6
 10
528.954323
 20
210.000012
 40
0.585442
 50
135.000016
 51
225.000005
  0
LINE
  8
CSLAYER1
  6
CONTINUOUS
 62
     6
 10
528.540348
 20
209.586037
 11
529.100932
 21
209.025453
  0
ARC
  8
CSLAYER1
  6
CONTINUOUS
 62
     6
 10
527.298444
 20
209.999990
 40
2.049047
 50
298.398406
 51
331.601595
  0
LINE
  8
CSLAYER1
  6
CONTINUOUS
 62
     6
 10
528.272982
 20
208.197502
 11
527.712398
 21
208.758086
  0
ARC
  8
CSLAYER1
  6
CONTINUOUS
 62
     6
 10
527.298423
 20
208.344111
 40
0.585442
 50
45.000010
 51
135.000016
  0
LINE
  8
CSLAYER1
  6
CONTINUOUS
 62
     6
 10
526.884469
 20
208.758065
 11
526.323928
 21
208.197524
  0
ARC
  8
CSLAYER1
  6
CONTINUOUS
 62
     6
 10
527.298444
 20
209.999990
 40
2.049047
 50
208.398438
 51
241.601572
  0
LINE
  8
CSLAYER1
  6
CONTINUOUS
 62
     6
 10
525.495978
 20
209.025474
 11
526.056519
 21
209.586015
  0
ARC
  8
CSLAYER1
  6
CONTINUOUS
 62
     6
 10
525.642565
 20
209.999969
 40
0.585442
 50
-44.999999
 51
44.942691
  0
LINE
  8
CSLAYER1
  6
CONTINUOUS
 62
     6
 10
526.056541
 20
210.413944
 11
525.495956
 21
210.974528
  0
ARC
  8
CSLAYER1
  6
CONTINUOUS
 62
     6
 10
527.298444
 20
209.999990
 40
2.049047
 50
118.398422
 51
151.601583
  0
LINE
  8
CSLAYER1
  6
CONTINUOUS
 62
     6
 10
484.798429
 20
211.999999
 11
482.641575
 21
211.999999
  0
LINE
  8
CSLAYER1
  6
CONTINUOUS
 62
     6
 10
484.798429
 20
211.999999
 11
484.798429
 21
207.999999
  0
LINE
  8
CSLAYER1
  6
CONTINUOUS
 62
     6
 10
484.798429
 20
207.999999
 11
482.641575
 21
207.999999
  0
CIRCLE
  8
CSLAYER1
  6
CONTINUOUS
 62
     6
 10
488.298429
 20
209.999999
 40
13.999973
  0
CIRCLE
  8
CSLAYER1
  6
CONTINUOUS
 62
     6
 10
488.298429
 20
209.999999
 40
6.000000
  0
CIRCLE
  8
CSLAYER1
  6
CONTINUOUS
 62
     6
 10
488.298429
 20
209.999999
 40
22.000000
  0
CIRCLE
  8
CSLAYER1
  6
CONTINUOUS
 62
     6
 10
488.298429
 20
209.999999
 40
33.500000
  0
CIRCLE
  8
CSLAYER1
  6
CONTINUOUS
 62
     6
 10
488.298429
 20
209.999999
 40
44.000000
  0
CIRCLE
  8
CSLAYER1
  6
CONTINUOUS
 62
     6
 10
488.298429
 20
209.999999
 40
7.500000
  0
LINE
  8
CSLAYER1
  6
CONTINUOUS
 62
     6
 10
451.100902
 20
209.025469
 11
450.540318
 21
209.586053
  0
ARC
  8
CSLAYER1
  6
CONTINUOUS
 62
     6
 10
450.954293
 20
210.000029
 40
0.585442
 50
135.000001
 51
224.942691
  0
LINE
  8
CSLAYER1
  6
CONTINUOUS
 62
     6
 10
450.540340
 20
210.413982
 11
451.100881
 21
210.974523
  0
ARC
  8
CSLAYER1
  6
CONTINUOUS
 62
     6
 10
449.298414
 20
210.000007
 40
2.049047
 50
28.398438
 51
61.601572
  0
LINE
  8
CSLAYER1
  6
CONTINUOUS
 62
     6
 10
450.272930
 20
211.802473
 11
449.712389
 21
211.241932
  0
ARC
  8
CSLAYER1
  6
CONTINUOUS
 62
     6
 10
449.298436
 20
211.655886
 40
0.585442
 50
225.000010
 51
315.000016
  0
LINE
  8
CSLAYER1
  6
CONTINUOUS
 62
     6
 10
448.884461
 20
211.241911
 11
448.323877
 21
211.802495
  0
ARC
  8
CSLAYER1
  6
CONTINUOUS
 62
     6
 10
449.298414
 20
210.000007
 40
2.049047
 50
118.398406
 51
151.601595
  0
LINE
  8
CSLAYER1
  6
CONTINUOUS
 62
     6
 10
447.495926
 20
210.974545
 11
448.056511
 21
210.413960
  0
ARC
  8
CSLAYER1
  6
CONTINUOUS
 62
     6
 10
447.642535
 20
209.999985
 40
0.585442
 50
-44.999984
 51
45.000005
  0
LINE
  8
CSLAYER1
  6
CONTINUOUS
 62
     6
 10
448.056489
 20
209.586032
 11
447.495948
 21
209.025491
  0
ARC
  8
CSLAYER1
  6
CONTINUOUS
 62
     6
 10
449.298414
 20
210.000007
 40
2.049047
 50
208.398416
 51
241.601577
  0
LINE
  8
CSLAYER1
  6
CONTINUOUS
 62
     6
 10
448.323898
 20
208.197541
 11
448.884439
 21
208.758082
  0
ARC
  8
CSLAYER1
  6
CONTINUOUS
 62
     6
 10
449.298393
 20
208.344128
 40
0.585442
 50
45.000005
 51
134.942654
  0
LINE
  8
CSLAYER1
  6
CONTINUOUS
 62
     6
 10
449.712368
 20
208.758103
 11
450.272952
 21
208.197519
  0
ARC
  8
CSLAYER1
  6
CONTINUOUS
 62
     6
 10
449.298414
 20
210.000007
 40
2.049047
 50
298.398422
 51
331.601583
  0
CIRCLE
  8
CSLAYER1
  6
CONTINUOUS
 62
     6
 10
460.721265
 20
182.422834
 40
2.067000
  0
ARC
  8
CSLAYER1
  6
CONTINUOUS
 62
     6
 10
488.298421
 20
170.999984
 40
2.049047
 50
118.398438
 51
151.601572
  0
LINE
  8
CSLAYER1
  6
CONTINUOUS
 62
     6
 10
487.323905
 20
172.802450
 11
487.884446
 21
172.241909
  0
ARC
  8
CSLAYER1
  6
CONTINUOUS
 62
     6
 10
488.298399
 20
172.655862
 40
0.585442
 50
225.000001
 51
314.942691
  0
LINE
  8
CSLAYER1
  6
CONTINUOUS
 62
     6
 10
488.712374
 20
172.241887
 11
489.272959
 21
172.802471
  0
ARC
  8
CSLAYER1
  6
CONTINUOUS
 62
     6
 10
488.298421
 20
170.999984
 40
2.049047
 50
28.398422
 51
61.601583
  0
LINE
  8
CSLAYER1
  6
CONTINUOUS
 62
     6
 10
490.100909
 20
171.974521
 11
489.540325
 21
171.413937
  0
ARC
  8
CSLAYER1
  6
CONTINUOUS
 62
     6
 10
489.954300
 20
170.999962
 40
0.585442
 50
135.000005
 51
224.942654
  0
LINE
  8
CSLAYER1
  6
CONTINUOUS
 62
     6
 10
489.540346
 20
170.586008
 11
490.100887
 21
170.025468
  0
ARC
  8
CSLAYER1
  6
CONTINUOUS
 62
     6
 10
488.298421
 20
170.999984
 40
2.049047
 50
298.398416
 51
331.601577
  0
LINE
  8
CSLAYER1
  6
CONTINUOUS
 62
     6
 10
489.272937
 20
169.197517
 11
488.712396
 21
169.758058
  0
ARC
  8
CSLAYER1
  6
CONTINUOUS
 62
     6
 10
488.298443
 20
169.344105
 40
0.585442
 50
45.000016
 51
135.000005
  0
LINE
  8
CSLAYER1
  6
CONTINUOUS
 62
     6
 10
487.884467
 20
169.758080
 11
487.323883
 21
169.197496
  0
ARC
  8
CSLAYER1
  6
CONTINUOUS
 62
     6
 10
488.298421
 20
170.999984
 40
2.049047
 50
208.398406
 51
241.601595
  0
LINE
  8
CSLAYER1
  6
CONTINUOUS
 62
     6
 10
486.495933
 20
170.025446
 11
487.056517
 21
170.586030
  0
ARC
  8
CSLAYER1
  6
CONTINUOUS
 62
     6
 10
486.642542
 20
171.000005
 40
0.585442
 50
-44.999990
 51
45.000016
  0
LINE
  8
CSLAYER1
  6
CONTINUOUS
 62
     6
 10
487.056496
 20
171.413959
 11
486.495955
 21
171.974500
  0
CIRCLE
  8
CSLAYER1
  6
CONTINUOUS
 62
     6
 10
488.298421
 20
170.999984
 40
3.499925
  0
CIRCLE
  8
CSLAYER1
  6
CONTINUOUS
 62
     6
 10
488.298421
 20
170.999984
 40
4.000000
  0
CIRCLE
  8
CSLAYER1
  6
CONTINUOUS
 62
     6
 10
515.875594
 20
182.422834
 40
2.067000
  0
CIRCLE
  8
CSLAYER1
  6
CONTINUOUS
 62
     6
 10
527.298444
 20
209.999990
 40
3.499925
  0
CIRCLE
  8
CSLAYER1
  6
CONTINUOUS
 62
     6
 10
527.298444
 20
209.999990
 40
4.000000
  0
CIRCLE
  8
CSLAYER1
  6
CONTINUOUS
 62
     6
 10
449.298414
 20
210.000007
 40
3.499925
  0
CIRCLE
  8
CSLAYER1
  6
CONTINUOUS
 62
     6
 10
449.298414
 20
210.000007
 40
4.000000
  0
TEXT
  8
CSLAYER1
 62
     6
 10
119.248436
 20
208.031921
 40
3.409090
 41
1.200000
  1
S
 50
282.000000
 51
3.000000
  7
JX_FONT
 72
     5
 11
119.815468
 21
205.364247
  0
TEXT
  8
CSLAYER1
 62
     6
 10
119.981758
 20
204.991028
 40
3.409090
 41
1.200000
  1
A
 50
294.000031
 51
3.000000
  7
JX_FONT
 72
     5
 11
121.091041
 21
202.499541
  0
TEXT
  8
CSLAYER1
 62
     6
 10
121.331306
 20
202.169037
 40
3.409090
 41
1.596000
  1
W
 50
306.000031
 51
3.000000
  7
JX_FONT
 72
     5
 11
123.463365
 21
199.234513
  0
TEXT
  8
CSLAYER1
 62
     6
 10
123.238060
 20
199.689301
 40
3.409090
 41
1.200000
  1
A
 50
318.000000
 51
3.000000
  7
JX_FONT
 72
     5
 11
125.264818
 21
197.864399
  0
TEXT
  8
CSLAYER1
 62
     6
 10
125.618721
 20
197.660187
 40
3.409090
 41
1.200000
  1
M
 50
330.000000
 51
3.000000
  7
JX_FONT
 72
     5
 11
127.980608
 21
196.296551
  0
TEXT
  8
CSLAYER1
 62
     6
 10
128.369232
 20
196.170410
 40
3.409090
 41
1.200000
  1
U
 50
342.000000
 51
3.000000
  7
JX_FONT
 72
     5
 11
130.963022
 21
195.327637
  0
TEXT
  8
CSLAYER1
 62
     6
 10
131.369385
 20
195.285034
 40
3.409090
 41
1.200000
  1
R
 50
353.999969
 51
3.000000
  7
JX_FONT
 72
     5
 11
134.081716
 21
194.999955
  0
TEXT
  8
CSLAYER1
 62
     6
 10
134.488068
 20
195.042755
 40
3.409090
 41
1.200000
  1
A
 50
6.000000
 51
3.000000
  7
JX_FONT
 72
     5
 11
137.200399
 21
195.327833
  0
TEXT
  8
CSLAYER1
 62
     6
 10
147.237976
 20
202.873718
 40
3.409090
 41
1.200000
  1
K
 50
66.000046
 51
3.000000
  7
JX_FONT
 72
     5
 11
148.347256
 21
205.365206
  0
TEXT
  8
CSLAYER1
 62
     6
 10
148.432098
 20
205.764862
 40
3.409090
 41
0.792000
  1
I
 50
78.000000
 51
3.000000
  7
JX_FONT
 72
     5
 11
148.806339
 21
207.525527
  0
TEXT
  8
CSLAYER1
 62
     6
 10
140.536560
 20
196.501343
 40
3.409090
 41
1.200000
  1
D
 50
30.000032
 51
3.000000
  7
JX_FONT
 72
     5
 11
142.898446
 21
197.864980
  0
TEXT
  8
CSLAYER1
 62
     6
 10
143.202011
 20
198.138458
 40
3.409090
 41
1.200000
  1
E
 50
41.999962
 51
3.000000
  7
JX_FONT
 72
     5
 11
145.228770
 21
199.963358
  0
TEXT
  8
CSLAYER1
 62
     6
 10
145.468842
 20
200.294006
 40
3.409090
 41
1.200000
  1
N
 50
54.000061
 51
3.000000
  7
JX_FONT
 72
     5
 11
147.071889
 21
202.500417
  0
TEXT
  8
CSLAYER1
 62
     6
 10
119.163383
 20
211.158722
 40
3.410000
 41
1.200000
  1
*
 50
-90.000000
 51
3.000000
  7
JX_FONT
 72
     5
 11
119.163383
 21
208.430722
  0
TEXT
  8
CSLAYER1
 62
     6
 10
139.793274
 20
223.829590
 40
3.409090
 41
1.200000
  1
U
 50
162.000000
 51
3.000000
  7
JX_FONT
 72
     5
 11
137.199484
 21
224.672363
  0
TEXT
  8
CSLAYER1
 62
     6
 10
136.793121
 20
224.714966
 40
3.409090
 41
1.200000
  1
R
 50
173.999985
 51
3.000000
  7
JX_FONT
 72
     5
 11
134.080790
 21
225.000044
  0
TEXT
  8
CSLAYER1
 62
     6
 10
133.674438
 20
224.957245
 40
3.409090
 41
1.200000
  1
A
 50
186.000015
 51
3.000000
  7
JX_FONT
 72
     5
 11
130.962107
 21
224.672167
  0
TEXT
  8
CSLAYER1
 62
     6
 10
120.924522
 20
217.126251
 40
3.409090
 41
1.200000
  1
K
 50
246.000061
 51
3.000000
  7
JX_FONT
 72
     5
 11
119.815244
 21
214.634763
  0
TEXT
  8
CSLAYER1
 62
     6
 10
119.730400
 20
214.235107
 40
3.409090
 41
0.792000
  1
I
 50
258.000000
 51
3.000000
  7
JX_FONT
 72
     5
 11
119.356159
 21
212.474442
  0
TEXT
  8
CSLAYER1
 62
     6
 10
127.625938
 20
223.498627
 40
3.409090
 41
1.200000
  1
D
 50
210.000046
 51
3.000000
  7
JX_FONT
 72
     5
 11
125.264053
 21
222.134989
  0
TEXT
  8
CSLAYER1
 62
     6
 10
124.960503
 20
221.861511
 40
3.409090
 41
1.200000
  1
E
 50
221.999969
 51
3.000000
  7
JX_FONT
 72
     5
 11
122.933744
 21
220.036611
  0
TEXT
  8
CSLAYER1
 62
     6
 10
122.693672
 20
219.705963
 40
3.409090
 41
1.200000
  1
N
 50
234.000061
 51
3.000000
  7
JX_FONT
 72
     5
 11
121.090624
 21
217.499552
  0
TEXT
  8
CSLAYER1
 62
     6
 10
148.914063
 20
211.968079
 40
3.409090
 41
1.200000
  1
S
 50
102.000000
 51
3.000000
  7
JX_FONT
 72
     5
 11
148.347031
 21
214.635753
  0
TEXT
  8
CSLAYER1
 62
     6
 10
148.180756
 20
215.008972
 40
3.409090
 41
1.200000
  1
A
 50
114.000046
 51
3.000000
  7
JX_FONT
 72
     5
 11
147.071472
 21
217.500458
  0
TEXT
  8
CSLAYER1
 62
     6
 10
146.831207
 20
217.830963
 40
3.409090
 41
1.596000
  1
W
 50
126.000038
 51
3.000000
  7
JX_FONT
 72
     5
 11
144.699148
 21
220.765486
  0
TEXT
  8
CSLAYER1
 62
     6
 10
144.924438
 20
220.310699
 40
3.409090
 41
1.200000
  1
A
 50
138.000031
 51
3.000000
  7
JX_FONT
 72
     5
 11
142.897679
 21
222.135600
  0
TEXT
  8
CSLAYER1
 62
     6
 10
142.543793
 20
222.339783
 40
3.409090
 41
1.200000
  1
M
 50
150.000015
 51
3.000000
  7
JX_FONT
 72
     5
 11
140.181905
 21
223.703418
  0
TEXT
  8
CSLAYER1
 62
     6
 10
148.999115
 20
208.841248
 40
3.410000
 41
1.200000
  1
*
 50
90.000000
 51
3.000000
  7
JX_FONT
 72
     5
 11
148.999115
 21
211.569248
  0
LINE
  8
CSLAYER1
  6
DOT
 62
     4
 10
344.689863
 20
179.749989
 11
351.189847
 21
179.749989
  0
LINE
  8
CSLAYER1
  6
DOT
 62
     4
 10
351.189848
 20
185.249989
 11
344.689863
 21
185.249989
  0
LINE
  8
CSLAYER1
  6
DOT
 62
     4
 10
344.689867
 20
234.749989
 11
351.189852
 21
234.749989
  0
LINE
  8
CSLAYER1
  6
DOT
 62
     4
 10
351.189852
 20
240.249989
 11
344.689867
 21
240.249989
  0
ENDSEC
  0
EOF
