  0
SECTION
  2
HEADER
  9
$ACADVER
  1
AC1006
  9
$INSBASE
 10
0.000000
 20
0.000000
 30
0.0
  9
$EXTMIN
 10
0.000000
 20
0.000000
  9
$EXTMAX
 10
594.000000
 20
420.000000
  9
$LIMMIN
 10
0.000000
 20
0.000000
  9
$LIMMAX
 10
594.000000
 20
420.000000
  9
$VIEWCTR
 10
297.000000
 20
210.000000
  9
$VIEWSIZE
 40
420.000000
  9
$SNAPMODE
 70
     0
  9
$SNAPUNIT
 10
1.0
 20
1.0
  9
$SNAPBASE
 10
0.0
 20
0.0
  9
$SNAPANG
 50
0.0
  9
$SNAPSTYLE
 70
     0
  9
$SNAPISOPAIR
 70
     0
  9
$GRIDMODE
 70
     0
  9
$GRIDUNIT
 10
0.0
 20
0.0
  9
$ORTHOMODE
 70
     0
  9
$REGENMODE
 70
     1
  9
$FILLMODE
 70
     1
  9
$QTEXTMODE
 70
     0
  9
$DRAGMODE
 70
     2
  9
$LTSCALE
 40
15.000000
  9
$OSMODE
 70
     0
  9
$ATTMODE
 70
     1
  9
$TEXTSIZE
 40
0.2
  9
$TRACEWID
 40
0.05
  9
$TEXTSTYLE
  7
STANDARD
  9
$CLAYER
  8
CSLAYER1
  9
$CELTYPE
  6
BYLAYER
  9
$CECOLOR
 62
   256
  9
$DIMSCALE
 40
1.0
  9
$DIMASZ
 40
0.18
  9
$DIMEXO
 40
0.0625
  9
$DIMDLI
 40
0.38
  9
$DIMRND
 40
0.0
  9
$DIMDLE
 40
0.0
  9
$DIMEXE
 40
0.18
  9
$DIMTP
 40
0.0
  9
$DIMTM
 40
0.0
  9
$DIMTXT
 40
0.18
  9
$DIMCEN
 40
0.09
  9
$DIMTSZ
 40
0.0
  9
$DIMTOL
 70
     0
  9
$DIMLIM
 70
     0
  9
$DIMTIH
 70
     1
  9
$DIMTOH
 70
     1
  9
$DIMSE1
 70
     0
  9
$DIMSE2
 70
     0
  9
$DIMTAD
 70
     0
  9
$DIMZIN
 70
     0
  9
$DIMBLK
  1

  9
$LUNITS
 70
     2
  9
$LUPREC
 70
     4
  9
$AXISMODE
 70
     0
  9
$AXISUNIT
 10
0.0
 20
0.0
  9
$SKETCHINC
 40
0.1
  9
$FILLETRAD
 40
0.0
  9
$AUNITS
 70
     0
  9
$AUPREC
 70
     0
  9
$MENU
  1
ACAD
  9
$ELEVATION
 40
0.0
  9
$THICKNESS
 40
0.0
  9
$VIEWDIR
 10
0.0
 20
0.0
 30
1.0
  9
$LIMCHECK
 70
     0
  9
$BLIPMODE
 70
     1
  9
$CHAMFERA
 40
0.0
  9
$CHAMFERB
 40
0.0
  9
$FASTZOOM
 70
     1
  9
$SKPOLY
 70
     0
  9
$TDCREATE
 40
0.000000
  9
$TDUPDATE
 40
0.000000
  9
$TDINDWG
 40
0.0
  9
$TDUSRTIMER
 40
0.0
  9
$USRTIMER
 70
     1
  9
$ANGBASE
 50
0.0
  9
$ANGDIR
 70
     0
  9
$PDMODE
 70
     0
  9
$PDSIZE
 40
0.0
  9
$PLINEWID
 40
0.0
  9
$COORDS
 70
     0
  9
$USERI1
 70
     0
  9
$USERI2
 70
     0
  9
$USERI3
 70
     0
  9
$USERI4
 70
     0
  9
$USERI5
 70
     0
  9
$USERR1
 40
0.0
  9
$USERR2
 40
0.0
  9
$USERR3
 40
0.0
  9
$USERR4
 40
0.0
  9
$USERR5
 40
0.0
  0
ENDSEC
  0
SECTION
  2
TABLES
  0
TABLE
  2
LTYPE
 70
     9
  0
LTYPE
  2
CONTINUOUS
 70
    64
  3
Solid line
 72
    65
 73
     0
 40
0.0
  0
LTYPE
  2
DASHED
 70
    64
  3
__ __ __ __ __ __ __ __ __ __ __ __ __ __ __
 72
    65
 73
     2
 40
0.75
 49
0.5
 49
-0.25
  0
LTYPE
  2
HIDDEN
 70
    64
  3
_ _ _ _ _ _ _ _ _ _ _ _ _ _ _ _ _ _ _ _ _ _ _
 72
    65
 73
     2
 40
0.375
 49
0.25
 49
-0.125
  0
LTYPE
  2
DOT
 70
    64
  3
...............................................
 72
    65
 73
     2
 40
0.25
 49
0.0
 49
-0.25
  0
LTYPE
  2
DASHDOT
 70
    64
  3
__ . __ . __ . __ . __ . __ . __ . __ . __ . __
 72
    65
 73
     4
 40
1.0
 49
0.5
 49
-0.25
 49
0.0
 49
-0.25
  0
LTYPE
  2
DIVIDE
 70
    64
  3
__ . . __ . . __ . . __ . . __ . . __ . . __
 72
    65
 73
     6
 40
1.25
 49
0.5
 49
-0.25
 49
0.0
 49
-0.25
 49
0.0
 49
-0.25
  0
LTYPE
  2
CENTER
 70
    64
  3
____ _ ____ _ ____ _ ____ _ ____ _ ____ _ ____ 
 72
    65
 73
     4
 40
2.0
 49
1.25
 49
-0.25
 49
0.25
 49
-0.25
  0
LTYPE
  2
PHANTOM
 70
    64
  3
______  __  __  ______  __  __  ______  __  __ 
 72
    65
 73
     6
 40
2.5
 49
1.25
 49
-0.25
 49
0.25
 49
-0.25
 49
0.25
 49
-0.25
  0
LTYPE
  2
BORDER
 70
    64
  3
__ __ . __ __ . __ __ . __ __ . __ __ . __ __ .
 72
    65
 73
     6
 40
1.75
 49
0.5
 49
-0.25
 49
0.5
 49
-0.25
 49
0.0
 49
-0.25
  0
ENDTAB
  0
TABLE
  2
LAYER
 70
    16
  0
LAYER
  2
CSLAYER1
 70
    64
 62
     7
  6
CONTINUOUS
  0
LAYER
  2
CSLAYER2
 70
    64
 62
     7
  6
CONTINUOUS
  0
LAYER
  2
CSLAYER3
 70
    64
 62
     7
  6
CONTINUOUS
  0
LAYER
  2
CSLAYER4
 70
    64
 62
     7
  6
CONTINUOUS
  0
LAYER
  2
CSLAYER5
 70
    64
 62
     7
  6
CONTINUOUS
  0
LAYER
  2
CSLAYER6
 70
    64
 62
     7
  6
CONTINUOUS
  0
LAYER
  2
CSLAYER7
 70
    64
 62
     7
  6
CONTINUOUS
  0
LAYER
  2
CSLAYER8
 70
    64
 62
     7
  6
CONTINUOUS
  0
LAYER
  2
CSLAYER9
 70
    64
 62
     7
  6
CONTINUOUS
  0
LAYER
  2
CSLAYER10
 70
    64
 62
     7
  6
CONTINUOUS
  0
LAYER
  2
CSLAYER11
 70
    64
 62
     7
  6
CONTINUOUS
  0
LAYER
  2
CSLAYER12
 70
    64
 62
     7
  6
CONTINUOUS
  0
LAYER
  2
CSLAYER13
 70
    64
 62
     7
  6
CONTINUOUS
  0
LAYER
  2
CSLAYER14
 70
    64
 62
     7
  6
CONTINUOUS
  0
LAYER
  2
CSLAYER15
 70
    64
 62
     7
  6
CONTINUOUS
  0
LAYER
  2
CSLAYER16
 70
    64
 62
     7
  6
CONTINUOUS
  0
ENDTAB
  0
TABLE
  2
STYLE
 70
     1
  0
STYLE
  2
JX_FONT
 70
     0
 40
1.0
 41
1.0
 50
0.0
 71
     0
 42
1.0
  3
monotxt
  4
bigfont
  0
ENDTAB
  0
TABLE
  2
VIEW
 70
     0
  0
ENDTAB
  0
ENDSEC
  0
SECTION
  2
BLOCKS
  0
ENDSEC
  0
SECTION
  2
ENTITIES
  0
LINE
  8
CSLAYER1
  6
CONTINUOUS
 62
     6
 10
297.089005
 20
250.063910
 11
297.089005
 21
188.063910
  0
LINE
  8
CSLAYER1
  6
CONTINUOUS
 62
     6
 10
307.089005
 20
174.063898
 11
307.089005
 21
264.063898
  0
LINE
  8
CSLAYER1
  6
CENTER
 62
     3
 10
489.049222
 20
171.063895
 11
489.049222
 21
267.063895
  0
LINE
  8
CSLAYER1
  6
CENTER
 62
     3
 10
537.049222
 20
219.063895
 11
441.049222
 21
219.063895
  0
LINE
  8
CSLAYER1
  6
CONTINUOUS
 62
     6
 10
215.089005
 20
250.063910
 11
215.089005
 21
188.063910
  0
LINE
  8
CSLAYER1
  6
CENTER
 62
     3
 10
204.089005
 20
232.063910
 11
204.088990
 21
165.455931
  0
CIRCLE
  8
CSLAYER1
  6
CONTINUOUS
 62
     6
 10
204.089005
 20
219.063910
 40
8.000000
  0
CIRCLE
  8
CSLAYER1
  6
CONTINUOUS
 62
     6
 10
204.089005
 20
219.063910
 40
6.000000
  0
CIRCLE
  8
CSLAYER1
  6
CONTINUOUS
 62
     3
 10
204.089005
 20
219.063910
 40
5.500000
  0
LINE
  8
CSLAYER1
  6
CONTINUOUS
 62
     6
 10
206.839005
 20
219.863913
 11
201.339005
 21
219.863913
  0
LINE
  8
CSLAYER1
  6
CONTINUOUS
 62
     6
 10
206.839005
 20
218.263907
 11
201.339005
 21
218.263907
  0
LINE
  8
CSLAYER1
  6
CONTINUOUS
 62
     6
 10
201.339005
 20
219.863913
 11
201.339005
 21
218.263907
  0
LINE
  8
CSLAYER1
  6
CONTINUOUS
 62
     6
 10
206.839005
 20
219.863913
 11
206.839005
 21
218.263907
  0
LINE
  8
CSLAYER1
  6
CONTINUOUS
 62
     6
 10
184.089005
 20
190.587576
 11
184.089005
 21
247.540244
  0
LINE
  8
CSLAYER1
  6
CONTINUOUS
 62
     6
 10
185.089005
 20
189.587576
 11
185.089005
 21
248.540244
  0
LINE
  8
CSLAYER1
  6
CONTINUOUS
 62
     6
 10
185.089005
 20
248.540244
 11
215.089021
 21
249.063895
  0
LINE
  8
CSLAYER1
  6
CONTINUOUS
 62
     6
 10
185.089005
 20
248.540244
 11
184.089005
 21
247.540244
  0
LINE
  8
CSLAYER1
  6
CONTINUOUS
 62
     6
 10
185.089005
 20
189.587576
 11
215.089021
 21
189.063925
  0
LINE
  8
CSLAYER1
  6
CONTINUOUS
 62
     6
 10
185.089005
 20
189.587576
 11
184.089005
 21
190.587576
  0
ARC
  8
CSLAYER1
  6
CONTINUOUS
 62
     6
 10
189.430146
 20
175.591795
 40
15.758816
 50
332.536202
 51
359.942691
  0
ARC
  8
CSLAYER1
  6
CONTINUOUS
 62
     6
 10
189.430146
 20
175.591795
 40
13.558834
 50
332.536202
 51
359.942691
  0
ARC
  8
CSLAYER1
  6
CONTINUOUS
 62
     6
 10
204.638978
 20
174.639204
 40
1.099999
 50
60.000350
 51
120.000345
  0
ARC
  8
CSLAYER1
  6
CONTINUOUS
 62
     6
 10
203.538979
 20
174.639189
 40
1.099999
 50
60.000350
 51
120.000345
  0
ARC
  8
CSLAYER1
  6
CONTINUOUS
 62
     6
 10
203.538972
 20
176.544447
 40
1.099999
 50
240.000362
 51
300.000350
  0
LINE
  8
CSLAYER1
  6
CONTINUOUS
 62
     6
 10
202.118546
 20
168.996840
 11
200.501389
 21
166.058767
  0
LINE
  8
CSLAYER1
  6
CONTINUOUS
 62
     6
 10
202.607469
 20
168.742704
 11
201.030686
 21
165.735289
  0
LINE
  8
CSLAYER1
  6
CONTINUOUS
 62
     6
 10
203.005601
 20
168.535749
 11
201.604112
 21
165.455946
  0
LINE
  8
CSLAYER1
  6
CONTINUOUS
 62
     6
 10
201.460923
 20
169.338636
 11
203.412980
 21
168.324019
  0
ARC
  8
CSLAYER1
  6
CONTINUOUS
 62
     6
 10
218.747834
 20
175.591795
 40
15.758816
 50
202.422068
 51
207.463868
  0
ARC
  8
CSLAYER1
  6
CONTINUOUS
 62
     6
 10
218.747834
 20
175.591795
 40
13.558834
 50
179.999978
 51
207.463868
  0
LINE
  8
CSLAYER1
  6
CONTINUOUS
 62
     6
 10
206.059434
 20
168.996809
 11
207.676606
 21
166.058752
  0
LINE
  8
CSLAYER1
  6
CONTINUOUS
 62
     6
 10
205.570512
 20
168.742689
 11
207.147294
 21
165.735289
  0
LINE
  8
CSLAYER1
  6
CONTINUOUS
 62
     6
 10
205.172379
 20
168.535749
 11
206.573884
 21
165.455931
  0
LINE
  8
CSLAYER1
  6
CONTINUOUS
 62
     6
 10
206.717057
 20
169.338621
 11
204.765000
 21
168.324003
  0
ARC
  8
CSLAYER1
  6
CONTINUOUS
 62
     6
 10
203.539002
 20
179.456663
 40
1.100006
 50
240.000007
 51
299.999995
  0
ARC
  8
CSLAYER1
  6
CONTINUOUS
 62
     6
 10
204.639008
 20
179.456663
 40
1.100006
 50
240.000007
 51
299.999995
  0
ARC
  8
CSLAYER1
  6
CONTINUOUS
 62
     6
 10
204.639008
 20
177.551390
 40
1.100006
 50
60.000002
 51
120.000003
  0
LINE
  8
CSLAYER1
  6
CONTINUOUS
 62
     6
 10
205.189011
 20
189.236716
 11
205.188996
 21
178.504026
  0
LINE
  8
CSLAYER1
  6
CONTINUOUS
 62
     6
 10
202.989015
 20
189.275122
 11
202.988999
 21
178.504026
  0
LINE
  8
CSLAYER1
  6
CONTINUOUS
 62
     6
 10
299.089005
 20
250.063910
 11
215.089005
 21
250.063910
  0
LINE
  8
CSLAYER1
  6
CONTINUOUS
 62
     6
 10
299.089005
 20
188.063910
 11
215.089005
 21
188.063910
  0
LINE
  8
CSLAYER1
  6
CENTER
 62
     3
 10
181.089013
 20
219.063910
 11
375.089005
 21
219.063891
  0
LINE
  8
CSLAYER1
  6
CONTINUOUS
 62
     3
 10
244.089021
 20
250.063910
 11
244.089021
 21
235.563880
  0
LINE
  8
CSLAYER1
  6
CONTINUOUS
 62
     3
 10
245.089021
 20
234.563880
 11
281.089005
 21
234.563880
  0
LINE
  8
CSLAYER1
  6
CONTINUOUS
 62
     3
 10
282.089005
 20
235.563880
 11
282.089005
 21
250.063910
  0
ARC
  8
CSLAYER1
  6
CONTINUOUS
 62
     3
 10
245.089021
 20
235.563880
 40
1.000000
 50
180.000005
 51
270.000001
  0
ARC
  8
CSLAYER1
  6
CONTINUOUS
 62
     3
 10
281.089005
 20
235.563880
 40
1.000000
 50
270.000001
 51
359.942691
  0
TEXT
  8
CSLAYER1
 62
     3
 10
260.459076
 20
247.677963
 40
3.500000
 41
1.125000
  1
N P
 50
-90.000000
 51
10.000000
  7
JX_FONT
 72
     5
 11
260.459076
 21
237.177963
  0
LINE
  8
CSLAYER1
  6
CONTINUOUS
 62
     6
 10
372.089005
 20
174.063891
 11
372.089005
 21
264.063891
  0
LINE
  8
CSLAYER1
  6
CONTINUOUS
 62
     6
 10
299.089005
 20
174.563898
 11
299.089005
 21
263.563898
  0
LINE
  8
CSLAYER1
  6
CONTINUOUS
 62
     6
 10
299.589005
 20
264.063898
 11
372.089005
 21
264.063891
  0
LINE
  8
CSLAYER1
  6
CONTINUOUS
 62
     6
 10
299.589005
 20
174.063898
 11
372.088997
 21
174.063891
  0
ARC
  8
CSLAYER1
  6
CONTINUOUS
 62
     6
 10
299.589005
 20
263.563898
 40
0.500000
 50
89.999994
 51
180.000000
  0
ARC
  8
CSLAYER1
  6
CONTINUOUS
 62
     6
 10
299.589005
 20
174.563898
 40
0.500000
 50
180.000000
 51
269.999994
  0
LINE
  8
CSLAYER1
  6
CENTER
 62
     3
 10
369.089005
 20
237.063892
 11
413.089005
 21
237.063887
  0
LINE
  8
CSLAYER1
  6
CONTINUOUS
 62
     6
 10
528.049222
 20
264.063895
 11
450.049222
 21
264.063895
  0
LINE
  8
CSLAYER1
  6
CONTINUOUS
 62
     6
 10
444.049222
 20
180.063895
 11
444.049222
 21
258.063895
  0
LINE
  8
CSLAYER1
  6
CONTINUOUS
 62
     6
 10
528.049222
 20
174.063895
 11
450.049222
 21
174.063895
  0
LINE
  8
CSLAYER1
  6
CONTINUOUS
 62
     6
 10
534.049222
 20
180.063895
 11
534.049222
 21
258.063895
  0
ARC
  8
CSLAYER1
  6
CONTINUOUS
 62
     6
 10
450.049222
 20
258.063895
 40
6.000000
 50
90.000000
 51
180.000000
  0
ARC
  8
CSLAYER1
  6
CONTINUOUS
 62
     6
 10
450.049222
 20
180.063895
 40
6.000000
 50
180.000000
 51
270.000000
  0
ARC
  8
CSLAYER1
  6
CONTINUOUS
 62
     6
 10
528.049222
 20
180.063895
 40
6.000000
 50
270.000000
 51
360.000000
  0
ARC
  8
CSLAYER1
  6
CONTINUOUS
 62
     6
 10
528.049222
 20
258.063895
 40
6.000000
 50
0.000000
 51
90.000000
  0
CIRCLE
  8
CSLAYER1
  6
CONTINUOUS
 62
     6
 10
489.049222
 20
219.063895
 40
41.250000
  0
CIRCLE
  8
CSLAYER1
  6
CONTINUOUS
 62
     6
 10
489.049222
 20
237.063895
 40
7.500000
  0
CIRCLE
  8
CSLAYER1
  6
CONTINUOUS
 62
     6
 10
489.049222
 20
237.063895
 40
12.000000
  0
CIRCLE
  8
CSLAYER1
  6
CONTINUOUS
 62
     6
 10
489.049222
 20
237.063895
 40
17.000000
  0
LINE
  8
CSLAYER1
  6
CENTER
 62
     3
 10
509.049222
 20
237.063895
 11
469.049222
 21
237.063895
  0
LINE
  8
CSLAYER1
  6
CONTINUOUS
 62
     6
 10
484.549222
 20
239.563895
 11
481.978154
 21
239.563895
  0
LINE
  8
CSLAYER1
  6
CONTINUOUS
 62
     6
 10
484.549222
 20
234.563895
 11
481.963142
 21
234.563895
  0
LINE
  8
CSLAYER1
  6
CONTINUOUS
 62
     6
 10
484.549222
 20
239.563895
 11
484.549222
 21
234.563895
  0
LINE
  8
CSLAYER1
  6
CENTER
 62
     3
 10
462.002388
 20
246.110729
 11
443.685261
 21
264.427856
  0
CIRCLE
  8
CSLAYER1
  6
CONTINUOUS
 62
     6
 10
489.049210
 20
183.063915
 40
3.272727
  0
ARC
  8
CSLAYER1
  6
CONTINUOUS
 62
     6
 10
489.049196
 20
183.063902
 40
2.000000
 50
73.398434
 51
106.601595
  0
ARC
  8
CSLAYER1
  6
CONTINUOUS
 62
     6
 10
489.049196
 20
183.063902
 40
2.000000
 50
-16.601576
 51
16.601586
  0
ARC
  8
CSLAYER1
  6
CONTINUOUS
 62
     6
 10
489.049196
 20
183.063902
 40
2.000000
 50
253.398442
 51
286.601576
  0
ARC
  8
CSLAYER1
  6
CONTINUOUS
 62
     6
 10
489.049196
 20
183.063902
 40
2.000000
 50
163.398416
 51
196.601604
  0
LINE
  8
CSLAYER1
  6
CONTINUOUS
 62
     6
 10
489.620622
 20
181.921049
 11
489.620622
 21
181.147270
  0
LINE
  8
CSLAYER1
  6
CONTINUOUS
 62
     6
 10
489.620622
 20
184.206755
 11
489.620622
 21
184.980533
  0
LINE
  8
CSLAYER1
  6
CONTINUOUS
 62
     6
 10
488.477769
 20
181.921049
 11
488.477769
 21
181.147270
  0
LINE
  8
CSLAYER1
  6
CONTINUOUS
 62
     6
 10
488.477769
 20
184.206755
 11
488.477769
 21
184.980533
  0
LINE
  8
CSLAYER1
  6
CONTINUOUS
 62
     6
 10
490.192049
 20
183.635328
 11
490.965814
 21
183.635328
  0
LINE
  8
CSLAYER1
  6
CONTINUOUS
 62
     6
 10
487.906343
 20
183.635328
 11
487.132577
 21
183.635328
  0
LINE
  8
CSLAYER1
  6
CONTINUOUS
 62
     6
 10
490.192049
 20
182.492475
 11
490.965814
 21
182.492475
  0
LINE
  8
CSLAYER1
  6
CONTINUOUS
 62
     6
 10
487.906343
 20
182.492475
 11
487.132577
 21
182.492475
  0
ARC
  8
CSLAYER1
  6
CONTINUOUS
 62
     6
 10
490.192049
 20
181.921049
 40
0.571429
 50
90.000001
 51
179.942691
  0
ARC
  8
CSLAYER1
  6
CONTINUOUS
 62
     6
 10
487.906343
 20
181.921049
 40
0.571429
 50
0.000005
 51
90.000001
  0
ARC
  8
CSLAYER1
  6
CONTINUOUS
 62
     6
 10
487.906343
 20
184.206755
 40
0.571429
 50
-89.999991
 51
0.000005
  0
ARC
  8
CSLAYER1
  6
CONTINUOUS
 62
     6
 10
490.192049
 20
184.206755
 40
0.571429
 50
180.000000
 51
270.000009
  0
CIRCLE
  8
CSLAYER1
  6
CONTINUOUS
 62
     6
 10
489.049210
 20
183.063915
 40
4.000000
  0
LINE
  8
CSLAYER1
  6
CONTINUOUS
 62
     6
 10
372.089005
 20
220.063891
 11
381.589005
 21
220.063890
  0
LINE
  8
CSLAYER1
  6
CONTINUOUS
 62
     6
 10
410.089005
 20
230.363888
 11
410.089005
 21
243.763888
  0
LINE
  8
CSLAYER1
  6
CONTINUOUS
 62
     6
 10
382.089005
 20
244.563890
 11
409.289005
 21
244.563888
  0
LINE
  8
CSLAYER1
  6
CONTINUOUS
 62
     6
 10
382.089005
 20
229.563890
 11
409.289005
 21
229.563888
  0
LINE
  8
CSLAYER1
  6
CONTINUOUS
 62
     6
 10
382.089005
 20
220.563890
 11
382.089005
 21
252.833447
  0
LINE
  8
CSLAYER1
  6
CONTINUOUS
 62
     6
 10
387.589006
 20
239.563890
 11
410.089005
 21
239.563888
  0
ARC
  8
CSLAYER1
  6
CONTINUOUS
 62
     6
 10
387.589005
 20
237.063890
 40
2.500000
 50
89.999994
 51
269.999994
  0
LINE
  8
CSLAYER1
  6
CONTINUOUS
 62
     6
 10
387.589005
 20
234.563890
 11
410.089005
 21
234.563888
  0
ARC
  8
CSLAYER1
  6
CONTINUOUS
 62
     6
 10
381.589005
 20
220.563890
 40
0.500000
 50
269.999994
 51
360.000000
  0
LINE
  8
CSLAYER1
  6
CENTER
 62
     3
 10
291.844716
 20
255.833447
 11
392.589013
 21
255.833447
  0
LINE
  8
CSLAYER1
  6
CENTER
 62
     3
 10
291.844709
 20
182.294351
 11
392.589005
 21
182.294331
  0
ARC
  8
CSLAYER1
  6
CONTINUOUS
 62
     6
 10
375.202254
 20
177.964208
 40
2.886751
 50
-15.446648
 51
30.000000
  0
ARC
  8
CSLAYER1
  6
CONTINUOUS
 62
     6
 10
367.122127
 20
182.294335
 40
10.966878
 50
-15.261480
 51
15.261480
  0
ARC
  8
CSLAYER1
  6
CONTINUOUS
 62
     6
 10
375.202254
 20
186.624462
 40
2.886751
 50
-30.000000
 51
15.446648
  0
LINE
  8
CSLAYER1
  6
CONTINUOUS
 62
     6
 10
377.702254
 20
176.520832
 11
373.089005
 21
176.520832
  0
LINE
  8
CSLAYER1
  6
CONTINUOUS
 62
     6
 10
377.702254
 20
179.407584
 11
373.089005
 21
179.407584
  0
LINE
  8
CSLAYER1
  6
CONTINUOUS
 62
     6
 10
377.702254
 20
185.181086
 11
373.089005
 21
185.181086
  0
LINE
  8
CSLAYER1
  6
CONTINUOUS
 62
     6
 10
377.702254
 20
188.067838
 11
373.089005
 21
188.067838
  0
LINE
  8
CSLAYER1
  6
CONTINUOUS
 62
     6
 10
378.089005
 20
177.444335
 11
378.089005
 21
187.144335
  0
LINE
  8
CSLAYER1
  6
CONTINUOUS
 62
     6
 10
373.089005
 20
175.294335
 11
373.089005
 21
189.294335
  0
LINE
  8
CSLAYER1
  6
CONTINUOUS
 62
     6
 10
378.089005
 20
177.444335
 11
377.702254
 21
176.520832
  0
LINE
  8
CSLAYER1
  6
CONTINUOUS
 62
     6
 10
378.089005
 20
187.144335
 11
377.702254
 21
188.067838
  0
LINE
  8
CSLAYER1
  6
CONTINUOUS
 62
     6
 10
373.089005
 20
189.294335
 11
372.089005
 21
189.294335
  0
LINE
  8
CSLAYER1
  6
CONTINUOUS
 62
     6
 10
373.089005
 20
175.294335
 11
372.089005
 21
175.294335
  0
LINE
  8
CSLAYER1
  6
CONTINUOUS
 62
     6
 10
389.589005
 20
180.094332
 11
389.589005
 21
184.494332
  0
LINE
  8
CSLAYER1
  6
CONTINUOUS
 62
     6
 10
378.089005
 20
185.294334
 11
388.789005
 21
185.294332
  0
LINE
  8
CSLAYER1
  6
CONTINUOUS
 62
     6
 10
378.089004
 20
179.294334
 11
388.789005
 21
179.294332
  0
LINE
  8
CSLAYER1
  6
CONTINUOUS
 62
     3
 10
378.089004
 20
179.794334
 11
389.289005
 21
179.794332
  0
LINE
  8
CSLAYER1
  6
CONTINUOUS
 62
     3
 10
378.089005
 20
184.794334
 11
389.289005
 21
184.794332
  0
LINE
  8
CSLAYER1
  6
CONTINUOUS
 62
     6
 10
388.789005
 20
185.294332
 11
389.589005
 21
184.494332
  0
LINE
  8
CSLAYER1
  6
CONTINUOUS
 62
     6
 10
389.589005
 20
180.094332
 11
388.789005
 21
179.294332
  0
ARC
  8
CSLAYER1
  6
CONTINUOUS
 62
     6
 10
299.589014
 20
263.563898
 40
0.500000
 50
89.999994
 51
179.999989
  0
ARC
  8
CSLAYER1
  6
CONTINUOUS
 62
     6
 10
375.202262
 20
260.163574
 40
2.886751
 50
-30.000011
 51
15.446637
  0
ARC
  8
CSLAYER1
  6
CONTINUOUS
 62
     6
 10
367.122134
 20
255.833449
 40
10.966878
 50
-15.261492
 51
15.261469
  0
ARC
  8
CSLAYER1
  6
CONTINUOUS
 62
     6
 10
375.202260
 20
251.503320
 40
2.886751
 50
-15.446660
 51
29.999989
  0
LINE
  8
CSLAYER1
  6
CONTINUOUS
 62
     6
 10
377.702262
 20
261.606949
 11
373.089014
 21
261.606950
  0
LINE
  8
CSLAYER1
  6
CONTINUOUS
 62
     6
 10
377.702262
 20
258.720198
 11
373.089013
 21
258.720199
  0
LINE
  8
CSLAYER1
  6
CONTINUOUS
 62
     6
 10
377.702261
 20
252.946695
 11
373.089012
 21
252.946696
  0
LINE
  8
CSLAYER1
  6
CONTINUOUS
 62
     6
 10
377.702260
 20
250.059944
 11
373.089011
 21
250.059945
  0
LINE
  8
CSLAYER1
  6
CONTINUOUS
 62
     6
 10
378.089014
 20
260.683446
 11
378.089012
 21
250.983446
  0
LINE
  8
CSLAYER1
  6
CONTINUOUS
 62
     6
 10
378.089014
 20
260.683446
 11
377.702262
 21
261.606949
  0
LINE
  8
CSLAYER1
  6
CONTINUOUS
 62
     6
 10
378.089012
 20
250.983446
 11
377.702260
 21
250.059944
  0
LINE
  8
CSLAYER1
  6
CONTINUOUS
 62
     6
 10
389.589013
 20
258.033447
 11
389.589012
 21
253.633447
  0
LINE
  8
CSLAYER1
  6
CONTINUOUS
 62
     6
 10
378.089012
 20
252.833447
 11
388.789012
 21
252.833447
  0
LINE
  8
CSLAYER1
  6
CONTINUOUS
 62
     6
 10
378.089012
 20
258.833447
 11
388.789013
 21
258.833447
  0
LINE
  8
CSLAYER1
  6
CONTINUOUS
 62
     3
 10
378.089012
 20
258.333447
 11
389.289013
 21
258.333447
  0
LINE
  8
CSLAYER1
  6
CONTINUOUS
 62
     3
 10
378.089012
 20
253.333447
 11
389.289012
 21
253.333447
  0
LINE
  8
CSLAYER1
  6
CONTINUOUS
 62
     6
 10
388.789012
 20
252.833447
 11
389.589012
 21
253.633447
  0
LINE
  8
CSLAYER1
  6
CONTINUOUS
 62
     6
 10
389.589013
 20
258.033447
 11
388.789013
 21
258.833447
  0
LINE
  8
CSLAYER1
  6
CONTINUOUS
 62
     6
 10
409.289005
 20
244.563888
 11
410.089005
 21
243.763888
  0
LINE
  8
CSLAYER1
  6
CONTINUOUS
 62
     6
 10
409.289005
 20
229.563888
 11
410.089005
 21
230.363888
  0
ARC
  8
CSLAYER1
  6
CENTER
 62
     3
 10
489.049222
 20
219.063895
 40
36.000000
 50
258.854471
 51
281.145491
  0
CIRCLE
  8
CSLAYER1
  6
CONTINUOUS
 62
     6
 10
520.226125
 20
237.063874
 40
3.272727
  0
ARC
  8
CSLAYER1
  6
CONTINUOUS
 62
     6
 10
520.226144
 20
237.063869
 40
2.000000
 50
193.398434
 51
226.601595
  0
ARC
  8
CSLAYER1
  6
CONTINUOUS
 62
     6
 10
520.226144
 20
237.063869
 40
2.000000
 50
103.398424
 51
136.601586
  0
ARC
  8
CSLAYER1
  6
CONTINUOUS
 62
     6
 10
520.226144
 20
237.063869
 40
2.000000
 50
13.398442
 51
46.601576
  0
ARC
  8
CSLAYER1
  6
CONTINUOUS
 62
     6
 10
520.226144
 20
237.063869
 40
2.000000
 50
283.398416
 51
316.601604
  0
LINE
  8
CSLAYER1
  6
CONTINUOUS
 62
     6
 10
520.930170
 20
238.130165
 11
521.600282
 21
238.517054
  0
LINE
  8
CSLAYER1
  6
CONTINUOUS
 62
     6
 10
518.950691
 20
236.987312
 11
518.280579
 21
236.600423
  0
LINE
  8
CSLAYER1
  6
CONTINUOUS
 62
     6
 10
521.501597
 20
237.140425
 11
522.171708
 21
237.527314
  0
LINE
  8
CSLAYER1
  6
CONTINUOUS
 62
     6
 10
519.522117
 20
235.997572
 11
518.852006
 21
235.610683
  0
LINE
  8
CSLAYER1
  6
CONTINUOUS
 62
     6
 10
519.159847
 20
237.767895
 11
518.772965
 21
238.437996
  0
LINE
  8
CSLAYER1
  6
CONTINUOUS
 62
     6
 10
520.302701
 20
235.788416
 11
520.689583
 21
235.118315
  0
LINE
  8
CSLAYER1
  6
CONTINUOUS
 62
     6
 10
520.149587
 20
238.339322
 11
519.762705
 21
239.009422
  0
LINE
  8
CSLAYER1
  6
CONTINUOUS
 62
     6
 10
521.292440
 20
236.359842
 11
521.679323
 21
235.689742
  0
ARC
  8
CSLAYER1
  6
CONTINUOUS
 62
     6
 10
520.644457
 20
238.625035
 40
0.571429
 50
210.000001
 51
299.942691
  0
ARC
  8
CSLAYER1
  6
CONTINUOUS
 62
     6
 10
521.787310
 20
236.645555
 40
0.571429
 50
120.000005
 51
210.000001
  0
ARC
  8
CSLAYER1
  6
CONTINUOUS
 62
     6
 10
519.807831
 20
235.502702
 40
0.571429
 50
30.000009
 51
120.000005
  0
ARC
  8
CSLAYER1
  6
CONTINUOUS
 62
     6
 10
518.664978
 20
237.482182
 40
0.571429
 50
-60.000000
 51
30.000009
  0
CIRCLE
  8
CSLAYER1
  6
CONTINUOUS
 62
     6
 10
520.226125
 20
237.063874
 40
4.000000
  0
ARC
  8
CSLAYER1
  6
CENTER
 62
     3
 10
489.049222
 20
219.063895
 40
36.000000
 50
18.854471
 51
41.145491
  0
CIRCLE
  8
CSLAYER1
  6
CONTINUOUS
 62
     6
 10
457.872331
 20
237.063895
 40
3.272727
  0
ARC
  8
CSLAYER1
  6
CONTINUOUS
 62
     6
 10
457.872327
 20
237.063914
 40
2.000000
 50
313.398434
 51
346.601595
  0
ARC
  8
CSLAYER1
  6
CONTINUOUS
 62
     6
 10
457.872327
 20
237.063914
 40
2.000000
 50
223.398424
 51
256.601586
  0
ARC
  8
CSLAYER1
  6
CONTINUOUS
 62
     6
 10
457.872327
 20
237.063914
 40
2.000000
 50
133.398442
 51
166.601576
  0
ARC
  8
CSLAYER1
  6
CONTINUOUS
 62
     6
 10
457.872327
 20
237.063914
 40
2.000000
 50
43.398416
 51
76.601604
  0
LINE
  8
CSLAYER1
  6
CONTINUOUS
 62
     6
 10
456.596874
 20
237.140471
 11
455.926762
 21
237.527360
  0
LINE
  8
CSLAYER1
  6
CONTINUOUS
 62
     6
 10
458.576353
 20
235.997618
 11
459.246465
 21
235.610729
  0
LINE
  8
CSLAYER1
  6
CONTINUOUS
 62
     6
 10
457.168300
 20
238.130211
 11
456.498189
 21
238.517100
  0
LINE
  8
CSLAYER1
  6
CONTINUOUS
 62
     6
 10
459.147780
 20
236.987357
 11
459.817891
 21
236.600468
  0
LINE
  8
CSLAYER1
  6
CONTINUOUS
 62
     6
 10
457.795770
 20
235.788461
 11
457.408887
 21
235.118361
  0
LINE
  8
CSLAYER1
  6
CONTINUOUS
 62
     6
 10
458.938623
 20
237.767941
 11
459.325506
 21
238.438041
  0
LINE
  8
CSLAYER1
  6
CONTINUOUS
 62
     6
 10
456.806030
 20
236.359888
 11
456.419148
 21
235.689787
  0
LINE
  8
CSLAYER1
  6
CONTINUOUS
 62
     6
 10
457.948883
 20
238.339367
 11
458.335766
 21
239.009468
  0
ARC
  8
CSLAYER1
  6
CONTINUOUS
 62
     6
 10
456.311160
 20
236.645601
 40
0.571429
 50
-29.999999
 51
59.942691
  0
ARC
  8
CSLAYER1
  6
CONTINUOUS
 62
     6
 10
457.454013
 20
238.625080
 40
0.571429
 50
240.000005
 51
330.000001
  0
ARC
  8
CSLAYER1
  6
CONTINUOUS
 62
     6
 10
459.433493
 20
237.482227
 40
0.571429
 50
150.000009
 51
240.000005
  0
ARC
  8
CSLAYER1
  6
CONTINUOUS
 62
     6
 10
458.290640
 20
235.502748
 40
0.571429
 50
60.000000
 51
150.000009
  0
CIRCLE
  8
CSLAYER1
  6
CONTINUOUS
 62
     6
 10
457.872331
 20
237.063895
 40
4.000000
  0
ARC
  8
CSLAYER1
  6
CENTER
 62
     3
 10
489.049222
 20
219.063895
 40
36.000000
 50
138.854471
 51
161.145491
  0
LINE
  8
CSLAYER1
  6
CENTER
 62
     3
 10
526.288297
 20
240.563885
 11
514.163941
 21
233.563885
  0
LINE
  8
CSLAYER1
  6
CENTER
 62
     3
 10
451.810147
 20
240.563885
 11
463.934503
 21
233.563885
  0
LINE
  8
CSLAYER1
  6
CONTINUOUS
 62
     6
 10
373.089014
 20
262.833447
 11
373.089011
 21
248.833447
  0
LINE
  8
CSLAYER1
  6
CONTINUOUS
 62
     6
 10
373.089011
 20
248.833447
 11
372.089011
 21
248.833448
  0
LINE
  8
CSLAYER1
  6
CONTINUOUS
 62
     6
 10
373.089014
 20
262.833447
 11
372.089014
 21
262.833447
  0
CIRCLE
  8
CSLAYER1
  6
CONTINUOUS
 62
     6
 10
452.279670
 20
182.294342
 40
7.000000
  0
LINE
  8
CSLAYER1
  6
CONTINUOUS
 62
     6
 10
452.279670
 20
188.044342
 11
447.300023
 21
185.169342
  0
LINE
  8
CSLAYER1
  6
CONTINUOUS
 62
     6
 10
447.300023
 20
185.169342
 11
447.300023
 21
179.419342
  0
LINE
  8
CSLAYER1
  6
CONTINUOUS
 62
     6
 10
447.300023
 20
179.419342
 11
452.279670
 21
176.544342
  0
LINE
  8
CSLAYER1
  6
CONTINUOUS
 62
     6
 10
452.279670
 20
176.544342
 11
457.259316
 21
179.419342
  0
LINE
  8
CSLAYER1
  6
CONTINUOUS
 62
     6
 10
457.259316
 20
179.419342
 11
457.259316
 21
185.169342
  0
LINE
  8
CSLAYER1
  6
CONTINUOUS
 62
     6
 10
457.259316
 20
185.169342
 11
452.279670
 21
188.044342
  0
CIRCLE
  8
CSLAYER1
  6
CONTINUOUS
 62
     6
 10
452.279670
 20
182.294342
 40
4.979646
  0
CIRCLE
  8
CSLAYER1
  6
CONTINUOUS
 62
     6
 10
452.279670
 20
182.294342
 40
3.000000
  0
CIRCLE
  8
CSLAYER1
  6
CONTINUOUS
 62
     3
 10
452.279670
 20
182.294342
 40
2.500000
  0
CIRCLE
  8
CSLAYER1
  6
CONTINUOUS
 62
     6
 10
525.818775
 20
182.294342
 40
7.000000
  0
LINE
  8
CSLAYER1
  6
CONTINUOUS
 62
     6
 10
520.839129
 20
179.419342
 11
525.818775
 21
176.544342
  0
LINE
  8
CSLAYER1
  6
CONTINUOUS
 62
     6
 10
525.818775
 20
176.544342
 11
530.798421
 21
179.419342
  0
LINE
  8
CSLAYER1
  6
CONTINUOUS
 62
     6
 10
530.798421
 20
179.419342
 11
530.798421
 21
185.169342
  0
LINE
  8
CSLAYER1
  6
CONTINUOUS
 62
     6
 10
530.798421
 20
185.169342
 11
525.818775
 21
188.044342
  0
LINE
  8
CSLAYER1
  6
CONTINUOUS
 62
     6
 10
525.818775
 20
188.044342
 11
520.839129
 21
185.169342
  0
LINE
  8
CSLAYER1
  6
CONTINUOUS
 62
     6
 10
520.839129
 20
185.169342
 11
520.839129
 21
179.419342
  0
CIRCLE
  8
CSLAYER1
  6
CONTINUOUS
 62
     6
 10
525.818775
 20
182.294342
 40
4.979646
  0
CIRCLE
  8
CSLAYER1
  6
CONTINUOUS
 62
     6
 10
525.818775
 20
182.294342
 40
3.000000
  0
CIRCLE
  8
CSLAYER1
  6
CONTINUOUS
 62
     3
 10
525.818775
 20
182.294342
 40
2.500000
  0
ARC
  8
CSLAYER1
  6
CENTER
 62
     3
 10
489.049222
 20
219.063895
 40
52.000000
 50
303.975287
 51
326.024713
  0
CIRCLE
  8
CSLAYER1
  6
CONTINUOUS
 62
     6
 10
525.818775
 20
255.833447
 40
7.000000
  0
LINE
  8
CSLAYER1
  6
CONTINUOUS
 62
     6
 10
525.818775
 20
250.083447
 11
530.798421
 21
252.958447
  0
LINE
  8
CSLAYER1
  6
CONTINUOUS
 62
     6
 10
530.798421
 20
252.958447
 11
530.798421
 21
258.708447
  0
LINE
  8
CSLAYER1
  6
CONTINUOUS
 62
     6
 10
530.798421
 20
258.708447
 11
525.818775
 21
261.583447
  0
LINE
  8
CSLAYER1
  6
CONTINUOUS
 62
     6
 10
525.818775
 20
261.583447
 11
520.839129
 21
258.708447
  0
LINE
  8
CSLAYER1
  6
CONTINUOUS
 62
     6
 10
520.839129
 20
258.708447
 11
520.839129
 21
252.958447
  0
LINE
  8
CSLAYER1
  6
CONTINUOUS
 62
     6
 10
520.839129
 20
252.958447
 11
525.818775
 21
250.083447
  0
CIRCLE
  8
CSLAYER1
  6
CONTINUOUS
 62
     6
 10
525.818775
 20
255.833447
 40
4.979646
  0
CIRCLE
  8
CSLAYER1
  6
CONTINUOUS
 62
     6
 10
525.818775
 20
255.833447
 40
3.000000
  0
CIRCLE
  8
CSLAYER1
  6
CONTINUOUS
 62
     3
 10
525.818775
 20
255.833447
 40
2.500000
  0
CIRCLE
  8
CSLAYER1
  6
CONTINUOUS
 62
     6
 10
452.279670
 20
255.833447
 40
7.000000
  0
LINE
  8
CSLAYER1
  6
CONTINUOUS
 62
     6
 10
457.259316
 20
258.708447
 11
452.279670
 21
261.583447
  0
LINE
  8
CSLAYER1
  6
CONTINUOUS
 62
     6
 10
452.279670
 20
261.583447
 11
447.300023
 21
258.708447
  0
LINE
  8
CSLAYER1
  6
CONTINUOUS
 62
     6
 10
447.300023
 20
258.708447
 11
447.300023
 21
252.958447
  0
LINE
  8
CSLAYER1
  6
CONTINUOUS
 62
     6
 10
447.300023
 20
252.958447
 11
452.279670
 21
250.083447
  0
LINE
  8
CSLAYER1
  6
CONTINUOUS
 62
     6
 10
452.279670
 20
250.083447
 11
457.259316
 21
252.958447
  0
LINE
  8
CSLAYER1
  6
CONTINUOUS
 62
     6
 10
457.259316
 20
252.958447
 11
457.259316
 21
258.708447
  0
CIRCLE
  8
CSLAYER1
  6
CONTINUOUS
 62
     6
 10
452.279670
 20
255.833447
 40
4.979646
  0
CIRCLE
  8
CSLAYER1
  6
CONTINUOUS
 62
     6
 10
452.279670
 20
255.833447
 40
3.000000
  0
CIRCLE
  8
CSLAYER1
  6
CONTINUOUS
 62
     3
 10
452.279670
 20
255.833447
 40
2.500000
  0
LINE
  8
CSLAYER1
  6
CENTER
 62
     3
 10
462.002388
 20
192.017060
 11
443.685261
 21
173.699934
  0
LINE
  8
CSLAYER1
  6
CENTER
 62
     3
 10
516.096057
 20
192.017060
 11
534.413183
 21
173.699934
  0
LINE
  8
CSLAYER1
  6
CENTER
 62
     3
 10
516.096057
 20
246.110729
 11
534.413183
 21
264.427856
  0
ARC
  8
CSLAYER1
  6
CENTER
 62
     3
 10
489.049222
 20
219.063895
 40
52.000000
 50
123.975287
 51
146.024713
  0
ARC
  8
CSLAYER1
  6
CENTER
 62
     3
 10
489.049222
 20
219.063895
 40
52.000000
 50
33.975287
 51
56.024713
  0
ARC
  8
CSLAYER1
  6
CENTER
 62
     3
 10
489.049222
 20
219.063895
 40
52.000000
 50
213.975287
 51
236.024713
  0
LINE
  8
CSLAYER1
  6
CENTER
 62
     3
 10
100.889510
 20
267.063810
 11
100.889531
 21
166.023450
  0
CIRCLE
  8
CSLAYER1
  6
CONTINUOUS
 62
     6
 10
100.889512
 20
219.063900
 40
30.000000
  0
ARC
  8
CSLAYER1
  6
CONTINUOUS
 62
     6
 10
100.889512
 20
219.063900
 40
31.000000
 50
-85.930420
 51
265.930438
  0
LINE
  8
CSLAYER1
  6
CONTINUOUS
 62
     6
 10
103.089509
 20
178.504034
 11
103.089516
 21
189.144680
  0
LINE
  8
CSLAYER1
  6
CONTINUOUS
 62
     6
 10
98.689511
 20
178.504034
 11
98.689519
 21
189.144680
  0
LINE
  8
CSLAYER1
  6
CONTINUOUS
 62
     6
 10
100.889504
 20
178.504034
 11
100.889520
 21
189.144680
  0
ARC
  8
CSLAYER1
  6
CONTINUOUS
 62
     6
 10
116.648533
 20
175.591887
 40
15.759004
 50
180.000235
 51
207.463987
  0
ARC
  8
CSLAYER1
  6
CONTINUOUS
 62
     6
 10
116.648533
 20
175.591887
 40
13.559023
 50
180.000308
 51
207.464006
  0
ARC
  8
CSLAYER1
  6
CONTINUOUS
 62
     6
 10
101.439530
 20
179.456656
 40
1.099999
 50
239.999870
 51
299.999858
  0
ARC
  8
CSLAYER1
  6
CONTINUOUS
 62
     6
 10
102.539529
 20
179.456656
 40
1.099999
 50
239.999870
 51
299.999858
  0
ARC
  8
CSLAYER1
  6
CONTINUOUS
 62
     6
 10
102.539521
 20
177.551413
 40
1.099999
 50
59.999858
 51
119.999853
  0
ARC
  8
CSLAYER1
  6
CONTINUOUS
 62
     6
 10
102.539511
 20
174.639172
 40
1.099999
 50
59.999715
 51
119.999716
  0
ARC
  8
CSLAYER1
  6
CONTINUOUS
 62
     6
 10
101.439513
 20
174.639187
 40
1.099999
 50
59.999715
 51
119.999716
  0
ARC
  8
CSLAYER1
  6
CONTINUOUS
 62
     6
 10
101.439521
 20
176.544446
 40
1.099999
 50
239.999733
 51
299.999721
  0
LINE
  8
CSLAYER1
  6
CONTINUOUS
 62
     6
 10
104.129592
 20
169.084943
 11
105.906436
 21
166.063944
  0
LINE
  8
CSLAYER1
  6
CONTINUOUS
 62
     6
 10
103.641576
 20
168.831295
 11
105.255753
 21
165.725738
  0
LINE
  8
CSLAYER1
  6
CONTINUOUS
 62
     6
 10
103.153563
 20
168.577642
 11
104.605070
 21
165.387532
  0
LINE
  8
CSLAYER1
  6
CONTINUOUS
 62
     6
 10
104.617604
 20
169.338597
 11
102.665555
 21
168.323979
  0
ARC
  8
CSLAYER1
  6
CONTINUOUS
 62
     6
 10
85.130550
 20
175.591714
 40
15.758933
 50
-27.463461
 51
0.000397
  0
ARC
  8
CSLAYER1
  6
CONTINUOUS
 62
     6
 10
85.130550
 20
175.591714
 40
13.558951
 50
-27.463363
 51
0.000417
  0
ARC
  8
CSLAYER1
  6
CONTINUOUS
 62
     6
 10
99.239487
 20
179.456656
 40
1.099999
 50
240.000198
 51
300.000186
  0
ARC
  8
CSLAYER1
  6
CONTINUOUS
 62
     6
 10
100.339486
 20
179.456656
 40
1.099999
 50
240.000198
 51
300.000186
  0
ARC
  8
CSLAYER1
  6
CONTINUOUS
 62
     6
 10
100.339493
 20
177.551413
 40
1.099999
 50
60.000186
 51
120.000181
  0
ARC
  8
CSLAYER1
  6
CONTINUOUS
 62
     6
 10
100.339507
 20
174.639203
 40
1.099999
 50
60.000350
 51
120.000345
  0
ARC
  8
CSLAYER1
  6
CONTINUOUS
 62
     6
 10
99.239508
 20
174.639187
 40
1.099999
 50
60.000350
 51
120.000345
  0
ARC
  8
CSLAYER1
  6
CONTINUOUS
 62
     6
 10
99.239497
 20
176.544446
 40
1.099999
 50
240.000362
 51
300.000350
  0
LINE
  8
CSLAYER1
  6
CENTER
 62
     3
 10
148.889415
 20
219.063915
 11
52.889624
 21
219.063915
  0
CIRCLE
  8
CSLAYER1
  6
CONTINUOUS
 62
     6
 10
100.889504
 20
219.063900
 40
6.818180
  0
CIRCLE
  8
CSLAYER1
  6
CONTINUOUS
 62
     6
 10
100.889504
 20
219.063900
 40
7.909089
  0
LINE
  8
CSLAYER1
  6
CONTINUOUS
 62
     6
 10
94.071324
 20
219.063900
 11
104.298592
 21
215.654812
  0
LINE
  8
CSLAYER1
  6
CONTINUOUS
 62
     6
 10
104.298592
 20
215.654812
 11
104.340287
 21
219.063900
  0
LINE
  8
CSLAYER1
  6
CONTINUOUS
 62
     6
 10
104.340287
 20
219.063900
 11
107.707688
 21
219.063900
  0
LINE
  8
CSLAYER1
  6
CONTINUOUS
 62
     6
 10
97.480416
 20
222.472988
 11
97.503552
 21
219.063900
  0
LINE
  8
CSLAYER1
  6
CONTINUOUS
 62
     6
 10
97.503552
 20
219.063900
 11
94.071324
 21
219.063900
  0
TEXT
  8
CSLAYER1
 62
     6
 10
86.056686
 20
217.095810
 40
3.409090
 41
1.200000
  1
S
 50
282.000000
 51
3.000000
  7
JX_FONT
 72
     5
 11
86.623718
 21
214.428135
  0
TEXT
  8
CSLAYER1
 62
     6
 10
86.790009
 20
214.054916
 40
3.409090
 41
1.200000
  1
A
 50
294.000031
 51
3.000000
  7
JX_FONT
 72
     5
 11
87.899291
 21
211.563430
  0
TEXT
  8
CSLAYER1
 62
     6
 10
88.139549
 20
211.232925
 40
3.409090
 41
1.596000
  1
W
 50
306.000031
 51
3.000000
  7
JX_FONT
 72
     5
 11
90.271608
 21
208.298402
  0
TEXT
  8
CSLAYER1
 62
     6
 10
90.046310
 20
208.753189
 40
3.409090
 41
1.200000
  1
A
 50
318.000000
 51
3.000000
  7
JX_FONT
 72
     5
 11
92.073069
 21
206.928288
  0
TEXT
  8
CSLAYER1
 62
     6
 10
92.426971
 20
206.724091
 40
3.409090
 41
1.200000
  1
M
 50
330.000000
 51
3.000000
  7
JX_FONT
 72
     5
 11
94.788858
 21
205.360455
  0
TEXT
  8
CSLAYER1
 62
     6
 10
95.177475
 20
205.234299
 40
3.409090
 41
1.200000
  1
U
 50
342.000000
 51
3.000000
  7
JX_FONT
 72
     5
 11
97.771265
 21
204.391525
  0
TEXT
  8
CSLAYER1
 62
     6
 10
98.177628
 20
204.348923
 40
3.409090
 41
1.200000
  1
R
 50
353.999969
 51
3.000000
  7
JX_FONT
 72
     5
 11
100.889959
 21
204.063844
  0
TEXT
  8
CSLAYER1
 62
     6
 10
101.296326
 20
204.106644
 40
3.409090
 41
1.200000
  1
A
 50
6.000000
 51
3.000000
  7
JX_FONT
 72
     5
 11
104.008657
 21
204.391721
  0
TEXT
  8
CSLAYER1
 62
     6
 10
114.046234
 20
211.937622
 40
3.409090
 41
1.200000
  1
K
 50
66.000046
 51
3.000000
  7
JX_FONT
 72
     5
 11
115.155514
 21
214.429110
  0
TEXT
  8
CSLAYER1
 62
     6
 10
115.240356
 20
214.828766
 40
3.409090
 41
0.792000
  1
I
 50
78.000000
 51
3.000000
  7
JX_FONT
 72
     5
 11
115.614597
 21
216.589431
  0
TEXT
  8
CSLAYER1
 62
     6
 10
107.344818
 20
205.565247
 40
3.409090
 41
1.200000
  1
D
 50
30.000032
 51
3.000000
  7
JX_FONT
 72
     5
 11
109.706704
 21
206.928884
  0
TEXT
  8
CSLAYER1
 62
     6
 10
110.010269
 20
207.202362
 40
3.409090
 41
1.200000
  1
E
 50
41.999962
 51
3.000000
  7
JX_FONT
 72
     5
 11
112.037028
 21
209.027262
  0
TEXT
  8
CSLAYER1
 62
     6
 10
112.277100
 20
209.357910
 40
3.409090
 41
1.200000
  1
N
 50
54.000061
 51
3.000000
  7
JX_FONT
 72
     5
 11
113.880148
 21
211.564321
  0
TEXT
  8
CSLAYER1
 62
     6
 10
85.971634
 20
220.222626
 40
3.410000
 41
1.200000
  1
*
 50
-90.000000
 51
3.000000
  7
JX_FONT
 72
     5
 11
85.971634
 21
217.494626
  0
TEXT
  8
CSLAYER1
 62
     6
 10
106.601532
 20
232.893478
 40
3.409090
 41
1.200000
  1
U
 50
162.000000
 51
3.000000
  7
JX_FONT
 72
     5
 11
104.007742
 21
233.736252
  0
TEXT
  8
CSLAYER1
 62
     6
 10
103.601379
 20
233.778854
 40
3.409090
 41
1.200000
  1
R
 50
173.999985
 51
3.000000
  7
JX_FONT
 72
     5
 11
100.889048
 21
234.063933
  0
TEXT
  8
CSLAYER1
 62
     6
 10
100.482689
 20
234.021133
 40
3.409090
 41
1.200000
  1
A
 50
186.000015
 51
3.000000
  7
JX_FONT
 72
     5
 11
97.770357
 21
233.736055
  0
TEXT
  8
CSLAYER1
 62
     6
 10
87.732773
 20
226.190155
 40
3.409090
 41
1.200000
  1
K
 50
246.000061
 51
3.000000
  7
JX_FONT
 72
     5
 11
86.623494
 21
223.698667
  0
TEXT
  8
CSLAYER1
 62
     6
 10
86.538651
 20
223.299011
 40
3.409090
 41
0.792000
  1
I
 50
258.000000
 51
3.000000
  7
JX_FONT
 72
     5
 11
86.164410
 21
221.538346
  0
TEXT
  8
CSLAYER1
 62
     6
 10
94.434189
 20
232.562531
 40
3.409090
 41
1.200000
  1
D
 50
210.000046
 51
3.000000
  7
JX_FONT
 72
     5
 11
92.072303
 21
231.198893
  0
TEXT
  8
CSLAYER1
 62
     6
 10
91.768745
 20
230.925415
 40
3.409090
 41
1.200000
  1
E
 50
221.999969
 51
3.000000
  7
JX_FONT
 72
     5
 11
89.741986
 21
229.100515
  0
TEXT
  8
CSLAYER1
 62
     6
 10
89.501923
 20
228.769867
 40
3.409090
 41
1.200000
  1
N
 50
234.000061
 51
3.000000
  7
JX_FONT
 72
     5
 11
87.898875
 21
226.563456
  0
TEXT
  8
CSLAYER1
 62
     6
 10
115.722321
 20
221.031967
 40
3.409090
 41
1.200000
  1
S
 50
102.000000
 51
3.000000
  7
JX_FONT
 72
     5
 11
115.155289
 21
223.699642
  0
TEXT
  8
CSLAYER1
 62
     6
 10
114.989014
 20
224.072861
 40
3.409090
 41
1.200000
  1
A
 50
114.000046
 51
3.000000
  7
JX_FONT
 72
     5
 11
113.879730
 21
226.564347
  0
TEXT
  8
CSLAYER1
 62
     6
 10
113.639465
 20
226.894852
 40
3.409090
 41
1.596000
  1
W
 50
126.000038
 51
3.000000
  7
JX_FONT
 72
     5
 11
111.507406
 21
229.829375
  0
TEXT
  8
CSLAYER1
 62
     6
 10
111.732697
 20
229.374588
 40
3.409090
 41
1.200000
  1
A
 50
138.000031
 51
3.000000
  7
JX_FONT
 72
     5
 11
109.705937
 21
231.199488
  0
TEXT
  8
CSLAYER1
 62
     6
 10
109.352036
 20
231.403687
 40
3.409090
 41
1.200000
  1
M
 50
150.000015
 51
3.000000
  7
JX_FONT
 72
     5
 11
106.990148
 21
232.767322
  0
TEXT
  8
CSLAYER1
 62
     6
 10
115.807373
 20
217.905151
 40
3.410000
 41
1.200000
  1
*
 50
90.000000
 51
3.000000
  7
JX_FONT
 72
     5
 11
115.807373
 21
220.633152
  0
CIRCLE
  8
CSLAYER1
  6
CONTINUOUS
 62
     6
 10
100.889504
 20
219.063900
 40
16.000000
  0
CIRCLE
  8
CSLAYER1
  6
CONTINUOUS
 62
     6
 10
100.889504
 20
219.063900
 40
17.000000
  0
LINE
  8
CSLAYER1
  6
CONTINUOUS
 62
     6
 10
107.707680
 20
219.063903
 11
97.480416
 21
222.472988
  0
LINE
  8
CSLAYER1
  6
CONTINUOUS
 62
     6
 10
97.503552
 20
219.063915
 11
97.503552
 21
219.063900
  0
LINE
  8
CSLAYER1
  6
CONTINUOUS
 62
     6
 10
97.649469
 20
169.084941
 11
95.872625
 21
166.063942
  0
LINE
  8
CSLAYER1
  6
CONTINUOUS
 62
     6
 10
98.137485
 20
168.831294
 11
96.523309
 21
165.725736
  0
LINE
  8
CSLAYER1
  6
CONTINUOUS
 62
     6
 10
98.625498
 20
168.577641
 11
97.173992
 21
165.387530
  0
LINE
  8
CSLAYER1
  6
CONTINUOUS
 62
     6
 10
97.161488
 20
169.338579
 11
99.113532
 21
168.323965
  0
LINE
  8
CSLAYER1
  6
CONTINUOUS
 62
     6
 10
139.889520
 20
264.063915
 11
61.889520
 21
264.063915
  0
LINE
  8
CSLAYER1
  6
CONTINUOUS
 62
     6
 10
55.889520
 20
180.063915
 11
55.889520
 21
258.063915
  0
LINE
  8
CSLAYER1
  6
CONTINUOUS
 62
     6
 10
139.889520
 20
174.063915
 11
103.175880
 21
174.063915
  0
LINE
  8
CSLAYER1
  6
CONTINUOUS
 62
     6
 10
145.889520
 20
180.063915
 11
145.889520
 21
258.063915
  0
ARC
  8
CSLAYER1
  6
CONTINUOUS
 62
     6
 10
61.889520
 20
258.063915
 40
6.000000
 50
90.000000
 51
180.000000
  0
ARC
  8
CSLAYER1
  6
CONTINUOUS
 62
     6
 10
61.889520
 20
180.063915
 40
6.000000
 50
180.000000
 51
270.000000
  0
ARC
  8
CSLAYER1
  6
CONTINUOUS
 62
     6
 10
139.889520
 20
180.063915
 40
6.000000
 50
270.000000
 51
360.000000
  0
ARC
  8
CSLAYER1
  6
CONTINUOUS
 62
     6
 10
139.889520
 20
258.063915
 40
6.000000
 50
0.000000
 51
90.000000
  0
LINE
  8
CSLAYER1
  6
CONTINUOUS
 62
     6
 10
100.963779
 20
174.063915
 11
100.815250
 21
174.063915
  0
LINE
  8
CSLAYER1
  6
CONTINUOUS
 62
     6
 10
98.603152
 20
174.063915
 11
61.889520
 21
174.063915
  0
ARC
  8
CSLAYER1
  6
CENTER
 62
     3
 10
100.889520
 20
219.063915
 40
52.000000
 50
35.900230
 51
54.099770
  0
ARC
  8
CSLAYER1
  6
CONTINUOUS
 62
     6
 10
308.140749
 20
255.833475
 40
12.672440
 50
163.742994
 51
196.257016
  0
LINE
  8
CSLAYER1
  6
CONTINUOUS
 62
     6
 10
298.695312
 20
260.777487
 11
297.555115
 21
260.677738
  0
ARC
  8
CSLAYER1
  6
CONTINUOUS
 62
     6
 10
297.712902
 20
258.874267
 40
1.810349
 50
95.000111
 51
163.742611
  0
ARC
  8
CSLAYER1
  6
CONTINUOUS
 62
     6
 10
298.726914
 20
260.416804
 40
0.362070
 50
0.000000
 51
95.000152
  0
LINE
  8
CSLAYER1
  6
CONTINUOUS
 62
     6
 10
298.695312
 20
250.889463
 11
297.555115
 21
250.989212
  0
ARC
  8
CSLAYER1
  6
CONTINUOUS
 62
     6
 10
297.712902
 20
252.792682
 40
1.810349
 50
196.257399
 51
264.999892
  0
ARC
  8
CSLAYER1
  6
CONTINUOUS
 62
     6
 10
298.726914
 20
251.250146
 40
0.362070
 50
264.999865
 51
359.942691
  0
ARC
  8
CSLAYER1
  6
CONTINUOUS
 62
     6
 10
308.140749
 20
182.294377
 40
12.672440
 50
163.742994
 51
196.257016
  0
LINE
  8
CSLAYER1
  6
CONTINUOUS
 62
     6
 10
298.695312
 20
187.238389
 11
297.555115
 21
187.138640
  0
ARC
  8
CSLAYER1
  6
CONTINUOUS
 62
     6
 10
297.712902
 20
185.335169
 40
1.810349
 50
95.000111
 51
163.742611
  0
ARC
  8
CSLAYER1
  6
CONTINUOUS
 62
     6
 10
298.726914
 20
186.877706
 40
0.362070
 50
0.000000
 51
95.000152
  0
LINE
  8
CSLAYER1
  6
CONTINUOUS
 62
     6
 10
298.695312
 20
177.350365
 11
297.555115
 21
177.450114
  0
ARC
  8
CSLAYER1
  6
CONTINUOUS
 62
     6
 10
297.712902
 20
179.253585
 40
1.810349
 50
196.257399
 51
264.999892
  0
ARC
  8
CSLAYER1
  6
CONTINUOUS
 62
     6
 10
298.726914
 20
177.711048
 40
0.362070
 50
264.999865
 51
359.942691
  0
LINE
  8
CSLAYER1
  6
CENTER
 62
     3
 10
131.825433
 20
249.999828
 11
143.492712
 21
261.667108
  0
ARC
  8
CSLAYER1
  6
CENTER
 62
     3
 10
100.889520
 20
219.063915
 40
52.000000
 50
125.900254
 51
144.099795
  0
LINE
  8
CSLAYER1
  6
CENTER
 62
     3
 10
69.953594
 20
249.999815
 11
58.286309
 21
261.667089
  0
ARC
  8
CSLAYER1
  6
CENTER
 62
     3
 10
100.889520
 20
219.063915
 40
52.000000
 50
305.900230
 51
324.099770
  0
LINE
  8
CSLAYER1
  6
CENTER
 62
     3
 10
131.825433
 20
188.128002
 11
143.492712
 21
176.460723
  0
ARC
  8
CSLAYER1
  6
CENTER
 62
     3
 10
100.889520
 20
219.063915
 40
52.000000
 50
215.900205
 51
234.099746
  0
LINE
  8
CSLAYER1
  6
CENTER
 62
     3
 10
69.953594
 20
188.128015
 11
58.286309
 21
176.460741
  0
CIRCLE
  8
CSLAYER1
  6
CONTINUOUS
 62
     6
 10
137.659060
 20
255.833445
 40
5.250000
  0
ARC
  8
CSLAYER1
  6
CONTINUOUS
 62
     6
 10
137.659079
 20
255.833444
 40
2.916667
 50
-16.601584
 51
16.601577
  0
ARC
  8
CSLAYER1
  6
CONTINUOUS
 62
     6
 10
137.659079
 20
255.833444
 40
2.916667
 50
73.398422
 51
106.601583
  0
ARC
  8
CSLAYER1
  6
CONTINUOUS
 62
     6
 10
137.659079
 20
255.833444
 40
2.916667
 50
163.398438
 51
196.601572
  0
ARC
  8
CSLAYER1
  6
CONTINUOUS
 62
     6
 10
137.659079
 20
255.833444
 40
2.916667
 50
253.398406
 51
286.601595
  0
LINE
  8
CSLAYER1
  6
CONTINUOUS
 62
     6
 10
135.992392
 20
256.666788
 11
134.864007
 21
256.666788
  0
LINE
  8
CSLAYER1
  6
CONTINUOUS
 62
     6
 10
139.325766
 20
256.666788
 11
140.454151
 21
256.666788
  0
LINE
  8
CSLAYER1
  6
CONTINUOUS
 62
     6
 10
135.992392
 20
255.000101
 11
134.864007
 21
255.000101
  0
LINE
  8
CSLAYER1
  6
CONTINUOUS
 62
     6
 10
139.325766
 20
255.000101
 11
140.454151
 21
255.000101
  0
LINE
  8
CSLAYER1
  6
CONTINUOUS
 62
     6
 10
138.492423
 20
257.500088
 11
138.492423
 21
258.628560
  0
LINE
  8
CSLAYER1
  6
CONTINUOUS
 62
     6
 10
138.492423
 20
254.166800
 11
138.492423
 21
253.038329
  0
LINE
  8
CSLAYER1
  6
CONTINUOUS
 62
     6
 10
136.825735
 20
257.500088
 11
136.825735
 21
258.628560
  0
LINE
  8
CSLAYER1
  6
CONTINUOUS
 62
     6
 10
136.825735
 20
254.166800
 11
136.825735
 21
253.038329
  0
ARC
  8
CSLAYER1
  6
CONTINUOUS
 62
     6
 10
135.992392
 20
257.500088
 40
0.833333
 50
270.000001
 51
359.942691
  0
ARC
  8
CSLAYER1
  6
CONTINUOUS
 62
     6
 10
135.992392
 20
254.166800
 40
0.833333
 50
0.000010
 51
90.000016
  0
ARC
  8
CSLAYER1
  6
CONTINUOUS
 62
     6
 10
139.325766
 20
254.166800
 40
0.833333
 50
90.000016
 51
180.000005
  0
ARC
  8
CSLAYER1
  6
CONTINUOUS
 62
     6
 10
139.325766
 20
257.500088
 40
0.833333
 50
180.000005
 51
269.942654
  0
CIRCLE
  8
CSLAYER1
  6
CONTINUOUS
 62
     6
 10
64.119964
 20
255.833430
 40
5.250000
  0
ARC
  8
CSLAYER1
  6
CONTINUOUS
 62
     6
 10
64.119945
 20
255.833429
 40
2.916667
 50
163.398447
 51
196.601609
  0
ARC
  8
CSLAYER1
  6
CONTINUOUS
 62
     6
 10
64.119945
 20
255.833429
 40
2.916667
 50
73.398441
 51
106.601603
  0
ARC
  8
CSLAYER1
  6
CONTINUOUS
 62
     6
 10
64.119945
 20
255.833429
 40
2.916667
 50
-16.601548
 51
16.601586
  0
ARC
  8
CSLAYER1
  6
CONTINUOUS
 62
     6
 10
64.119945
 20
255.833429
 40
2.916667
 50
253.398429
 51
286.601618
  0
LINE
  8
CSLAYER1
  6
CONTINUOUS
 62
     6
 10
65.786632
 20
256.666773
 11
66.915017
 21
256.666773
  0
LINE
  8
CSLAYER1
  6
CONTINUOUS
 62
     6
 10
62.453257
 20
256.666772
 11
61.324873
 21
256.666771
  0
LINE
  8
CSLAYER1
  6
CONTINUOUS
 62
     6
 10
65.786632
 20
255.000086
 11
66.915017
 21
255.000086
  0
LINE
  8
CSLAYER1
  6
CONTINUOUS
 62
     6
 10
62.453258
 20
255.000084
 11
61.324873
 21
255.000084
  0
LINE
  8
CSLAYER1
  6
CONTINUOUS
 62
     6
 10
63.286601
 20
257.500072
 11
63.286600
 21
258.628544
  0
LINE
  8
CSLAYER1
  6
CONTINUOUS
 62
     6
 10
63.286602
 20
254.166784
 11
63.286602
 21
253.038313
  0
LINE
  8
CSLAYER1
  6
CONTINUOUS
 62
     6
 10
64.953288
 20
257.500073
 11
64.953287
 21
258.628544
  0
LINE
  8
CSLAYER1
  6
CONTINUOUS
 62
     6
 10
64.953289
 20
254.166785
 11
64.953290
 21
253.038314
  0
ARC
  8
CSLAYER1
  6
CONTINUOUS
 62
     6
 10
65.786631
 20
257.500073
 40
0.833333
 50
180.057333
 51
270.000024
  0
ARC
  8
CSLAYER1
  6
CONTINUOUS
 62
     6
 10
65.786633
 20
254.166786
 40
0.833333
 50
90.000008
 51
180.000014
  0
ARC
  8
CSLAYER1
  6
CONTINUOUS
 62
     6
 10
62.453258
 20
254.166784
 40
0.833333
 50
0.000019
 51
90.000008
  0
ARC
  8
CSLAYER1
  6
CONTINUOUS
 62
     6
 10
62.453257
 20
257.500072
 40
0.833333
 50
-89.942630
 51
0.000019
  0
CIRCLE
  8
CSLAYER1
  6
CONTINUOUS
 62
     6
 10
137.659060
 20
182.294385
 40
5.250000
  0
ARC
  8
CSLAYER1
  6
CONTINUOUS
 62
     6
 10
137.659079
 20
182.294386
 40
2.916667
 50
-16.601577
 51
16.601584
  0
ARC
  8
CSLAYER1
  6
CONTINUOUS
 62
     6
 10
137.659079
 20
182.294386
 40
2.916667
 50
253.398417
 51
286.601578
  0
ARC
  8
CSLAYER1
  6
CONTINUOUS
 62
     6
 10
137.659079
 20
182.294386
 40
2.916667
 50
163.398428
 51
196.601562
  0
ARC
  8
CSLAYER1
  6
CONTINUOUS
 62
     6
 10
137.659079
 20
182.294386
 40
2.916667
 50
73.398405
 51
106.601594
  0
LINE
  8
CSLAYER1
  6
CONTINUOUS
 62
     6
 10
135.992392
 20
181.461042
 11
134.864007
 21
181.461042
  0
LINE
  8
CSLAYER1
  6
CONTINUOUS
 62
     6
 10
139.325766
 20
181.461042
 11
140.454151
 21
181.461042
  0
LINE
  8
CSLAYER1
  6
CONTINUOUS
 62
     6
 10
135.992392
 20
183.127730
 11
134.864007
 21
183.127730
  0
LINE
  8
CSLAYER1
  6
CONTINUOUS
 62
     6
 10
139.325766
 20
183.127730
 11
140.454151
 21
183.127730
  0
LINE
  8
CSLAYER1
  6
CONTINUOUS
 62
     6
 10
138.492423
 20
180.627742
 11
138.492423
 21
179.499271
  0
LINE
  8
CSLAYER1
  6
CONTINUOUS
 62
     6
 10
138.492423
 20
183.961030
 11
138.492423
 21
185.089501
  0
LINE
  8
CSLAYER1
  6
CONTINUOUS
 62
     6
 10
136.825735
 20
180.627742
 11
136.825735
 21
179.499271
  0
LINE
  8
CSLAYER1
  6
CONTINUOUS
 62
     6
 10
136.825735
 20
183.961030
 11
136.825735
 21
185.089501
  0
ARC
  8
CSLAYER1
  6
CONTINUOUS
 62
     6
 10
135.992392
 20
180.627742
 40
0.833333
 50
0.057309
 51
89.999999
  0
ARC
  8
CSLAYER1
  6
CONTINUOUS
 62
     6
 10
135.992392
 20
183.961030
 40
0.833333
 50
269.999984
 51
359.999990
  0
ARC
  8
CSLAYER1
  6
CONTINUOUS
 62
     6
 10
139.325766
 20
183.961030
 40
0.833333
 50
179.999995
 51
269.999984
  0
ARC
  8
CSLAYER1
  6
CONTINUOUS
 62
     6
 10
139.325766
 20
180.627742
 40
0.833333
 50
90.057346
 51
179.999995
  0
CIRCLE
  8
CSLAYER1
  6
CONTINUOUS
 62
     6
 10
64.119964
 20
182.294401
 40
5.250000
  0
ARC
  8
CSLAYER1
  6
CONTINUOUS
 62
     6
 10
64.119945
 20
182.294402
 40
2.916667
 50
163.398391
 51
196.601553
  0
ARC
  8
CSLAYER1
  6
CONTINUOUS
 62
     6
 10
64.119945
 20
182.294402
 40
2.916667
 50
253.398397
 51
286.601559
  0
ARC
  8
CSLAYER1
  6
CONTINUOUS
 62
     6
 10
64.119945
 20
182.294402
 40
2.916667
 50
-16.601586
 51
16.601548
  0
ARC
  8
CSLAYER1
  6
CONTINUOUS
 62
     6
 10
64.119945
 20
182.294402
 40
2.916667
 50
73.398382
 51
106.601571
  0
LINE
  8
CSLAYER1
  6
CONTINUOUS
 62
     6
 10
65.786632
 20
181.461057
 11
66.915017
 21
181.461057
  0
LINE
  8
CSLAYER1
  6
CONTINUOUS
 62
     6
 10
62.453257
 20
181.461059
 11
61.324873
 21
181.461059
  0
LINE
  8
CSLAYER1
  6
CONTINUOUS
 62
     6
 10
65.786632
 20
183.127744
 11
66.915017
 21
183.127744
  0
LINE
  8
CSLAYER1
  6
CONTINUOUS
 62
     6
 10
62.453258
 20
183.127746
 11
61.324873
 21
183.127746
  0
LINE
  8
CSLAYER1
  6
CONTINUOUS
 62
     6
 10
63.286601
 20
180.627758
 11
63.286600
 21
179.499286
  0
LINE
  8
CSLAYER1
  6
CONTINUOUS
 62
     6
 10
63.286602
 20
183.961046
 11
63.286602
 21
185.089517
  0
LINE
  8
CSLAYER1
  6
CONTINUOUS
 62
     6
 10
64.953288
 20
180.627757
 11
64.953287
 21
179.499286
  0
LINE
  8
CSLAYER1
  6
CONTINUOUS
 62
     6
 10
64.953289
 20
183.961045
 11
64.953290
 21
185.089517
  0
ARC
  8
CSLAYER1
  6
CONTINUOUS
 62
     6
 10
65.786631
 20
180.627757
 40
0.833333
 50
89.999976
 51
179.942667
  0
ARC
  8
CSLAYER1
  6
CONTINUOUS
 62
     6
 10
65.786633
 20
183.961045
 40
0.833333
 50
179.999986
 51
269.999992
  0
ARC
  8
CSLAYER1
  6
CONTINUOUS
 62
     6
 10
62.453258
 20
183.961046
 40
0.833333
 50
269.999992
 51
359.999981
  0
ARC
  8
CSLAYER1
  6
CONTINUOUS
 62
     6
 10
62.453257
 20
180.627759
 40
0.833333
 50
-0.000019
 51
89.942630
  0
LINE
  8
CSLAYER1
  6
CONTINUOUS
 62
     6
 10
297.089005
 20
370.063910
 11
297.089005
 21
308.063910
  0
LINE
  8
CSLAYER1
  6
CONTINUOUS
 62
     6
 10
307.089005
 20
294.063898
 11
307.089005
 21
384.063898
  0
LINE
  8
CSLAYER1
  6
CONTINUOUS
 62
     6
 10
215.089005
 20
370.063910
 11
215.089005
 21
308.063910
  0
LINE
  8
CSLAYER1
  6
CONTINUOUS
 62
     6
 10
184.089005
 20
310.587576
 11
184.089005
 21
367.540244
  0
LINE
  8
CSLAYER1
  6
CONTINUOUS
 62
     6
 10
185.089005
 20
309.587576
 11
185.089005
 21
368.540244
  0
LINE
  8
CSLAYER1
  6
CONTINUOUS
 62
     6
 10
185.089005
 20
368.540244
 11
215.089021
 21
369.063895
  0
LINE
  8
CSLAYER1
  6
CONTINUOUS
 62
     6
 10
185.089005
 20
368.540244
 11
184.089005
 21
367.540244
  0
LINE
  8
CSLAYER1
  6
CONTINUOUS
 62
     6
 10
185.089005
 20
309.587576
 11
215.089021
 21
309.063925
  0
LINE
  8
CSLAYER1
  6
CONTINUOUS
 62
     6
 10
185.089005
 20
309.587576
 11
184.089005
 21
310.587576
  0
LINE
  8
CSLAYER1
  6
CONTINUOUS
 62
     6
 10
299.089005
 20
370.063910
 11
215.089005
 21
370.063910
  0
LINE
  8
CSLAYER1
  6
CONTINUOUS
 62
     6
 10
299.089005
 20
308.063910
 11
215.089005
 21
308.063910
  0
LINE
  8
CSLAYER1
  6
CENTER
 62
     3
 10
181.089013
 20
339.063910
 11
413.089004
 21
339.063887
  0
LINE
  8
CSLAYER1
  6
CONTINUOUS
 62
     6
 10
372.089005
 20
294.063891
 11
372.089005
 21
384.063891
  0
LINE
  8
CSLAYER1
  6
CONTINUOUS
 62
     6
 10
299.089005
 20
294.563898
 11
299.089005
 21
383.563898
  0
LINE
  8
CSLAYER1
  6
CONTINUOUS
 62
     6
 10
299.589005
 20
384.063898
 11
372.089005
 21
384.063891
  0
LINE
  8
CSLAYER1
  6
CONTINUOUS
 62
     6
 10
299.589005
 20
294.063898
 11
372.088997
 21
294.063891
  0
ARC
  8
CSLAYER1
  6
CONTINUOUS
 62
     6
 10
299.589005
 20
383.563898
 40
0.500000
 50
89.999994
 51
180.000000
  0
ARC
  8
CSLAYER1
  6
CONTINUOUS
 62
     6
 10
299.589005
 20
294.563898
 40
0.500000
 50
180.000000
 51
269.999994
  0
LINE
  8
CSLAYER1
  6
CONTINUOUS
 62
     6
 10
372.089005
 20
322.063891
 11
381.589005
 21
322.063890
  0
LINE
  8
CSLAYER1
  6
CONTINUOUS
 62
     6
 10
410.089005
 20
332.363888
 11
410.089005
 21
345.763888
  0
LINE
  8
CSLAYER1
  6
CONTINUOUS
 62
     6
 10
382.089005
 20
346.563890
 11
409.289005
 21
346.563888
  0
LINE
  8
CSLAYER1
  6
CONTINUOUS
 62
     6
 10
382.089005
 20
331.563890
 11
409.289005
 21
331.563888
  0
LINE
  8
CSLAYER1
  6
CONTINUOUS
 62
     6
 10
382.089005
 20
322.563890
 11
382.089005
 21
355.563890
  0
ARC
  8
CSLAYER1
  6
CONTINUOUS
 62
     6
 10
381.589005
 20
322.563890
 40
0.500000
 50
269.999994
 51
360.000000
  0
LINE
  8
CSLAYER1
  6
CENTER
 62
     3
 10
291.844716
 20
375.833447
 11
392.589013
 21
375.833447
  0
LINE
  8
CSLAYER1
  6
CENTER
 62
     3
 10
291.844709
 20
302.294351
 11
392.589005
 21
302.294331
  0
LINE
  8
CSLAYER1
  6
CONTINUOUS
 62
     6
 10
373.089005
 20
295.294335
 11
373.089005
 21
309.294335
  0
LINE
  8
CSLAYER1
  6
CONTINUOUS
 62
     6
 10
373.089005
 20
309.294335
 11
372.089005
 21
309.294335
  0
LINE
  8
CSLAYER1
  6
CONTINUOUS
 62
     6
 10
373.089005
 20
295.294335
 11
372.089005
 21
295.294335
  0
LINE
  8
CSLAYER1
  6
CONTINUOUS
 62
     6
 10
389.589005
 20
300.094332
 11
389.589005
 21
304.494332
  0
LINE
  8
CSLAYER1
  6
CONTINUOUS
 62
     6
 10
378.089005
 20
305.294334
 11
388.789005
 21
305.294332
  0
LINE
  8
CSLAYER1
  6
CONTINUOUS
 62
     6
 10
378.089004
 20
299.294334
 11
388.789005
 21
299.294332
  0
LINE
  8
CSLAYER1
  6
CONTINUOUS
 62
     3
 10
378.089004
 20
299.794334
 11
389.289005
 21
299.794332
  0
LINE
  8
CSLAYER1
  6
CONTINUOUS
 62
     3
 10
378.089005
 20
304.794334
 11
389.289005
 21
304.794332
  0
LINE
  8
CSLAYER1
  6
CONTINUOUS
 62
     6
 10
388.789005
 20
305.294332
 11
389.589005
 21
304.494332
  0
LINE
  8
CSLAYER1
  6
CONTINUOUS
 62
     6
 10
389.589005
 20
300.094332
 11
388.789005
 21
299.294332
  0
ARC
  8
CSLAYER1
  6
CONTINUOUS
 62
     6
 10
299.589014
 20
383.563898
 40
0.500000
 50
89.999994
 51
179.999989
  0
LINE
  8
CSLAYER1
  6
CONTINUOUS
 62
     6
 10
389.589013
 20
378.033447
 11
389.589012
 21
373.633447
  0
LINE
  8
CSLAYER1
  6
CONTINUOUS
 62
     6
 10
378.089012
 20
372.833447
 11
388.789012
 21
372.833447
  0
LINE
  8
CSLAYER1
  6
CONTINUOUS
 62
     6
 10
378.089012
 20
378.833447
 11
388.789013
 21
378.833447
  0
LINE
  8
CSLAYER1
  6
CONTINUOUS
 62
     3
 10
378.089012
 20
378.333447
 11
389.289013
 21
378.333447
  0
LINE
  8
CSLAYER1
  6
CONTINUOUS
 62
     3
 10
378.089012
 20
373.333447
 11
389.289012
 21
373.333447
  0
LINE
  8
CSLAYER1
  6
CONTINUOUS
 62
     6
 10
388.789012
 20
372.833447
 11
389.589012
 21
373.633447
  0
LINE
  8
CSLAYER1
  6
CONTINUOUS
 62
     6
 10
389.589013
 20
378.033447
 11
388.789013
 21
378.833447
  0
LINE
  8
CSLAYER1
  6
CONTINUOUS
 62
     6
 10
409.289005
 20
346.563888
 11
410.089005
 21
345.763888
  0
LINE
  8
CSLAYER1
  6
CONTINUOUS
 62
     6
 10
409.289005
 20
331.563888
 11
410.089005
 21
332.363888
  0
LINE
  8
CSLAYER1
  6
CONTINUOUS
 62
     6
 10
373.089014
 20
382.833447
 11
373.089011
 21
368.833447
  0
LINE
  8
CSLAYER1
  6
CONTINUOUS
 62
     6
 10
373.089011
 20
368.833447
 11
372.089011
 21
368.833448
  0
LINE
  8
CSLAYER1
  6
CONTINUOUS
 62
     6
 10
373.089014
 20
382.833447
 11
372.089014
 21
382.833447
  0
ARC
  8
CSLAYER1
  6
CONTINUOUS
 62
     6
 10
308.140749
 20
375.833475
 40
12.672440
 50
163.742994
 51
196.257016
  0
LINE
  8
CSLAYER1
  6
CONTINUOUS
 62
     6
 10
298.695312
 20
380.777487
 11
297.555115
 21
380.677738
  0
ARC
  8
CSLAYER1
  6
CONTINUOUS
 62
     6
 10
297.712902
 20
378.874267
 40
1.810349
 50
95.000111
 51
163.742611
  0
ARC
  8
CSLAYER1
  6
CONTINUOUS
 62
     6
 10
298.726914
 20
380.416804
 40
0.362070
 50
0.000000
 51
95.000152
  0
LINE
  8
CSLAYER1
  6
CONTINUOUS
 62
     6
 10
298.695312
 20
370.889463
 11
297.555115
 21
370.989212
  0
ARC
  8
CSLAYER1
  6
CONTINUOUS
 62
     6
 10
297.712902
 20
372.792682
 40
1.810349
 50
196.257399
 51
264.999892
  0
ARC
  8
CSLAYER1
  6
CONTINUOUS
 62
     6
 10
298.726914
 20
371.250146
 40
0.362070
 50
264.999865
 51
359.942691
  0
ARC
  8
CSLAYER1
  6
CONTINUOUS
 62
     6
 10
308.140749
 20
302.294377
 40
12.672440
 50
163.742994
 51
196.257016
  0
LINE
  8
CSLAYER1
  6
CONTINUOUS
 62
     6
 10
298.695312
 20
307.238389
 11
297.555115
 21
307.138640
  0
ARC
  8
CSLAYER1
  6
CONTINUOUS
 62
     6
 10
297.712902
 20
305.335169
 40
1.810349
 50
95.000111
 51
163.742611
  0
ARC
  8
CSLAYER1
  6
CONTINUOUS
 62
     6
 10
298.726914
 20
306.877706
 40
0.362070
 50
0.000000
 51
95.000152
  0
LINE
  8
CSLAYER1
  6
CONTINUOUS
 62
     6
 10
298.695312
 20
297.350365
 11
297.555115
 21
297.450114
  0
ARC
  8
CSLAYER1
  6
CONTINUOUS
 62
     6
 10
297.712902
 20
299.253585
 40
1.810349
 50
196.257399
 51
264.999892
  0
ARC
  8
CSLAYER1
  6
CONTINUOUS
 62
     6
 10
298.726914
 20
297.711048
 40
0.362070
 50
264.999865
 51
359.942691
  0
LINE
  8
CSLAYER1
  6
CONTINUOUS
 62
     3
 10
245.089005
 20
312.217118
 11
281.089005
 21
312.217118
  0
ARC
  8
CSLAYER1
  6
CONTINUOUS
 62
     3
 10
245.089005
 20
313.217118
 40
1.000000
 50
180.000005
 51
270.000001
  0
ARC
  8
CSLAYER1
  6
CONTINUOUS
 62
     3
 10
281.089005
 20
313.217118
 40
1.000000
 50
270.000001
 51
359.942691
  0
LINE
  8
CSLAYER1
  6
CONTINUOUS
 62
     3
 10
244.089005
 20
364.910686
 11
244.089005
 21
313.217118
  0
LINE
  8
CSLAYER1
  6
CONTINUOUS
 62
     3
 10
282.089005
 20
364.910686
 11
282.089005
 21
313.217118
  0
TEXT
  8
CSLAYER1
 62
     3
 10
261.867920
 20
344.562286
 40
3.500000
 41
1.125000
  1
N P
 50
-90.000000
 51
10.000000
  7
JX_FONT
 72
     5
 11
261.867920
 21
334.062286
  0
LINE
  8
CSLAYER1
  6
CONTINUOUS
 62
     3
 10
245.089005
 20
365.910686
 11
281.089005
 21
365.910686
  0
ARC
  8
CSLAYER1
  6
CONTINUOUS
 62
     3
 10
245.089005
 20
364.910686
 40
1.000000
 50
90.000009
 51
180.000005
  0
ARC
  8
CSLAYER1
  6
CONTINUOUS
 62
     3
 10
281.089005
 20
364.910686
 40
1.000000
 50
0.057319
 51
90.000009
  0
LINE
  8
CSLAYER1
  6
CONTINUOUS
 62
     6
 10
372.089009
 20
356.063891
 11
381.589009
 21
356.063890
  0
ARC
  8
CSLAYER1
  6
CONTINUOUS
 62
     6
 10
381.589009
 20
355.563890
 40
0.500000
 50
-0.000011
 51
89.999994
  0
LINE
  8
CSLAYER1
  6
DASHED
 62
     6
 10
410.089005
 20
334.563895
 11
385.089005
 21
334.563895
  0
LINE
  8
CSLAYER1
  6
DASHED
 62
     6
 10
385.089005
 20
334.563895
 11
385.089005
 21
331.563890
  0
ARC
  8
CSLAYER1
  6
CONTINUOUS
 62
     6
 10
369.815510
 20
373.333447
 40
8.273503
 50
-17.587954
 51
17.587954
  0
ARC
  8
CSLAYER1
  6
CONTINUOUS
 62
     6
 10
369.815510
 20
378.333447
 40
8.273503
 50
-17.587954
 51
17.587954
  0
LINE
  8
CSLAYER1
  6
CONTINUOUS
 62
     6
 10
378.089013
 20
370.833447
 11
373.089013
 21
370.833447
  0
LINE
  8
CSLAYER1
  6
CONTINUOUS
 62
     6
 10
377.702261
 20
375.833447
 11
373.089013
 21
375.833447
  0
LINE
  8
CSLAYER1
  6
CONTINUOUS
 62
     6
 10
378.089013
 20
380.833447
 11
373.089013
 21
380.833447
  0
LINE
  8
CSLAYER1
  6
CONTINUOUS
 62
     6
 10
378.089013
 20
370.833447
 11
378.089013
 21
380.833447
  0
ARC
  8
CSLAYER1
  6
CONTINUOUS
 62
     6
 10
369.815503
 20
299.794335
 40
8.273503
 50
-17.587954
 51
17.587954
  0
ARC
  8
CSLAYER1
  6
CONTINUOUS
 62
     6
 10
369.815503
 20
304.794335
 40
8.273503
 50
-17.587954
 51
17.587954
  0
LINE
  8
CSLAYER1
  6
CONTINUOUS
 62
     6
 10
378.089005
 20
297.294335
 11
373.089005
 21
297.294335
  0
LINE
  8
CSLAYER1
  6
CONTINUOUS
 62
     6
 10
377.702254
 20
302.294335
 11
373.089005
 21
302.294335
  0
LINE
  8
CSLAYER1
  6
CONTINUOUS
 62
     6
 10
378.089005
 20
307.294335
 11
373.089005
 21
307.294335
  0
LINE
  8
CSLAYER1
  6
CONTINUOUS
 62
     6
 10
378.089005
 20
297.294335
 11
378.089005
 21
307.294335
  0
LINE
  8
CSLAYER1
  6
CONTINUOUS
 62
     6
 10
297.088974
 20
68.063887
 11
297.088986
 21
130.063887
  0
LINE
  8
CSLAYER1
  6
CONTINUOUS
 62
     6
 10
307.088989
 20
144.063898
 11
307.088971
 21
54.063898
  0
LINE
  8
CSLAYER1
  6
CONTINUOUS
 62
     6
 10
215.088974
 20
68.063903
 11
215.088986
 21
130.063903
  0
LINE
  8
CSLAYER1
  6
CONTINUOUS
 62
     6
 10
184.088985
 20
127.540243
 11
184.088974
 21
70.587576
  0
LINE
  8
CSLAYER1
  6
CONTINUOUS
 62
     6
 10
185.088986
 20
128.540243
 11
185.088974
 21
69.587576
  0
LINE
  8
CSLAYER1
  6
CONTINUOUS
 62
     6
 10
185.088974
 20
69.587576
 11
215.088989
 21
69.063919
  0
LINE
  8
CSLAYER1
  6
CONTINUOUS
 62
     6
 10
185.088974
 20
69.587576
 11
184.088974
 21
70.587576
  0
LINE
  8
CSLAYER1
  6
CONTINUOUS
 62
     6
 10
185.088986
 20
128.540243
 11
215.089001
 21
129.063888
  0
LINE
  8
CSLAYER1
  6
CONTINUOUS
 62
     6
 10
185.088986
 20
128.540243
 11
184.088985
 21
127.540243
  0
LINE
  8
CSLAYER1
  6
CONTINUOUS
 62
     6
 10
299.088974
 20
68.063887
 11
215.088974
 21
68.063903
  0
LINE
  8
CSLAYER1
  6
CONTINUOUS
 62
     6
 10
299.088986
 20
130.063887
 11
215.088986
 21
130.063903
  0
LINE
  8
CSLAYER1
  6
CENTER
 62
     3
 10
181.088987
 20
99.063910
 11
413.088978
 21
99.063887
  0
LINE
  8
CSLAYER1
  6
CONTINUOUS
 62
     6
 10
372.088989
 20
144.063891
 11
372.088971
 21
54.063891
  0
LINE
  8
CSLAYER1
  6
CONTINUOUS
 62
     6
 10
299.088989
 20
143.563899
 11
299.088971
 21
54.563899
  0
LINE
  8
CSLAYER1
  6
CONTINUOUS
 62
     6
 10
299.588971
 20
54.063898
 11
372.088971
 21
54.063891
  0
LINE
  8
CSLAYER1
  6
CONTINUOUS
 62
     6
 10
299.588989
 20
144.063898
 11
372.088980
 21
144.063891
  0
ARC
  8
CSLAYER1
  6
CONTINUOUS
 62
     6
 10
299.588971
 20
54.563898
 40
0.500000
 50
179.999989
 51
269.999994
  0
ARC
  8
CSLAYER1
  6
CONTINUOUS
 62
     6
 10
299.588989
 20
143.563898
 40
0.500000
 50
89.999994
 51
179.999989
  0
LINE
  8
CSLAYER1
  6
CONTINUOUS
 62
     6
 10
372.088983
 20
116.063891
 11
381.588983
 21
116.063890
  0
LINE
  8
CSLAYER1
  6
CONTINUOUS
 62
     6
 10
410.088981
 20
105.763888
 11
410.088979
 21
92.363888
  0
LINE
  8
CSLAYER1
  6
CONTINUOUS
 62
     6
 10
382.088978
 20
91.563890
 11
409.288978
 21
91.563888
  0
LINE
  8
CSLAYER1
  6
CONTINUOUS
 62
     6
 10
382.088981
 20
106.563890
 11
409.288981
 21
106.563888
  0
LINE
  8
CSLAYER1
  6
CONTINUOUS
 62
     6
 10
382.088983
 20
115.563890
 11
382.088977
 21
82.563890
  0
ARC
  8
CSLAYER1
  6
CONTINUOUS
 62
     6
 10
381.588983
 20
115.563890
 40
0.500000
 50
-0.000011
 51
89.999994
  0
LINE
  8
CSLAYER1
  6
CENTER
 62
     3
 10
291.844683
 20
62.294351
 11
392.588980
 21
62.294331
  0
LINE
  8
CSLAYER1
  6
CENTER
 62
     3
 10
291.844690
 20
135.833447
 11
392.588987
 21
135.833447
  0
LINE
  8
CSLAYER1
  6
CONTINUOUS
 62
     6
 10
373.088988
 20
142.833447
 11
373.088986
 21
128.833447
  0
LINE
  8
CSLAYER1
  6
CONTINUOUS
 62
     6
 10
373.088986
 20
128.833447
 11
372.088986
 21
128.833448
  0
LINE
  8
CSLAYER1
  6
CONTINUOUS
 62
     6
 10
373.088988
 20
142.833447
 11
372.088988
 21
142.833447
  0
LINE
  8
CSLAYER1
  6
CONTINUOUS
 62
     6
 10
389.588988
 20
138.033447
 11
389.588987
 21
133.633447
  0
LINE
  8
CSLAYER1
  6
CONTINUOUS
 62
     6
 10
378.088986
 20
132.833447
 11
388.788986
 21
132.833447
  0
LINE
  8
CSLAYER1
  6
CONTINUOUS
 62
     6
 10
378.088986
 20
138.833447
 11
388.788988
 21
138.833447
  0
LINE
  8
CSLAYER1
  6
CONTINUOUS
 62
     3
 10
378.088986
 20
138.333447
 11
389.288988
 21
138.333447
  0
LINE
  8
CSLAYER1
  6
CONTINUOUS
 62
     3
 10
378.088986
 20
133.333447
 11
389.288987
 21
133.333447
  0
LINE
  8
CSLAYER1
  6
CONTINUOUS
 62
     6
 10
388.788986
 20
132.833447
 11
389.588987
 21
133.633447
  0
LINE
  8
CSLAYER1
  6
CONTINUOUS
 62
     6
 10
389.588988
 20
138.033447
 11
388.788988
 21
138.833447
  0
ARC
  8
CSLAYER1
  6
CONTINUOUS
 62
     6
 10
299.588980
 20
54.563898
 40
0.500000
 50
180.000000
 51
269.999994
  0
LINE
  8
CSLAYER1
  6
CONTINUOUS
 62
     6
 10
389.588980
 20
60.094332
 11
389.588980
 21
64.494332
  0
LINE
  8
CSLAYER1
  6
CONTINUOUS
 62
     6
 10
378.088980
 20
65.294334
 11
388.788980
 21
65.294332
  0
LINE
  8
CSLAYER1
  6
CONTINUOUS
 62
     6
 10
378.088979
 20
59.294334
 11
388.788980
 21
59.294332
  0
LINE
  8
CSLAYER1
  6
CONTINUOUS
 62
     3
 10
378.088979
 20
59.794334
 11
389.288980
 21
59.794332
  0
LINE
  8
CSLAYER1
  6
CONTINUOUS
 62
     3
 10
378.088980
 20
64.794334
 11
389.288980
 21
64.794332
  0
LINE
  8
CSLAYER1
  6
CONTINUOUS
 62
     6
 10
388.788980
 20
65.294332
 11
389.588980
 21
64.494332
  0
LINE
  8
CSLAYER1
  6
CONTINUOUS
 62
     6
 10
389.588980
 20
60.094332
 11
388.788980
 21
59.294332
  0
LINE
  8
CSLAYER1
  6
CONTINUOUS
 62
     6
 10
409.288978
 20
91.563888
 11
410.088979
 21
92.363888
  0
LINE
  8
CSLAYER1
  6
CONTINUOUS
 62
     6
 10
409.288981
 20
106.563888
 11
410.088981
 21
105.763888
  0
LINE
  8
CSLAYER1
  6
CONTINUOUS
 62
     6
 10
373.088980
 20
55.294335
 11
373.088980
 21
69.294335
  0
LINE
  8
CSLAYER1
  6
CONTINUOUS
 62
     6
 10
373.088980
 20
69.294335
 11
372.088980
 21
69.294335
  0
LINE
  8
CSLAYER1
  6
CONTINUOUS
 62
     6
 10
373.088980
 20
55.294335
 11
372.088980
 21
55.294335
  0
ARC
  8
CSLAYER1
  6
CONTINUOUS
 62
     6
 10
308.140716
 20
62.294320
 40
12.672440
 50
163.742972
 51
196.256995
  0
LINE
  8
CSLAYER1
  6
CONTINUOUS
 62
     6
 10
298.695278
 20
57.350310
 11
297.555081
 21
57.450060
  0
ARC
  8
CSLAYER1
  6
CONTINUOUS
 62
     6
 10
297.712868
 20
59.253530
 40
1.810349
 50
196.257378
 51
264.999878
  0
ARC
  8
CSLAYER1
  6
CONTINUOUS
 62
     6
 10
298.726880
 20
57.710993
 40
0.362070
 50
264.999837
 51
359.999989
  0
LINE
  8
CSLAYER1
  6
CONTINUOUS
 62
     6
 10
298.695280
 20
67.238334
 11
297.555083
 21
67.138585
  0
ARC
  8
CSLAYER1
  6
CONTINUOUS
 62
     6
 10
297.712870
 20
65.335115
 40
1.810349
 50
95.000096
 51
163.742590
  0
ARC
  8
CSLAYER1
  6
CONTINUOUS
 62
     6
 10
298.726882
 20
66.877651
 40
0.362070
 50
0.057298
 51
95.000124
  0
ARC
  8
CSLAYER1
  6
CONTINUOUS
 62
     6
 10
308.140730
 20
135.833418
 40
12.672440
 50
163.742972
 51
196.256995
  0
LINE
  8
CSLAYER1
  6
CONTINUOUS
 62
     6
 10
298.695293
 20
130.889408
 11
297.555096
 21
130.989158
  0
ARC
  8
CSLAYER1
  6
CONTINUOUS
 62
     6
 10
297.712883
 20
132.792628
 40
1.810349
 50
196.257378
 51
264.999878
  0
ARC
  8
CSLAYER1
  6
CONTINUOUS
 62
     6
 10
298.726894
 20
131.250091
 40
0.362070
 50
264.999837
 51
359.999989
  0
LINE
  8
CSLAYER1
  6
CONTINUOUS
 62
     6
 10
298.695295
 20
140.777432
 11
297.555098
 21
140.677683
  0
ARC
  8
CSLAYER1
  6
CONTINUOUS
 62
     6
 10
297.712884
 20
138.874213
 40
1.810349
 50
95.000096
 51
163.742590
  0
ARC
  8
CSLAYER1
  6
CONTINUOUS
 62
     6
 10
298.726896
 20
140.416749
 40
0.362070
 50
0.057298
 51
95.000124
  0
LINE
  8
CSLAYER1
  6
CONTINUOUS
 62
     6
 10
372.088980
 20
82.063891
 11
381.588980
 21
82.063890
  0
ARC
  8
CSLAYER1
  6
CONTINUOUS
 62
     6
 10
381.588980
 20
82.563890
 40
0.500000
 50
-90.000006
 51
0.000000
  0
ARC
  8
CSLAYER1
  6
CONTINUOUS
 62
     6
 10
369.815478
 20
64.794336
 40
8.273503
 50
-17.587965
 51
17.587943
  0
ARC
  8
CSLAYER1
  6
CONTINUOUS
 62
     6
 10
369.815477
 20
59.794336
 40
8.273503
 50
-17.587965
 51
17.587943
  0
LINE
  8
CSLAYER1
  6
CONTINUOUS
 62
     6
 10
378.088981
 20
67.294334
 11
373.088981
 21
67.294335
  0
LINE
  8
CSLAYER1
  6
CONTINUOUS
 62
     6
 10
377.702229
 20
62.294334
 11
373.088980
 21
62.294335
  0
LINE
  8
CSLAYER1
  6
CONTINUOUS
 62
     6
 10
378.088979
 20
57.294334
 11
373.088979
 21
57.294335
  0
LINE
  8
CSLAYER1
  6
CONTINUOUS
 62
     6
 10
378.088981
 20
67.294334
 11
378.088979
 21
57.294334
  0
ARC
  8
CSLAYER1
  6
CONTINUOUS
 62
     6
 10
369.815485
 20
138.333448
 40
8.273503
 50
-17.587965
 51
17.587943
  0
ARC
  8
CSLAYER1
  6
CONTINUOUS
 62
     6
 10
369.815484
 20
133.333448
 40
8.273503
 50
-17.587965
 51
17.587943
  0
LINE
  8
CSLAYER1
  6
CONTINUOUS
 62
     6
 10
378.088988
 20
140.833446
 11
373.088988
 21
140.833447
  0
LINE
  8
CSLAYER1
  6
CONTINUOUS
 62
     6
 10
377.702236
 20
135.833447
 11
373.088987
 21
135.833447
  0
LINE
  8
CSLAYER1
  6
CONTINUOUS
 62
     6
 10
378.088986
 20
130.833446
 11
373.088986
 21
130.833447
  0
LINE
  8
CSLAYER1
  6
CONTINUOUS
 62
     6
 10
378.088988
 20
140.833446
 11
378.088986
 21
130.833446
  0
LINE
  8
CSLAYER1
  6
CENTER
 62
     3
 10
204.088980
 20
88.063907
 11
204.088980
 21
110.063907
  0
LINE
  8
CSLAYER1
  6
CONTINUOUS
 62
     6
 10
204.088980
 20
99.063907
 11
198.655508
 21
99.063907
  0
LINE
  8
CSLAYER1
  6
CONTINUOUS
 62
     6
 10
204.088980
 20
101.263904
 11
198.655508
 21
101.263904
  0
ARC
  8
CSLAYER1
  6
CONTINUOUS
 62
     6
 10
195.743277
 20
114.822757
 40
15.758816
 50
242.536193
 51
269.942682
  0
ARC
  8
CSLAYER1
  6
CONTINUOUS
 62
     6
 10
195.743277
 20
114.822757
 40
13.558834
 50
242.536193
 51
269.942682
  0
ARC
  8
CSLAYER1
  6
CONTINUOUS
 62
     6
 10
199.608145
 20
100.713901
 40
1.100006
 50
149.999997
 51
209.999999
  0
ARC
  8
CSLAYER1
  6
CONTINUOUS
 62
     6
 10
199.608145
 20
99.613895
 40
1.100006
 50
149.999997
 51
209.999999
  0
ARC
  8
CSLAYER1
  6
CONTINUOUS
 62
     6
 10
197.702871
 20
99.613895
 40
1.100006
 50
-30.000011
 51
29.999977
  0
ARC
  8
CSLAYER1
  6
CONTINUOUS
 62
     6
 10
195.743277
 20
83.305057
 40
13.558834
 50
89.999975
 51
117.463872
  0
ARC
  8
CSLAYER1
  6
CONTINUOUS
 62
     6
 10
195.743307
 20
83.305072
 40
15.758816
 50
90.000003
 51
117.463872
  0
ARC
  8
CSLAYER1
  6
CONTINUOUS
 62
     6
 10
199.608145
 20
98.513888
 40
1.100006
 50
149.999997
 51
209.999999
  0
ARC
  8
CSLAYER1
  6
CONTINUOUS
 62
     6
 10
199.608145
 20
97.413882
 40
1.100006
 50
149.999997
 51
209.999999
  0
ARC
  8
CSLAYER1
  6
CONTINUOUS
 62
     6
 10
197.702871
 20
97.413882
 40
1.100006
 50
-30.000011
 51
29.999977
  0
ARC
  8
CSLAYER1
  6
CONTINUOUS
 62
     6
 10
204.088980
 20
100.163913
 40
1.100006
 50
-89.999999
 51
90.000019
  0
ARC
  8
CSLAYER1
  6
CONTINUOUS
 62
     6
 10
204.088980
 20
97.963901
 40
1.100006
 50
-90.000027
 51
89.999992
  0
LINE
  8
CSLAYER1
  6
CONTINUOUS
 62
     6
 10
204.088980
 20
96.863910
 11
198.655508
 21
96.863910
  0
LINE
  8
CSLAYER1
  6
CONTINUOUS
 62
     6
 10
205.189016
 20
100.163913
 11
205.189016
 21
97.963901
  0
ARC
  8
CSLAYER1
  6
CONTINUOUS
 62
     6
 10
196.063910
 20
99.613940
 40
1.099999
 50
-29.999656
 51
30.000332
  0
ARC
  8
CSLAYER1
  6
CONTINUOUS
 62
     6
 10
196.063902
 20
100.713931
 40
1.099999
 50
-29.999656
 51
30.000332
  0
ARC
  8
CSLAYER1
  6
CONTINUOUS
 62
     6
 10
197.969153
 20
100.713946
 40
1.099999
 50
150.000353
 51
210.000354
  0
ARC
  8
CSLAYER1
  6
CONTINUOUS
 62
     6
 10
196.063910
 20
97.413928
 40
1.099999
 50
-29.999656
 51
30.000332
  0
ARC
  8
CSLAYER1
  6
CONTINUOUS
 62
     6
 10
196.063902
 20
98.513919
 40
1.099999
 50
-29.999656
 51
30.000332
  0
ARC
  8
CSLAYER1
  6
CONTINUOUS
 62
     6
 10
197.969153
 20
98.513934
 40
1.099999
 50
150.000353
 51
210.000354
  0
LINE
  8
CSLAYER1
  6
CONTINUOUS
 62
     6
 10
195.743338
 20
101.263919
 11
197.016531
 21
101.263919
  0
LINE
  8
CSLAYER1
  6
CONTINUOUS
 62
     6
 10
195.743307
 20
99.063891
 11
197.016531
 21
99.063891
  0
LINE
  8
CSLAYER1
  6
CONTINUOUS
 62
     6
 10
195.743338
 20
96.863925
 11
197.016531
 21
96.863925
  0
ARC
  8
CSLAYER1
  6
CONTINUOUS
 62
     6
 10
204.088980
 20
99.063907
 40
8.000000
 50
-164.038116
 51
164.037904
  0
LINE
  8
CSLAYER1
  6
CONTINUOUS
 62
     6
 10
189.148367
 20
102.134357
 11
186.210257
 21
103.751514
  0
LINE
  8
CSLAYER1
  6
CONTINUOUS
 62
     6
 10
189.490164
 20
102.791980
 11
188.475516
 21
100.839923
  0
LINE
  8
CSLAYER1
  6
CONTINUOUS
 62
     6
 10
189.148306
 20
95.993457
 11
186.210257
 21
94.376285
  0
LINE
  8
CSLAYER1
  6
CONTINUOUS
 62
     6
 10
189.490103
 20
95.335834
 11
188.475516
 21
97.287890
  0
LINE
  8
CSLAYER1
  6
CONTINUOUS
 62
     6
 10
188.894217
 20
101.645434
 11
186.886770
 21
103.222217
  0
LINE
  8
CSLAYER1
  6
CONTINUOUS
 62
     6
 10
188.687246
 20
101.247302
 11
186.607474
 21
102.648791
  0
LINE
  8
CSLAYER1
  6
CONTINUOUS
 62
     6
 10
188.894217
 20
96.482379
 11
186.886770
 21
94.905597
  0
LINE
  8
CSLAYER1
  6
CONTINUOUS
 62
     6
 10
188.687246
 20
96.880511
 11
186.607412
 21
95.479007
  0
ENDSEC
  0
EOF
