  0
SECTION
  2
HEADER
  9
$ACADVER
  1
AC1006
  9
$INSBASE
 10
0.000000
 20
0.000000
 30
0.0
  9
$EXTMIN
 10
0.000000
 20
0.000000
  9
$EXTMAX
 10
420.000000
 20
297.000000
  9
$LIMMIN
 10
0.000000
 20
0.000000
  9
$LIMMAX
 10
420.000000
 20
297.000000
  9
$VIEWCTR
 10
210.000000
 20
148.500000
  9
$VIEWSIZE
 40
297.000000
  9
$SNAPMODE
 70
     0
  9
$SNAPUNIT
 10
1.0
 20
1.0
  9
$SNAPBASE
 10
0.0
 20
0.0
  9
$SNAPANG
 50
0.0
  9
$SNAPSTYLE
 70
     0
  9
$SNAPISOPAIR
 70
     0
  9
$GRIDMODE
 70
     0
  9
$GRIDUNIT
 10
0.0
 20
0.0
  9
$ORTHOMODE
 70
     0
  9
$REGENMODE
 70
     1
  9
$FILLMODE
 70
     1
  9
$QTEXTMODE
 70
     0
  9
$DRAGMODE
 70
     2
  9
$LTSCALE
 40
15.000000
  9
$OSMODE
 70
     0
  9
$ATTMODE
 70
     1
  9
$TEXTSIZE
 40
0.2
  9
$TRACEWID
 40
0.05
  9
$TEXTSTYLE
  7
STANDARD
  9
$CLAYER
  8
CSLAYER1
  9
$CELTYPE
  6
BYLAYER
  9
$CECOLOR
 62
   256
  9
$DIMSCALE
 40
1.0
  9
$DIMASZ
 40
0.18
  9
$DIMEXO
 40
0.0625
  9
$DIMDLI
 40
0.38
  9
$DIMRND
 40
0.0
  9
$DIMDLE
 40
0.0
  9
$DIMEXE
 40
0.18
  9
$DIMTP
 40
0.0
  9
$DIMTM
 40
0.0
  9
$DIMTXT
 40
0.18
  9
$DIMCEN
 40
0.09
  9
$DIMTSZ
 40
0.0
  9
$DIMTOL
 70
     0
  9
$DIMLIM
 70
     0
  9
$DIMTIH
 70
     1
  9
$DIMTOH
 70
     1
  9
$DIMSE1
 70
     0
  9
$DIMSE2
 70
     0
  9
$DIMTAD
 70
     0
  9
$DIMZIN
 70
     0
  9
$DIMBLK
  1

  9
$LUNITS
 70
     2
  9
$LUPREC
 70
     4
  9
$AXISMODE
 70
     0
  9
$AXISUNIT
 10
0.0
 20
0.0
  9
$SKETCHINC
 40
0.1
  9
$FILLETRAD
 40
0.0
  9
$AUNITS
 70
     0
  9
$AUPREC
 70
     0
  9
$MENU
  1
ACAD
  9
$ELEVATION
 40
0.0
  9
$THICKNESS
 40
0.0
  9
$VIEWDIR
 10
0.0
 20
0.0
 30
1.0
  9
$LIMCHECK
 70
     0
  9
$BLIPMODE
 70
     1
  9
$CHAMFERA
 40
0.0
  9
$CHAMFERB
 40
0.0
  9
$FASTZOOM
 70
     1
  9
$SKPOLY
 70
     0
  9
$TDCREATE
 40
0.000000
  9
$TDUPDATE
 40
0.000000
  9
$TDINDWG
 40
0.0
  9
$TDUSRTIMER
 40
0.0
  9
$USRTIMER
 70
     1
  9
$ANGBASE
 50
0.0
  9
$ANGDIR
 70
     0
  9
$PDMODE
 70
     0
  9
$PDSIZE
 40
0.0
  9
$PLINEWID
 40
0.0
  9
$COORDS
 70
     0
  9
$USERI1
 70
     0
  9
$USERI2
 70
     0
  9
$USERI3
 70
     0
  9
$USERI4
 70
     0
  9
$USERI5
 70
     0
  9
$USERR1
 40
0.0
  9
$USERR2
 40
0.0
  9
$USERR3
 40
0.0
  9
$USERR4
 40
0.0
  9
$USERR5
 40
0.0
  0
ENDSEC
  0
SECTION
  2
TABLES
  0
TABLE
  2
LTYPE
 70
     9
  0
LTYPE
  2
CONTINUOUS
 70
    64
  3
Solid line
 72
    65
 73
     0
 40
0.0
  0
LTYPE
  2
DASHED
 70
    64
  3
__ __ __ __ __ __ __ __ __ __ __ __ __ __ __
 72
    65
 73
     2
 40
0.75
 49
0.5
 49
-0.25
  0
LTYPE
  2
HIDDEN
 70
    64
  3
_ _ _ _ _ _ _ _ _ _ _ _ _ _ _ _ _ _ _ _ _ _ _
 72
    65
 73
     2
 40
0.375
 49
0.25
 49
-0.125
  0
LTYPE
  2
DOT
 70
    64
  3
...............................................
 72
    65
 73
     2
 40
0.25
 49
0.0
 49
-0.25
  0
LTYPE
  2
DASHDOT
 70
    64
  3
__ . __ . __ . __ . __ . __ . __ . __ . __ . __
 72
    65
 73
     4
 40
1.0
 49
0.5
 49
-0.25
 49
0.0
 49
-0.25
  0
LTYPE
  2
DIVIDE
 70
    64
  3
__ . . __ . . __ . . __ . . __ . . __ . . __
 72
    65
 73
     6
 40
1.25
 49
0.5
 49
-0.25
 49
0.0
 49
-0.25
 49
0.0
 49
-0.25
  0
LTYPE
  2
CENTER
 70
    64
  3
____ _ ____ _ ____ _ ____ _ ____ _ ____ _ ____ 
 72
    65
 73
     4
 40
2.0
 49
1.25
 49
-0.25
 49
0.25
 49
-0.25
  0
LTYPE
  2
PHANTOM
 70
    64
  3
______  __  __  ______  __  __  ______  __  __ 
 72
    65
 73
     6
 40
2.5
 49
1.25
 49
-0.25
 49
0.25
 49
-0.25
 49
0.25
 49
-0.25
  0
LTYPE
  2
BORDER
 70
    64
  3
__ __ . __ __ . __ __ . __ __ . __ __ . __ __ .
 72
    65
 73
     6
 40
1.75
 49
0.5
 49
-0.25
 49
0.5
 49
-0.25
 49
0.0
 49
-0.25
  0
ENDTAB
  0
TABLE
  2
LAYER
 70
    16
  0
LAYER
  2
CSLAYER1
 70
    64
 62
     7
  6
CONTINUOUS
  0
LAYER
  2
CSLAYER2
 70
    64
 62
     7
  6
CONTINUOUS
  0
LAYER
  2
CSLAYER3
 70
    64
 62
     7
  6
CONTINUOUS
  0
LAYER
  2
CSLAYER4
 70
    64
 62
     7
  6
CONTINUOUS
  0
LAYER
  2
CSLAYER5
 70
    64
 62
     7
  6
CONTINUOUS
  0
LAYER
  2
CSLAYER6
 70
    64
 62
     7
  6
CONTINUOUS
  0
LAYER
  2
CSLAYER7
 70
    64
 62
     7
  6
CONTINUOUS
  0
LAYER
  2
CSLAYER8
 70
    64
 62
     7
  6
CONTINUOUS
  0
LAYER
  2
CSLAYER9
 70
    64
 62
     7
  6
CONTINUOUS
  0
LAYER
  2
CSLAYER10
 70
    64
 62
     7
  6
CONTINUOUS
  0
LAYER
  2
CSLAYER11
 70
    64
 62
     7
  6
CONTINUOUS
  0
LAYER
  2
CSLAYER12
 70
    64
 62
     7
  6
CONTINUOUS
  0
LAYER
  2
CSLAYER13
 70
    64
 62
     7
  6
CONTINUOUS
  0
LAYER
  2
CSLAYER14
 70
    64
 62
     7
  6
CONTINUOUS
  0
LAYER
  2
CSLAYER15
 70
    64
 62
     7
  6
CONTINUOUS
  0
LAYER
  2
CSLAYER16
 70
    64
 62
     7
  6
CONTINUOUS
  0
ENDTAB
  0
TABLE
  2
STYLE
 70
     1
  0
STYLE
  2
JX_FONT
 70
     0
 40
1.0
 41
1.0
 50
0.0
 71
     0
 42
1.0
  3
monotxt
  4
bigfont
  0
ENDTAB
  0
TABLE
  2
VIEW
 70
     0
  0
ENDTAB
  0
ENDSEC
  0
SECTION
  2
BLOCKS
  0
ENDSEC
  0
SECTION
  2
ENTITIES
  0
LINE
  8
CSLAYER1
  6
CENTER
 62
     3
 10
182.728700
 20
166.702046
 11
182.728700
 21
105.130513
  0
LINE
  8
CSLAYER1
  6
CENTER
 62
     3
 10
141.428700
 20
153.702031
 11
315.228700
 21
153.702031
  0
LINE
  8
CSLAYER1
  6
CENTER
 62
     3
 10
366.228700
 20
118.702031
 11
366.228700
 21
188.702031
  0
CIRCLE
  8
CSLAYER1
  6
CONTINUOUS
 62
     6
 10
366.228700
 20
153.702046
 40
4.000000
  0
LINE
  8
CSLAYER1
  6
CENTER
 62
     3
 10
401.228700
 20
153.702031
 11
331.228700
 21
153.702031
  0
LINE
  8
CSLAYER1
  6
CENTER
 62
     3
 10
84.728700
 20
188.702031
 11
84.728715
 21
105.042732
  0
LINE
  8
CSLAYER1
  6
CENTER
 62
     3
 10
119.728706
 20
153.702031
 11
49.728706
 21
153.702031
  0
ARC
  8
CSLAYER1
  6
CENTER
 62
     3
 10
366.228700
 20
153.702046
 40
24.000000
 50
294.927254
 51
335.072670
  0
LINE
  8
CSLAYER1
  6
CENTER
 62
     3
 10
388.179078
 20
131.751652
 11
378.219424
 21
141.711291
  0
ARC
  8
CSLAYER1
  6
CENTER
 62
     3
 10
366.228700
 20
153.702015
 40
24.000000
 50
114.927254
 51
155.072670
  0
LINE
  8
CSLAYER1
  6
CENTER
 62
     3
 10
344.278321
 20
175.652409
 11
354.237975
 21
165.692770
  0
CIRCLE
  8
CSLAYER1
  6
CONTINUOUS
 62
     6
 10
371.855212
 20
143.928876
 40
1.181817
  0
ARC
  8
CSLAYER1
  6
CONTINUOUS
 62
     6
 10
371.855212
 20
143.928876
 40
2.532799
 50
50.235874
 51
203.481567
  0
LINE
  8
CSLAYER1
  6
CONTINUOUS
 62
     6
 10
369.532150
 20
142.919689
 11
370.036861
 21
141.272346
  0
CIRCLE
  8
CSLAYER1
  6
CONTINUOUS
 62
     6
 10
360.602188
 20
143.928876
 40
1.181817
  0
ARC
  8
CSLAYER1
  6
CONTINUOUS
 62
     6
 10
360.602188
 20
143.928876
 40
2.532799
 50
-23.481552
 51
129.764124
  0
LINE
  8
CSLAYER1
  6
CONTINUOUS
 62
     6
 10
362.925249
 20
142.919689
 11
362.420539
 21
141.272346
  0
ARC
  8
CSLAYER1
  6
CONTINUOUS
 62
     6
 10
366.228700
 20
153.014680
 40
11.323712
 50
-37.903087
 51
217.903071
  0
ARC
  8
CSLAYER1
  6
CONTINUOUS
 62
     6
 10
374.231183
 20
146.784257
 40
1.181817
 50
230.236306
 51
322.096613
  0
ARC
  8
CSLAYER1
  6
CONTINUOUS
 62
     6
 10
358.226217
 20
146.784257
 40
1.181817
 50
217.903402
 51
309.763723
  0
LINE
  8
CSLAYER1
  6
CONTINUOUS
 62
     6
 10
86.928727
 20
118.178612
 11
86.928704
 21
123.782795
  0
LINE
  8
CSLAYER1
  6
CONTINUOUS
 62
     6
 10
82.528730
 20
118.178612
 11
82.528706
 21
123.782795
  0
LINE
  8
CSLAYER1
  6
CONTINUOUS
 62
     6
 10
84.728723
 20
118.178612
 11
84.728707
 21
123.782795
  0
ARC
  8
CSLAYER1
  6
CONTINUOUS
 62
     6
 10
100.487565
 20
115.178597
 40
15.758816
 50
179.999950
 51
207.463868
  0
ARC
  8
CSLAYER1
  6
CONTINUOUS
 62
     6
 10
100.487565
 20
115.178597
 40
13.558834
 50
179.999978
 51
207.463868
  0
ARC
  8
CSLAYER1
  6
CONTINUOUS
 62
     6
 10
85.278749
 20
119.131234
 40
1.099999
 50
239.999870
 51
299.999858
  0
ARC
  8
CSLAYER1
  6
CONTINUOUS
 62
     6
 10
86.378747
 20
119.131234
 40
1.099999
 50
239.999870
 51
299.999858
  0
ARC
  8
CSLAYER1
  6
CONTINUOUS
 62
     6
 10
86.378740
 20
117.225991
 40
1.099999
 50
59.999858
 51
119.999853
  0
ARC
  8
CSLAYER1
  6
CONTINUOUS
 62
     6
 10
86.378732
 20
114.225960
 40
1.099999
 50
59.999715
 51
119.999716
  0
ARC
  8
CSLAYER1
  6
CONTINUOUS
 62
     6
 10
85.278734
 20
114.225975
 40
1.099999
 50
59.999715
 51
119.999716
  0
ARC
  8
CSLAYER1
  6
CONTINUOUS
 62
     6
 10
85.278741
 20
116.131234
 40
1.099999
 50
239.999733
 51
299.999721
  0
LINE
  8
CSLAYER1
  6
CONTINUOUS
 62
     6
 10
87.799173
 20
108.583611
 11
89.416337
 21
105.645554
  0
LINE
  8
CSLAYER1
  6
CONTINUOUS
 62
     6
 10
87.310243
 20
108.329491
 11
88.887033
 21
105.322091
  0
LINE
  8
CSLAYER1
  6
CONTINUOUS
 62
     6
 10
86.912103
 20
108.122551
 11
88.313615
 21
105.042733
  0
LINE
  8
CSLAYER1
  6
CONTINUOUS
 62
     6
 10
88.456788
 20
108.925423
 11
86.504739
 21
107.910805
  0
ARC
  8
CSLAYER1
  6
CONTINUOUS
 62
     6
 10
68.969888
 20
115.178582
 40
15.758816
 50
-27.463808
 51
0.000109
  0
ARC
  8
CSLAYER1
  6
CONTINUOUS
 62
     6
 10
68.969888
 20
115.178582
 40
13.558834
 50
-27.463808
 51
0.000082
  0
ARC
  8
CSLAYER1
  6
CONTINUOUS
 62
     6
 10
83.078706
 20
119.131234
 40
1.099999
 50
240.000198
 51
300.000186
  0
ARC
  8
CSLAYER1
  6
CONTINUOUS
 62
     6
 10
84.178705
 20
119.131234
 40
1.099999
 50
240.000198
 51
300.000186
  0
ARC
  8
CSLAYER1
  6
CONTINUOUS
 62
     6
 10
84.178712
 20
117.225991
 40
1.099999
 50
60.000186
 51
120.000181
  0
ARC
  8
CSLAYER1
  6
CONTINUOUS
 62
     6
 10
84.178727
 20
114.225991
 40
1.099999
 50
60.000350
 51
120.000345
  0
ARC
  8
CSLAYER1
  6
CONTINUOUS
 62
     6
 10
83.078729
 20
114.225975
 40
1.099999
 50
60.000350
 51
120.000345
  0
ARC
  8
CSLAYER1
  6
CONTINUOUS
 62
     6
 10
83.078718
 20
116.131234
 40
1.099999
 50
240.000362
 51
300.000350
  0
LINE
  8
CSLAYER1
  6
CONTINUOUS
 62
     6
 10
81.658288
 20
108.583626
 11
80.041127
 21
105.645554
  0
LINE
  8
CSLAYER1
  6
CONTINUOUS
 62
     6
 10
82.147207
 20
108.329491
 11
80.570421
 21
105.322075
  0
LINE
  8
CSLAYER1
  6
CONTINUOUS
 62
     6
 10
82.545350
 20
108.122536
 11
81.143846
 21
105.042733
  0
LINE
  8
CSLAYER1
  6
CONTINUOUS
 62
     6
 10
81.000661
 20
108.925423
 11
82.952714
 21
107.910805
  0
ARC
  8
CSLAYER1
  6
CONTINUOUS
 62
     6
 10
84.728700
 20
153.702031
 40
15.000000
 50
-0.000000
 51
180.000000
  0
ARC
  8
CSLAYER1
  6
CONTINUOUS
 62
     6
 10
84.728700
 20
153.702031
 40
12.000000
 50
15.000000
 51
65.000000
  0
LINE
  8
CSLAYER1
  6
CONTINUOUS
 62
     6
 10
89.800119
 20
164.577724
 11
91.067973
 21
167.296647
  0
LINE
  8
CSLAYER1
  6
CONTINUOUS
 62
     6
 10
96.319809
 20
156.807859
 11
99.217587
 21
157.584316
  0
ARC
  8
CSLAYER1
  6
CONTINUOUS
 62
     6
 10
84.728700
 20
153.702031
 40
12.000000
 50
115.000000
 51
165.000000
  0
LINE
  8
CSLAYER1
  6
CONTINUOUS
 62
     6
 10
79.657280
 20
164.577724
 11
78.389426
 21
167.296647
  0
LINE
  8
CSLAYER1
  6
CONTINUOUS
 62
     6
 10
73.137590
 20
156.807859
 11
70.239812
 21
157.584316
  0
LINE
  8
CSLAYER1
  6
CONTINUOUS
 62
     6
 10
99.728700
 20
153.702031
 11
99.728700
 21
129.502031
  0
LINE
  8
CSLAYER1
  6
CONTINUOUS
 62
     6
 10
97.728700
 20
127.502031
 11
71.728700
 21
127.502031
  0
LINE
  8
CSLAYER1
  6
CONTINUOUS
 62
     6
 10
69.728700
 20
153.702031
 11
69.728700
 21
129.502031
  0
ARC
  8
CSLAYER1
  6
CONTINUOUS
 62
     6
 10
97.728700
 20
129.502031
 40
2.000000
 50
270.000000
 51
360.000000
  0
ARC
  8
CSLAYER1
  6
CONTINUOUS
 62
     6
 10
71.728700
 20
129.502031
 40
2.000000
 50
180.000000
 51
270.000000
  0
LINE
  8
CSLAYER1
  6
CONTINUOUS
 62
     6
 10
96.228700
 20
129.702031
 11
73.228700
 21
129.702031
  0
LINE
  8
CSLAYER1
  6
CONTINUOUS
 62
     6
 10
91.228700
 20
133.902031
 11
78.228700
 21
133.902031
  0
LINE
  8
CSLAYER1
  6
CONTINUOUS
 62
     6
 10
97.728700
 20
131.902031
 11
97.728700
 21
131.202031
  0
ARC
  8
CSLAYER1
  6
CONTINUOUS
 62
     6
 10
96.228700
 20
131.202031
 40
1.500000
 50
270.000000
 51
360.000000
  0
LINE
  8
CSLAYER1
  6
CONTINUOUS
 62
     6
 10
71.728700
 20
131.902031
 11
71.728700
 21
131.202031
  0
ARC
  8
CSLAYER1
  6
CONTINUOUS
 62
     6
 10
73.228700
 20
131.202031
 40
1.500000
 50
180.000000
 51
270.000000
  0
LINE
  8
CSLAYER1
  6
CONTINUOUS
 62
     6
 10
97.728700
 20
131.902031
 11
93.228700
 21
131.902031
  0
LINE
  8
CSLAYER1
  6
CONTINUOUS
 62
     6
 10
76.228700
 20
131.902031
 11
71.728700
 21
131.902031
  0
ARC
  8
CSLAYER1
  6
CONTINUOUS
 62
     6
 10
78.228700
 20
132.902031
 40
1.000000
 50
90.000000
 51
180.000000
  0
ARC
  8
CSLAYER1
  6
CONTINUOUS
 62
     6
 10
76.228700
 20
132.902031
 40
1.000000
 50
270.000000
 51
360.000000
  0
ARC
  8
CSLAYER1
  6
CONTINUOUS
 62
     6
 10
91.228700
 20
132.902031
 40
1.000000
 50
0.000000
 51
90.000000
  0
ARC
  8
CSLAYER1
  6
CONTINUOUS
 62
     6
 10
93.228700
 20
132.902031
 40
1.000000
 50
180.000000
 51
270.000000
  0
LINE
  8
CSLAYER1
  6
CONTINUOUS
 62
     6
 10
85.478700
 20
133.902031
 11
85.478700
 21
132.402031
  0
LINE
  8
CSLAYER1
  6
CONTINUOUS
 62
     6
 10
85.103700
 20
125.377031
 11
84.728700
 21
125.002031
  0
LINE
  8
CSLAYER1
  6
CONTINUOUS
 62
     6
 10
83.978700
 20
133.902031
 11
83.978700
 21
132.402031
  0
TEXT
  8
CSLAYER1
 62
     3
 10
78.674385
 20
134.492386
 40
2.000000
 41
1.500000
  1
1
 50
0.000000
 51
10.000000
  7
JX_FONT
 72
     5
 11
80.674385
 21
134.492386
  0
TEXT
  8
CSLAYER1
 62
     3
 10
81.174385
 20
134.492386
 40
2.000000
 41
1.500000
  1
2
 50
0.000000
 51
10.000000
  7
JX_FONT
 72
     5
 11
83.174385
 21
134.492386
  0
TEXT
  8
CSLAYER1
 62
     3
 10
83.674385
 20
134.492386
 40
2.000000
 41
1.500000
  1
3
 50
0.000000
 51
10.000000
  7
JX_FONT
 72
     5
 11
85.674385
 21
134.492386
  0
TEXT
  8
CSLAYER1
 62
     3
 10
86.174385
 20
134.492386
 40
2.000000
 41
1.500000
  1
4
 50
0.000000
 51
10.000000
  7
JX_FONT
 72
     5
 11
88.174385
 21
134.492386
  0
TEXT
  8
CSLAYER1
 62
     3
 10
88.674377
 20
134.492386
 40
2.000000
 41
1.500000
  1
5
 50
0.000000
 51
10.000000
  7
JX_FONT
 72
     5
 11
90.674377
 21
134.492386
  0
TEXT
  8
CSLAYER1
 62
     6
 10
73.419167
 20
135.533905
 40
2.000000
 41
0.934615
  1
HEDS-5500
 50
90.000000
 51
0.000000
  7
JX_FONT
 72
     5
 11
73.419167
 21
151.733905
  0
CIRCLE
  8
CSLAYER1
  6
CONTINUOUS
 62
     6
 10
84.728700
 20
153.702031
 40
7.500000
  0
LINE
  8
CSLAYER1
  6
CONTINUOUS
 62
     6
 10
80.728700
 20
154.202031
 11
88.728700
 21
154.202031
  0
LINE
  8
CSLAYER1
  6
CONTINUOUS
 62
     6
 10
88.728700
 20
154.202031
 11
88.728700
 21
153.202031
  0
LINE
  8
CSLAYER1
  6
CONTINUOUS
 62
     6
 10
88.728700
 20
153.202031
 11
80.728700
 21
153.202031
  0
LINE
  8
CSLAYER1
  6
CONTINUOUS
 62
     6
 10
80.728700
 20
153.202031
 11
80.728700
 21
154.202031
  0
ARC
  8
CSLAYER1
  6
CONTINUOUS
 62
     6
 10
84.728700
 20
153.702031
 40
9.250000
 50
77.513110
 51
102.486890
  0
LINE
  8
CSLAYER1
  6
CONTINUOUS
 62
     6
 10
82.728700
 20
162.733226
 11
82.728700
 21
160.930447
  0
LINE
  8
CSLAYER1
  6
CONTINUOUS
 62
     6
 10
86.728700
 20
162.733226
 11
86.728700
 21
160.930447
  0
ARC
  8
CSLAYER1
  6
CONTINUOUS
 62
     6
 10
84.728700
 20
153.702031
 40
9.250000
 50
197.513110
 51
222.486890
  0
LINE
  8
CSLAYER1
  6
CONTINUOUS
 62
     6
 10
77.907454
 20
147.454382
 11
79.468708
 21
148.355772
  0
LINE
  8
CSLAYER1
  6
CONTINUOUS
 62
     6
 10
75.907454
 20
150.918483
 11
77.468708
 21
151.819873
  0
ARC
  8
CSLAYER1
  6
CONTINUOUS
 62
     6
 10
84.728700
 20
153.702031
 40
9.250000
 50
317.513110
 51
342.486890
  0
LINE
  8
CSLAYER1
  6
CONTINUOUS
 62
     6
 10
93.549945
 20
150.918483
 11
91.988692
 21
151.819873
  0
LINE
  8
CSLAYER1
  6
CONTINUOUS
 62
     6
 10
91.549945
 20
147.454382
 11
89.988692
 21
148.355772
  0
LINE
  8
CSLAYER1
  6
CONTINUOUS
 62
     6
 10
85.478700
 20
132.402031
 11
85.103700
 21
131.902031
  0
LINE
  8
CSLAYER1
  6
CONTINUOUS
 62
     6
 10
85.103700
 20
131.902031
 11
85.103700
 21
129.702031
  0
LINE
  8
CSLAYER1
  6
CONTINUOUS
 62
     6
 10
85.103700
 20
127.502031
 11
85.103700
 21
125.377031
  0
LINE
  8
CSLAYER1
  6
CONTINUOUS
 62
     6
 10
84.353700
 20
125.377031
 11
84.728700
 21
125.002031
  0
LINE
  8
CSLAYER1
  6
CONTINUOUS
 62
     6
 10
83.978700
 20
132.402031
 11
84.353700
 21
131.902031
  0
LINE
  8
CSLAYER1
  6
CONTINUOUS
 62
     6
 10
84.353700
 20
131.902031
 11
84.353700
 21
129.702031
  0
LINE
  8
CSLAYER1
  6
CONTINUOUS
 62
     6
 10
84.353700
 20
127.502031
 11
84.353700
 21
125.377031
  0
LINE
  8
CSLAYER1
  6
CONTINUOUS
 62
     6
 10
87.978700
 20
133.902031
 11
87.978700
 21
132.402031
  0
LINE
  8
CSLAYER1
  6
CONTINUOUS
 62
     6
 10
87.603700
 20
125.377031
 11
87.228700
 21
125.002031
  0
LINE
  8
CSLAYER1
  6
CONTINUOUS
 62
     6
 10
86.478700
 20
133.902031
 11
86.478700
 21
132.402031
  0
LINE
  8
CSLAYER1
  6
CONTINUOUS
 62
     6
 10
87.978700
 20
132.402031
 11
87.603700
 21
131.902031
  0
LINE
  8
CSLAYER1
  6
CONTINUOUS
 62
     6
 10
87.603700
 20
131.902031
 11
87.603700
 21
129.702031
  0
LINE
  8
CSLAYER1
  6
CONTINUOUS
 62
     6
 10
87.603700
 20
127.502031
 11
87.603700
 21
125.377031
  0
LINE
  8
CSLAYER1
  6
CONTINUOUS
 62
     6
 10
86.853700
 20
125.377031
 11
87.228700
 21
125.002031
  0
LINE
  8
CSLAYER1
  6
CONTINUOUS
 62
     6
 10
86.478700
 20
132.402031
 11
86.853700
 21
131.902031
  0
LINE
  8
CSLAYER1
  6
CONTINUOUS
 62
     6
 10
86.853700
 20
131.902031
 11
86.853700
 21
129.702031
  0
LINE
  8
CSLAYER1
  6
CONTINUOUS
 62
     6
 10
86.853700
 20
127.502031
 11
86.853700
 21
125.377031
  0
LINE
  8
CSLAYER1
  6
CONTINUOUS
 62
     6
 10
90.478700
 20
133.902031
 11
90.478700
 21
132.402031
  0
LINE
  8
CSLAYER1
  6
CONTINUOUS
 62
     6
 10
90.103700
 20
125.377031
 11
89.728700
 21
125.002031
  0
LINE
  8
CSLAYER1
  6
CONTINUOUS
 62
     6
 10
88.978700
 20
133.902031
 11
88.978700
 21
132.402031
  0
LINE
  8
CSLAYER1
  6
CONTINUOUS
 62
     6
 10
90.478700
 20
132.402031
 11
90.103700
 21
131.902031
  0
LINE
  8
CSLAYER1
  6
CONTINUOUS
 62
     6
 10
90.103700
 20
131.902031
 11
90.103700
 21
129.702031
  0
LINE
  8
CSLAYER1
  6
CONTINUOUS
 62
     6
 10
90.103700
 20
127.502031
 11
90.103700
 21
125.377031
  0
LINE
  8
CSLAYER1
  6
CONTINUOUS
 62
     6
 10
89.353700
 20
125.377031
 11
89.728700
 21
125.002031
  0
LINE
  8
CSLAYER1
  6
CONTINUOUS
 62
     6
 10
88.978700
 20
132.402031
 11
89.353700
 21
131.902031
  0
LINE
  8
CSLAYER1
  6
CONTINUOUS
 62
     6
 10
89.353700
 20
131.902031
 11
89.353700
 21
129.702031
  0
LINE
  8
CSLAYER1
  6
CONTINUOUS
 62
     6
 10
89.353700
 20
127.502031
 11
89.353700
 21
125.377031
  0
LINE
  8
CSLAYER1
  6
CONTINUOUS
 62
     6
 10
81.478700
 20
133.902031
 11
81.478700
 21
132.402031
  0
LINE
  8
CSLAYER1
  6
CONTINUOUS
 62
     6
 10
81.853700
 20
125.377031
 11
82.228700
 21
125.002031
  0
LINE
  8
CSLAYER1
  6
CONTINUOUS
 62
     6
 10
82.978700
 20
133.902031
 11
82.978700
 21
132.402031
  0
LINE
  8
CSLAYER1
  6
CONTINUOUS
 62
     6
 10
81.478700
 20
132.402031
 11
81.853700
 21
131.902031
  0
LINE
  8
CSLAYER1
  6
CONTINUOUS
 62
     6
 10
81.853700
 20
131.902031
 11
81.853700
 21
129.702031
  0
LINE
  8
CSLAYER1
  6
CONTINUOUS
 62
     6
 10
81.853700
 20
127.502031
 11
81.853700
 21
125.377031
  0
LINE
  8
CSLAYER1
  6
CONTINUOUS
 62
     6
 10
82.603700
 20
125.377031
 11
82.228700
 21
125.002031
  0
LINE
  8
CSLAYER1
  6
CONTINUOUS
 62
     6
 10
82.978700
 20
132.402031
 11
82.603700
 21
131.902031
  0
LINE
  8
CSLAYER1
  6
CONTINUOUS
 62
     6
 10
82.603700
 20
131.902031
 11
82.603700
 21
129.702031
  0
LINE
  8
CSLAYER1
  6
CONTINUOUS
 62
     6
 10
82.603700
 20
127.502031
 11
82.603700
 21
125.377031
  0
LINE
  8
CSLAYER1
  6
CONTINUOUS
 62
     6
 10
78.978700
 20
133.902031
 11
78.978700
 21
132.402031
  0
LINE
  8
CSLAYER1
  6
CONTINUOUS
 62
     6
 10
79.353700
 20
125.377031
 11
79.728700
 21
125.002031
  0
LINE
  8
CSLAYER1
  6
CONTINUOUS
 62
     6
 10
80.478700
 20
133.902031
 11
80.478700
 21
132.402031
  0
LINE
  8
CSLAYER1
  6
CONTINUOUS
 62
     6
 10
78.978700
 20
132.402031
 11
79.353700
 21
131.902031
  0
LINE
  8
CSLAYER1
  6
CONTINUOUS
 62
     6
 10
79.353700
 20
131.902031
 11
79.353700
 21
129.702031
  0
LINE
  8
CSLAYER1
  6
CONTINUOUS
 62
     6
 10
79.353700
 20
127.502031
 11
79.353700
 21
125.377031
  0
LINE
  8
CSLAYER1
  6
CONTINUOUS
 62
     6
 10
80.103700
 20
125.377031
 11
79.728700
 21
125.002031
  0
LINE
  8
CSLAYER1
  6
CONTINUOUS
 62
     6
 10
80.478700
 20
132.402031
 11
80.103700
 21
131.902031
  0
LINE
  8
CSLAYER1
  6
CONTINUOUS
 62
     6
 10
80.103700
 20
131.902031
 11
80.103700
 21
129.702031
  0
LINE
  8
CSLAYER1
  6
CONTINUOUS
 62
     6
 10
80.103700
 20
127.502031
 11
80.103700
 21
125.377031
  0
LINE
  8
CSLAYER1
  6
CONTINUOUS
 62
     6
 10
58.728700
 20
185.702031
 11
110.728669
 21
185.702031
  0
CIRCLE
  8
CSLAYER1
  6
CONTINUOUS
 62
     6
 10
110.728700
 20
179.702046
 40
2.250000
  0
LINE
  8
CSLAYER1
  6
CONTINUOUS
 62
     6
 10
52.728700
 20
127.702031
 11
52.728700
 21
179.702031
  0
ARC
  8
CSLAYER1
  6
CONTINUOUS
 62
     6
 10
110.728669
 20
179.702031
 40
6.000000
 50
0.000010
 51
90.000016
  0
LINE
  8
CSLAYER1
  6
CONTINUOUS
 62
     6
 10
116.728669
 20
127.702031
 11
116.728669
 21
179.702031
  0
LINE
  8
CSLAYER1
  6
CENTER
 62
     3
 10
115.948212
 20
179.702046
 11
105.478700
 21
179.702046
  0
LINE
  8
CSLAYER1
  6
CENTER
 62
     3
 10
110.728700
 20
174.452046
 11
110.728700
 21
184.952046
  0
LINE
  8
CSLAYER1
  6
CONTINUOUS
 62
     6
 10
82.528706
 20
121.702031
 11
58.728700
 21
121.702031
  0
LINE
  8
CSLAYER1
  6
CONTINUOUS
 62
     6
 10
86.928704
 20
121.702031
 11
110.728669
 21
121.702031
  0
CIRCLE
  8
CSLAYER1
  6
CONTINUOUS
 62
     6
 10
58.728684
 20
179.702031
 40
2.250000
  0
ARC
  8
CSLAYER1
  6
CONTINUOUS
 62
     6
 10
58.728700
 20
179.702000
 40
6.000000
 50
90.000010
 51
180.000016
  0
LINE
  8
CSLAYER1
  6
CENTER
 62
     3
 10
58.728684
 20
184.921543
 11
58.728684
 21
174.452031
  0
LINE
  8
CSLAYER1
  6
CENTER
 62
     3
 10
63.978684
 20
179.702031
 11
53.478684
 21
179.702031
  0
CIRCLE
  8
CSLAYER1
  6
CONTINUOUS
 62
     6
 10
58.728700
 20
127.702015
 40
2.250000
  0
ARC
  8
CSLAYER1
  6
CONTINUOUS
 62
     6
 10
58.728730
 20
127.702031
 40
6.000000
 50
180.000010
 51
270.000016
  0
LINE
  8
CSLAYER1
  6
CENTER
 62
     3
 10
53.509187
 20
127.702015
 11
63.978700
 21
127.702015
  0
LINE
  8
CSLAYER1
  6
CENTER
 62
     3
 10
58.728700
 20
132.952015
 11
58.728700
 21
122.452015
  0
ARC
  8
CSLAYER1
  6
CONTINUOUS
 62
     6
 10
110.728700
 20
127.702061
 40
6.000000
 50
-89.999990
 51
0.000016
  0
LINE
  8
CSLAYER1
  6
CENTER
 62
     3
 10
110.728715
 20
122.482518
 11
110.728715
 21
132.952031
  0
LINE
  8
CSLAYER1
  6
CENTER
 62
     3
 10
105.478715
 20
127.702031
 11
115.978715
 21
127.702031
  0
CIRCLE
  8
CSLAYER1
  6
CONTINUOUS
 62
     6
 10
110.728715
 20
127.702031
 40
2.250000
  0
CIRCLE
  8
CSLAYER1
  6
CONTINUOUS
 62
     6
 10
84.728700
 20
153.702015
 40
30.000000
  0
ARC
  8
CSLAYER1
  6
CONTINUOUS
 62
     6
 10
84.728700
 20
153.702015
 40
31.000000
 50
-85.930411
 51
265.930447
  0
LINE
  8
CSLAYER1
  6
CONTINUOUS
 62
     6
 10
160.028718
 20
166.071125
 11
160.028718
 21
168.702046
  0
LINE
  8
CSLAYER1
  6
CONTINUOUS
 62
     6
 10
148.252918
 20
167.296711
 11
148.252918
 21
157.584370
  0
LINE
  8
CSLAYER1
  6
CONTINUOUS
 62
     6
 10
154.236042
 20
164.773518
 11
154.236042
 21
163.737080
  0
LINE
  8
CSLAYER1
  6
CONTINUOUS
 62
     6
 10
144.519154
 20
167.296711
 11
148.252918
 21
167.296711
  0
LINE
  8
CSLAYER1
  6
CONTINUOUS
 62
     6
 10
148.252918
 20
157.584370
 11
144.428700
 21
157.584370
  0
LINE
  8
CSLAYER1
  6
CONTINUOUS
 62
     6
 10
154.236042
 20
164.773518
 11
148.252918
 21
164.773518
  0
LINE
  8
CSLAYER1
  6
CONTINUOUS
 62
     6
 10
154.236042
 20
163.737080
 11
148.252918
 21
163.737080
  0
ARC
  8
CSLAYER1
  6
CONTINUOUS
 62
     6
 10
146.428700
 20
129.502031
 40
2.000000
 50
180.000005
 51
270.000001
  0
LINE
  8
CSLAYER1
  6
CONTINUOUS
 62
     6
 10
144.428700
 20
166.702046
 11
144.428700
 21
129.502031
  0
LINE
  8
CSLAYER1
  6
CONTINUOUS
 62
     6
 10
156.408685
 20
125.002031
 11
157.048700
 21
125.002031
  0
LINE
  8
CSLAYER1
  6
CONTINUOUS
 62
     6
 10
156.408685
 20
127.502031
 11
156.408685
 21
125.002031
  0
LINE
  8
CSLAYER1
  6
CONTINUOUS
 62
     6
 10
157.048700
 20
127.502031
 11
157.048700
 21
125.002031
  0
LINE
  8
CSLAYER1
  6
CONTINUOUS
 62
     6
 10
146.428700
 20
127.502031
 11
162.728700
 21
127.502031
  0
LINE
  8
CSLAYER1
  6
CONTINUOUS
 62
     6
 10
146.428700
 20
168.702046
 11
162.728700
 21
168.702046
  0
LINE
  8
CSLAYER1
  6
CONTINUOUS
 62
     6
 10
148.252918
 20
166.071125
 11
162.728700
 21
166.071125
  0
LINE
  8
CSLAYER1
  6
CONTINUOUS
 62
     6
 10
148.252918
 20
162.641682
 11
162.728700
 21
162.641682
  0
CIRCLE
  8
CSLAYER1
  6
CONTINUOUS
 62
     6
 10
182.728700
 20
153.702046
 40
8.000000
  0
CIRCLE
  8
CSLAYER1
  6
CONTINUOUS
 62
     6
 10
182.728700
 20
153.702046
 40
5.500000
  0
LINE
  8
CSLAYER1
  6
CONTINUOUS
 62
     6
 10
185.478700
 20
154.502034
 11
179.978700
 21
154.502034
  0
LINE
  8
CSLAYER1
  6
CONTINUOUS
 62
     6
 10
185.478700
 20
152.902058
 11
179.978700
 21
152.902058
  0
LINE
  8
CSLAYER1
  6
CONTINUOUS
 62
     6
 10
179.978700
 20
154.502034
 11
179.978700
 21
152.902058
  0
LINE
  8
CSLAYER1
  6
CONTINUOUS
 62
     6
 10
185.478700
 20
154.502034
 11
185.478700
 21
152.902058
  0
LINE
  8
CSLAYER1
  6
CONTINUOUS
 62
     6
 10
163.728700
 20
124.225727
 11
163.728700
 21
183.178364
  0
CIRCLE
  8
CSLAYER1
  6
CONTINUOUS
 62
     3
 10
182.728700
 20
153.702046
 40
4.912286
  0
LINE
  8
CSLAYER1
  6
CONTINUOUS
 62
     6
 10
163.728700
 20
183.178364
 11
193.728730
 21
183.702046
  0
LINE
  8
CSLAYER1
  6
CONTINUOUS
 62
     6
 10
163.728700
 20
124.225727
 11
193.728730
 21
123.702046
  0
LINE
  8
CSLAYER1
  6
CONTINUOUS
 62
     6
 10
163.728700
 20
124.225727
 11
162.728700
 21
125.225727
  0
LINE
  8
CSLAYER1
  6
CONTINUOUS
 62
     6
 10
162.728700
 20
182.178364
 11
162.728700
 21
125.225727
  0
LINE
  8
CSLAYER1
  6
CONTINUOUS
 62
     3
 10
220.728715
 20
184.702035
 11
220.728715
 21
170.202004
  0
LINE
  8
CSLAYER1
  6
CONTINUOUS
 62
     3
 10
221.728715
 20
169.202004
 11
257.728700
 21
169.202004
  0
LINE
  8
CSLAYER1
  6
CONTINUOUS
 62
     3
 10
258.728700
 20
170.202004
 11
258.728700
 21
184.702035
  0
ARC
  8
CSLAYER1
  6
CONTINUOUS
 62
     3
 10
221.728715
 20
170.202004
 40
1.000000
 50
180.000005
 51
270.000001
  0
ARC
  8
CSLAYER1
  6
CONTINUOUS
 62
     3
 10
257.728700
 20
170.202004
 40
1.000000
 50
270.000001
 51
359.942691
  0
TEXT
  8
CSLAYER1
 62
     3
 10
237.098770
 20
182.316071
 40
3.500000
 41
1.125000
  1
N P
 50
-90.000000
 51
10.000000
  7
JX_FONT
 72
     5
 11
237.098770
 21
171.816071
  0
LINE
  8
CSLAYER1
  6
CONTINUOUS
 62
     6
 10
193.728700
 20
184.702035
 11
193.728700
 21
122.702035
  0
LINE
  8
CSLAYER1
  6
CONTINUOUS
 62
     6
 10
275.728700
 20
184.702035
 11
275.728700
 21
122.702035
  0
LINE
  8
CSLAYER1
  6
CONTINUOUS
 62
     6
 10
275.728700
 20
184.702035
 11
193.728700
 21
184.702035
  0
LINE
  8
CSLAYER1
  6
CONTINUOUS
 62
     6
 10
275.728700
 20
122.702035
 11
193.728700
 21
122.702035
  0
LINE
  8
CSLAYER1
  6
CONTINUOUS
 62
     6
 10
276.728700
 20
123.702035
 11
275.728700
 21
123.702035
  0
LINE
  8
CSLAYER1
  6
CONTINUOUS
 62
     6
 10
287.728700
 20
138.702035
 11
287.728700
 21
168.702035
  0
LINE
  8
CSLAYER1
  6
CONTINUOUS
 62
     6
 10
276.728700
 20
183.702035
 11
275.728700
 21
183.702035
  0
ARC
  8
CSLAYER1
  6
CONTINUOUS
 62
     6
 10
278.728700
 20
183.702035
 40
2.000000
 50
90.000003
 51
179.999991
  0
LINE
  8
CSLAYER1
  6
CONTINUOUS
 62
     6
 10
285.728700
 20
121.702004
 11
285.728700
 21
185.702035
  0
LINE
  8
CSLAYER1
  6
CONTINUOUS
 62
     6
 10
287.728700
 20
168.702035
 11
285.728700
 21
168.702035
  0
LINE
  8
CSLAYER1
  6
CONTINUOUS
 62
     6
 10
285.728700
 20
185.702035
 11
278.728700
 21
185.702035
  0
LINE
  8
CSLAYER1
  6
CONTINUOUS
 62
     6
 10
287.728700
 20
138.702035
 11
285.728700
 21
138.702035
  0
ARC
  8
CSLAYER1
  6
CONTINUOUS
 62
     6
 10
278.728700
 20
123.702004
 40
2.000000
 50
180.000005
 51
269.999973
  0
LINE
  8
CSLAYER1
  6
CONTINUOUS
 62
     6
 10
285.728700
 20
121.702004
 11
278.728700
 21
121.702004
  0
LINE
  8
CSLAYER1
  6
CONTINUOUS
 62
     6
 10
276.728700
 20
183.702035
 11
276.728700
 21
123.702004
  0
LINE
  8
CSLAYER1
  6
CENTER
 62
     3
 10
273.728700
 20
127.702019
 11
287.728700
 21
127.702019
  0
LINE
  8
CSLAYER1
  6
CENTER
 62
     3
 10
273.728706
 20
179.702029
 11
287.728706
 21
179.702026
  0
LINE
  8
CSLAYER1
  6
CONTINUOUS
 62
     6
 10
276.728684
 20
183.702050
 11
275.728684
 21
183.702050
  0
LINE
  8
CSLAYER1
  6
CONTINUOUS
 62
     6
 10
312.228700
 20
157.702035
 11
287.728700
 21
157.702035
  0
LINE
  8
CSLAYER1
  6
CONTINUOUS
 62
     6
 10
312.228700
 20
149.702035
 11
287.728715
 21
149.702035
  0
LINE
  8
CSLAYER1
  6
CONTINUOUS
 62
     6
 10
392.228700
 20
185.702031
 11
340.228761
 21
185.702031
  0
LINE
  8
CSLAYER1
  6
CONTINUOUS
 62
     6
 10
398.228700
 20
127.702031
 11
398.228700
 21
179.702031
  0
ARC
  8
CSLAYER1
  6
CONTINUOUS
 62
     6
 10
392.228700
 20
179.702031
 40
6.000000
 50
0.000000
 51
90.000003
  0
LINE
  8
CSLAYER1
  6
CONTINUOUS
 62
     6
 10
392.228700
 20
121.702031
 11
340.228761
 21
121.702031
  0
CIRCLE
  8
CSLAYER1
  6
CONTINUOUS
 62
     6
 10
366.228700
 20
153.702046
 40
15.000000
  0
CIRCLE
  8
CSLAYER1
  6
CONTINUOUS
 62
     6
 10
366.228700
 20
153.702046
 40
17.500000
  0
LINE
  8
CSLAYER1
  6
CONTINUOUS
 62
     6
 10
334.228761
 20
127.702031
 11
334.228761
 21
179.702031
  0
CIRCLE
  8
CSLAYER1
  6
CONTINUOUS
 62
     6
 10
366.228700
 20
153.702031
 40
13.000000
  0
ARC
  8
CSLAYER1
  6
CONTINUOUS
 62
     6
 10
340.228700
 20
179.702031
 40
6.000000
 50
90.000000
 51
180.000003
  0
ARC
  8
CSLAYER1
  6
CONTINUOUS
 62
     6
 10
340.228700
 20
127.702031
 40
6.000000
 50
180.000000
 51
270.000003
  0
ARC
  8
CSLAYER1
  6
CONTINUOUS
 62
     6
 10
392.228700
 20
127.702031
 40
6.000000
 50
269.999997
 51
360.000000
  0
CIRCLE
  8
CSLAYER1
  6
CONTINUOUS
 62
     6
 10
383.199220
 20
136.731480
 40
5.500000
  0
CIRCLE
  8
CSLAYER1
  6
CONTINUOUS
 62
     6
 10
349.258180
 20
170.672581
 40
5.500000
  0
CIRCLE
  8
CSLAYER1
  6
CONTINUOUS
 62
     6
 10
383.199220
 20
136.731480
 40
4.500000
  0
ARC
  8
CSLAYER1
  6
CONTINUOUS
 62
     6
 10
383.199220
 20
136.731480
 40
2.397500
 50
73.398434
 51
106.601595
  0
ARC
  8
CSLAYER1
  6
CONTINUOUS
 62
     6
 10
383.199220
 20
136.731480
 40
2.397500
 50
-16.601576
 51
16.601586
  0
ARC
  8
CSLAYER1
  6
CONTINUOUS
 62
     6
 10
383.199220
 20
136.731480
 40
2.397500
 50
253.398442
 51
286.601576
  0
ARC
  8
CSLAYER1
  6
CONTINUOUS
 62
     6
 10
383.199220
 20
136.731480
 40
2.397500
 50
163.398416
 51
196.601604
  0
LINE
  8
CSLAYER1
  6
CONTINUOUS
 62
     6
 10
383.884217
 20
135.361485
 11
383.884217
 21
134.433918
  0
LINE
  8
CSLAYER1
  6
CONTINUOUS
 62
     6
 10
383.884217
 20
138.101475
 11
383.884217
 21
139.029042
  0
LINE
  8
CSLAYER1
  6
CONTINUOUS
 62
     6
 10
382.514222
 20
135.361485
 11
382.514222
 21
134.433918
  0
LINE
  8
CSLAYER1
  6
CONTINUOUS
 62
     6
 10
382.514222
 20
138.101475
 11
382.514222
 21
139.029042
  0
LINE
  8
CSLAYER1
  6
CONTINUOUS
 62
     6
 10
384.569215
 20
137.416478
 11
385.496766
 21
137.416478
  0
LINE
  8
CSLAYER1
  6
CONTINUOUS
 62
     6
 10
381.829224
 20
137.416478
 11
380.901673
 21
137.416478
  0
LINE
  8
CSLAYER1
  6
CONTINUOUS
 62
     6
 10
384.569215
 20
136.046482
 11
385.496766
 21
136.046482
  0
LINE
  8
CSLAYER1
  6
CONTINUOUS
 62
     6
 10
381.829224
 20
136.046482
 11
380.901673
 21
136.046482
  0
ARC
  8
CSLAYER1
  6
CONTINUOUS
 62
     6
 10
384.569215
 20
135.361485
 40
0.685000
 50
90.000001
 51
179.942691
  0
ARC
  8
CSLAYER1
  6
CONTINUOUS
 62
     6
 10
381.829224
 20
135.361485
 40
0.685000
 50
0.000005
 51
90.000001
  0
ARC
  8
CSLAYER1
  6
CONTINUOUS
 62
     6
 10
381.829224
 20
138.101475
 40
0.685000
 50
-89.999991
 51
0.000005
  0
ARC
  8
CSLAYER1
  6
CONTINUOUS
 62
     6
 10
384.569215
 20
138.101475
 40
0.685000
 50
180.000000
 51
270.000009
  0
CIRCLE
  8
CSLAYER1
  6
CONTINUOUS
 62
     6
 10
349.258180
 20
170.672581
 40
4.500000
  0
ARC
  8
CSLAYER1
  6
CONTINUOUS
 62
     6
 10
349.258180
 20
170.672581
 40
2.397500
 50
253.398434
 51
286.601595
  0
ARC
  8
CSLAYER1
  6
CONTINUOUS
 62
     6
 10
349.258180
 20
170.672581
 40
2.397500
 50
163.398424
 51
196.601586
  0
ARC
  8
CSLAYER1
  6
CONTINUOUS
 62
     6
 10
349.258180
 20
170.672581
 40
2.397500
 50
73.398442
 51
106.601576
  0
ARC
  8
CSLAYER1
  6
CONTINUOUS
 62
     6
 10
349.258180
 20
170.672581
 40
2.397500
 50
-16.601584
 51
16.601604
  0
LINE
  8
CSLAYER1
  6
CONTINUOUS
 62
     6
 10
348.573182
 20
172.042576
 11
348.573182
 21
172.970143
  0
LINE
  8
CSLAYER1
  6
CONTINUOUS
 62
     6
 10
348.573182
 20
169.302586
 11
348.573182
 21
168.375019
  0
LINE
  8
CSLAYER1
  6
CONTINUOUS
 62
     6
 10
349.943177
 20
172.042576
 11
349.943177
 21
172.970143
  0
LINE
  8
CSLAYER1
  6
CONTINUOUS
 62
     6
 10
349.943177
 20
169.302586
 11
349.943177
 21
168.375019
  0
LINE
  8
CSLAYER1
  6
CONTINUOUS
 62
     6
 10
347.888184
 20
169.987583
 11
346.960633
 21
169.987583
  0
LINE
  8
CSLAYER1
  6
CONTINUOUS
 62
     6
 10
350.628175
 20
169.987583
 11
351.555726
 21
169.987583
  0
LINE
  8
CSLAYER1
  6
CONTINUOUS
 62
     6
 10
347.888184
 20
171.357579
 11
346.960633
 21
171.357579
  0
LINE
  8
CSLAYER1
  6
CONTINUOUS
 62
     6
 10
350.628175
 20
171.357579
 11
351.555726
 21
171.357579
  0
ARC
  8
CSLAYER1
  6
CONTINUOUS
 62
     6
 10
347.888184
 20
172.042576
 40
0.685000
 50
270.000001
 51
359.942691
  0
ARC
  8
CSLAYER1
  6
CONTINUOUS
 62
     6
 10
350.628175
 20
172.042576
 40
0.685000
 50
180.000005
 51
270.000001
  0
ARC
  8
CSLAYER1
  6
CONTINUOUS
 62
     6
 10
350.628175
 20
169.302586
 40
0.685000
 50
90.000009
 51
180.000005
  0
ARC
  8
CSLAYER1
  6
CONTINUOUS
 62
     6
 10
347.888184
 20
169.302586
 40
0.685000
 50
0.000000
 51
90.000009
  0
ARC
  8
CSLAYER1
  6
CONTINUOUS
 62
     6
 10
168.069886
 20
115.266377
 40
15.758816
 50
332.536202
 51
359.942691
  0
ARC
  8
CSLAYER1
  6
CONTINUOUS
 62
     6
 10
168.069886
 20
115.266377
 40
13.558834
 50
332.536202
 51
359.877558
  0
ARC
  8
CSLAYER1
  6
CONTINUOUS
 62
     6
 10
183.278703
 20
114.313816
 40
1.099999
 50
60.000350
 51
120.000345
  0
ARC
  8
CSLAYER1
  6
CONTINUOUS
 62
     6
 10
182.178712
 20
114.313801
 40
1.099999
 50
60.000350
 51
120.000345
  0
ARC
  8
CSLAYER1
  6
CONTINUOUS
 62
     6
 10
182.178696
 20
116.219059
 40
1.099999
 50
240.000362
 51
300.000350
  0
LINE
  8
CSLAYER1
  6
CONTINUOUS
 62
     6
 10
180.758271
 20
108.671467
 11
179.141114
 21
105.733357
  0
LINE
  8
CSLAYER1
  6
CONTINUOUS
 62
     6
 10
181.247193
 20
108.417317
 11
179.670411
 21
105.409870
  0
LINE
  8
CSLAYER1
  6
CONTINUOUS
 62
     6
 10
181.645326
 20
108.210347
 11
180.243836
 21
105.130574
  0
LINE
  8
CSLAYER1
  6
CONTINUOUS
 62
     6
 10
180.100648
 20
109.013264
 11
182.052705
 21
107.998616
  0
ARC
  8
CSLAYER1
  6
CONTINUOUS
 62
     6
 10
197.387544
 20
115.266377
 40
15.758816
 50
201.534143
 51
207.463868
  0
ARC
  8
CSLAYER1
  6
CONTINUOUS
 62
     6
 10
197.387544
 20
115.266377
 40
13.558834
 50
179.999978
 51
207.463868
  0
LINE
  8
CSLAYER1
  6
CONTINUOUS
 62
     6
 10
184.699159
 20
108.671406
 11
186.316346
 21
105.733357
  0
LINE
  8
CSLAYER1
  6
CONTINUOUS
 62
     6
 10
184.210236
 20
108.417317
 11
185.787019
 21
105.409870
  0
LINE
  8
CSLAYER1
  6
CONTINUOUS
 62
     6
 10
183.812104
 20
108.210347
 11
185.213624
 21
105.130513
  0
LINE
  8
CSLAYER1
  6
CONTINUOUS
 62
     6
 10
185.356782
 20
109.013203
 11
183.404725
 21
107.998616
  0
ARC
  8
CSLAYER1
  6
CONTINUOUS
 62
     6
 10
182.178727
 20
119.131245
 40
1.100006
 50
240.000007
 51
299.999995
  0
ARC
  8
CSLAYER1
  6
CONTINUOUS
 62
     6
 10
183.278733
 20
119.131245
 40
1.100006
 50
240.000007
 51
299.999995
  0
ARC
  8
CSLAYER1
  6
CONTINUOUS
 62
     6
 10
183.278733
 20
117.225972
 40
1.100006
 50
60.000002
 51
120.000003
  0
LINE
  8
CSLAYER1
  6
CONTINUOUS
 62
     6
 10
183.828736
 20
123.874897
 11
183.828736
 21
118.178608
  0
LINE
  8
CSLAYER1
  6
CONTINUOUS
 62
     6
 10
181.628724
 20
123.912190
 11
181.628724
 21
118.178608
  0
LINE
  8
CSLAYER1
  6
CENTER
 62
     3
 10
340.228700
 20
184.641301
 11
340.228700
 21
174.702031
  0
LINE
  8
CSLAYER1
  6
CENTER
 62
     3
 10
345.228700
 20
179.702031
 11
335.228700
 21
179.702031
  0
CIRCLE
  8
CSLAYER1
  6
CONTINUOUS
 62
     6
 10
340.228700
 20
179.702031
 40
2.250000
  0
LINE
  8
CSLAYER1
  6
CENTER
 62
     3
 10
397.167970
 20
179.702031
 11
387.228700
 21
179.702031
  0
LINE
  8
CSLAYER1
  6
CENTER
 62
     3
 10
392.228700
 20
174.702031
 11
392.228700
 21
184.702031
  0
CIRCLE
  8
CSLAYER1
  6
CONTINUOUS
 62
     6
 10
392.228700
 20
179.702031
 40
2.250000
  0
LINE
  8
CSLAYER1
  6
CENTER
 62
     3
 10
335.289430
 20
127.702031
 11
345.228700
 21
127.702031
  0
LINE
  8
CSLAYER1
  6
CENTER
 62
     3
 10
340.228700
 20
132.702031
 11
340.228700
 21
122.702031
  0
CIRCLE
  8
CSLAYER1
  6
CONTINUOUS
 62
     6
 10
340.228700
 20
127.702031
 40
2.250000
  0
LINE
  8
CSLAYER1
  6
CENTER
 62
     3
 10
397.167970
 20
127.702031
 11
387.228700
 21
127.702031
  0
LINE
  8
CSLAYER1
  6
CENTER
 62
     3
 10
392.228700
 20
132.702031
 11
392.228700
 21
122.702031
  0
CIRCLE
  8
CSLAYER1
  6
CONTINUOUS
 62
     6
 10
392.228700
 20
127.702031
 40
2.250000
  0
LINE
  8
CSLAYER1
  6
CONTINUOUS
 62
     6
 10
312.228700
 20
149.702035
 11
312.228700
 21
157.702035
  0
LINE
  8
CSLAYER1
  6
CENTER
 62
     3
 10
182.728700
 20
70.702000
 11
182.728700
 21
48.702000
  0
LINE
  8
CSLAYER1
  6
CENTER
 62
     3
 10
141.428700
 20
59.702000
 11
315.228700
 21
59.702000
  0
LINE
  8
CSLAYER1
  6
CONTINUOUS
 62
     6
 10
193.728700
 20
90.702004
 11
193.728700
 21
28.702004
  0
LINE
  8
CSLAYER1
  6
CONTINUOUS
 62
     6
 10
275.728700
 20
90.702004
 11
193.728700
 21
90.702004
  0
LINE
  8
CSLAYER1
  6
CONTINUOUS
 62
     6
 10
275.728700
 20
28.702004
 11
193.728700
 21
28.702004
  0
LINE
  8
CSLAYER1
  6
CONTINUOUS
 62
     6
 10
275.728700
 20
28.702011
 11
275.728700
 21
90.702011
  0
LINE
  8
CSLAYER1
  6
CONTINUOUS
 62
     6
 10
163.728700
 20
30.225697
 11
163.728700
 21
89.178334
  0
LINE
  8
CSLAYER1
  6
CONTINUOUS
 62
     6
 10
163.728700
 20
89.178334
 11
193.728730
 21
89.702015
  0
LINE
  8
CSLAYER1
  6
CONTINUOUS
 62
     6
 10
163.728700
 20
89.178334
 11
162.728700
 21
88.178334
  0
LINE
  8
CSLAYER1
  6
CONTINUOUS
 62
     6
 10
163.728700
 20
30.225697
 11
193.728730
 21
29.702015
  0
LINE
  8
CSLAYER1
  6
CONTINUOUS
 62
     6
 10
163.728700
 20
30.225697
 11
162.728700
 21
31.225697
  0
LINE
  8
CSLAYER1
  6
CONTINUOUS
 62
     6
 10
162.728700
 20
88.178334
 11
162.728700
 21
31.225697
  0
LINE
  8
CSLAYER1
  6
CONTINUOUS
 62
     6
 10
182.728700
 20
59.702000
 11
178.451322
 21
59.702000
  0
LINE
  8
CSLAYER1
  6
CONTINUOUS
 62
     6
 10
182.728700
 20
61.901982
 11
178.451322
 21
61.901982
  0
ARC
  8
CSLAYER1
  6
CONTINUOUS
 62
     6
 10
175.539091
 20
75.460850
 40
15.758816
 50
242.536193
 51
269.942682
  0
ARC
  8
CSLAYER1
  6
CONTINUOUS
 62
     6
 10
175.539091
 20
75.460850
 40
13.558834
 50
242.536193
 51
269.942682
  0
LINE
  8
CSLAYER1
  6
CONTINUOUS
 62
     6
 10
168.944151
 20
62.772465
 11
166.006071
 21
64.389591
  0
LINE
  8
CSLAYER1
  6
CONTINUOUS
 62
     6
 10
169.285948
 20
63.430058
 11
168.271330
 21
61.478031
  0
ARC
  8
CSLAYER1
  6
CONTINUOUS
 62
     6
 10
179.403959
 20
61.352009
 40
1.100006
 50
149.999997
 51
209.999999
  0
ARC
  8
CSLAYER1
  6
CONTINUOUS
 62
     6
 10
179.403959
 20
60.252003
 40
1.100006
 50
149.999997
 51
209.999999
  0
ARC
  8
CSLAYER1
  6
CONTINUOUS
 62
     6
 10
177.498686
 20
60.252003
 40
1.100006
 50
-30.000011
 51
29.999977
  0
ARC
  8
CSLAYER1
  6
CONTINUOUS
 62
     6
 10
175.539091
 20
43.943150
 40
13.558834
 50
89.999975
 51
117.463872
  0
LINE
  8
CSLAYER1
  6
CONTINUOUS
 62
     6
 10
168.944120
 20
56.631535
 11
166.006040
 21
55.014378
  0
LINE
  8
CSLAYER1
  6
CONTINUOUS
 62
     6
 10
169.285917
 20
55.973942
 11
168.271299
 21
57.925968
  0
ARC
  8
CSLAYER1
  6
CONTINUOUS
 62
     6
 10
175.539091
 20
43.943180
 40
15.758816
 50
90.000003
 51
117.463872
  0
ARC
  8
CSLAYER1
  6
CONTINUOUS
 62
     6
 10
179.403959
 20
59.151997
 40
1.100006
 50
149.999997
 51
209.999999
  0
ARC
  8
CSLAYER1
  6
CONTINUOUS
 62
     6
 10
179.403959
 20
58.051991
 40
1.100006
 50
149.999997
 51
209.999999
  0
ARC
  8
CSLAYER1
  6
CONTINUOUS
 62
     6
 10
177.498686
 20
58.051991
 40
1.100006
 50
-30.000011
 51
29.999977
  0
ARC
  8
CSLAYER1
  6
CONTINUOUS
 62
     6
 10
182.728700
 20
60.802006
 40
1.100006
 50
-89.999999
 51
90.000019
  0
ARC
  8
CSLAYER1
  6
CONTINUOUS
 62
     6
 10
182.728700
 20
58.601994
 40
1.100006
 50
-90.000027
 51
89.999992
  0
LINE
  8
CSLAYER1
  6
CONTINUOUS
 62
     6
 10
182.728700
 20
57.502018
 11
178.451322
 21
57.502018
  0
LINE
  8
CSLAYER1
  6
CONTINUOUS
 62
     6
 10
183.828706
 20
60.802006
 11
183.828706
 21
58.601994
  0
ARC
  8
CSLAYER1
  6
CONTINUOUS
 62
     6
 10
175.859724
 20
60.252033
 40
1.099999
 50
-29.999656
 51
30.000332
  0
ARC
  8
CSLAYER1
  6
CONTINUOUS
 62
     6
 10
175.859709
 20
61.352024
 40
1.099999
 50
-29.999656
 51
30.000332
  0
ARC
  8
CSLAYER1
  6
CONTINUOUS
 62
     6
 10
177.764967
 20
61.352040
 40
1.099999
 50
150.000353
 51
210.000354
  0
ARC
  8
CSLAYER1
  6
CONTINUOUS
 62
     6
 10
175.859724
 20
58.052021
 40
1.099999
 50
-29.999656
 51
30.000332
  0
ARC
  8
CSLAYER1
  6
CONTINUOUS
 62
     6
 10
175.859709
 20
59.152012
 40
1.099999
 50
-29.999656
 51
30.000332
  0
ARC
  8
CSLAYER1
  6
CONTINUOUS
 62
     6
 10
177.764967
 20
59.152027
 40
1.099999
 50
150.000353
 51
210.000354
  0
LINE
  8
CSLAYER1
  6
CONTINUOUS
 62
     6
 10
175.539121
 20
61.902012
 11
176.812345
 21
61.902012
  0
LINE
  8
CSLAYER1
  6
CONTINUOUS
 62
     6
 10
175.539091
 20
59.701969
 11
176.812345
 21
59.701969
  0
LINE
  8
CSLAYER1
  6
CONTINUOUS
 62
     6
 10
175.539121
 20
57.502018
 11
176.812345
 21
57.502018
  0
ARC
  8
CSLAYER1
  6
CONTINUOUS
 62
     6
 10
182.728700
 20
59.702000
 40
8.000000
 50
-164.038116
 51
164.037904
  0
LINE
  8
CSLAYER1
  6
CONTINUOUS
 62
     6
 10
168.690000
 20
62.283512
 11
166.682585
 21
63.860295
  0
LINE
  8
CSLAYER1
  6
CONTINUOUS
 62
     6
 10
168.483061
 20
61.885380
 11
166.403257
 21
63.286869
  0
LINE
  8
CSLAYER1
  6
CONTINUOUS
 62
     6
 10
168.690000
 20
57.120487
 11
166.682585
 21
55.543705
  0
LINE
  8
CSLAYER1
  6
CONTINUOUS
 62
     6
 10
168.483061
 20
57.518620
 11
166.403227
 21
56.117100
  0
LINE
  8
CSLAYER1
  6
CONTINUOUS
 62
     6
 10
144.428700
 20
72.702000
 11
144.428700
 21
46.702000
  0
LINE
  8
CSLAYER1
  6
CONTINUOUS
 62
     6
 10
146.428700
 20
74.702000
 11
162.728700
 21
74.702000
  0
LINE
  8
CSLAYER1
  6
CONTINUOUS
 62
     6
 10
146.428700
 20
44.702000
 11
162.728700
 21
44.702000
  0
ARC
  8
CSLAYER1
  6
CONTINUOUS
 62
     6
 10
146.428700
 20
46.702000
 40
2.000000
 50
180.000000
 51
270.000000
  0
ARC
  8
CSLAYER1
  6
CONTINUOUS
 62
     6
 10
146.428700
 20
72.702000
 40
2.000000
 50
90.000000
 51
180.000000
  0
LINE
  8
CSLAYER1
  6
CONTINUOUS
 62
     6
 10
156.408700
 20
60.022000
 11
157.048700
 21
60.022000
  0
LINE
  8
CSLAYER1
  6
CONTINUOUS
 62
     6
 10
156.408700
 20
59.382000
 11
157.048700
 21
59.382000
  0
LINE
  8
CSLAYER1
  6
CONTINUOUS
 62
     6
 10
157.048700
 20
60.022000
 11
157.048700
 21
59.382000
  0
LINE
  8
CSLAYER1
  6
CONTINUOUS
 62
     6
 10
156.408700
 20
60.022000
 11
156.408700
 21
59.382000
  0
LINE
  8
CSLAYER1
  6
CONTINUOUS
 62
     6
 10
159.728700
 20
74.702000
 11
159.728700
 21
72.202000
  0
LINE
  8
CSLAYER1
  6
CONTINUOUS
 62
     6
 10
159.728700
 20
72.202000
 11
162.728700
 21
72.202000
  0
LINE
  8
CSLAYER1
  6
CONTINUOUS
 62
     6
 10
159.728700
 20
68.702000
 11
159.728700
 21
50.702000
  0
LINE
  8
CSLAYER1
  6
CONTINUOUS
 62
     6
 10
159.728700
 20
44.702000
 11
159.728700
 21
47.202000
  0
LINE
  8
CSLAYER1
  6
CONTINUOUS
 62
     6
 10
159.728700
 20
47.202000
 11
162.728700
 21
47.202000
  0
LINE
  8
CSLAYER1
  6
CONTINUOUS
 62
     6
 10
159.728700
 20
68.702000
 11
162.728700
 21
68.702000
  0
LINE
  8
CSLAYER1
  6
CONTINUOUS
 62
     6
 10
159.728700
 20
50.702000
 11
162.728700
 21
50.702000
  0
LINE
  8
CSLAYER1
  6
CONTINUOUS
 62
     6
 10
152.628700
 20
66.952000
 11
159.728700
 21
66.952000
  0
LINE
  8
CSLAYER1
  6
CONTINUOUS
 62
     6
 10
152.628700
 20
52.452000
 11
159.728700
 21
52.452000
  0
LINE
  8
CSLAYER1
  6
CONTINUOUS
 62
     6
 10
152.628700
 20
66.952000
 11
152.628700
 21
52.452000
  0
LINE
  8
CSLAYER1
  6
CONTINUOUS
 62
     6
 10
276.728700
 20
29.702004
 11
275.728700
 21
29.702004
  0
LINE
  8
CSLAYER1
  6
CONTINUOUS
 62
     6
 10
287.728700
 20
44.702004
 11
287.728700
 21
74.702004
  0
LINE
  8
CSLAYER1
  6
CONTINUOUS
 62
     6
 10
276.728700
 20
89.702004
 11
275.728700
 21
89.702004
  0
ARC
  8
CSLAYER1
  6
CONTINUOUS
 62
     6
 10
278.728700
 20
89.702004
 40
2.000000
 50
90.000003
 51
179.999991
  0
LINE
  8
CSLAYER1
  6
CONTINUOUS
 62
     6
 10
285.728700
 20
27.701974
 11
285.728700
 21
91.702004
  0
LINE
  8
CSLAYER1
  6
CONTINUOUS
 62
     6
 10
287.728700
 20
74.702004
 11
285.728700
 21
74.702004
  0
LINE
  8
CSLAYER1
  6
CONTINUOUS
 62
     6
 10
285.728700
 20
91.702004
 11
278.728700
 21
91.702004
  0
LINE
  8
CSLAYER1
  6
CONTINUOUS
 62
     6
 10
287.728700
 20
44.702004
 11
285.728700
 21
44.702004
  0
ARC
  8
CSLAYER1
  6
CONTINUOUS
 62
     6
 10
278.728700
 20
29.701974
 40
2.000000
 50
180.000005
 51
269.999973
  0
LINE
  8
CSLAYER1
  6
CONTINUOUS
 62
     6
 10
285.728700
 20
27.701974
 11
278.728700
 21
27.701974
  0
LINE
  8
CSLAYER1
  6
CONTINUOUS
 62
     6
 10
276.728700
 20
89.702004
 11
276.728700
 21
29.701974
  0
LINE
  8
CSLAYER1
  6
CENTER
 62
     3
 10
273.728700
 20
33.701989
 11
287.728700
 21
33.701989
  0
LINE
  8
CSLAYER1
  6
CENTER
 62
     3
 10
273.728706
 20
85.701999
 11
287.728706
 21
85.701996
  0
LINE
  8
CSLAYER1
  6
CONTINUOUS
 62
     6
 10
276.728684
 20
89.702020
 11
275.728684
 21
89.702020
  0
LINE
  8
CSLAYER1
  6
CONTINUOUS
 62
     6
 10
312.228700
 20
63.702004
 11
287.728700
 21
63.702004
  0
LINE
  8
CSLAYER1
  6
CONTINUOUS
 62
     6
 10
312.228700
 20
55.702004
 11
287.728715
 21
55.702004
  0
LINE
  8
CSLAYER1
  6
CONTINUOUS
 62
     6
 10
312.228700
 20
55.702004
 11
312.228700
 21
63.702004
  0
LINE
  8
CSLAYER1
  6
CENTER
 62
     3
 10
141.428700
 20
242.702067
 11
315.228700
 21
242.702067
  0
LINE
  8
CSLAYER1
  6
CONTINUOUS
 62
     6
 10
312.228700
 20
246.702071
 11
287.728700
 21
246.702071
  0
LINE
  8
CSLAYER1
  6
CONTINUOUS
 62
     6
 10
312.228700
 20
238.702071
 11
287.728715
 21
238.702071
  0
LINE
  8
CSLAYER1
  6
CONTINUOUS
 62
     6
 10
275.728700
 20
273.702071
 11
275.728700
 21
211.702071
  0
LINE
  8
CSLAYER1
  6
CONTINUOUS
 62
     6
 10
193.728700
 20
273.702071
 11
193.728700
 21
211.702071
  0
LINE
  8
CSLAYER1
  6
CONTINUOUS
 62
     6
 10
275.728700
 20
273.702071
 11
193.728700
 21
273.702071
  0
LINE
  8
CSLAYER1
  6
CONTINUOUS
 62
     6
 10
275.728700
 20
211.702071
 11
193.728700
 21
211.702071
  0
LINE
  8
CSLAYER1
  6
CONTINUOUS
 62
     6
 10
276.728700
 20
212.702071
 11
275.728700
 21
212.702071
  0
LINE
  8
CSLAYER1
  6
CONTINUOUS
 62
     6
 10
287.728700
 20
227.702071
 11
287.728700
 21
257.702071
  0
LINE
  8
CSLAYER1
  6
CONTINUOUS
 62
     6
 10
276.728700
 20
272.702071
 11
275.728700
 21
272.702071
  0
ARC
  8
CSLAYER1
  6
CONTINUOUS
 62
     6
 10
278.728700
 20
272.702071
 40
2.000000
 50
90.000003
 51
179.999991
  0
LINE
  8
CSLAYER1
  6
CONTINUOUS
 62
     6
 10
285.728700
 20
210.702041
 11
285.728700
 21
274.702071
  0
LINE
  8
CSLAYER1
  6
CONTINUOUS
 62
     6
 10
287.728700
 20
257.702071
 11
285.728700
 21
257.702071
  0
LINE
  8
CSLAYER1
  6
CONTINUOUS
 62
     6
 10
285.728700
 20
274.702071
 11
278.728700
 21
274.702071
  0
LINE
  8
CSLAYER1
  6
CONTINUOUS
 62
     6
 10
287.728700
 20
227.702071
 11
285.728700
 21
227.702071
  0
ARC
  8
CSLAYER1
  6
CONTINUOUS
 62
     6
 10
278.728700
 20
212.702041
 40
2.000000
 50
180.000005
 51
269.999973
  0
LINE
  8
CSLAYER1
  6
CONTINUOUS
 62
     6
 10
285.728700
 20
210.702041
 11
278.728700
 21
210.702041
  0
LINE
  8
CSLAYER1
  6
CONTINUOUS
 62
     6
 10
276.728700
 20
272.702071
 11
276.728700
 21
212.702041
  0
LINE
  8
CSLAYER1
  6
CENTER
 62
     3
 10
273.728700
 20
216.702056
 11
287.728700
 21
216.702056
  0
LINE
  8
CSLAYER1
  6
CENTER
 62
     3
 10
273.728706
 20
268.702066
 11
287.728706
 21
268.702063
  0
LINE
  8
CSLAYER1
  6
CONTINUOUS
 62
     6
 10
276.728684
 20
272.702087
 11
275.728684
 21
272.702087
  0
LINE
  8
CSLAYER1
  6
CONTINUOUS
 62
     6
 10
163.728700
 20
272.178401
 11
193.728715
 21
272.702052
  0
LINE
  8
CSLAYER1
  6
CONTINUOUS
 62
     6
 10
163.728700
 20
213.225734
 11
193.728715
 21
212.702083
  0
LINE
  8
CSLAYER1
  6
CONTINUOUS
 62
     6
 10
162.728700
 20
214.127376
 11
162.728700
 21
271.080043
  0
LINE
  8
CSLAYER1
  6
CONTINUOUS
 62
     6
 10
163.728700
 20
213.127376
 11
163.728700
 21
272.080043
  0
LINE
  8
CSLAYER1
  6
CONTINUOUS
 62
     6
 10
163.728700
 20
272.080043
 11
162.728700
 21
271.080043
  0
LINE
  8
CSLAYER1
  6
CONTINUOUS
 62
     6
 10
163.728700
 20
213.127376
 11
162.728700
 21
214.127376
  0
LINE
  8
CSLAYER1
  6
CONTINUOUS
 62
     3
 10
221.728700
 20
215.855287
 11
257.728700
 21
215.855287
  0
ARC
  8
CSLAYER1
  6
CONTINUOUS
 62
     3
 10
221.728700
 20
216.855287
 40
1.000000
 50
180.000005
 51
270.000001
  0
ARC
  8
CSLAYER1
  6
CONTINUOUS
 62
     3
 10
257.728700
 20
216.855287
 40
1.000000
 50
270.000001
 51
359.942691
  0
LINE
  8
CSLAYER1
  6
CONTINUOUS
 62
     3
 10
220.728700
 20
268.548855
 11
220.728700
 21
216.855287
  0
LINE
  8
CSLAYER1
  6
CONTINUOUS
 62
     3
 10
258.728700
 20
268.548855
 11
258.728700
 21
216.855287
  0
TEXT
  8
CSLAYER1
 62
     3
 10
238.507614
 20
248.200470
 40
3.500000
 41
1.125000
  1
N P
 50
-90.000000
 51
10.000000
  7
JX_FONT
 72
     5
 11
238.507614
 21
237.700470
  0
LINE
  8
CSLAYER1
  6
CONTINUOUS
 62
     3
 10
221.728700
 20
269.548855
 11
257.728700
 21
269.548855
  0
ARC
  8
CSLAYER1
  6
CONTINUOUS
 62
     3
 10
221.728700
 20
268.548855
 40
1.000000
 50
90.000009
 51
180.000005
  0
ARC
  8
CSLAYER1
  6
CONTINUOUS
 62
     3
 10
257.728700
 20
268.548855
 40
1.000000
 50
0.057319
 51
90.000009
  0
LINE
  8
CSLAYER1
  6
CONTINUOUS
 62
     6
 10
312.228700
 20
238.702071
 11
312.228700
 21
246.702071
  0
LINE
  8
CSLAYER1
  6
CONTINUOUS
 62
     6
 10
144.428700
 20
255.702067
 11
144.428700
 21
229.702067
  0
LINE
  8
CSLAYER1
  6
CONTINUOUS
 62
     6
 10
146.428700
 20
257.702067
 11
162.728700
 21
257.702067
  0
LINE
  8
CSLAYER1
  6
CONTINUOUS
 62
     6
 10
146.428700
 20
227.702067
 11
162.728700
 21
227.702067
  0
ARC
  8
CSLAYER1
  6
CONTINUOUS
 62
     6
 10
146.428700
 20
229.702067
 40
2.000000
 50
180.000000
 51
270.000000
  0
ARC
  8
CSLAYER1
  6
CONTINUOUS
 62
     6
 10
146.428700
 20
255.702067
 40
2.000000
 50
90.000000
 51
180.000000
  0
LINE
  8
CSLAYER1
  6
CONTINUOUS
 62
     6
 10
144.428700
 20
249.041346
 11
148.252918
 21
249.041346
  0
LINE
  8
CSLAYER1
  6
CONTINUOUS
 62
     6
 10
145.093336
 20
257.190961
 11
148.252918
 21
257.190961
  0
LINE
  8
CSLAYER1
  6
CONTINUOUS
 62
     6
 10
148.252918
 20
249.041346
 11
148.252918
 21
257.190961
  0
LINE
  8
CSLAYER1
  6
CONTINUOUS
 62
     6
 10
148.252918
 20
254.747098
 11
162.728700
 21
254.747098
  0
LINE
  8
CSLAYER1
  6
CONTINUOUS
 62
     6
 10
148.252918
 20
251.187677
 11
162.728700
 21
251.187677
  0
LINE
  8
CSLAYER1
  6
CONTINUOUS
 62
     6
 10
144.428700
 20
236.362789
 11
148.252918
 21
236.362789
  0
LINE
  8
CSLAYER1
  6
CONTINUOUS
 62
     6
 10
145.093336
 20
228.213174
 11
148.252918
 21
228.213174
  0
LINE
  8
CSLAYER1
  6
CONTINUOUS
 62
     6
 10
148.252918
 20
236.362789
 11
148.252918
 21
228.213174
  0
LINE
  8
CSLAYER1
  6
CONTINUOUS
 62
     6
 10
148.252918
 20
230.657037
 11
162.728700
 21
230.657037
  0
LINE
  8
CSLAYER1
  6
CONTINUOUS
 62
     6
 10
148.252918
 20
234.216458
 11
162.728700
 21
234.216458
  0
LINE
  8
CSLAYER1
  6
CONTINUOUS
 62
     6
 10
148.252918
 20
232.581679
 11
154.236042
 21
232.581679
  0
LINE
  8
CSLAYER1
  6
CONTINUOUS
 62
     6
 10
148.252918
 20
231.553171
 11
154.236042
 21
231.553171
  0
LINE
  8
CSLAYER1
  6
CONTINUOUS
 62
     6
 10
154.236042
 20
232.581679
 11
154.236042
 21
231.553171
  0
LINE
  8
CSLAYER1
  6
CONTINUOUS
 62
     6
 10
156.408700
 20
62.562000
 11
157.048700
 21
62.562000
  0
LINE
  8
CSLAYER1
  6
CONTINUOUS
 62
     6
 10
156.408700
 20
61.922000
 11
157.048700
 21
61.922000
  0
LINE
  8
CSLAYER1
  6
CONTINUOUS
 62
     6
 10
157.048700
 20
62.562000
 11
157.048700
 21
61.922000
  0
LINE
  8
CSLAYER1
  6
CONTINUOUS
 62
     6
 10
156.408700
 20
62.562000
 11
156.408700
 21
61.922000
  0
LINE
  8
CSLAYER1
  6
CONTINUOUS
 62
     6
 10
156.408700
 20
65.102000
 11
157.048700
 21
65.102000
  0
LINE
  8
CSLAYER1
  6
CONTINUOUS
 62
     6
 10
156.408700
 20
64.462000
 11
157.048700
 21
64.462000
  0
LINE
  8
CSLAYER1
  6
CONTINUOUS
 62
     6
 10
157.048700
 20
65.102000
 11
157.048700
 21
64.462000
  0
LINE
  8
CSLAYER1
  6
CONTINUOUS
 62
     6
 10
156.408700
 20
65.102000
 11
156.408700
 21
64.462000
  0
LINE
  8
CSLAYER1
  6
CONTINUOUS
 62
     6
 10
156.408700
 20
57.482000
 11
157.048700
 21
57.482000
  0
LINE
  8
CSLAYER1
  6
CONTINUOUS
 62
     6
 10
156.408700
 20
56.842000
 11
157.048700
 21
56.842000
  0
LINE
  8
CSLAYER1
  6
CONTINUOUS
 62
     6
 10
157.048700
 20
57.482000
 11
157.048700
 21
56.842000
  0
LINE
  8
CSLAYER1
  6
CONTINUOUS
 62
     6
 10
156.408700
 20
57.482000
 11
156.408700
 21
56.842000
  0
LINE
  8
CSLAYER1
  6
CONTINUOUS
 62
     6
 10
156.408700
 20
54.942000
 11
157.048700
 21
54.942000
  0
LINE
  8
CSLAYER1
  6
CONTINUOUS
 62
     6
 10
156.408700
 20
54.302000
 11
157.048700
 21
54.302000
  0
LINE
  8
CSLAYER1
  6
CONTINUOUS
 62
     6
 10
157.048700
 20
54.942000
 11
157.048700
 21
54.302000
  0
LINE
  8
CSLAYER1
  6
CONTINUOUS
 62
     6
 10
156.408700
 20
54.942000
 11
156.408700
 21
54.302000
  0
ARC
  8
CSLAYER1
  6
CONTINUOUS
 62
     6
 10
146.428700
 20
166.702046
 40
2.000000
 50
89.999999
 51
179.999995
  0
LINE
  8
CSLAYER1
  6
CONTINUOUS
 62
     6
 10
163.728700
 20
183.178334
 11
162.728700
 21
182.178334
  0
CIRCLE
  8
CSLAYER1
  6
CONTINUOUS
 62
     6
 10
366.228700
 20
153.702031
 40
5.000000
  0
ENDSEC
  0
EOF
