  0
SECTION
  2
HEADER
  9
$ACADVER
  1
AC1006
  9
$INSBASE
 10
0.000000
 20
0.000000
 30
0.0
  9
$EXTMIN
 10
0.000000
 20
0.000000
  9
$EXTMAX
 10
841.000000
 20
594.000000
  9
$LIMMIN
 10
0.000000
 20
0.000000
  9
$LIMMAX
 10
841.000000
 20
594.000000
  9
$VIEWCTR
 10
420.500000
 20
297.000000
  9
$VIEWSIZE
 40
594.000000
  9
$SNAPMODE
 70
     0
  9
$SNAPUNIT
 10
1.0
 20
1.0
  9
$SNAPBASE
 10
0.0
 20
0.0
  9
$SNAPANG
 50
0.0
  9
$SNAPSTYLE
 70
     0
  9
$SNAPISOPAIR
 70
     0
  9
$GRIDMODE
 70
     0
  9
$GRIDUNIT
 10
0.0
 20
0.0
  9
$ORTHOMODE
 70
     0
  9
$REGENMODE
 70
     1
  9
$FILLMODE
 70
     1
  9
$QTEXTMODE
 70
     0
  9
$DRAGMODE
 70
     2
  9
$LTSCALE
 40
15.000000
  9
$OSMODE
 70
     0
  9
$ATTMODE
 70
     1
  9
$TEXTSIZE
 40
0.2
  9
$TRACEWID
 40
0.05
  9
$TEXTSTYLE
  7
STANDARD
  9
$CLAYER
  8
CSLAYER1
  9
$CELTYPE
  6
BYLAYER
  9
$CECOLOR
 62
   256
  9
$DIMSCALE
 40
1.0
  9
$DIMASZ
 40
0.18
  9
$DIMEXO
 40
0.0625
  9
$DIMDLI
 40
0.38
  9
$DIMRND
 40
0.0
  9
$DIMDLE
 40
0.0
  9
$DIMEXE
 40
0.18
  9
$DIMTP
 40
0.0
  9
$DIMTM
 40
0.0
  9
$DIMTXT
 40
0.18
  9
$DIMCEN
 40
0.09
  9
$DIMTSZ
 40
0.0
  9
$DIMTOL
 70
     0
  9
$DIMLIM
 70
     0
  9
$DIMTIH
 70
     1
  9
$DIMTOH
 70
     1
  9
$DIMSE1
 70
     0
  9
$DIMSE2
 70
     0
  9
$DIMTAD
 70
     0
  9
$DIMZIN
 70
     0
  9
$DIMBLK
  1

  9
$LUNITS
 70
     2
  9
$LUPREC
 70
     4
  9
$AXISMODE
 70
     0
  9
$AXISUNIT
 10
0.0
 20
0.0
  9
$SKETCHINC
 40
0.1
  9
$FILLETRAD
 40
0.0
  9
$AUNITS
 70
     0
  9
$AUPREC
 70
     0
  9
$MENU
  1
ACAD
  9
$ELEVATION
 40
0.0
  9
$THICKNESS
 40
0.0
  9
$VIEWDIR
 10
0.0
 20
0.0
 30
1.0
  9
$LIMCHECK
 70
     0
  9
$BLIPMODE
 70
     1
  9
$CHAMFERA
 40
0.0
  9
$CHAMFERB
 40
0.0
  9
$FASTZOOM
 70
     1
  9
$SKPOLY
 70
     0
  9
$TDCREATE
 40
0.000000
  9
$TDUPDATE
 40
0.000000
  9
$TDINDWG
 40
0.0
  9
$TDUSRTIMER
 40
0.0
  9
$USRTIMER
 70
     1
  9
$ANGBASE
 50
0.0
  9
$ANGDIR
 70
     0
  9
$PDMODE
 70
     0
  9
$PDSIZE
 40
0.0
  9
$PLINEWID
 40
0.0
  9
$COORDS
 70
     0
  9
$USERI1
 70
     0
  9
$USERI2
 70
     0
  9
$USERI3
 70
     0
  9
$USERI4
 70
     0
  9
$USERI5
 70
     0
  9
$USERR1
 40
0.0
  9
$USERR2
 40
0.0
  9
$USERR3
 40
0.0
  9
$USERR4
 40
0.0
  9
$USERR5
 40
0.0
  0
ENDSEC
  0
SECTION
  2
TABLES
  0
TABLE
  2
LTYPE
 70
     9
  0
LTYPE
  2
CONTINUOUS
 70
    64
  3
Solid line
 72
    65
 73
     0
 40
0.0
  0
LTYPE
  2
DASHED
 70
    64
  3
__ __ __ __ __ __ __ __ __ __ __ __ __ __ __
 72
    65
 73
     2
 40
0.75
 49
0.5
 49
-0.25
  0
LTYPE
  2
HIDDEN
 70
    64
  3
_ _ _ _ _ _ _ _ _ _ _ _ _ _ _ _ _ _ _ _ _ _ _
 72
    65
 73
     2
 40
0.375
 49
0.25
 49
-0.125
  0
LTYPE
  2
DOT
 70
    64
  3
...............................................
 72
    65
 73
     2
 40
0.25
 49
0.0
 49
-0.25
  0
LTYPE
  2
DASHDOT
 70
    64
  3
__ . __ . __ . __ . __ . __ . __ . __ . __ . __
 72
    65
 73
     4
 40
1.0
 49
0.5
 49
-0.25
 49
0.0
 49
-0.25
  0
LTYPE
  2
DIVIDE
 70
    64
  3
__ . . __ . . __ . . __ . . __ . . __ . . __
 72
    65
 73
     6
 40
1.25
 49
0.5
 49
-0.25
 49
0.0
 49
-0.25
 49
0.0
 49
-0.25
  0
LTYPE
  2
CENTER
 70
    64
  3
____ _ ____ _ ____ _ ____ _ ____ _ ____ _ ____ 
 72
    65
 73
     4
 40
2.0
 49
1.25
 49
-0.25
 49
0.25
 49
-0.25
  0
LTYPE
  2
PHANTOM
 70
    64
  3
______  __  __  ______  __  __  ______  __  __ 
 72
    65
 73
     6
 40
2.5
 49
1.25
 49
-0.25
 49
0.25
 49
-0.25
 49
0.25
 49
-0.25
  0
LTYPE
  2
BORDER
 70
    64
  3
__ __ . __ __ . __ __ . __ __ . __ __ . __ __ .
 72
    65
 73
     6
 40
1.75
 49
0.5
 49
-0.25
 49
0.5
 49
-0.25
 49
0.0
 49
-0.25
  0
ENDTAB
  0
TABLE
  2
LAYER
 70
    16
  0
LAYER
  2
CSLAYER1
 70
    64
 62
     7
  6
CONTINUOUS
  0
LAYER
  2
CSLAYER2
 70
    64
 62
     7
  6
CONTINUOUS
  0
LAYER
  2
CSLAYER3
 70
    64
 62
     7
  6
CONTINUOUS
  0
LAYER
  2
CSLAYER4
 70
    64
 62
     7
  6
CONTINUOUS
  0
LAYER
  2
CSLAYER5
 70
    64
 62
     7
  6
CONTINUOUS
  0
LAYER
  2
CSLAYER6
 70
    64
 62
     7
  6
CONTINUOUS
  0
LAYER
  2
CSLAYER7
 70
    64
 62
     7
  6
CONTINUOUS
  0
LAYER
  2
CSLAYER8
 70
    64
 62
     7
  6
CONTINUOUS
  0
LAYER
  2
CSLAYER9
 70
    64
 62
     7
  6
CONTINUOUS
  0
LAYER
  2
CSLAYER10
 70
    64
 62
     7
  6
CONTINUOUS
  0
LAYER
  2
CSLAYER11
 70
    64
 62
     7
  6
CONTINUOUS
  0
LAYER
  2
CSLAYER12
 70
    64
 62
     7
  6
CONTINUOUS
  0
LAYER
  2
CSLAYER13
 70
    64
 62
     7
  6
CONTINUOUS
  0
LAYER
  2
CSLAYER14
 70
    64
 62
     7
  6
CONTINUOUS
  0
LAYER
  2
CSLAYER15
 70
    64
 62
     7
  6
CONTINUOUS
  0
LAYER
  2
CSLAYER16
 70
    64
 62
     7
  6
CONTINUOUS
  0
ENDTAB
  0
TABLE
  2
STYLE
 70
     1
  0
STYLE
  2
JX_FONT
 70
     0
 40
1.0
 41
1.0
 50
0.0
 71
     0
 42
1.0
  3
monotxt
  4
bigfont
  0
ENDTAB
  0
TABLE
  2
VIEW
 70
     0
  0
ENDTAB
  0
ENDSEC
  0
SECTION
  2
BLOCKS
  0
ENDSEC
  0
SECTION
  2
ENTITIES
  0
LINE
  8
CSLAYER1
  6
CENTER
 62
     3
 10
182.457584
 20
203.194050
 11
182.457605
 21
411.294050
  0
CIRCLE
  8
CSLAYER1
  6
CONTINUOUS
 62
     3
 10
182.457589
 20
388.294034
 40
5.500000
  0
LINE
  8
CSLAYER1
  6
CENTER
 62
     3
 10
169.457589
 20
388.294052
 11
214.402230
 21
388.294043
  0
LINE
  8
CSLAYER1
  6
CENTER
 62
     3
 10
328.303245
 20
388.294009
 11
350.303245
 21
388.294009
  0
LINE
  8
CSLAYER1
  6
CENTER
 62
     3
 10
339.303249
 20
411.294001
 11
339.303231
 21
232.294009
  0
LINE
  8
CSLAYER1
  6
CENTER
 62
     3
 10
341.803233
 20
229.544001
 11
410.303271
 21
229.544001
  0
LINE
  8
CSLAYER1
  6
CENTER
 62
     3
 10
409.303271
 20
223.293994
 11
393.303264
 21
223.293994
  0
LINE
  8
CSLAYER1
  6
CENTER
 62
     3
 10
369.303233
 20
202.194018
 11
369.303239
 21
260.052582
  0
LINE
  8
CSLAYER1
  6
CENTER
 62
     3
 10
365.303238
 20
272.294009
 11
365.303245
 21
300.883791
  0
LINE
  8
CSLAYER1
  6
CENTER
 62
     3
 10
313.303232
 20
300.883796
 11
313.303233
 21
272.294009
  0
LINE
  8
CSLAYER1
  6
CENTER
 62
     3
 10
311.303267
 20
255.294009
 11
410.303271
 21
255.294009
  0
LINE
  8
CSLAYER1
  6
CENTER
 62
     3
 10
409.303271
 20
287.294024
 11
393.303270
 21
287.294024
  0
LINE
  8
CSLAYER1
  6
CENTER
 62
     3
 10
369.303235
 20
172.221750
 11
369.303235
 21
54.221751
  0
LINE
  8
CSLAYER1
  6
CENTER
 62
     3
 10
369.303235
 20
51.021753
 11
361.303235
 21
51.021753
  0
CIRCLE
  8
CSLAYER1
  6
CONTINUOUS
 62
     3
 10
365.303235
 20
51.021753
 40
2.000000
  0
LINE
  8
CSLAYER1
  6
CENTER
 62
     3
 10
365.303235
 20
47.021753
 11
365.303235
 21
55.021753
  0
LINE
  8
CSLAYER1
  6
CENTER
 62
     3
 10
375.999004
 20
77.021753
 11
304.782247
 21
77.021753
  0
LINE
  8
CSLAYER1
  6
CENTER
 62
     3
 10
304.782247
 20
97.221752
 11
410.303235
 21
97.221752
  0
LINE
  8
CSLAYER1
  6
CENTER
 62
     3
 10
410.303235
 20
119.221752
 11
393.803235
 21
119.221752
  0
LINE
  8
CSLAYER1
  6
CENTER
 62
     3
 10
393.803235
 20
75.221752
 11
410.303235
 21
75.221752
  0
LINE
  8
CSLAYER1
  6
CENTER
 62
     3
 10
339.303235
 20
42.221731
 11
339.303235
 21
118.221746
  0
LINE
  8
CSLAYER1
  6
CENTER
 62
     3
 10
317.303235
 20
103.021784
 11
309.303235
 21
103.021784
  0
ARC
  8
CSLAYER1
  6
CONTINUOUS
 62
     3
 10
313.303235
 20
103.021784
 40
2.000000
 50
60.000000
 51
300.000000
  0
LINE
  8
CSLAYER1
  6
CENTER
 62
     3
 10
313.303235
 20
107.021784
 11
313.303235
 21
99.021784
  0
LINE
  8
CSLAYER1
  6
CENTER
 62
     3
 10
313.303235
 20
55.021753
 11
313.303235
 21
47.021753
  0
CIRCLE
  8
CSLAYER1
  6
CONTINUOUS
 62
     3
 10
313.303235
 20
51.021753
 40
2.000000
  0
LINE
  8
CSLAYER1
  6
CENTER
 62
     3
 10
317.303235
 20
51.021753
 11
309.303235
 21
51.021753
  0
LINE
  8
CSLAYER1
  6
CENTER
 62
     3
 10
277.657582
 20
229.544022
 11
159.657582
 21
229.544056
  0
LINE
  8
CSLAYER1
  6
CENTER
 62
     3
 10
160.657587
 20
255.294056
 11
235.657587
 21
255.294034
  0
LINE
  8
CSLAYER1
  6
CENTER
 62
     3
 10
224.657591
 20
281.294037
 11
224.657595
 21
293.294037
  0
CIRCLE
  8
CSLAYER1
  6
CONTINUOUS
 62
     3
 10
224.657593
 20
287.294037
 40
4.000000
  0
LINE
  8
CSLAYER1
  6
CENTER
 62
     3
 10
230.657593
 20
287.294035
 11
218.657593
 21
287.294039
  0
LINE
  8
CSLAYER1
  6
CENTER
 62
     3
 10
208.457601
 20
300.883831
 11
208.457594
 21
272.294044
  0
LINE
  8
CSLAYER1
  6
CENTER
 62
     3
 10
202.657592
 20
279.080793
 11
202.657577
 21
202.294044
  0
LINE
  8
CSLAYER1
  6
CENTER
 62
     3
 10
156.457589
 20
272.294055
 11
156.457588
 21
300.883837
  0
LINE
  8
CSLAYER1
  6
CONTINUOUS
 62
     3
 10
151.457586
 20
309.142297
 11
165.957616
 21
309.142294
  0
ARC
  8
CSLAYER1
  6
CONTINUOUS
 62
     3
 10
165.957617
 20
310.142294
 40
1.000000
 50
270.057296
 51
359.999987
  0
LINE
  8
CSLAYER1
  6
CONTINUOUS
 62
     3
 10
166.957617
 20
310.142294
 11
166.957624
 21
346.142279
  0
ARC
  8
CSLAYER1
  6
CONTINUOUS
 62
     3
 10
165.957624
 20
346.142279
 40
1.000000
 50
-0.000013
 51
89.999983
  0
LINE
  8
CSLAYER1
  6
CONTINUOUS
 62
     3
 10
165.957625
 20
347.142279
 11
151.457594
 21
347.142282
  0
LINE
  8
CSLAYER1
  6
CENTER
 62
     3
 10
306.803203
 20
508.071480
 11
319.736461
 21
508.071474
  0
LINE
  8
CSLAYER1
  6
CENTER
 62
     3
 10
317.803218
 20
508.071436
 11
308.803218
 21
508.071429
  0
LINE
  8
CSLAYER1
  6
CENTER
 62
     3
 10
313.303230
 20
512.571433
 11
313.303238
 21
503.571433
  0
LINE
  8
CSLAYER1
  6
CENTER
 62
     3
 10
313.303209
 20
501.571469
 11
313.303214
 21
514.571485
  0
LINE
  8
CSLAYER1
  6
CENTER
 62
     3
 10
304.303225
 20
513.871448
 11
409.303269
 21
513.871494
  0
LINE
  8
CSLAYER1
  6
CENTER
 62
     3
 10
410.303259
 20
535.871493
 11
393.803259
 21
535.871493
  0
LINE
  8
CSLAYER1
  6
CENTER
 62
     3
 10
377.639192
 20
534.071483
 11
304.303216
 21
534.071451
  0
LINE
  8
CSLAYER1
  6
CENTER
 62
     3
 10
313.303223
 20
553.571458
 11
313.303223
 21
566.571474
  0
LINE
  8
CSLAYER1
  6
CENTER
 62
     3
 10
313.303198
 20
568.071456
 11
313.303204
 21
555.571456
  0
LINE
  8
CSLAYER1
  6
CENTER
 62
     3
 10
317.803186
 20
560.071458
 11
308.803186
 21
560.071454
  0
LINE
  8
CSLAYER1
  6
CENTER
 62
     3
 10
306.803214
 20
560.071466
 11
319.736472
 21
560.071466
  0
LINE
  8
CSLAYER1
  6
CENTER
 62
     3
 10
339.303201
 20
569.071498
 11
339.303244
 21
499.071484
  0
LINE
  8
CSLAYER1
  6
CENTER
 62
     3
 10
358.869963
 20
508.071458
 11
371.803220
 21
508.071452
  0
LINE
  8
CSLAYER1
  6
CENTER
 62
     3
 10
369.803280
 20
508.071478
 11
360.803280
 21
508.071471
  0
LINE
  8
CSLAYER1
  6
CENTER
 62
     3
 10
365.303268
 20
503.571475
 11
365.303260
 21
512.571475
  0
LINE
  8
CSLAYER1
  6
CENTER
 62
     3
 10
365.303214
 20
514.571463
 11
365.303209
 21
501.571447
  0
LINE
  8
CSLAYER1
  6
CENTER
 62
     3
 10
393.803259
 20
491.871493
 11
410.303259
 21
491.871493
  0
LINE
  8
CSLAYER1
  6
CENTER
 62
     3
 10
365.303239
 20
553.571436
 11
365.303250
 21
566.571452
  0
LINE
  8
CSLAYER1
  6
CENTER
 62
     3
 10
365.303228
 20
568.071479
 11
365.303234
 21
555.571479
  0
LINE
  8
CSLAYER1
  6
CENTER
 62
     3
 10
369.303259
 20
556.428021
 11
369.303259
 21
438.871529
  0
LINE
  8
CSLAYER1
  6
CENTER
 62
     3
 10
369.803248
 20
560.071481
 11
360.803248
 21
560.071477
  0
LINE
  8
CSLAYER1
  6
CENTER
 62
     3
 10
358.869996
 20
560.071449
 11
371.803253
 21
560.071438
  0
LINE
  8
CSLAYER1
  6
CENTER
 62
     3
 10
499.204263
 20
388.294009
 11
544.148904
 21
388.294009
  0
CIRCLE
  8
CSLAYER1
  6
CONTINUOUS
 62
     3
 10
531.148904
 20
388.293994
 40
5.500000
  0
LINE
  8
CSLAYER1
  6
CENTER
 62
     3
 10
531.148893
 20
411.294009
 11
531.148872
 21
203.194009
  0
LINE
  8
CSLAYER1
  6
CENTER
 62
     3
 10
533.148883
 20
217.294011
 11
533.148881
 21
229.294011
  0
CIRCLE
  8
CSLAYER1
  6
CONTINUOUS
 62
     3
 10
533.148882
 20
223.294011
 40
4.000000
  0
LINE
  8
CSLAYER1
  6
CENTER
 62
     3
 10
527.148882
 20
223.294011
 11
539.148882
 21
223.294012
  0
LINE
  8
CSLAYER1
  6
CENTER
 62
     3
 10
554.148882
 20
229.544014
 11
436.148882
 21
229.544001
  0
LINE
  8
CSLAYER1
  6
CONTINUOUS
 62
     3
 10
439.148882
 20
227.146085
 11
459.148882
 21
231.941919
  0
LINE
  8
CSLAYER1
  6
CONTINUOUS
 62
     3
 10
459.148882
 20
227.146088
 11
439.148882
 21
231.941917
  0
LINE
  8
CSLAYER1
  6
CENTER
 62
     3
 10
483.148882
 20
223.294006
 11
495.148882
 21
223.294007
  0
CIRCLE
  8
CSLAYER1
  6
CONTINUOUS
 62
     3
 10
489.148882
 20
223.294007
 40
4.000000
  0
LINE
  8
CSLAYER1
  6
CENTER
 62
     3
 10
489.148881
 20
229.294007
 11
489.148883
 21
217.294007
  0
LINE
  8
CSLAYER1
  6
CENTER
 62
     3
 10
511.148882
 20
202.294009
 11
511.148882
 21
298.294009
  0
LINE
  8
CSLAYER1
  6
CENTER
 62
     3
 10
505.148877
 20
300.883796
 11
505.148877
 21
292.580969
  0
LINE
  8
CSLAYER1
  6
CENTER
 62
     3
 10
495.148882
 20
287.294007
 11
483.148882
 21
287.294006
  0
CIRCLE
  8
CSLAYER1
  6
CONTINUOUS
 62
     3
 10
489.148882
 20
287.294007
 40
4.000000
  0
LINE
  8
CSLAYER1
  6
CENTER
 62
     3
 10
489.148881
 20
293.294007
 11
489.148883
 21
281.294007
  0
LINE
  8
CSLAYER1
  6
CENTER
 62
     3
 10
478.148882
 20
255.294005
 11
553.148882
 21
255.294014
  0
LINE
  8
CSLAYER1
  6
CENTER
 62
     3
 10
557.148882
 20
272.294009
 11
557.148889
 21
300.883791
  0
LINE
  8
CSLAYER1
  6
CONTINUOUS
 62
     3
 10
562.148893
 20
309.142250
 11
547.648862
 21
309.142250
  0
ARC
  8
CSLAYER1
  6
CONTINUOUS
 62
     3
 10
547.648862
 20
310.142250
 40
1.000000
 50
180.000001
 51
269.942691
  0
LINE
  8
CSLAYER1
  6
CONTINUOUS
 62
     3
 10
546.648862
 20
310.142250
 11
546.648862
 21
346.142235
  0
ARC
  8
CSLAYER1
  6
CONTINUOUS
 62
     3
 10
547.648862
 20
346.142235
 40
1.000000
 50
90.000005
 51
180.000001
  0
LINE
  8
CSLAYER1
  6
CONTINUOUS
 62
     3
 10
547.648862
 20
347.142235
 11
562.148893
 21
347.142235
  0
LINE
  8
CSLAYER1
  6
CENTER
 62
     3
 10
533.148881
 20
293.294011
 11
533.148883
 21
281.294011
  0
CIRCLE
  8
CSLAYER1
  6
CONTINUOUS
 62
     3
 10
533.148882
 20
287.294011
 40
4.000000
  0
LINE
  8
CSLAYER1
  6
CENTER
 62
     3
 10
527.148882
 20
287.294011
 11
539.148882
 21
287.294012
  0
LINE
  8
CSLAYER1
  6
CENTER
 62
     3
 10
607.729828
 20
287.293934
 11
623.729829
 21
287.293948
  0
LINE
  8
CSLAYER1
  6
CONTINUOUS
 62
     3
 10
616.662152
 20
267.960222
 11
617.089139
 21
267.533235
  0
LINE
  8
CSLAYER1
  6
CONTINUOUS
 62
     3
 10
617.089139
 20
267.533235
 11
617.089139
 21
266.700609
  0
LINE
  8
CSLAYER1
  6
CONTINUOUS
 62
     3
 10
617.089139
 20
266.700609
 11
616.640802
 21
266.252272
  0
LINE
  8
CSLAYER1
  6
CONTINUOUS
 62
     3
 10
615.551984
 20
266.583187
 11
615.754803
 21
267.732190
  0
LINE
  8
CSLAYER1
  6
CONTINUOUS
 62
     3
 10
615.754803
 20
267.732190
 11
616.149767
 21
267.960222
  0
LINE
  8
CSLAYER1
  6
CONTINUOUS
 62
     3
 10
616.149767
 20
267.960222
 11
616.662152
 21
267.960222
  0
LINE
  8
CSLAYER1
  6
CONTINUOUS
 62
     3
 10
615.551984
 20
266.583187
 11
615.222799
 21
266.263408
  0
LINE
  8
CSLAYER1
  6
CONTINUOUS
 62
     3
 10
615.222799
 20
266.263408
 11
614.708684
 21
266.263408
  0
LINE
  8
CSLAYER1
  6
CONTINUOUS
 62
     3
 10
614.708684
 20
266.263408
 11
614.228784
 21
266.743308
  0
LINE
  8
CSLAYER1
  6
CONTINUOUS
 62
     3
 10
614.228784
 20
266.743308
 11
614.228784
 21
267.533235
  0
LINE
  8
CSLAYER1
  6
CONTINUOUS
 62
     3
 10
614.228784
 20
267.533235
 11
614.698009
 21
268.002460
  0
LINE
  8
CSLAYER1
  6
CONTINUOUS
 62
     3
 10
614.281696
 20
265.312900
 11
617.089139
 21
264.560647
  0
LINE
  8
CSLAYER1
  6
CONTINUOUS
 62
     3
 10
617.089139
 20
264.560647
 11
617.089139
 21
264.405551
  0
LINE
  8
CSLAYER1
  6
CONTINUOUS
 62
     3
 10
617.089139
 20
264.405551
 11
614.249672
 21
263.644718
  0
LINE
  8
CSLAYER1
  6
CONTINUOUS
 62
     3
 10
614.238998
 20
262.537481
 11
617.110489
 21
262.921769
  0
LINE
  8
CSLAYER1
  6
CONTINUOUS
 62
     3
 10
615.573333
 20
261.971722
 11
614.238998
 21
262.537481
  0
LINE
  8
CSLAYER1
  6
CONTINUOUS
 62
     3
 10
614.228323
 20
261.427313
 11
615.573333
 21
261.971722
  0
LINE
  8
CSLAYER1
  6
CONTINUOUS
 62
     3
 10
614.228323
 20
261.427313
 11
617.078464
 21
261.043024
  0
LINE
  8
CSLAYER1
  6
CONTINUOUS
 62
     3
 10
617.099814
 20
259.388448
 11
614.249672
 21
260.157025
  0
LINE
  8
CSLAYER1
  6
CONTINUOUS
 62
     3
 10
615.349165
 20
259.730038
 11
615.349165
 21
258.822689
  0
LINE
  8
CSLAYER1
  6
CONTINUOUS
 62
     3
 10
614.217648
 20
258.427726
 11
617.099814
 21
259.174954
  0
LINE
  8
CSLAYER1
  6
CONTINUOUS
 62
     3
 10
617.099814
 20
259.174954
 11
617.099814
 21
259.388448
  0
LINE
  8
CSLAYER1
  6
CONTINUOUS
 62
     3
 10
617.099814
 20
257.509703
 11
614.260347
 21
257.520377
  0
LINE
  8
CSLAYER1
  6
CONTINUOUS
 62
     3
 10
615.327816
 20
256.762475
 11
617.099814
 21
257.509703
  0
LINE
  8
CSLAYER1
  6
CONTINUOUS
 62
     3
 10
617.078464
 20
255.844451
 11
615.327816
 21
256.762475
  0
LINE
  8
CSLAYER1
  6
CONTINUOUS
 62
     3
 10
614.238998
 20
255.844451
 11
617.078464
 21
255.844451
  0
LINE
  8
CSLAYER1
  6
CONTINUOUS
 62
     3
 10
617.078464
 20
254.915754
 11
614.900828
 21
254.926428
  0
LINE
  8
CSLAYER1
  6
CONTINUOUS
 62
     3
 10
614.900828
 20
254.926428
 11
614.452491
 21
254.712934
  0
LINE
  8
CSLAYER1
  6
CONTINUOUS
 62
     3
 10
614.452491
 20
254.712934
 11
614.228323
 21
254.339320
  0
LINE
  8
CSLAYER1
  6
CONTINUOUS
 62
     3
 10
614.228323
 20
254.339320
 11
614.238998
 21
253.805586
  0
LINE
  8
CSLAYER1
  6
CONTINUOUS
 62
     3
 10
614.238998
 20
253.805586
 11
614.463166
 21
253.410623
  0
LINE
  8
CSLAYER1
  6
CONTINUOUS
 62
     3
 10
614.463166
 20
253.410623
 11
614.900828
 21
253.250502
  0
LINE
  8
CSLAYER1
  6
CONTINUOUS
 62
     3
 10
614.900828
 20
253.250502
 11
617.089139
 21
253.239828
  0
LINE
  8
CSLAYER1
  6
CONTINUOUS
 62
     3
 10
617.110489
 20
252.321804
 11
614.249672
 21
252.321804
  0
LINE
  8
CSLAYER1
  6
CONTINUOUS
 62
     3
 10
615.551984
 20
252.311130
 11
615.551984
 21
251.200962
  0
LINE
  8
CSLAYER1
  6
CONTINUOUS
 62
     3
 10
615.551984
 20
251.200962
 11
615.776153
 21
250.827348
  0
LINE
  8
CSLAYER1
  6
CONTINUOUS
 62
     3
 10
615.776153
 20
250.827348
 11
616.192465
 21
250.645878
  0
LINE
  8
CSLAYER1
  6
CONTINUOUS
 62
     3
 10
616.192465
 20
250.645878
 11
616.544730
 21
250.645878
  0
LINE
  8
CSLAYER1
  6
CONTINUOUS
 62
     3
 10
616.544730
 20
250.645878
 11
616.886320
 21
250.816673
  0
LINE
  8
CSLAYER1
  6
CONTINUOUS
 62
     3
 10
616.886320
 20
250.816673
 11
617.110489
 21
251.200962
  0
LINE
  8
CSLAYER1
  6
CONTINUOUS
 62
     3
 10
617.110489
 20
251.200962
 11
617.110489
 21
252.321804
  0
LINE
  8
CSLAYER1
  6
CONTINUOUS
 62
     3
 10
615.551984
 20
251.179613
 11
615.317141
 21
250.987468
  0
LINE
  8
CSLAYER1
  6
CONTINUOUS
 62
     3
 10
615.317141
 20
250.987468
 11
614.751383
 21
250.773975
  0
LINE
  8
CSLAYER1
  6
CONTINUOUS
 62
     3
 10
614.751383
 20
250.773975
 11
614.228323
 21
250.645878
  0
LINE
  8
CSLAYER1
  6
CONTINUOUS
 62
     3
 10
614.249672
 20
249.706506
 11
617.089139
 21
248.980627
  0
LINE
  8
CSLAYER1
  6
CONTINUOUS
 62
     3
 10
617.089139
 20
248.980627
 11
617.067790
 21
248.777808
  0
LINE
  8
CSLAYER1
  6
CONTINUOUS
 62
     3
 10
617.067790
 20
248.777808
 11
614.249672
 21
248.041255
  0
LINE
  8
CSLAYER1
  6
CONTINUOUS
 62
     3
 10
615.338490
 20
248.425543
 11
615.338490
 21
249.354241
  0
LINE
  8
CSLAYER1
  6
CONTINUOUS
 62
     3
 10
614.249672
 20
244.507933
 11
617.099814
 21
244.507933
  0
LINE
  8
CSLAYER1
  6
CONTINUOUS
 62
     3
 10
617.099814
 20
244.507933
 11
617.099814
 21
243.579235
  0
LINE
  8
CSLAYER1
  6
CONTINUOUS
 62
     3
 10
617.099814
 20
243.579235
 11
616.875645
 21
243.045501
  0
LINE
  8
CSLAYER1
  6
CONTINUOUS
 62
     3
 10
616.875645
 20
243.045501
 11
616.373935
 21
242.832007
  0
LINE
  8
CSLAYER1
  6
CONTINUOUS
 62
     3
 10
616.373935
 20
242.832007
 11
614.900828
 21
242.842682
  0
LINE
  8
CSLAYER1
  6
CONTINUOUS
 62
     3
 10
614.900828
 20
242.842682
 11
614.452491
 21
243.034826
  0
LINE
  8
CSLAYER1
  6
CONTINUOUS
 62
     3
 10
614.452491
 20
243.034826
 11
614.228323
 21
243.568560
  0
LINE
  8
CSLAYER1
  6
CONTINUOUS
 62
     3
 10
614.228323
 20
243.568560
 11
614.249672
 21
244.507933
  0
LINE
  8
CSLAYER1
  6
CONTINUOUS
 62
     3
 10
614.238998
 20
241.913984
 11
617.089139
 21
241.913984
  0
LINE
  8
CSLAYER1
  6
CONTINUOUS
 62
     3
 10
617.089139
 20
241.913984
 11
617.089139
 21
240.238058
  0
LINE
  8
CSLAYER1
  6
CONTINUOUS
 62
     3
 10
617.078464
 20
239.324304
 11
614.260347
 21
239.324304
  0
LINE
  8
CSLAYER1
  6
CONTINUOUS
 62
     3
 10
614.238998
 20
240.238058
 11
614.238998
 21
241.913984
  0
LINE
  8
CSLAYER1
  6
CONTINUOUS
 62
     3
 10
615.776153
 20
241.913984
 11
615.776153
 21
240.451552
  0
LINE
  8
CSLAYER1
  6
CONTINUOUS
 62
     3
 10
617.078464
 20
239.324304
 11
614.249672
 21
237.691101
  0
LINE
  8
CSLAYER1
  6
CONTINUOUS
 62
     3
 10
614.249672
 20
237.691101
 11
617.078464
 21
237.691101
  0
LINE
  8
CSLAYER1
  6
CONTINUOUS
 62
     3
 10
617.099814
 20
236.719681
 11
614.260347
 21
236.719681
  0
LINE
  8
CSLAYER1
  6
CONTINUOUS
 62
     3
 10
614.249672
 20
235.074151
 11
617.099814
 21
236.719681
  0
LINE
  8
CSLAYER1
  6
CONTINUOUS
 62
     3
 10
617.089139
 20
235.074151
 11
614.249672
 21
235.074151
  0
LINE
  8
CSLAYER1
  6
CONTINUOUS
 62
     3
 10
614.228323
 20
234.115057
 11
617.089139
 21
234.115057
  0
LINE
  8
CSLAYER1
  6
CONTINUOUS
 62
     3
 10
616.053694
 20
233.613346
 11
614.217648
 21
232.553305
  0
LINE
  8
CSLAYER1
  6
CONTINUOUS
 62
     3
 10
614.260347
 20
231.301209
 11
614.260347
 21
230.372511
  0
LINE
  8
CSLAYER1
  6
CONTINUOUS
 62
     3
 10
614.260347
 20
230.852872
 11
617.110489
 21
230.852872
  0
LINE
  8
CSLAYER1
  6
CONTINUOUS
 62
     3
 10
617.110489
 20
230.383186
 11
617.110489
 21
231.322558
  0
LINE
  8
CSLAYER1
  6
CONTINUOUS
 62
     3
 10
617.078464
 20
232.620601
 11
615.573333
 21
234.125732
  0
LINE
  8
CSLAYER1
  6
CENTER
 62
     3
 10
618.428888
 20
229.543920
 11
674.682103
 21
229.543968
  0
LINE
  8
CSLAYER1
  6
CENTER
 62
     3
 10
677.729859
 20
232.293980
 11
677.729877
 21
411.293972
  0
LINE
  8
CSLAYER1
  6
CONTINUOUS
 62
     3
 10
703.576661
 20
347.142250
 11
651.883093
 21
347.142250
  0
ARC
  8
CSLAYER1
  6
CONTINUOUS
 62
     3
 10
651.883093
 20
346.142250
 40
1.000000
 50
90.057309
 51
179.999999
  0
LINE
  8
CSLAYER1
  6
CONTINUOUS
 62
     3
 10
650.883093
 20
346.142250
 11
650.883093
 21
310.142250
  0
ARC
  8
CSLAYER1
  6
CONTINUOUS
 62
     3
 10
651.883093
 20
310.142250
 40
1.000000
 50
179.999999
 51
269.999995
  0
LINE
  8
CSLAYER1
  6
CONTINUOUS
 62
     3
 10
651.883093
 20
309.142250
 11
703.576661
 21
309.142250
  0
ARC
  8
CSLAYER1
  6
CONTINUOUS
 62
     3
 10
703.576661
 20
310.142250
 40
1.000000
 50
269.999995
 51
359.999991
  0
LINE
  8
CSLAYER1
  6
CONTINUOUS
 62
     3
 10
704.576661
 20
310.142250
 11
704.576661
 21
346.142250
  0
ARC
  8
CSLAYER1
  6
CONTINUOUS
 62
     3
 10
703.576661
 20
346.142250
 40
1.000000
 50
-0.000009
 51
89.942681
  0
LINE
  8
CSLAYER1
  6
CENTER
 62
     3
 10
703.729872
 20
300.883762
 11
703.729865
 21
272.293974
  0
LINE
  8
CSLAYER1
  6
CENTER
 62
     3
 10
705.729861
 20
255.294004
 11
606.729856
 21
255.293918
  0
LINE
  8
CSLAYER1
  6
CONTINUOUS
 62
     3
 10
615.349165
 20
264.042612
 11
615.349165
 21
264.939285
  0
LINE
  8
CSLAYER1
  6
CENTER
 62
     3
 10
607.729884
 20
223.293904
 11
623.729891
 21
223.293918
  0
LINE
  8
CSLAYER1
  6
CENTER
 62
     3
 10
647.729940
 20
202.193963
 11
647.729886
 21
258.871480
  0
LINE
  8
CSLAYER1
  6
CENTER
 62
     3
 10
651.729861
 20
272.293985
 11
651.729859
 21
300.883767
  0
TEXT
  8
CSLAYER1
 62
     3
 10
549.215637
 20
327.179688
 40
3.500000
 41
1.125000
  1
N P
 50
360.000000
 51
10.000000
  7
JX_FONT
 72
     5
 11
559.715637
 21
327.179688
  0
TEXT
  8
CSLAYER1
 62
     3
 10
153.890762
 20
327.179749
 40
3.500000
 41
1.125000
  1
N P
 50
360.000000
 51
10.000000
  7
JX_FONT
 72
     5
 11
164.390762
 21
327.179749
  0
TEXT
  8
CSLAYER1
 62
     3
 10
672.728271
 20
326.921234
 40
3.500000
 41
1.125000
  1
N P
 50
0.000000
 51
10.000000
  7
JX_FONT
 72
     5
 11
683.228271
 21
326.921234
  0
LINE
  8
CSLAYER1
  6
CONTINUOUS
 62
     6
 10
163.657579
 20
209.694055
 11
176.657579
 21
209.694051
  0
ARC
  8
CSLAYER1
  6
CONTINUOUS
 62
     6
 10
176.657579
 20
208.694051
 40
1.000000
 50
-0.000011
 51
89.999983
  0
ARC
  8
CSLAYER1
  6
CONTINUOUS
 62
     6
 10
178.657578
 20
207.194051
 40
1.000000
 50
179.999989
 51
269.999983
  0
LINE
  8
CSLAYER1
  6
CONTINUOUS
 62
     6
 10
178.657578
 20
206.194051
 11
200.657578
 21
206.194044
  0
ARC
  8
CSLAYER1
  6
CONTINUOUS
 62
     6
 10
200.657578
 20
205.694044
 40
0.500000
 50
-0.000011
 51
89.999983
  0
LINE
  8
CSLAYER1
  6
CONTINUOUS
 62
     6
 10
201.157578
 20
205.794052
 11
201.157583
 21
234.294044
  0
ARC
  8
CSLAYER1
  6
CONTINUOUS
 62
     6
 10
200.157583
 20
234.294044
 40
1.000000
 50
-0.000011
 51
89.999983
  0
LINE
  8
CSLAYER1
  6
CONTINUOUS
 62
     6
 10
203.157583
 20
235.294044
 11
169.133461
 21
235.294054
  0
ARC
  8
CSLAYER1
  6
CONTINUOUS
 62
     6
 10
169.133461
 20
237.294054
 40
2.000000
 50
182.191012
 51
269.999983
  0
LINE
  8
CSLAYER1
  6
CONTINUOUS
 62
     6
 10
167.134923
 20
237.217591
 11
166.500724
 21
253.794054
  0
LINE
  8
CSLAYER1
  6
CONTINUOUS
 62
     6
 10
164.657587
 20
253.794055
 11
183.457587
 21
253.794049
  0
LINE
  8
CSLAYER1
  6
CONTINUOUS
 62
     6
 10
183.457587
 20
253.794049
 11
184.894908
 21
253.718723
  0
ARC
  8
CSLAYER1
  6
CONTINUOUS
 62
     6
 10
184.842572
 20
252.720093
 40
1.000000
 50
8.221322
 51
87.000000
  0
ARC
  8
CSLAYER1
  6
CONTINUOUS
 62
     6
 10
183.825531
 20
252.773394
 40
1.000000
 50
7.623665
 51
87.000000
  0
ARC
  8
CSLAYER1
  6
CONTINUOUS
 62
     6
 10
183.457587
 20
254.794049
 40
1.000000
 50
179.999989
 51
269.999983
  0
LINE
  8
CSLAYER1
  6
CONTINUOUS
 62
     6
 10
182.457587
 20
254.794049
 11
182.457587
 21
255.794049
  0
ARC
  8
CSLAYER1
  6
CONTINUOUS
 62
     6
 10
183.457587
 20
255.794049
 40
1.000000
 50
89.999983
 51
179.999989
  0
LINE
  8
CSLAYER1
  6
CONTINUOUS
 62
     6
 10
183.457588
 20
256.794049
 11
164.657588
 21
256.794055
  0
ARC
  8
CSLAYER1
  6
CONTINUOUS
 62
     6
 10
164.657587
 20
255.794055
 40
1.000000
 50
89.999983
 51
179.999989
  0
LINE
  8
CSLAYER1
  6
CONTINUOUS
 62
     6
 10
163.657587
 20
255.794055
 11
163.657587
 21
254.794055
  0
ARC
  8
CSLAYER1
  6
CONTINUOUS
 62
     6
 10
164.657587
 20
254.794055
 40
1.000000
 50
179.999989
 51
269.999983
  0
LINE
  8
CSLAYER1
  6
CONTINUOUS
 62
     6
 10
166.383078
 20
256.794054
 11
166.265431
 21
259.794054
  0
LINE
  8
CSLAYER1
  6
CONTINUOUS
 62
     6
 10
164.657588
 20
259.794055
 11
183.457588
 21
259.794049
  0
LINE
  8
CSLAYER1
  6
CONTINUOUS
 62
     6
 10
183.457588
 20
259.794049
 11
185.037534
 21
259.711248
  0
ARC
  8
CSLAYER1
  6
CONTINUOUS
 62
     6
 10
184.985198
 20
258.712618
 40
1.000000
 50
-10.948163
 51
87.000000
  0
ARC
  8
CSLAYER1
  6
CONTINUOUS
 62
     6
 10
184.842573
 20
257.868005
 40
1.000000
 50
272.999966
 51
351.778644
  0
LINE
  8
CSLAYER1
  6
CONTINUOUS
 62
     6
 10
184.894909
 20
256.869375
 11
183.457588
 21
256.794049
  0
ARC
  8
CSLAYER1
  6
CONTINUOUS
 62
     6
 10
183.825533
 20
257.814705
 40
1.000000
 50
272.999966
 51
352.376301
  0
ARC
  8
CSLAYER1
  6
CONTINUOUS
 62
     6
 10
202.657587
 20
255.294044
 40
18.000000
 50
169.472654
 51
172.376301
  0
ARC
  8
CSLAYER1
  6
CONTINUOUS
 62
     6
 10
183.977399
 20
258.765435
 40
1.000000
 50
-10.527346
 51
87.000000
  0
ARC
  8
CSLAYER1
  6
CONTINUOUS
 62
     6
 10
183.457588
 20
260.794049
 40
1.000000
 50
179.999989
 51
269.999983
  0
LINE
  8
CSLAYER1
  6
CONTINUOUS
 62
     6
 10
182.457588
 20
260.794049
 11
182.457588
 21
261.794049
  0
ARC
  8
CSLAYER1
  6
CONTINUOUS
 62
     6
 10
183.457588
 20
261.794049
 40
1.000000
 50
89.999983
 51
179.999989
  0
LINE
  8
CSLAYER1
  6
CONTINUOUS
 62
     6
 10
183.457589
 20
262.794049
 11
186.941718
 21
262.976643
  0
ARC
  8
CSLAYER1
  6
CONTINUOUS
 62
     6
 10
186.889383
 20
263.975272
 40
1.000000
 50
272.999966
 51
331.164896
  0
ARC
  8
CSLAYER1
  6
CONTINUOUS
 62
     6
 10
187.246274
 20
264.594120
 40
1.000000
 50
-31.109208
 51
87.000000
  0
LINE
  8
CSLAYER1
  6
CONTINUOUS
 62
     6
 10
187.298610
 20
265.592750
 11
183.457589
 21
265.794049
  0
LINE
  8
CSLAYER1
  6
CONTINUOUS
 62
     6
 10
183.457589
 20
265.794049
 11
164.657589
 21
265.794055
  0
ARC
  8
CSLAYER1
  6
CONTINUOUS
 62
     6
 10
164.657589
 20
266.794055
 40
1.000000
 50
179.999989
 51
269.999983
  0
LINE
  8
CSLAYER1
  6
CONTINUOUS
 62
     6
 10
163.657589
 20
266.794055
 11
163.657590
 21
267.794055
  0
ARC
  8
CSLAYER1
  6
CONTINUOUS
 62
     6
 10
164.657590
 20
267.794055
 40
1.000000
 50
89.999983
 51
179.999989
  0
LINE
  8
CSLAYER1
  6
CONTINUOUS
 62
     6
 10
164.657590
 20
268.794055
 11
183.457590
 21
268.794049
  0
LINE
  8
CSLAYER1
  6
CONTINUOUS
 62
     6
 10
183.457590
 20
268.794049
 11
192.737419
 21
269.280379
  0
ARC
  8
CSLAYER1
  6
CONTINUOUS
 62
     6
 10
192.685084
 20
270.279009
 40
1.000000
 50
272.999966
 51
303.643790
  0
ARC
  8
CSLAYER1
  6
CONTINUOUS
 62
     6
 10
199.657590
 20
273.042284
 40
1.000000
 50
279.594058
 51
360.000000
  0
LINE
  8
CSLAYER1
  6
CONTINUOUS
 62
     6
 10
200.657590
 20
273.042284
 11
200.657590
 21
274.294045
  0
ARC
  8
CSLAYER1
  6
CONTINUOUS
 62
     6
 10
199.657590
 20
274.294045
 40
1.000000
 50
0.000000
 51
89.999983
  0
LINE
  8
CSLAYER1
  6
CONTINUOUS
 62
     6
 10
204.657591
 20
274.294043
 11
204.657591
 21
273.042283
  0
ARC
  8
CSLAYER1
  6
CONTINUOUS
 62
     6
 10
205.657591
 20
273.042282
 40
1.000000
 50
179.999979
 51
260.405921
  0
ARC
  8
CSLAYER1
  6
CONTINUOUS
 62
     6
 10
205.657591
 20
274.294043
 40
1.000000
 50
89.999983
 51
179.999979
  0
ARC
  8
CSLAYER1
  6
CONTINUOUS
 62
     6
 10
204.957599
 20
294.419050
 40
0.125000
 50
180.000055
 51
270.000010
  0
LINE
  8
CSLAYER1
  6
CONTINUOUS
 62
     6
 10
204.832599
 20
294.419050
 11
204.832599
 21
295.169050
  0
ARC
  8
CSLAYER1
  6
CONTINUOUS
 62
     6
 10
204.957599
 20
295.169050
 40
0.125000
 50
90.000005
 51
180.000055
  0
ARC
  8
CSLAYER1
  6
CONTINUOUS
 62
     6
 10
205.213825
 20
295.554059
 40
0.258129
 50
175.000302
 51
270.000010
  0
LINE
  8
CSLAYER1
  6
CONTINUOUS
 62
     6
 10
204.958576
 20
295.576703
 11
205.029132
 21
296.395459
  0
ARC
  8
CSLAYER1
  6
CONTINUOUS
 62
     6
 10
206.305499
 20
296.282178
 40
1.290623
 50
106.257221
 51
174.999920
  0
ARC
  8
CSLAYER1
  6
CONTINUOUS
 62
     6
 10
208.457599
 20
288.794050
 40
9.089782
 50
73.970958
 51
106.034598
  0
ARC
  8
CSLAYER1
  6
CONTINUOUS
 62
     6
 10
210.609699
 20
296.282178
 40
1.290623
 50
5.000090
 51
73.742830
  0
LINE
  8
CSLAYER1
  6
CONTINUOUS
 62
     6
 10
211.886066
 20
296.395459
 11
211.956622
 21
295.576703
  0
ARC
  8
CSLAYER1
  6
CONTINUOUS
 62
     6
 10
211.701373
 20
295.554059
 40
0.258129
 50
-89.942654
 51
4.999762
  0
ARC
  8
CSLAYER1
  6
CONTINUOUS
 62
     6
 10
211.957599
 20
295.169050
 40
0.125000
 50
0.000009
 51
89.999991
  0
LINE
  8
CSLAYER1
  6
CONTINUOUS
 62
     6
 10
212.082599
 20
295.169050
 11
212.082599
 21
294.419050
  0
ARC
  8
CSLAYER1
  6
CONTINUOUS
 62
     6
 10
211.957599
 20
294.419050
 40
0.125000
 50
-89.942654
 51
0.000009
  0
LINE
  8
CSLAYER1
  6
CONTINUOUS
 62
     6
 10
212.452513
 20
294.294043
 11
152.457583
 21
294.294056
  0
LINE
  8
CSLAYER1
  6
CONTINUOUS
 62
     6
 10
152.457583
 20
294.294056
 11
152.457583
 21
295.294056
  0
LINE
  8
CSLAYER1
  6
CONTINUOUS
 62
     6
 10
152.457567
 20
295.294071
 11
152.457567
 21
294.294071
  0
ARC
  8
CSLAYER1
  6
CONTINUOUS
 62
     6
 10
152.457582
 20
292.294056
 40
2.000000
 50
89.999996
 51
179.999985
  0
LINE
  8
CSLAYER1
  6
CONTINUOUS
 62
     6
 10
150.457582
 20
292.294057
 11
150.457579
 21
277.294057
  0
LINE
  8
CSLAYER1
  6
CONTINUOUS
 62
     6
 10
150.457586
 20
277.294059
 11
150.457588
 21
285.294059
  0
LINE
  8
CSLAYER1
  6
CONTINUOUS
 62
     6
 10
150.457588
 20
285.294059
 11
214.457598
 21
285.294040
  0
LINE
  8
CSLAYER1
  6
CONTINUOUS
 62
     6
 10
214.457598
 20
285.294047
 11
214.457596
 21
267.949468
  0
ARC
  8
CSLAYER1
  6
CONTINUOUS
 62
     6
 10
215.457596
 20
267.949468
 40
1.000000
 50
179.999996
 51
224.674569
  0
ARC
  8
CSLAYER1
  6
CONTINUOUS
 62
     6
 10
202.657587
 20
255.294044
 40
18.000000
 50
-172.376335
 51
47.647908
  0
LINE
  8
CSLAYER1
  6
CONTINUOUS
 62
     6
 10
183.457589
 20
262.794049
 11
164.657589
 21
262.794055
  0
ARC
  8
CSLAYER1
  6
CONTINUOUS
 62
     6
 10
164.657588
 20
261.794055
 40
1.000000
 50
89.999983
 51
179.999989
  0
LINE
  8
CSLAYER1
  6
CONTINUOUS
 62
     6
 10
163.657588
 20
261.794055
 11
163.657588
 21
260.794055
  0
ARC
  8
CSLAYER1
  6
CONTINUOUS
 62
     6
 10
164.657588
 20
260.794055
 40
1.000000
 50
179.999989
 51
269.999983
  0
LINE
  8
CSLAYER1
  6
CONTINUOUS
 62
     6
 10
166.147785
 20
262.794054
 11
166.030138
 21
265.794054
  0
LINE
  8
CSLAYER1
  6
CONTINUOUS
 62
     6
 10
165.912492
 20
268.794054
 11
165.732949
 21
273.372426
  0
ARC
  8
CSLAYER1
  6
CONTINUOUS
 62
     6
 10
163.734485
 20
273.294055
 40
2.000000
 50
2.245732
 51
89.999983
  0
LINE
  8
CSLAYER1
  6
CONTINUOUS
 62
     6
 10
152.457585
 20
275.294058
 11
212.457597
 21
275.294041
  0
ARC
  8
CSLAYER1
  6
CONTINUOUS
 62
     6
 10
212.457597
 20
277.294047
 40
2.000000
 50
269.999996
 51
359.999996
  0
LINE
  8
CSLAYER1
  6
CONTINUOUS
 62
     6
 10
214.457605
 20
269.664174
 11
214.457605
 21
292.294050
  0
ARC
  8
CSLAYER1
  6
CONTINUOUS
 62
     6
 10
212.457605
 20
292.294050
 40
2.000000
 50
0.000002
 51
89.999991
  0
LINE
  8
CSLAYER1
  6
CONTINUOUS
 62
     6
 10
212.457621
 20
294.294065
 11
212.457621
 21
295.294065
  0
LINE
  8
CSLAYER1
  6
CONTINUOUS
 62
     6
 10
213.457583
 20
295.294043
 11
213.457598
 21
377.294043
  0
LINE
  8
CSLAYER1
  6
CONTINUOUS
 62
     6
 10
213.457598
 20
377.294043
 11
151.457598
 21
377.294056
  0
LINE
  8
CSLAYER1
  6
CONTINUOUS
 62
     6
 10
151.457598
 20
377.294056
 11
151.457583
 21
295.294056
  0
LINE
  8
CSLAYER1
  6
CONTINUOUS
 62
     6
 10
151.457583
 20
295.294059
 11
224.666339
 21
295.294037
  0
ARC
  8
CSLAYER1
  6
CONTINUOUS
 62
     6
 10
224.657593
 20
287.294042
 40
8.000000
 50
-0.000011
 51
89.999996
  0
LINE
  8
CSLAYER1
  6
CONTINUOUS
 62
     6
 10
232.657593
 20
287.294040
 11
232.657587
 21
253.194035
  0
ARC
  8
CSLAYER1
  6
CONTINUOUS
 62
     6
 10
241.657587
 20
252.194034
 40
1.000000
 50
-0.000011
 51
89.999996
  0
LINE
  8
CSLAYER1
  6
CONTINUOUS
 62
     6
 10
242.657587
 20
252.194034
 11
242.657578
 21
207.194032
  0
ARC
  8
CSLAYER1
  6
CONTINUOUS
 62
     6
 10
241.657578
 20
207.194032
 40
1.000000
 50
269.999983
 51
359.999989
  0
LINE
  8
CSLAYER1
  6
CONTINUOUS
 62
     6
 10
241.657578
 20
206.194032
 11
204.657578
 21
206.194043
  0
ARC
  8
CSLAYER1
  6
CONTINUOUS
 62
     6
 10
204.657578
 20
205.694043
 40
0.500000
 50
89.999983
 51
179.999989
  0
LINE
  8
CSLAYER1
  6
CONTINUOUS
 62
     6
 10
204.157578
 20
205.794052
 11
204.157584
 21
236.459235
  0
ARC
  8
CSLAYER1
  6
CONTINUOUS
 62
     6
 10
205.157584
 20
236.459235
 40
1.000000
 50
97.560833
 51
179.999989
  0
ARC
  8
CSLAYER1
  6
CONTINUOUS
 62
     6
 10
203.157584
 20
236.294044
 40
1.000000
 50
269.999983
 51
359.999989
  0
LINE
  8
CSLAYER1
  6
CONTINUOUS
 62
     6
 10
206.157581
 20
217.294043
 11
241.157580
 21
217.294032
  0
LINE
  8
CSLAYER1
  6
CONTINUOUS
 62
     6
 10
242.657580
 20
222.044063
 11
244.157580
 21
222.044062
  0
LINE
  8
CSLAYER1
  6
CONTINUOUS
 62
     6
 10
244.157580
 20
222.044062
 11
244.657580
 21
222.544062
  0
LINE
  8
CSLAYER1
  6
CONTINUOUS
 62
     6
 10
244.657580
 20
222.544062
 11
244.657585
 21
236.544031
  0
LINE
  8
CSLAYER1
  6
CONTINUOUS
 62
     6
 10
244.657585
 20
236.544031
 11
244.157585
 21
237.044031
  0
LINE
  8
CSLAYER1
  6
CONTINUOUS
 62
     6
 10
244.157585
 20
237.044031
 11
244.157580
 21
222.044062
  0
LINE
  8
CSLAYER1
  6
CONTINUOUS
 62
     6
 10
244.657581
 20
223.667322
 11
245.857593
 21
223.667322
  0
LINE
  8
CSLAYER1
  6
CONTINUOUS
 62
     6
 10
245.857593
 20
223.544062
 11
274.157581
 21
223.544054
  0
LINE
  8
CSLAYER1
  6
CONTINUOUS
 62
     6
 10
274.157581
 20
223.544054
 11
274.657581
 21
224.044053
  0
LINE
  8
CSLAYER1
  6
CONTINUOUS
 62
     6
 10
274.657581
 20
224.044053
 11
274.657584
 21
235.043992
  0
LINE
  8
CSLAYER1
  6
CONTINUOUS
 62
     6
 10
274.657584
 20
235.043991
 11
274.157584
 21
235.543992
  0
LINE
  8
CSLAYER1
  6
CONTINUOUS
 62
     6
 10
274.157584
 20
235.543993
 11
245.857596
 21
235.544031
  0
LINE
  8
CSLAYER1
  6
CONTINUOUS
 62
     6
 10
245.857596
 20
235.544031
 11
245.857593
 21
223.544062
  0
LINE
  8
CSLAYER1
  6
CONTINUOUS
 62
     6
 10
245.857596
 20
235.420801
 11
244.657584
 21
235.420801
  0
LINE
  8
CSLAYER1
  6
CONTINUOUS
 62
     6
 10
244.157585
 20
237.044031
 11
242.657585
 21
237.044032
  0
LINE
  8
CSLAYER1
  6
CONTINUOUS
 62
     6
 10
241.157585
 20
242.294041
 11
218.570353
 21
242.294042
  0
LINE
  8
CSLAYER1
  6
CONTINUOUS
 62
     6
 10
222.588555
 20
249.794042
 11
241.657586
 21
249.794041
  0
ARC
  8
CSLAYER1
  6
CONTINUOUS
 62
     6
 10
241.657586
 20
248.794041
 40
1.000000
 50
-0.000011
 51
89.999996
  0
LINE
  8
CSLAYER1
  6
CONTINUOUS
 62
     6
 10
241.657587
 20
253.194034
 11
220.534667
 21
253.194036
  0
ARC
  8
CSLAYER1
  6
CONTINUOUS
 62
     6
 10
215.457596
 20
269.335403
 40
1.000000
 50
179.999996
 51
227.647908
  0
CIRCLE
  8
CSLAYER1
  6
CONTINUOUS
 62
     6
 10
224.657593
 20
287.294037
 40
3.200000
  0
LINE
  8
CSLAYER1
  6
CONTINUOUS
 62
     6
 10
274.157584
 20
235.543993
 11
274.157581
 21
223.544054
  0
ARC
  8
CSLAYER1
  6
CONTINUOUS
 62
     6
 10
241.657579
 20
210.294032
 40
1.000000
 50
269.999983
 51
359.999989
  0
LINE
  8
CSLAYER1
  6
CONTINUOUS
 62
     6
 10
241.657579
 20
209.294032
 11
206.157579
 21
209.294043
  0
ARC
  8
CSLAYER1
  6
CONTINUOUS
 62
     6
 10
203.157578
 20
205.794052
 40
1.000000
 50
269.999983
 51
359.999989
  0
LINE
  8
CSLAYER1
  6
CONTINUOUS
 62
     6
 10
203.169711
 20
204.794052
 11
202.157578
 21
204.794052
  0
ARC
  8
CSLAYER1
  6
CONTINUOUS
 62
     6
 10
202.157578
 20
205.794052
 40
1.000000
 50
179.999989
 51
269.999983
  0
LINE
  8
CSLAYER1
  6
CONTINUOUS
 62
     6
 10
177.657578
 20
207.194051
 11
177.657584
 21
235.294051
  0
LINE
  8
CSLAYER1
  6
CONTINUOUS
 62
     6
 10
166.978962
 20
241.294054
 11
163.657584
 21
241.294055
  0
LINE
  8
CSLAYER1
  6
CONTINUOUS
 62
     6
 10
163.657586
 20
247.294055
 11
166.749408
 21
247.294054
  0
LINE
  8
CSLAYER1
  6
CONTINUOUS
 62
     6
 10
166.656311
 20
249.727373
 11
163.657586
 21
249.694055
  0
ARC
  8
CSLAYER1
  6
CONTINUOUS
 62
     6
 10
163.657586
 20
248.694055
 40
1.000000
 50
89.999983
 51
179.999989
  0
LINE
  8
CSLAYER1
  6
CONTINUOUS
 62
     6
 10
162.657586
 20
248.694055
 11
162.657579
 21
210.694055
  0
ARC
  8
CSLAYER1
  6
CONTINUOUS
 62
     6
 10
163.657579
 20
210.694055
 40
1.000000
 50
179.999989
 51
269.999983
  0
LINE
  8
CSLAYER1
  6
CONTINUOUS
 62
     6
 10
163.657575
 20
212.294055
 11
175.657575
 21
212.294051
  0
LINE
  8
CSLAYER1
  6
CONTINUOUS
 62
     6
 10
175.657577
 20
218.294051
 11
163.657577
 21
218.294055
  0
ARC
  8
CSLAYER1
  6
CONTINUOUS
 62
     6
 10
185.725621
 20
263.914283
 40
1.000000
 50
272.999966
 51
333.018885
  0
ARC
  8
CSLAYER1
  6
CONTINUOUS
 62
     6
 10
202.657587
 20
255.294044
 40
18.000000
 50
150.489867
 51
153.018885
  0
ARC
  8
CSLAYER1
  6
CONTINUOUS
 62
     6
 10
186.122484
 20
264.653016
 40
1.000000
 50
-29.510133
 51
87.000000
  0
ARC
  8
CSLAYER1
  6
CONTINUOUS
 62
     6
 10
183.457589
 20
266.794049
 40
1.000000
 50
179.999989
 51
269.999983
  0
LINE
  8
CSLAYER1
  6
CONTINUOUS
 62
     6
 10
182.457589
 20
266.794049
 11
182.457590
 21
267.794049
  0
ARC
  8
CSLAYER1
  6
CONTINUOUS
 62
     6
 10
183.457590
 20
267.794049
 40
1.000000
 50
89.999983
 51
179.999989
  0
CIRCLE
  8
CSLAYER1
  6
CONTINUOUS
 62
     6
 10
202.657587
 20
255.294044
 40
17.000000
  0
CIRCLE
  8
CSLAYER1
  6
CONTINUOUS
 62
     6
 10
202.657587
 20
255.294044
 40
13.000000
  0
LINE
  8
CSLAYER1
  6
CONTINUOUS
 62
     6
 10
208.577472
 20
294.294080
 11
208.022662
 21
295.294080
  0
LINE
  8
CSLAYER1
  6
CONTINUOUS
 62
     6
 10
208.647662
 20
295.294080
 11
209.202472
 21
294.294080
  0
ARC
  8
CSLAYER1
  6
CONTINUOUS
 62
     6
 10
159.957589
 20
294.419054
 40
0.125000
 50
269.999978
 51
359.999932
  0
LINE
  8
CSLAYER1
  6
CONTINUOUS
 62
     6
 10
160.082589
 20
294.419054
 11
160.082589
 21
295.169054
  0
ARC
  8
CSLAYER1
  6
CONTINUOUS
 62
     6
 10
159.957589
 20
295.169054
 40
0.125000
 50
-0.000068
 51
89.999983
  0
ARC
  8
CSLAYER1
  6
CONTINUOUS
 62
     6
 10
159.701363
 20
295.554064
 40
0.258129
 50
-90.000022
 51
4.999685
  0
LINE
  8
CSLAYER1
  6
CONTINUOUS
 62
     6
 10
159.956612
 20
295.576708
 11
159.886056
 21
296.395464
  0
ARC
  8
CSLAYER1
  6
CONTINUOUS
 62
     6
 10
158.609689
 20
296.282183
 40
1.290623
 50
5.000068
 51
73.742766
  0
ARC
  8
CSLAYER1
  6
CONTINUOUS
 62
     6
 10
156.457587
 20
288.794055
 40
9.089782
 50
73.965389
 51
106.029030
  0
ARC
  8
CSLAYER1
  6
CONTINUOUS
 62
     6
 10
154.305489
 20
296.282184
 40
1.290623
 50
106.257158
 51
174.999897
  0
LINE
  8
CSLAYER1
  6
CONTINUOUS
 62
     6
 10
153.029122
 20
296.395466
 11
152.958565
 21
295.576710
  0
ARC
  8
CSLAYER1
  6
CONTINUOUS
 62
     6
 10
153.213814
 20
295.554066
 40
0.258129
 50
175.000225
 51
269.942641
  0
ARC
  8
CSLAYER1
  6
CONTINUOUS
 62
     6
 10
152.957589
 20
295.169056
 40
0.125000
 50
89.999996
 51
179.999978
  0
LINE
  8
CSLAYER1
  6
CONTINUOUS
 62
     6
 10
152.832589
 20
295.169056
 11
152.832589
 21
294.419056
  0
ARC
  8
CSLAYER1
  6
CONTINUOUS
 62
     6
 10
152.957589
 20
294.419056
 40
0.125000
 50
179.999978
 51
269.942641
  0
LINE
  8
CSLAYER1
  6
CONTINUOUS
 62
     6
 10
156.022652
 20
295.294086
 11
156.577462
 21
294.294086
  0
LINE
  8
CSLAYER1
  6
CONTINUOUS
 62
     6
 10
157.202462
 20
294.294086
 11
156.647652
 21
295.294086
  0
ARC
  8
CSLAYER1
  6
CONTINUOUS
 62
     6
 10
152.457586
 20
277.294058
 40
2.000000
 50
179.999983
 51
269.999983
  0
LINE
  8
CSLAYER1
  6
CONTINUOUS
 62
     6
 10
152.457601
 20
377.294071
 11
152.981290
 21
407.294079
  0
LINE
  8
CSLAYER1
  6
CONTINUOUS
 62
     6
 10
152.981244
 20
407.294041
 11
211.933911
 21
407.294028
  0
LINE
  8
CSLAYER1
  6
CONTINUOUS
 62
     6
 10
211.933911
 20
407.294028
 11
210.933911
 21
408.294028
  0
LINE
  8
CSLAYER1
  6
CONTINUOUS
 62
     6
 10
210.933911
 20
408.294028
 11
153.981244
 21
408.294041
  0
LINE
  8
CSLAYER1
  6
CONTINUOUS
 62
     6
 10
153.981244
 20
408.294041
 11
152.981244
 21
407.294041
  0
LINE
  8
CSLAYER1
  6
CONTINUOUS
 62
     6
 10
181.657571
 20
391.044035
 11
183.257577
 21
391.044034
  0
LINE
  8
CSLAYER1
  6
CONTINUOUS
 62
     6
 10
183.257577
 20
391.044034
 11
183.257576
 21
385.544034
  0
LINE
  8
CSLAYER1
  6
CONTINUOUS
 62
     6
 10
183.257576
 20
385.544034
 11
181.657570
 21
385.544035
  0
LINE
  8
CSLAYER1
  6
CONTINUOUS
 62
     6
 10
181.657570
 20
385.544035
 11
181.657571
 21
391.044035
  0
CIRCLE
  8
CSLAYER1
  6
CONTINUOUS
 62
     6
 10
182.457589
 20
388.294034
 40
8.000000
  0
CIRCLE
  8
CSLAYER1
  6
CONTINUOUS
 62
     6
 10
182.457589
 20
388.294034
 40
6.000000
  0
LINE
  8
CSLAYER1
  6
CONTINUOUS
 62
     6
 10
212.247460
 20
389.394019
 11
217.980996
 21
389.394017
  0
ARC
  8
CSLAYER1
  6
CONTINUOUS
 62
     6
 10
217.028359
 20
388.844015
 40
1.100006
 50
-30.000007
 51
29.999981
  0
ARC
  8
CSLAYER1
  6
CONTINUOUS
 62
     6
 10
217.028359
 20
387.744009
 40
1.100006
 50
-30.000007
 51
29.999981
  0
ARC
  8
CSLAYER1
  6
CONTINUOUS
 62
     6
 10
218.933632
 20
387.744008
 40
1.100006
 50
149.999984
 51
209.999986
  0
LINE
  8
CSLAYER1
  6
CONTINUOUS
 62
     6
 10
217.980995
 20
387.194021
 11
212.284752
 21
387.194022
  0
ARC
  8
CSLAYER1
  6
CONTINUOUS
 62
     6
 10
221.845818
 20
387.744038
 40
1.099999
 50
149.999643
 51
209.999638
  0
ARC
  8
CSLAYER1
  6
CONTINUOUS
 62
     6
 10
219.940575
 20
388.844044
 40
1.099999
 50
-30.000362
 51
29.999626
  0
ARC
  8
CSLAYER1
  6
CONTINUOUS
 62
     6
 10
220.893230
 20
402.952870
 40
13.558834
 50
269.999902
 51
297.463786
  0
LINE
  8
CSLAYER1
  6
CONTINUOUS
 62
     6
 10
227.146386
 20
390.922092
 11
228.161004
 21
388.970035
  0
ARC
  8
CSLAYER1
  6
CONTINUOUS
 62
     6
 10
220.893230
 20
402.952870
 40
15.758816
 50
270.057296
 51
297.463786
  0
ARC
  8
CSLAYER1
  6
CONTINUOUS
 62
     6
 10
220.893224
 20
373.635197
 40
13.558834
 50
62.536120
 51
90.000010
  0
LINE
  8
CSLAYER1
  6
CONTINUOUS
 62
     6
 10
227.146400
 20
385.665958
 11
228.161019
 21
387.618014
  0
ARC
  8
CSLAYER1
  6
CONTINUOUS
 62
     6
 10
220.893224
 20
373.635197
 40
15.758816
 50
62.536120
 51
68.465844
  0
LINE
  8
CSLAYER1
  6
CONTINUOUS
 62
     6
 10
227.949273
 20
389.377414
 11
231.029076
 21
390.778902
  0
LINE
  8
CSLAYER1
  6
CONTINUOUS
 62
     6
 10
230.749734
 20
391.352328
 11
227.742318
 21
389.775546
  0
LINE
  8
CSLAYER1
  6
CONTINUOUS
 62
     6
 10
227.488183
 20
390.264468
 11
230.426248
 21
391.881625
  0
LINE
  8
CSLAYER1
  6
CONTINUOUS
 62
     6
 10
227.949272
 20
387.210635
 11
231.029091
 21
385.809130
  0
LINE
  8
CSLAYER1
  6
CONTINUOUS
 62
     6
 10
230.749733
 20
385.235720
 11
227.742332
 21
386.812503
  0
LINE
  8
CSLAYER1
  6
CONTINUOUS
 62
     6
 10
227.488212
 20
386.323581
 11
230.426261
 21
384.706408
  0
ARC
  8
CSLAYER1
  6
CONTINUOUS
 62
     6
 10
221.845833
 20
388.844036
 40
1.099999
 50
149.999643
 51
209.999638
  0
LINE
  8
CSLAYER1
  6
CONTINUOUS
 62
     6
 10
212.457601
 20
377.294058
 11
211.933926
 21
407.294066
  0
LINE
  8
CSLAYER1
  6
CONTINUOUS
 62
     6
 10
309.826901
 20
407.294009
 11
368.779568
 21
407.294009
  0
LINE
  8
CSLAYER1
  6
CONTINUOUS
 62
     6
 10
368.779566
 20
407.294161
 11
367.762113
 21
408.294009
  0
LINE
  8
CSLAYER1
  6
CONTINUOUS
 62
     6
 10
367.762113
 20
408.294009
 11
310.844356
 21
408.294009
  0
LINE
  8
CSLAYER1
  6
CONTINUOUS
 62
     6
 10
310.844356
 20
408.294009
 11
309.826904
 21
407.294161
  0
LINE
  8
CSLAYER1
  6
CONTINUOUS
 62
     6
 10
309.826904
 20
407.294161
 11
309.303250
 21
377.293994
  0
LINE
  8
CSLAYER1
  6
CONTINUOUS
 62
     6
 10
308.303249
 20
377.294009
 11
308.303249
 21
295.294009
  0
LINE
  8
CSLAYER1
  6
CONTINUOUS
 62
     6
 10
308.303249
 20
295.294009
 11
370.303249
 21
295.294009
  0
LINE
  8
CSLAYER1
  6
CONTINUOUS
 62
     6
 10
370.303249
 20
295.294009
 11
370.303249
 21
377.294009
  0
LINE
  8
CSLAYER1
  6
CONTINUOUS
 62
     6
 10
370.303249
 20
377.294009
 11
308.303249
 21
377.294009
  0
ARC
  8
CSLAYER1
  6
CONTINUOUS
 62
     6
 10
338.203239
 20
388.294009
 40
1.100006
 50
179.999981
 51
359.999999
  0
LINE
  8
CSLAYER1
  6
CONTINUOUS
 62
     6
 10
339.303245
 20
388.294009
 11
339.303245
 21
393.727481
  0
ARC
  8
CSLAYER1
  6
CONTINUOUS
 62
     6
 10
339.853263
 20
392.774844
 40
1.100006
 50
60.000001
 51
120.000003
  0
ARC
  8
CSLAYER1
  6
CONTINUOUS
 62
     6
 10
340.953270
 20
392.774844
 40
1.100006
 50
60.000001
 51
120.000003
  0
ARC
  8
CSLAYER1
  6
CONTINUOUS
 62
     6
 10
340.953270
 20
394.680117
 40
1.100006
 50
240.000023
 51
300.000011
  0
LINE
  8
CSLAYER1
  6
CONTINUOUS
 62
     6
 10
341.503242
 20
393.727481
 11
341.503242
 21
388.294009
  0
ARC
  8
CSLAYER1
  6
CONTINUOUS
 62
     6
 10
340.403251
 20
388.294009
 40
1.100006
 50
-179.999992
 51
0.000027
  0
LINE
  8
CSLAYER1
  6
CONTINUOUS
 62
     6
 10
340.403251
 20
387.193972
 11
338.203239
 21
387.193972
  0
LINE
  8
CSLAYER1
  6
CONTINUOUS
 62
     6
 10
337.103248
 20
388.294009
 11
337.103248
 21
393.727481
  0
ARC
  8
CSLAYER1
  6
CONTINUOUS
 62
     6
 10
337.653251
 20
392.774844
 40
1.100006
 50
60.000001
 51
120.000003
  0
ARC
  8
CSLAYER1
  6
CONTINUOUS
 62
     6
 10
338.753257
 20
392.774844
 40
1.100006
 50
60.000001
 51
120.000003
  0
ARC
  8
CSLAYER1
  6
CONTINUOUS
 62
     6
 10
338.753257
 20
394.680117
 40
1.100006
 50
240.000023
 51
300.000011
  0
ARC
  8
CSLAYER1
  6
CONTINUOUS
 62
     6
 10
338.753212
 20
396.319079
 40
1.099999
 50
239.999668
 51
299.999656
  0
ARC
  8
CSLAYER1
  6
CONTINUOUS
 62
     6
 10
339.853218
 20
394.413836
 40
1.099999
 50
59.999646
 51
119.999647
  0
ARC
  8
CSLAYER1
  6
CONTINUOUS
 62
     6
 10
339.853233
 20
396.319087
 40
1.099999
 50
239.999668
 51
299.999656
  0
LINE
  8
CSLAYER1
  6
CONTINUOUS
 62
     6
 10
339.303260
 20
395.366458
 11
339.303260
 21
396.639682
  0
ARC
  8
CSLAYER1
  6
CONTINUOUS
 62
     6
 10
355.062080
 20
396.639682
 40
15.758816
 50
152.536128
 51
179.999997
  0
LINE
  8
CSLAYER1
  6
CONTINUOUS
 62
     6
 10
341.079261
 20
403.907473
 11
343.031318
 21
402.892886
  0
ARC
  8
CSLAYER1
  6
CONTINUOUS
 62
     6
 10
355.062095
 20
396.639712
 40
13.558834
 50
152.536128
 51
180.000025
  0
LINE
  8
CSLAYER1
  6
CONTINUOUS
 62
     6
 10
341.503227
 20
396.639651
 11
341.503227
 21
395.366458
  0
ARC
  8
CSLAYER1
  6
CONTINUOUS
 62
     6
 10
340.953224
 20
396.319079
 40
1.099999
 50
239.999668
 51
299.999656
  0
ARC
  8
CSLAYER1
  6
CONTINUOUS
 62
     6
 10
339.303245
 20
388.294009
 40
8.000000
 50
-254.037904
 51
74.038116
  0
ARC
  8
CSLAYER1
  6
CONTINUOUS
 62
     6
 10
337.653206
 20
394.413836
 40
1.099999
 50
59.999646
 51
119.999647
  0
ARC
  8
CSLAYER1
  6
CONTINUOUS
 62
     6
 10
337.653221
 20
396.319087
 40
1.099999
 50
239.999668
 51
299.999656
  0
LINE
  8
CSLAYER1
  6
CONTINUOUS
 62
     6
 10
337.103233
 20
395.366458
 11
337.103233
 21
396.639651
  0
ARC
  8
CSLAYER1
  6
CONTINUOUS
 62
     6
 10
323.544395
 20
396.639712
 40
13.558834
 50
0.057318
 51
27.463807
  0
LINE
  8
CSLAYER1
  6
CONTINUOUS
 62
     6
 10
335.575172
 20
402.892825
 11
337.527229
 21
403.907473
  0
ARC
  8
CSLAYER1
  6
CONTINUOUS
 62
     6
 10
323.544395
 20
396.639712
 40
15.758816
 50
0.057318
 51
27.463807
  0
LINE
  8
CSLAYER1
  6
CONTINUOUS
 62
     6
 10
336.232795
 20
403.234622
 11
334.615638
 21
406.172732
  0
LINE
  8
CSLAYER1
  6
CONTINUOUS
 62
     6
 10
335.144935
 20
405.496218
 11
336.721717
 21
403.488772
  0
LINE
  8
CSLAYER1
  6
CONTINUOUS
 62
     6
 10
337.119850
 20
403.695742
 11
335.718361
 21
405.775515
  0
LINE
  8
CSLAYER1
  6
CONTINUOUS
 62
     6
 10
341.486641
 20
403.695742
 11
342.888145
 21
405.775576
  0
LINE
  8
CSLAYER1
  6
CONTINUOUS
 62
     6
 10
343.461555
 20
405.496218
 11
341.884773
 21
403.488772
  0
LINE
  8
CSLAYER1
  6
CONTINUOUS
 62
     6
 10
342.373695
 20
403.234683
 11
343.990867
 21
406.172732
  0
LINE
  8
CSLAYER1
  6
CONTINUOUS
 62
     6
 10
368.779566
 20
407.294161
 11
369.303227
 21
377.294009
  0
LINE
  8
CSLAYER1
  6
CONTINUOUS
 62
     6
 10
374.803215
 20
441.871534
 11
374.803245
 21
461.871534
  0
LINE
  8
CSLAYER1
  6
CONTINUOUS
 62
     6
 10
374.803245
 20
461.871534
 11
375.303245
 21
461.871534
  0
LINE
  8
CSLAYER1
  6
CONTINUOUS
 62
     6
 10
375.303245
 20
461.871534
 11
375.303258
 21
470.671522
  0
LINE
  8
CSLAYER1
  6
CONTINUOUS
 62
     6
 10
375.303258
 20
470.671522
 11
363.303289
 21
470.671527
  0
LINE
  8
CSLAYER1
  6
CONTINUOUS
 62
     6
 10
363.303289
 20
470.671527
 11
363.303277
 21
442.371539
  0
LINE
  8
CSLAYER1
  6
CONTINUOUS
 62
     6
 10
363.303277
 20
442.371539
 11
374.803216
 21
442.371534
  0
LINE
  8
CSLAYER1
  6
CONTINUOUS
 62
     6
 10
374.803216
 20
441.871534
 11
363.803277
 21
441.871539
  0
LINE
  8
CSLAYER1
  6
CONTINUOUS
 62
     6
 10
363.803277
 20
441.871539
 11
363.303277
 21
442.371539
  0
ARC
  8
CSLAYER1
  6
CONTINUOUS
 62
     6
 10
365.303243
 20
288.794009
 40
9.089782
 50
73.970958
 51
106.034598
  0
ARC
  8
CSLAYER1
  6
CONTINUOUS
 62
     6
 10
367.455343
 20
296.282138
 40
1.290623
 50
5.000090
 51
73.742830
  0
LINE
  8
CSLAYER1
  6
CONTINUOUS
 62
     6
 10
368.731710
 20
296.395419
 11
368.802266
 21
295.576663
  0
ARC
  8
CSLAYER1
  6
CONTINUOUS
 62
     6
 10
368.547017
 20
295.554019
 40
0.258129
 50
-89.942654
 51
4.999762
  0
ARC
  8
CSLAYER1
  6
CONTINUOUS
 62
     6
 10
368.803243
 20
295.169009
 40
0.125000
 50
0.000009
 51
89.999991
  0
LINE
  8
CSLAYER1
  6
CONTINUOUS
 62
     6
 10
368.928243
 20
295.169009
 11
368.928243
 21
294.419009
  0
ARC
  8
CSLAYER1
  6
CONTINUOUS
 62
     6
 10
368.803243
 20
294.419009
 40
0.125000
 50
-89.942654
 51
0.000009
  0
LINE
  8
CSLAYER1
  6
CONTINUOUS
 62
     6
 10
369.303249
 20
294.294009
 11
309.303226
 21
294.294009
  0
ARC
  8
CSLAYER1
  6
CONTINUOUS
 62
     6
 10
309.303226
 20
292.294015
 40
2.000000
 50
89.999996
 51
179.999985
  0
LINE
  8
CSLAYER1
  6
CONTINUOUS
 62
     6
 10
307.303226
 20
292.294016
 11
307.303225
 21
285.294009
  0
LINE
  8
CSLAYER1
  6
CONTINUOUS
 62
     6
 10
307.303225
 20
285.294009
 11
371.303271
 21
285.294009
  0
LINE
  8
CSLAYER1
  6
CONTINUOUS
 62
     6
 10
371.303271
 20
285.294009
 11
371.303264
 21
277.294024
  0
ARC
  8
CSLAYER1
  6
CONTINUOUS
 62
     6
 10
369.303264
 20
277.294024
 40
2.000000
 50
270.000000
 51
359.999981
  0
ARC
  8
CSLAYER1
  6
CONTINUOUS
 62
     6
 10
370.803203
 20
273.794024
 40
1.500000
 50
-90.000000
 51
90.000020
  0
LINE
  8
CSLAYER1
  6
CONTINUOUS
 62
     6
 10
370.803203
 20
272.294024
 11
363.803206
 21
272.294024
  0
ARC
  8
CSLAYER1
  6
CONTINUOUS
 62
     6
 10
363.803206
 20
273.794024
 40
1.500000
 50
90.000020
 51
270.000000
  0
LINE
  8
CSLAYER1
  6
CONTINUOUS
 62
     6
 10
363.803206
 20
275.294024
 11
370.803203
 21
275.294024
  0
LINE
  8
CSLAYER1
  6
CONTINUOUS
 62
     6
 10
362.303206
 20
273.794024
 11
362.303206
 21
270.322787
  0
LINE
  8
CSLAYER1
  6
CONTINUOUS
 62
     6
 10
360.850295
 20
269.217593
 11
322.753707
 21
268.567477
  0
LINE
  8
CSLAYER1
  6
CONTINUOUS
 62
     6
 10
319.722274
 20
272.160052
 11
314.803267
 21
272.160052
  0
ARC
  8
CSLAYER1
  6
CONTINUOUS
 62
     6
 10
315.303267
 20
271.294024
 40
1.000000
 50
119.999918
 51
180.000001
  0
LINE
  8
CSLAYER1
  6
CONTINUOUS
 62
     6
 10
314.303267
 20
271.294024
 11
314.303266
 21
239.294009
  0
ARC
  8
CSLAYER1
  6
CONTINUOUS
 62
     6
 10
315.303266
 20
239.294009
 40
1.000000
 50
180.000019
 51
270.000000
  0
LINE
  8
CSLAYER1
  6
CONTINUOUS
 62
     6
 10
315.303266
 20
238.294009
 11
320.803266
 21
238.294009
  0
ARC
  8
CSLAYER1
  6
CONTINUOUS
 62
     6
 10
320.803266
 20
237.794009
 40
0.500000
 50
-0.000019
 51
90.000020
  0
ARC
  8
CSLAYER1
  6
CONTINUOUS
 62
     6
 10
321.803266
 20
237.794009
 40
0.500000
 50
180.000019
 51
270.000000
  0
LINE
  8
CSLAYER1
  6
CONTINUOUS
 62
     6
 10
321.803266
 20
237.294009
 11
344.613969
 21
237.294009
  0
ARC
  8
CSLAYER1
  6
CONTINUOUS
 62
     6
 10
344.613969
 20
235.294009
 40
2.000000
 50
-13.110206
 51
90.000000
  0
ARC
  8
CSLAYER1
  6
CONTINUOUS
 62
     6
 10
342.817400
 20
233.294009
 40
2.000000
 50
-8.058683
 51
90.000000
  0
LINE
  8
CSLAYER1
  6
CONTINUOUS
 62
     6
 10
342.817400
 20
235.294009
 11
324.303308
 21
235.294009
  0
ARC
  8
CSLAYER1
  6
CONTINUOUS
 62
     6
 10
324.303308
 20
236.294009
 40
1.000000
 50
180.000019
 51
270.000000
  0
ARC
  8
CSLAYER1
  6
CONTINUOUS
 62
     6
 10
322.303308
 20
236.294009
 40
1.000000
 50
-0.000019
 51
90.000020
  0
LINE
  8
CSLAYER1
  6
CONTINUOUS
 62
     6
 10
321.303266
 20
237.794009
 11
321.303267
 21
273.294024
  0
ARC
  8
CSLAYER1
  6
CONTINUOUS
 62
     6
 10
319.303267
 20
273.294024
 40
2.000000
 50
-0.000019
 51
90.000020
  0
LINE
  8
CSLAYER1
  6
CONTINUOUS
 62
     6
 10
319.303267
 20
275.294024
 11
309.303267
 21
275.294024
  0
ARC
  8
CSLAYER1
  6
CONTINUOUS
 62
     6
 10
309.303267
 20
277.294024
 40
2.000000
 50
180.000019
 51
270.000000
  0
LINE
  8
CSLAYER1
  6
CONTINUOUS
 62
     6
 10
307.303267
 20
277.294024
 11
307.303268
 21
285.294009
  0
LINE
  8
CSLAYER1
  6
CONTINUOUS
 62
     6
 10
309.303211
 20
294.294031
 11
309.303211
 21
295.294031
  0
LINE
  8
CSLAYER1
  6
CONTINUOUS
 62
     6
 10
309.678233
 20
295.169009
 11
309.678233
 21
294.419009
  0
ARC
  8
CSLAYER1
  6
CONTINUOUS
 62
     6
 10
309.803233
 20
294.419009
 40
0.125000
 50
180.000055
 51
270.000010
  0
ARC
  8
CSLAYER1
  6
CONTINUOUS
 62
     6
 10
309.803233
 20
295.169009
 40
0.125000
 50
90.000005
 51
180.000055
  0
ARC
  8
CSLAYER1
  6
CONTINUOUS
 62
     6
 10
310.059458
 20
295.554019
 40
0.258129
 50
175.000302
 51
270.000010
  0
LINE
  8
CSLAYER1
  6
CONTINUOUS
 62
     6
 10
309.804209
 20
295.576663
 11
309.874766
 21
296.395419
  0
ARC
  8
CSLAYER1
  6
CONTINUOUS
 62
     6
 10
311.151133
 20
296.282138
 40
1.290623
 50
106.257221
 51
174.999920
  0
ARC
  8
CSLAYER1
  6
CONTINUOUS
 62
     6
 10
313.303233
 20
288.794009
 40
9.089782
 50
73.970958
 51
106.034598
  0
ARC
  8
CSLAYER1
  6
CONTINUOUS
 62
     6
 10
315.455332
 20
296.282138
 40
1.290623
 50
5.000090
 51
73.742830
  0
LINE
  8
CSLAYER1
  6
CONTINUOUS
 62
     6
 10
316.731699
 20
296.395419
 11
316.802256
 21
295.576663
  0
ARC
  8
CSLAYER1
  6
CONTINUOUS
 62
     6
 10
316.547007
 20
295.554019
 40
0.258129
 50
-89.942654
 51
4.999762
  0
ARC
  8
CSLAYER1
  6
CONTINUOUS
 62
     6
 10
316.803233
 20
295.169009
 40
0.125000
 50
0.000009
 51
89.999991
  0
LINE
  8
CSLAYER1
  6
CONTINUOUS
 62
     6
 10
316.928233
 20
295.169009
 11
316.928233
 21
294.419009
  0
ARC
  8
CSLAYER1
  6
CONTINUOUS
 62
     6
 10
316.803233
 20
294.419009
 40
0.125000
 50
-89.942654
 51
0.000009
  0
LINE
  8
CSLAYER1
  6
CONTINUOUS
 62
     6
 10
314.048106
 20
294.294039
 11
313.493296
 21
295.294039
  0
LINE
  8
CSLAYER1
  6
CONTINUOUS
 62
     6
 10
312.868296
 20
295.294039
 11
313.423106
 21
294.294039
  0
ARC
  8
CSLAYER1
  6
CONTINUOUS
 62
     6
 10
314.303267
 20
274.294024
 40
1.000000
 50
-0.000019
 51
90.000020
  0
LINE
  8
CSLAYER1
  6
CONTINUOUS
 62
     6
 10
315.303267
 20
274.294024
 11
315.303267
 21
273.026080
  0
ARC
  8
CSLAYER1
  6
CONTINUOUS
 62
     6
 10
314.303267
 20
273.026080
 40
1.000000
 50
300.000127
 51
359.999981
  0
ARC
  8
CSLAYER1
  6
CONTINUOUS
 62
     6
 10
347.653912
 20
242.732225
 40
2.000000
 50
-31.348724
 51
13.726431
  0
ARC
  8
CSLAYER1
  6
CONTINUOUS
 62
     6
 10
369.303236
 20
229.544001
 40
23.350000
 50
148.651276
 51
211.348711
  0
ARC
  8
CSLAYER1
  6
CONTINUOUS
 62
     6
 10
347.653909
 20
216.355781
 40
2.000000
 50
-13.726329
 51
31.348711
  0
ARC
  8
CSLAYER1
  6
CONTINUOUS
 62
     6
 10
354.453990
 20
214.694789
 40
5.000000
 50
166.273671
 51
283.726199
  0
ARC
  8
CSLAYER1
  6
CONTINUOUS
 62
     6
 10
356.114967
 20
207.894703
 40
2.000000
 50
58.651159
 51
103.726199
  0
ARC
  8
CSLAYER1
  6
CONTINUOUS
 62
     6
 10
369.303236
 20
229.544001
 40
23.350000
 50
238.651159
 51
301.348830
  0
ARC
  8
CSLAYER1
  6
CONTINUOUS
 62
     6
 10
382.491501
 20
207.894701
 40
2.000000
 50
76.273790
 51
121.348830
  0
ARC
  8
CSLAYER1
  6
CONTINUOUS
 62
     6
 10
384.152479
 20
214.694786
 40
5.000000
 50
-103.726210
 51
13.726318
  0
ARC
  8
CSLAYER1
  6
CONTINUOUS
 62
     6
 10
390.952560
 20
216.355777
 40
2.000000
 50
148.651278
 51
193.726318
  0
ARC
  8
CSLAYER1
  6
CONTINUOUS
 62
     6
 10
369.303236
 20
229.544001
 40
23.350000
 50
-31.348722
 51
31.348714
  0
ARC
  8
CSLAYER1
  6
CONTINUOUS
 62
     6
 10
390.952562
 20
242.732221
 40
2.000000
 50
166.273559
 51
211.348714
  0
ARC
  8
CSLAYER1
  6
CONTINUOUS
 62
     6
 10
384.152484
 20
244.393227
 40
5.000000
 50
-13.726441
 51
103.726356
  0
ARC
  8
CSLAYER1
  6
CONTINUOUS
 62
     6
 10
382.491489
 20
251.193307
 40
2.000000
 50
238.651201
 51
283.726356
  0
ARC
  8
CSLAYER1
  6
CONTINUOUS
 62
     6
 10
369.303236
 20
229.544001
 40
23.350000
 50
58.651201
 51
121.348788
  0
ARC
  8
CSLAYER1
  6
CONTINUOUS
 62
     6
 10
356.114987
 20
251.193310
 40
2.000000
 50
256.273633
 51
301.348788
  0
ARC
  8
CSLAYER1
  6
CONTINUOUS
 62
     6
 10
354.453990
 20
244.393229
 40
5.000000
 50
76.273633
 51
193.726431
  0
ARC
  8
CSLAYER1
  6
CONTINUOUS
 62
     6
 10
369.303236
 20
229.544001
 40
24.749992
 50
171.941317
 51
215.337769
  0
ARC
  8
CSLAYER1
  6
CONTINUOUS
 62
     6
 10
347.481756
 20
214.071926
 40
2.000000
 50
5.104951
 51
35.337769
  0
ARC
  8
CSLAYER1
  6
CONTINUOUS
 62
     6
 10
353.831112
 20
207.722556
 40
2.000000
 50
54.662101
 51
84.894920
  0
ARC
  8
CSLAYER1
  6
CONTINUOUS
 62
     6
 10
369.303236
 20
229.544001
 40
24.749992
 50
234.662101
 51
305.337888
  0
ARC
  8
CSLAYER1
  6
CONTINUOUS
 62
     6
 10
384.775356
 20
207.722553
 40
2.000000
 50
95.105070
 51
125.337888
  0
ARC
  8
CSLAYER1
  6
CONTINUOUS
 62
     6
 10
390.978526
 20
213.294024
 40
2.000000
 50
90.000020
 51
159.766713
  0
LINE
  8
CSLAYER1
  6
CONTINUOUS
 62
     6
 10
390.978526
 20
215.294024
 11
407.303233
 21
215.294024
  0
LINE
  8
CSLAYER1
  6
CONTINUOUS
 62
     6
 10
407.303271
 20
215.294009
 11
407.303271
 21
295.294009
  0
LINE
  8
CSLAYER1
  6
CONTINUOUS
 62
     6
 10
407.303271
 20
295.294009
 11
397.303271
 21
295.294009
  0
ARC
  8
CSLAYER1
  6
CONTINUOUS
 62
     6
 10
397.303271
 20
293.294009
 40
2.000000
 50
90.000020
 51
180.000001
  0
LINE
  8
CSLAYER1
  6
CONTINUOUS
 62
     6
 10
395.303271
 20
293.294009
 11
395.303264
 21
247.294009
  0
ARC
  8
CSLAYER1
  6
CONTINUOUS
 62
     6
 10
393.303264
 20
247.294009
 40
2.000000
 50
270.000000
 51
359.999981
  0
LINE
  8
CSLAYER1
  6
CONTINUOUS
 62
     6
 10
393.303264
 20
245.294009
 11
390.522294
 21
245.294009
  0
ARC
  8
CSLAYER1
  6
CONTINUOUS
 62
     6
 10
390.522294
 20
247.294009
 40
2.000000
 50
203.139206
 51
270.000000
  0
LINE
  8
CSLAYER1
  6
CONTINUOUS
 62
     6
 10
374.803229
 20
231.941925
 11
374.803229
 21
227.146088
  0
CIRCLE
  8
CSLAYER1
  6
CONTINUOUS
 62
     6
 10
369.303233
 20
229.544016
 40
17.500000
  0
CIRCLE
  8
CSLAYER1
  6
CONTINUOUS
 62
     6
 10
369.303233
 20
229.544016
 40
7.500000
  0
CIRCLE
  8
CSLAYER1
  6
CONTINUOUS
 62
     6
 10
369.303233
 20
229.544016
 40
6.000000
  0
ARC
  8
CSLAYER1
  6
CONTINUOUS
 62
     6
 10
393.957569
 20
226.466279
 40
1.345695
 50
0.000000
 51
172.884221
  0
LINE
  8
CSLAYER1
  6
CONTINUOUS
 62
     6
 10
395.303264
 20
226.466279
 11
395.303264
 21
217.294024
  0
ARC
  8
CSLAYER1
  6
CONTINUOUS
 62
     6
 10
397.303264
 20
217.294024
 40
2.000000
 50
180.000019
 51
270.000000
  0
LINE
  8
CSLAYER1
  6
CONTINUOUS
 62
     6
 10
374.303235
 20
169.221749
 11
363.803235
 21
169.221750
  0
LINE
  8
CSLAYER1
  6
CONTINUOUS
 62
     6
 10
363.803235
 20
169.221750
 11
363.303235
 21
168.721750
  0
LINE
  8
CSLAYER1
  6
CONTINUOUS
 62
     6
 10
363.303235
 20
168.721750
 11
363.303235
 21
140.421750
  0
LINE
  8
CSLAYER1
  6
CONTINUOUS
 62
     6
 10
363.303235
 20
140.421750
 11
375.303235
 21
140.421749
  0
LINE
  8
CSLAYER1
  6
CONTINUOUS
 62
     6
 10
375.303235
 20
140.421749
 11
375.303235
 21
149.221749
  0
LINE
  8
CSLAYER1
  6
CONTINUOUS
 62
     6
 10
375.303235
 20
149.221749
 11
374.803235
 21
149.221749
  0
LINE
  8
CSLAYER1
  6
CONTINUOUS
 62
     6
 10
374.803235
 20
149.221749
 11
374.803235
 21
168.721749
  0
LINE
  8
CSLAYER1
  6
CONTINUOUS
 62
     6
 10
374.803235
 20
168.721749
 11
374.303235
 21
169.221749
  0
LINE
  8
CSLAYER1
  6
CONTINUOUS
 62
     6
 10
374.803235
 20
168.721749
 11
363.303235
 21
168.721749
  0
LINE
  8
CSLAYER1
  6
CONTINUOUS
 62
     6
 10
372.303271
 20
284.294009
 11
393.303271
 21
284.294009
  0
ARC
  8
CSLAYER1
  6
CONTINUOUS
 62
     6
 10
393.303271
 20
286.294009
 40
2.000000
 50
270.000000
 51
359.999981
  0
ARC
  8
CSLAYER1
  6
CONTINUOUS
 62
     6
 10
372.303271
 20
285.294009
 40
1.000000
 50
180.000019
 51
270.000000
  0
LINE
  8
CSLAYER1
  6
CONTINUOUS
 62
     6
 10
371.303249
 20
285.294009
 11
371.303249
 21
292.294009
  0
ARC
  8
CSLAYER1
  6
CONTINUOUS
 62
     6
 10
369.303249
 20
292.294009
 40
2.000000
 50
0.000003
 51
89.999991
  0
LINE
  8
CSLAYER1
  6
CONTINUOUS
 62
     6
 10
369.303249
 20
294.294009
 11
369.303249
 21
295.294009
  0
LINE
  8
CSLAYER1
  6
CONTINUOUS
 62
     6
 10
369.303265
 20
295.294024
 11
369.303265
 21
294.294024
  0
LINE
  8
CSLAYER1
  6
CONTINUOUS
 62
     6
 10
366.048116
 20
294.294039
 11
365.493306
 21
295.294039
  0
LINE
  8
CSLAYER1
  6
CONTINUOUS
 62
     6
 10
364.868306
 20
295.294039
 11
365.423116
 21
294.294039
  0
ARC
  8
CSLAYER1
  6
CONTINUOUS
 62
     6
 10
362.059469
 20
295.554019
 40
0.258129
 50
175.000302
 51
270.000010
  0
LINE
  8
CSLAYER1
  6
CONTINUOUS
 62
     6
 10
361.804220
 20
295.576663
 11
361.874776
 21
296.395419
  0
ARC
  8
CSLAYER1
  6
CONTINUOUS
 62
     6
 10
363.151143
 20
296.282138
 40
1.290623
 50
106.257221
 51
174.999920
  0
ARC
  8
CSLAYER1
  6
CONTINUOUS
 62
     6
 10
361.803243
 20
295.169009
 40
0.125000
 50
90.000005
 51
180.000055
  0
LINE
  8
CSLAYER1
  6
CONTINUOUS
 62
     6
 10
361.678243
 20
295.169009
 11
361.678243
 21
294.419009
  0
ARC
  8
CSLAYER1
  6
CONTINUOUS
 62
     6
 10
361.803243
 20
294.419009
 40
0.125000
 50
180.000055
 51
270.000010
  0
LINE
  8
CSLAYER1
  6
CONTINUOUS
 62
     6
 10
439.148881
 20
235.043971
 11
439.148883
 21
224.044032
  0
LINE
  8
CSLAYER1
  6
CONTINUOUS
 62
     6
 10
439.148883
 20
224.044032
 11
439.648883
 21
223.544032
  0
LINE
  8
CSLAYER1
  6
CONTINUOUS
 62
     6
 10
439.648883
 20
223.544032
 11
439.648882
 21
227.146085
  0
LINE
  8
CSLAYER1
  6
CONTINUOUS
 62
     6
 10
439.148882
 20
227.146085
 11
459.148882
 21
227.146088
  0
LINE
  8
CSLAYER1
  6
CONTINUOUS
 62
     6
 10
459.148882
 20
227.146088
 11
459.148882
 21
231.941919
  0
LINE
  8
CSLAYER1
  6
CONTINUOUS
 62
     6
 10
459.148882
 20
231.941919
 11
439.148882
 21
231.941917
  0
LINE
  8
CSLAYER1
  6
CONTINUOUS
 62
     6
 10
439.648882
 20
231.941917
 11
439.648881
 21
235.543971
  0
LINE
  8
CSLAYER1
  6
CONTINUOUS
 62
     6
 10
439.648881
 20
235.543971
 11
467.948869
 21
235.544004
  0
LINE
  8
CSLAYER1
  6
CONTINUOUS
 62
     6
 10
467.948869
 20
235.544004
 11
467.948871
 21
223.544035
  0
LINE
  8
CSLAYER1
  6
CONTINUOUS
 62
     6
 10
467.948871
 20
223.544035
 11
439.648883
 21
223.544032
  0
LINE
  8
CSLAYER1
  6
CONTINUOUS
 62
     6
 10
439.148881
 20
235.043970
 11
439.648881
 21
235.543970
  0
LINE
  8
CSLAYER1
  6
CONTINUOUS
 62
     6
 10
467.948869
 20
235.420774
 11
469.148881
 21
235.420774
  0
LINE
  8
CSLAYER1
  6
CONTINUOUS
 62
     6
 10
469.148881
 20
236.544004
 11
469.148883
 21
222.544035
  0
LINE
  8
CSLAYER1
  6
CONTINUOUS
 62
     6
 10
469.148883
 20
222.544035
 11
469.648883
 21
222.044035
  0
LINE
  8
CSLAYER1
  6
CONTINUOUS
 62
     6
 10
469.648883
 20
222.044035
 11
469.648881
 21
237.044004
  0
LINE
  8
CSLAYER1
  6
CONTINUOUS
 62
     6
 10
469.648881
 20
237.044004
 11
471.148881
 21
237.044005
  0
LINE
  8
CSLAYER1
  6
CONTINUOUS
 62
     6
 10
469.648881
 20
237.044004
 11
469.148881
 21
236.544004
  0
LINE
  8
CSLAYER1
  6
CONTINUOUS
 62
     6
 10
472.648882
 20
242.294013
 11
481.148882
 21
242.294012
  0
ARC
  8
CSLAYER1
  6
CONTINUOUS
 62
     6
 10
487.148882
 20
239.294012
 40
2.000000
 50
89.999994
 51
180.000000
  0
LINE
  8
CSLAYER1
  6
CONTINUOUS
 62
     6
 10
487.148882
 20
241.294012
 11
496.866024
 21
241.294011
  0
ARC
  8
CSLAYER1
  6
CONTINUOUS
 62
     6
 10
495.596819
 20
239.733375
 40
2.000000
 50
-34.508533
 51
45.015785
  0
LINE
  8
CSLAYER1
  6
CONTINUOUS
 62
     6
 10
497.244903
 20
238.600317
 11
492.693115
 21
231.979537
  0
ARC
  8
CSLAYER1
  6
CONTINUOUS
 62
     6
 10
491.045038
 20
233.112589
 40
2.000000
 50
259.069662
 51
325.491483
  0
ARC
  8
CSLAYER1
  6
CONTINUOUS
 62
     6
 10
489.148882
 20
223.294011
 40
8.000000
 50
-11.536981
 51
101.536959
  0
ARC
  8
CSLAYER1
  6
CONTINUOUS
 62
     6
 10
498.946840
 20
221.294008
 40
2.000000
 50
168.463019
 51
270.000006
  0
LINE
  8
CSLAYER1
  6
CONTINUOUS
 62
     6
 10
498.946840
 20
219.294008
 11
523.350923
 21
219.294010
  0
ARC
  8
CSLAYER1
  6
CONTINUOUS
 62
     6
 10
523.350923
 20
221.294010
 40
2.000000
 50
-89.999994
 51
11.536965
  0
ARC
  8
CSLAYER1
  6
CONTINUOUS
 62
     6
 10
533.148882
 20
223.294011
 40
8.000000
 50
78.463041
 51
191.536965
  0
ARC
  8
CSLAYER1
  6
CONTINUOUS
 62
     6
 10
535.148882
 20
233.091970
 40
2.000000
 50
-101.536959
 51
0.000000
  0
LINE
  8
CSLAYER1
  6
CONTINUOUS
 62
     6
 10
537.148882
 20
233.091970
 11
537.148882
 21
277.496052
  0
ARC
  8
CSLAYER1
  6
CONTINUOUS
 62
     6
 10
535.148882
 20
277.496052
 40
2.000000
 50
0.000000
 51
101.536959
  0
ARC
  8
CSLAYER1
  6
CONTINUOUS
 62
     6
 10
533.148882
 20
287.294011
 40
8.000000
 50
168.463047
 51
281.536959
  0
ARC
  8
CSLAYER1
  6
CONTINUOUS
 62
     6
 10
523.350923
 20
289.294010
 40
2.000000
 50
-11.536953
 51
90.000006
  0
LINE
  8
CSLAYER1
  6
CONTINUOUS
 62
     6
 10
523.350923
 20
291.294010
 11
498.946841
 21
291.294008
  0
ARC
  8
CSLAYER1
  6
CONTINUOUS
 62
     6
 10
498.946842
 20
289.294008
 40
2.000000
 50
90.000006
 51
191.536937
  0
ARC
  8
CSLAYER1
  6
CONTINUOUS
 62
     6
 10
489.148882
 20
287.294011
 40
8.000000
 50
-101.536959
 51
11.536937
  0
ARC
  8
CSLAYER1
  6
CONTINUOUS
 62
     6
 10
487.148882
 20
277.496052
 40
2.000000
 50
78.463041
 51
180.000000
  0
LINE
  8
CSLAYER1
  6
CONTINUOUS
 62
     6
 10
485.148882
 20
277.496052
 11
485.148882
 21
233.091970
  0
ARC
  8
CSLAYER1
  6
CONTINUOUS
 62
     6
 10
487.148882
 20
233.091970
 40
2.000000
 50
180.000000
 51
281.536959
  0
CIRCLE
  8
CSLAYER1
  6
CONTINUOUS
 62
     6
 10
489.148882
 20
223.294007
 40
3.200000
  0
ARC
  8
CSLAYER1
  6
CONTINUOUS
 62
     6
 10
489.148889
 20
223.294002
 40
8.000000
 50
180.000012
 51
270.000006
  0
LINE
  8
CSLAYER1
  6
CONTINUOUS
 62
     6
 10
489.148890
 20
215.294007
 11
533.132833
 21
215.294011
  0
ARC
  8
CSLAYER1
  6
CONTINUOUS
 62
     6
 10
533.148889
 20
223.294011
 40
8.000000
 50
-89.999994
 51
0.000012
  0
LINE
  8
CSLAYER1
  6
CONTINUOUS
 62
     6
 10
541.148882
 20
223.284561
 11
541.148882
 21
287.294011
  0
ARC
  8
CSLAYER1
  6
CONTINUOUS
 62
     6
 10
533.148882
 20
287.294011
 40
8.000000
 50
0.000000
 51
90.000006
  0
LINE
  8
CSLAYER1
  6
CONTINUOUS
 62
     6
 10
537.021864
 20
294.294009
 11
561.148893
 21
294.294009
  0
LINE
  8
CSLAYER1
  6
CONTINUOUS
 62
     6
 10
561.148893
 20
294.294009
 11
561.148893
 21
295.294009
  0
LINE
  8
CSLAYER1
  6
CONTINUOUS
 62
     6
 10
561.148909
 20
295.294024
 11
561.148909
 21
294.294024
  0
ARC
  8
CSLAYER1
  6
CONTINUOUS
 62
     6
 10
561.148893
 20
292.294009
 40
2.000000
 50
0.000003
 51
89.999991
  0
LINE
  8
CSLAYER1
  6
CONTINUOUS
 62
     6
 10
563.148893
 20
292.294009
 11
563.148893
 21
277.294014
  0
ARC
  8
CSLAYER1
  6
CONTINUOUS
 62
     6
 10
561.148893
 20
277.294014
 40
2.000000
 50
270.000006
 51
360.000000
  0
LINE
  8
CSLAYER1
  6
CONTINUOUS
 62
     6
 10
561.148893
 20
275.294014
 11
541.148882
 21
275.294012
  0
LINE
  8
CSLAYER1
  6
CONTINUOUS
 62
     6
 10
541.148882
 20
268.794012
 11
549.148882
 21
268.794013
  0
ARC
  8
CSLAYER1
  6
CONTINUOUS
 62
     6
 10
549.148882
 20
267.794013
 40
1.000000
 50
-0.000000
 51
90.000006
  0
LINE
  8
CSLAYER1
  6
CONTINUOUS
 62
     6
 10
550.148882
 20
267.794013
 11
550.148882
 21
266.794013
  0
ARC
  8
CSLAYER1
  6
CONTINUOUS
 62
     6
 10
549.148882
 20
266.794013
 40
1.000000
 50
270.000006
 51
360.000000
  0
LINE
  8
CSLAYER1
  6
CONTINUOUS
 62
     6
 10
549.148882
 20
265.794013
 11
541.148882
 21
265.794012
  0
LINE
  8
CSLAYER1
  6
CONTINUOUS
 62
     6
 10
541.148882
 20
262.794012
 11
549.148882
 21
262.794013
  0
ARC
  8
CSLAYER1
  6
CONTINUOUS
 62
     6
 10
549.148882
 20
261.794013
 40
1.000000
 50
-0.000000
 51
90.000006
  0
LINE
  8
CSLAYER1
  6
CONTINUOUS
 62
     6
 10
550.148882
 20
261.794013
 11
550.148882
 21
260.794013
  0
ARC
  8
CSLAYER1
  6
CONTINUOUS
 62
     6
 10
549.148882
 20
260.794013
 40
1.000000
 50
270.000006
 51
360.000000
  0
LINE
  8
CSLAYER1
  6
CONTINUOUS
 62
     6
 10
549.148882
 20
259.794013
 11
541.148882
 21
259.794012
  0
LINE
  8
CSLAYER1
  6
CONTINUOUS
 62
     6
 10
541.148882
 20
256.794012
 11
549.148882
 21
256.794013
  0
ARC
  8
CSLAYER1
  6
CONTINUOUS
 62
     6
 10
549.148882
 20
255.794013
 40
1.000000
 50
-0.000000
 51
90.000006
  0
LINE
  8
CSLAYER1
  6
CONTINUOUS
 62
     6
 10
550.148882
 20
255.794013
 11
550.148882
 21
254.794013
  0
ARC
  8
CSLAYER1
  6
CONTINUOUS
 62
     6
 10
549.148882
 20
254.794013
 40
1.000000
 50
270.000006
 51
360.000000
  0
LINE
  8
CSLAYER1
  6
CONTINUOUS
 62
     6
 10
549.148882
 20
253.794013
 11
541.148882
 21
253.794012
  0
LINE
  8
CSLAYER1
  6
CONTINUOUS
 62
     6
 10
541.148882
 20
249.794012
 11
550.148882
 21
249.694013
  0
ARC
  8
CSLAYER1
  6
CONTINUOUS
 62
     6
 10
550.148882
 20
248.694013
 40
1.000000
 50
-0.000000
 51
90.000006
  0
LINE
  8
CSLAYER1
  6
CONTINUOUS
 62
     6
 10
551.148882
 20
248.694013
 11
551.148882
 21
210.694013
  0
ARC
  8
CSLAYER1
  6
CONTINUOUS
 62
     6
 10
550.148882
 20
210.694013
 40
1.000000
 50
270.000006
 51
360.000000
  0
LINE
  8
CSLAYER1
  6
CONTINUOUS
 62
     6
 10
550.148882
 20
209.694013
 11
537.148882
 21
209.694012
  0
ARC
  8
CSLAYER1
  6
CONTINUOUS
 62
     6
 10
537.148882
 20
208.694012
 40
1.000000
 50
90.000006
 51
180.000000
  0
ARC
  8
CSLAYER1
  6
CONTINUOUS
 62
     6
 10
535.148882
 20
207.194012
 40
1.000000
 50
270.000006
 51
360.000000
  0
LINE
  8
CSLAYER1
  6
CONTINUOUS
 62
     6
 10
535.148882
 20
206.194012
 11
513.148882
 21
206.194009
  0
ARC
  8
CSLAYER1
  6
CONTINUOUS
 62
     6
 10
513.148882
 20
205.694009
 40
0.500000
 50
90.000006
 51
180.000000
  0
LINE
  8
CSLAYER1
  6
CONTINUOUS
 62
     6
 10
512.648882
 20
205.794018
 11
512.648882
 21
215.294009
  0
LINE
  8
CSLAYER1
  6
CONTINUOUS
 62
     6
 10
509.648882
 20
215.294010
 11
509.648882
 21
205.794017
  0
ARC
  8
CSLAYER1
  6
CONTINUOUS
 62
     6
 10
510.648882
 20
205.794017
 40
1.000000
 50
180.000000
 51
270.000006
  0
LINE
  8
CSLAYER1
  6
CONTINUOUS
 62
     6
 10
510.636749
 20
204.794017
 11
511.648882
 21
204.794018
  0
ARC
  8
CSLAYER1
  6
CONTINUOUS
 62
     6
 10
511.648882
 20
205.794018
 40
1.000000
 50
270.000006
 51
360.000000
  0
ARC
  8
CSLAYER1
  6
CONTINUOUS
 62
     6
 10
509.148882
 20
205.694009
 40
0.500000
 50
-0.000000
 51
90.000006
  0
LINE
  8
CSLAYER1
  6
CONTINUOUS
 62
     6
 10
509.148882
 20
206.194009
 11
472.148882
 21
206.194005
  0
ARC
  8
CSLAYER1
  6
CONTINUOUS
 62
     6
 10
472.148882
 20
207.194005
 40
1.000000
 50
180.000000
 51
270.000006
  0
LINE
  8
CSLAYER1
  6
CONTINUOUS
 62
     6
 10
471.148882
 20
207.194005
 11
471.148882
 21
252.194007
  0
ARC
  8
CSLAYER1
  6
CONTINUOUS
 62
     6
 10
472.148882
 20
252.194007
 40
1.000000
 50
89.999994
 51
180.000000
  0
LINE
  8
CSLAYER1
  6
CONTINUOUS
 62
     6
 10
472.148882
 20
253.194007
 11
481.148882
 21
253.194006
  0
LINE
  8
CSLAYER1
  6
CONTINUOUS
 62
     6
 10
481.148882
 20
249.794012
 11
472.148882
 21
249.794013
  0
ARC
  8
CSLAYER1
  6
CONTINUOUS
 62
     6
 10
472.148882
 20
248.794013
 40
1.000000
 50
89.999994
 51
180.000000
  0
LINE
  8
CSLAYER1
  6
CONTINUOUS
 62
     6
 10
469.148883
 20
223.667295
 11
467.948871
 21
223.667295
  0
LINE
  8
CSLAYER1
  6
CONTINUOUS
 62
     6
 10
469.648883
 20
222.044035
 11
471.148883
 21
222.044036
  0
LINE
  8
CSLAYER1
  6
CONTINUOUS
 62
     6
 10
472.648882
 20
217.294005
 11
483.857382
 21
217.294006
  0
LINE
  8
CSLAYER1
  6
CONTINUOUS
 62
     6
 10
481.148882
 20
223.294000
 11
481.148882
 21
287.294011
  0
ARC
  8
CSLAYER1
  6
CONTINUOUS
 62
     6
 10
489.148882
 20
287.294011
 40
8.000000
 50
89.999994
 51
180.000000
  0
LINE
  8
CSLAYER1
  6
CONTINUOUS
 62
     6
 10
489.140137
 20
295.294007
 11
562.148893
 21
295.294015
  0
LINE
  8
CSLAYER1
  6
CONTINUOUS
 62
     6
 10
562.148893
 20
295.294009
 11
562.148893
 21
377.294009
  0
LINE
  8
CSLAYER1
  6
CONTINUOUS
 62
     6
 10
562.148893
 20
377.294009
 11
500.148893
 21
377.294009
  0
LINE
  8
CSLAYER1
  6
CONTINUOUS
 62
     6
 10
500.148893
 20
377.294009
 11
500.148893
 21
295.294009
  0
ARC
  8
CSLAYER1
  6
CONTINUOUS
 62
     6
 10
501.905102
 20
295.554019
 40
0.258129
 50
175.000302
 51
270.000010
  0
LINE
  8
CSLAYER1
  6
CONTINUOUS
 62
     6
 10
501.649853
 20
295.576663
 11
501.720410
 21
296.395419
  0
ARC
  8
CSLAYER1
  6
CONTINUOUS
 62
     6
 10
502.996777
 20
296.282138
 40
1.290623
 50
106.257221
 51
174.999920
  0
ARC
  8
CSLAYER1
  6
CONTINUOUS
 62
     6
 10
505.148877
 20
288.794009
 40
9.089782
 50
73.970958
 51
106.034598
  0
ARC
  8
CSLAYER1
  6
CONTINUOUS
 62
     6
 10
507.300976
 20
296.282138
 40
1.290623
 50
5.000090
 51
73.742830
  0
LINE
  8
CSLAYER1
  6
CONTINUOUS
 62
     6
 10
508.577343
 20
296.395419
 11
508.647900
 21
295.576663
  0
ARC
  8
CSLAYER1
  6
CONTINUOUS
 62
     6
 10
508.392651
 20
295.554019
 40
0.258129
 50
-89.942654
 51
4.999762
  0
ARC
  8
CSLAYER1
  6
CONTINUOUS
 62
     6
 10
497.637372
 20
282.007657
 40
2.000000
 50
148.086699
 51
214.508521
  0
LINE
  8
CSLAYER1
  6
CONTINUOUS
 62
     6
 10
495.989288
 20
280.874600
 11
500.541074
 21
274.253819
  0
ARC
  8
CSLAYER1
  6
CONTINUOUS
 62
     6
 10
502.189158
 20
275.386877
 40
2.000000
 50
214.508521
 51
294.032839
  0
ARC
  8
CSLAYER1
  6
CONTINUOUS
 62
     6
 10
511.148882
 20
255.294009
 40
20.000000
 50
65.967161
 51
114.032839
  0
ARC
  8
CSLAYER1
  6
CONTINUOUS
 62
     6
 10
520.108606
 20
275.386877
 40
2.000000
 50
245.967161
 51
325.491479
  0
LINE
  8
CSLAYER1
  6
CONTINUOUS
 62
     6
 10
521.756690
 20
274.253819
 11
526.308476
 21
280.874600
  0
ARC
  8
CSLAYER1
  6
CONTINUOUS
 62
     6
 10
524.660392
 20
282.007657
 40
2.000000
 50
-34.508521
 51
31.913301
  0
ARC
  8
CSLAYER1
  6
CONTINUOUS
 62
     6
 10
531.252728
 20
277.475427
 40
2.000000
 50
79.069657
 51
145.491479
  0
LINE
  8
CSLAYER1
  6
CONTINUOUS
 62
     6
 10
529.604644
 20
278.608485
 11
525.052858
 21
271.987704
  0
ARC
  8
CSLAYER1
  6
CONTINUOUS
 62
     6
 10
526.700941
 20
270.854647
 40
2.000000
 50
145.491479
 51
225.015797
  0
ARC
  8
CSLAYER1
  6
CONTINUOUS
 62
     6
 10
511.148882
 20
255.294009
 40
20.000000
 50
-45.015785
 51
45.015797
  0
ARC
  8
CSLAYER1
  6
CONTINUOUS
 62
     6
 10
526.700945
 20
239.733375
 40
2.000000
 50
134.984215
 51
214.508533
  0
LINE
  8
CSLAYER1
  6
CONTINUOUS
 62
     6
 10
525.052861
 20
238.600317
 11
529.604649
 21
231.979537
  0
ARC
  8
CSLAYER1
  6
CONTINUOUS
 62
     6
 10
531.252726
 20
233.112589
 40
2.000000
 50
214.508517
 51
280.930338
  0
ARC
  8
CSLAYER1
  6
CONTINUOUS
 62
     6
 10
524.660398
 20
228.580364
 40
2.000000
 50
-31.913288
 51
34.508533
  0
LINE
  8
CSLAYER1
  6
CONTINUOUS
 62
     6
 10
526.308481
 20
229.713421
 11
521.756694
 21
236.334201
  0
ARC
  8
CSLAYER1
  6
CONTINUOUS
 62
     6
 10
520.108610
 20
235.201143
 40
2.000000
 50
34.508533
 51
114.032852
  0
ARC
  8
CSLAYER1
  6
CONTINUOUS
 62
     6
 10
511.148882
 20
255.294009
 40
20.000000
 50
245.967148
 51
294.032852
  0
ARC
  8
CSLAYER1
  6
CONTINUOUS
 62
     6
 10
502.189154
 20
235.201143
 40
2.000000
 50
65.967148
 51
145.491467
  0
LINE
  8
CSLAYER1
  6
CONTINUOUS
 62
     6
 10
500.541070
 20
236.334201
 11
495.989282
 21
229.713421
  0
ARC
  8
CSLAYER1
  6
CONTINUOUS
 62
     6
 10
497.637366
 20
228.580364
 40
2.000000
 50
145.491467
 51
211.913288
  0
ARC
  8
CSLAYER1
  6
CONTINUOUS
 62
     6
 10
511.148882
 20
255.294009
 40
20.000000
 50
134.984203
 51
225.015785
  0
ARC
  8
CSLAYER1
  6
CONTINUOUS
 62
     6
 10
495.596822
 20
270.854647
 40
2.000000
 50
-45.015797
 51
34.508521
  0
LINE
  8
CSLAYER1
  6
CONTINUOUS
 62
     6
 10
497.244906
 20
271.987704
 11
492.693120
 21
278.608485
  0
ARC
  8
CSLAYER1
  6
CONTINUOUS
 62
     6
 10
491.045036
 20
277.475427
 40
2.000000
 50
34.508521
 51
100.930343
  0
CIRCLE
  8
CSLAYER1
  6
CONTINUOUS
 62
     6
 10
489.148882
 20
287.294007
 40
3.200000
  0
CIRCLE
  8
CSLAYER1
  6
CONTINUOUS
 62
     6
 10
511.148882
 20
255.294009
 40
15.000000
  0
LINE
  8
CSLAYER1
  6
CONTINUOUS
 62
     6
 10
525.431740
 20
241.294011
 11
535.148882
 21
241.294012
  0
ARC
  8
CSLAYER1
  6
CONTINUOUS
 62
     6
 10
535.148882
 20
239.294012
 40
2.000000
 50
0.000000
 51
90.000006
  0
LINE
  8
CSLAYER1
  6
CONTINUOUS
 62
     6
 10
541.148883
 20
241.294012
 11
550.148883
 21
241.294013
  0
LINE
  8
CSLAYER1
  6
CONTINUOUS
 62
     6
 10
550.148882
 20
247.294013
 11
541.148882
 21
247.294012
  0
LINE
  8
CSLAYER1
  6
CONTINUOUS
 62
     6
 10
547.148882
 20
249.694013
 11
547.305745
 21
253.794013
  0
LINE
  8
CSLAYER1
  6
CONTINUOUS
 62
     6
 10
547.423392
 20
256.794013
 11
547.541039
 21
259.794013
  0
LINE
  8
CSLAYER1
  6
CONTINUOUS
 62
     6
 10
547.658686
 20
262.794013
 11
547.776333
 21
265.794013
  0
LINE
  8
CSLAYER1
  6
CONTINUOUS
 62
     6
 10
547.893980
 20
268.794013
 11
548.073524
 21
273.372384
  0
ARC
  8
CSLAYER1
  6
CONTINUOUS
 62
     6
 10
550.071988
 20
273.294013
 40
2.000000
 50
90.000006
 51
177.754257
  0
LINE
  8
CSLAYER1
  6
CONTINUOUS
 62
     6
 10
541.148882
 20
285.294012
 11
563.148893
 21
285.294015
  0
ARC
  8
CSLAYER1
  6
CONTINUOUS
 62
     6
 10
560.648887
 20
294.419009
 40
0.125000
 50
-89.942654
 51
0.000009
  0
LINE
  8
CSLAYER1
  6
CONTINUOUS
 62
     6
 10
560.773887
 20
294.419009
 11
560.773887
 21
295.169009
  0
ARC
  8
CSLAYER1
  6
CONTINUOUS
 62
     6
 10
560.648887
 20
295.169009
 40
0.125000
 50
0.000009
 51
89.999991
  0
ARC
  8
CSLAYER1
  6
CONTINUOUS
 62
     6
 10
560.392661
 20
295.554019
 40
0.258129
 50
-89.942654
 51
4.999762
  0
LINE
  8
CSLAYER1
  6
CONTINUOUS
 62
     6
 10
560.647910
 20
295.576663
 11
560.577354
 21
296.395419
  0
ARC
  8
CSLAYER1
  6
CONTINUOUS
 62
     6
 10
559.300987
 20
296.282138
 40
1.290623
 50
5.000090
 51
73.742830
  0
ARC
  8
CSLAYER1
  6
CONTINUOUS
 62
     6
 10
557.148887
 20
288.794009
 40
9.089782
 50
73.970958
 51
106.034598
  0
ARC
  8
CSLAYER1
  6
CONTINUOUS
 62
     6
 10
554.996787
 20
296.282138
 40
1.290623
 50
106.257221
 51
174.999920
  0
LINE
  8
CSLAYER1
  6
CONTINUOUS
 62
     6
 10
553.720420
 20
296.395419
 11
553.649864
 21
295.576663
  0
ARC
  8
CSLAYER1
  6
CONTINUOUS
 62
     6
 10
553.905113
 20
295.554019
 40
0.258129
 50
175.000302
 51
270.000010
  0
ARC
  8
CSLAYER1
  6
CONTINUOUS
 62
     6
 10
553.648887
 20
295.169009
 40
0.125000
 50
90.000005
 51
180.000055
  0
LINE
  8
CSLAYER1
  6
CONTINUOUS
 62
     6
 10
553.523887
 20
295.169009
 11
553.523887
 21
294.419009
  0
ARC
  8
CSLAYER1
  6
CONTINUOUS
 62
     6
 10
553.648887
 20
294.419009
 40
0.125000
 50
180.000055
 51
270.000010
  0
LINE
  8
CSLAYER1
  6
CONTINUOUS
 62
     6
 10
556.713951
 20
295.294039
 11
557.268760
 21
294.294039
  0
LINE
  8
CSLAYER1
  6
CONTINUOUS
 62
     6
 10
557.893760
 20
294.294039
 11
557.338951
 21
295.294039
  0
CIRCLE
  8
CSLAYER1
  6
CONTINUOUS
 62
     6
 10
533.148882
 20
287.294011
 40
3.200000
  0
CIRCLE
  8
CSLAYER1
  6
CONTINUOUS
 62
     6
 10
533.148882
 20
223.294011
 40
3.200000
  0
LINE
  8
CSLAYER1
  6
CONTINUOUS
 62
     6
 10
536.148882
 20
215.907303
 11
536.148882
 21
207.194012
  0
LINE
  8
CSLAYER1
  6
CONTINUOUS
 62
     6
 10
538.148886
 20
212.294012
 11
550.148886
 21
212.294013
  0
LINE
  8
CSLAYER1
  6
CONTINUOUS
 62
     6
 10
550.148885
 20
218.294013
 11
541.148885
 21
218.294012
  0
LINE
  8
CSLAYER1
  6
CONTINUOUS
 62
     6
 10
507.648882
 20
209.294009
 11
472.148882
 21
209.294005
  0
ARC
  8
CSLAYER1
  6
CONTINUOUS
 62
     6
 10
472.148882
 20
210.294005
 40
1.000000
 50
180.000000
 51
270.000006
  0
LINE
  8
CSLAYER1
  6
CONTINUOUS
 62
     6
 10
609.729891
 20
215.293921
 11
609.729822
 21
295.293921
  0
LINE
  8
CSLAYER1
  6
CONTINUOUS
 62
     6
 10
609.729822
 20
295.293921
 11
619.729822
 21
295.293929
  0
ARC
  8
CSLAYER1
  6
CONTINUOUS
 62
     6
 10
619.729823
 20
293.293929
 40
2.000000
 50
0.000049
 51
90.000030
  0
LINE
  8
CSLAYER1
  6
CONTINUOUS
 62
     6
 10
621.729823
 20
293.293931
 11
621.729870
 21
247.293931
  0
ARC
  8
CSLAYER1
  6
CONTINUOUS
 62
     6
 10
623.729870
 20
247.293933
 40
2.000000
 50
180.000069
 51
270.000050
  0
LINE
  8
CSLAYER1
  6
CONTINUOUS
 62
     6
 10
623.729872
 20
245.293933
 11
629.631290
 21
245.293938
  0
ARC
  8
CSLAYER1
  6
CONTINUOUS
 62
     6
 10
629.631288
 20
247.293938
 40
2.000000
 50
270.000050
 51
315.557192
  0
ARC
  8
CSLAYER1
  6
CONTINUOUS
 62
     6
 10
647.729914
 20
229.543945
 40
23.350000
 50
61.444328
 51
135.557192
  0
ARC
  8
CSLAYER1
  6
CONTINUOUS
 62
     6
 10
659.847530
 20
251.810195
 40
2.000000
 50
-118.555672
 51
2.191119
  0
LINE
  8
CSLAYER1
  6
CONTINUOUS
 62
     6
 10
661.773091
 20
253.793988
 11
661.982165
 21
248.329564
  0
ARC
  8
CSLAYER1
  6
CONTINUOUS
 62
     6
 10
659.983627
 20
248.253098
 40
2.000000
 50
-85.466912
 51
2.191119
  0
ARC
  8
CSLAYER1
  6
CONTINUOUS
 62
     6
 10
660.457836
 20
242.271867
 40
4.000000
 50
-9.965185
 51
99.965185
  0
ARC
  8
CSLAYER1
  6
CONTINUOUS
 62
     6
 10
666.367315
 20
241.233569
 40
2.000000
 50
170.034815
 51
212.096479
  0
ARC
  8
CSLAYER1
  6
CONTINUOUS
 62
     6
 10
647.729914
 20
229.543945
 40
20.000000
 50
-32.096479
 51
32.096579
  0
ARC
  8
CSLAYER1
  6
CONTINUOUS
 62
     6
 10
666.367315
 20
217.854321
 40
2.000000
 50
147.903521
 51
189.965185
  0
ARC
  8
CSLAYER1
  6
CONTINUOUS
 62
     6
 10
660.457836
 20
216.816023
 40
4.000000
 50
-99.965185
 51
9.965185
  0
ARC
  8
CSLAYER1
  6
CONTINUOUS
 62
     6
 10
659.419538
 20
210.906544
 40
2.000000
 50
80.034815
 51
122.096479
  0
ARC
  8
CSLAYER1
  6
CONTINUOUS
 62
     6
 10
647.729914
 20
229.543945
 40
20.000000
 50
237.903521
 51
302.096579
  0
ARC
  8
CSLAYER1
  6
CONTINUOUS
 62
     6
 10
636.040290
 20
210.906544
 40
2.000000
 50
57.903521
 51
99.965185
  0
ARC
  8
CSLAYER1
  6
CONTINUOUS
 62
     6
 10
635.001992
 20
216.816023
 40
4.000000
 50
170.034815
 51
279.965185
  0
ARC
  8
CSLAYER1
  6
CONTINUOUS
 62
     6
 10
629.092514
 20
217.854321
 40
2.000000
 50
-9.965185
 51
32.096479
  0
ARC
  8
CSLAYER1
  6
CONTINUOUS
 62
     6
 10
647.729914
 20
229.543945
 40
20.000000
 50
147.903521
 51
212.096579
  0
ARC
  8
CSLAYER1
  6
CONTINUOUS
 62
     6
 10
629.092514
 20
241.233569
 40
2.000000
 50
-32.096479
 51
9.965185
  0
ARC
  8
CSLAYER1
  6
CONTINUOUS
 62
     6
 10
635.001992
 20
242.271867
 40
4.000000
 50
80.034815
 51
189.965185
  0
ARC
  8
CSLAYER1
  6
CONTINUOUS
 62
     6
 10
636.040290
 20
248.181346
 40
2.000000
 50
260.034815
 51
302.096479
  0
ARC
  8
CSLAYER1
  6
CONTINUOUS
 62
     6
 10
647.729914
 20
229.543945
 40
20.000000
 50
57.903521
 51
122.096579
  0
ARC
  8
CSLAYER1
  6
CONTINUOUS
 62
     6
 10
659.419538
 20
248.181346
 40
2.000000
 50
237.903521
 51
279.965185
  0
ARC
  8
CSLAYER1
  6
CONTINUOUS
 62
     6
 10
659.929860
 20
254.793951
 40
1.000000
 50
180.000097
 51
270.000091
  0
LINE
  8
CSLAYER1
  6
CONTINUOUS
 62
     6
 10
658.929860
 20
254.793950
 11
658.929858
 21
255.793950
  0
ARC
  8
CSLAYER1
  6
CONTINUOUS
 62
     6
 10
659.929858
 20
255.793951
 40
1.000000
 50
90.000091
 51
180.000097
  0
LINE
  8
CSLAYER1
  6
CONTINUOUS
 62
     6
 10
661.655439
 20
256.793988
 11
661.537787
 21
259.793988
  0
ARC
  8
CSLAYER1
  6
CONTINUOUS
 62
     6
 10
659.929850
 20
260.793951
 40
1.000000
 50
180.000097
 51
270.000091
  0
LINE
  8
CSLAYER1
  6
CONTINUOUS
 62
     6
 10
658.929850
 20
260.793950
 11
658.929848
 21
261.793950
  0
ARC
  8
CSLAYER1
  6
CONTINUOUS
 62
     6
 10
659.929848
 20
261.793951
 40
1.000000
 50
90.000091
 51
180.000097
  0
LINE
  8
CSLAYER1
  6
CONTINUOUS
 62
     6
 10
661.420135
 20
262.793987
 11
661.302483
 21
265.793987
  0
ARC
  8
CSLAYER1
  6
CONTINUOUS
 62
     6
 10
659.929840
 20
266.793951
 40
1.000000
 50
180.000097
 51
270.000091
  0
LINE
  8
CSLAYER1
  6
CONTINUOUS
 62
     6
 10
658.929840
 20
266.793950
 11
658.929838
 21
267.793950
  0
ARC
  8
CSLAYER1
  6
CONTINUOUS
 62
     6
 10
659.929838
 20
267.793951
 40
1.000000
 50
90.000091
 51
180.000097
  0
LINE
  8
CSLAYER1
  6
CONTINUOUS
 62
     6
 10
661.184831
 20
268.793987
 11
661.005279
 21
273.372358
  0
ARC
  8
CSLAYER1
  6
CONTINUOUS
 62
     6
 10
659.006815
 20
273.293984
 40
2.000000
 50
2.245840
 51
90.000091
  0
ARC
  8
CSLAYER1
  6
CONTINUOUS
 62
     6
 10
647.729844
 20
277.293969
 40
2.000000
 50
180.000069
 51
270.000050
  0
LINE
  8
CSLAYER1
  6
CONTINUOUS
 62
     6
 10
645.729844
 20
277.293967
 11
645.729830
 21
285.293952
  0
LINE
  8
CSLAYER1
  6
CONTINUOUS
 62
     6
 10
645.729830
 20
285.293952
 11
709.729833
 21
285.294007
  0
LINE
  8
CSLAYER1
  6
CONTINUOUS
 62
     6
 10
709.729833
 20
285.294007
 11
709.729841
 21
277.294022
  0
ARC
  8
CSLAYER1
  6
CONTINUOUS
 62
     6
 10
707.729841
 20
277.294021
 40
2.000000
 50
-89.999950
 51
0.000031
  0
LINE
  8
CSLAYER1
  6
CONTINUOUS
 62
     6
 10
707.729843
 20
275.294021
 11
623.729842
 21
275.293948
  0
ARC
  8
CSLAYER1
  6
CONTINUOUS
 62
     6
 10
623.729844
 20
273.293948
 40
2.000000
 50
90.000050
 51
180.000058
  0
ARC
  8
CSLAYER1
  6
CONTINUOUS
 62
     6
 10
623.729846
 20
270.793997
 40
2.000000
 50
180.000058
 51
270.000017
  0
LINE
  8
CSLAYER1
  6
CONTINUOUS
 62
     6
 10
623.729847
 20
268.793997
 11
701.729858
 21
268.794020
  0
ARC
  8
CSLAYER1
  6
CONTINUOUS
 62
     6
 10
701.729858
 20
267.794024
 40
1.000000
 50
0.000011
 51
90.000017
  0
LINE
  8
CSLAYER1
  6
CONTINUOUS
 62
     6
 10
702.729858
 20
267.794024
 11
702.729859
 21
266.794024
  0
ARC
  8
CSLAYER1
  6
CONTINUOUS
 62
     6
 10
701.729859
 20
266.794024
 40
1.000000
 50
-89.999983
 51
0.000011
  0
LINE
  8
CSLAYER1
  6
CONTINUOUS
 62
     6
 10
701.729859
 20
265.794020
 11
623.729853
 21
265.793997
  0
ARC
  8
CSLAYER1
  6
CONTINUOUS
 62
     6
 10
623.729853
 20
263.793997
 40
2.000000
 50
90.000017
 51
180.000058
  0
ARC
  8
CSLAYER1
  6
CONTINUOUS
 62
     6
 10
623.729852
 20
264.793997
 40
2.000000
 50
180.000058
 51
270.000017
  0
LINE
  8
CSLAYER1
  6
CONTINUOUS
 62
     6
 10
623.729853
 20
262.793997
 11
701.729859
 21
262.794020
  0
ARC
  8
CSLAYER1
  6
CONTINUOUS
 62
     6
 10
701.729860
 20
261.794024
 40
1.000000
 50
0.000011
 51
90.000017
  0
LINE
  8
CSLAYER1
  6
CONTINUOUS
 62
     6
 10
702.729860
 20
261.794024
 11
702.729860
 21
260.794024
  0
ARC
  8
CSLAYER1
  6
CONTINUOUS
 62
     6
 10
701.729860
 20
260.794024
 40
1.000000
 50
-89.999983
 51
0.000011
  0
LINE
  8
CSLAYER1
  6
CONTINUOUS
 62
     6
 10
701.729860
 20
259.794020
 11
623.729859
 21
259.793997
  0
ARC
  8
CSLAYER1
  6
CONTINUOUS
 62
     6
 10
623.729860
 20
257.793997
 40
2.000000
 50
90.000017
 51
180.000058
  0
ARC
  8
CSLAYER1
  6
CONTINUOUS
 62
     6
 10
623.729858
 20
258.793997
 40
2.000000
 50
180.000058
 51
270.000017
  0
LINE
  8
CSLAYER1
  6
CONTINUOUS
 62
     6
 10
623.729859
 20
256.793997
 11
701.729860
 21
256.794020
  0
ARC
  8
CSLAYER1
  6
CONTINUOUS
 62
     6
 10
701.729861
 20
255.794024
 40
1.000000
 50
0.000011
 51
90.000017
  0
LINE
  8
CSLAYER1
  6
CONTINUOUS
 62
     6
 10
702.729861
 20
255.794024
 11
702.729861
 21
254.794024
  0
ARC
  8
CSLAYER1
  6
CONTINUOUS
 62
     6
 10
701.729861
 20
254.794024
 40
1.000000
 50
-89.999983
 51
0.000011
  0
LINE
  8
CSLAYER1
  6
CONTINUOUS
 62
     6
 10
701.729861
 20
253.794020
 11
623.729865
 21
253.793997
  0
ARC
  8
CSLAYER1
  6
CONTINUOUS
 62
     6
 10
623.729866
 20
251.793997
 40
2.000000
 50
90.000017
 51
180.000058
  0
LINE
  8
CSLAYER1
  6
CONTINUOUS
 62
     6
 10
615.729841
 20
272.793921
 11
616.979839
 21
276.543921
  0
LINE
  8
CSLAYER1
  6
CONTINUOUS
 62
     6
 10
616.979839
 20
276.543921
 11
615.729838
 21
276.543921
  0
LINE
  8
CSLAYER1
  6
CONTINUOUS
 62
     6
 10
615.729837
 20
276.543921
 11
615.729837
 21
277.793921
  0
LINE
  8
CSLAYER1
  6
CONTINUOUS
 62
     6
 10
615.729837
 20
277.793921
 11
614.479839
 21
274.043921
  0
LINE
  8
CSLAYER1
  6
CONTINUOUS
 62
     6
 10
614.479839
 20
274.043921
 11
615.729837
 21
274.043921
  0
LINE
  8
CSLAYER1
  6
CONTINUOUS
 62
     6
 10
615.729837
 20
274.043921
 11
615.729837
 21
272.793921
  0
CIRCLE
  8
CSLAYER1
  6
CONTINUOUS
 62
     6
 10
615.729839
 20
275.293921
 40
2.500000
  0
CIRCLE
  8
CSLAYER1
  6
CONTINUOUS
 62
     6
 10
615.729839
 20
275.293921
 40
2.900000
  0
ARC
  8
CSLAYER1
  6
CONTINUOUS
 62
     6
 10
623.729836
 20
281.293933
 40
2.000000
 50
180.000058
 51
270.000050
  0
LINE
  8
CSLAYER1
  6
CONTINUOUS
 62
     6
 10
623.729837
 20
279.293933
 11
643.729839
 21
279.293950
  0
ARC
  8
CSLAYER1
  6
CONTINUOUS
 62
     6
 10
643.729837
 20
281.293950
 40
2.000000
 50
-89.999950
 51
0.000100
  0
LINE
  8
CSLAYER1
  6
CONTINUOUS
 62
     6
 10
644.729831
 20
284.293951
 11
623.729831
 21
284.293933
  0
ARC
  8
CSLAYER1
  6
CONTINUOUS
 62
     6
 10
623.729829
 20
286.293933
 40
2.000000
 50
180.000069
 51
270.000050
  0
ARC
  8
CSLAYER1
  6
CONTINUOUS
 62
     6
 10
623.075584
 20
226.466203
 40
1.345695
 50
90.000000
 51
180.000050
  0
LINE
  8
CSLAYER1
  6
CONTINUOUS
 62
     6
 10
621.729888
 20
226.466201
 11
621.729896
 21
217.293946
  0
ARC
  8
CSLAYER1
  6
CONTINUOUS
 62
     6
 10
619.729896
 20
217.293944
 40
2.000000
 50
-89.999950
 51
0.000031
  0
ARC
  8
CSLAYER1
  6
CONTINUOUS
 62
     6
 10
626.054638
 20
213.293950
 40
2.000000
 50
20.233336
 51
90.000030
  0
ARC
  8
CSLAYER1
  6
CONTINUOUS
 62
     6
 10
632.880684
 20
214.694717
 40
5.000000
 50
188.152793
 51
283.726260
  0
ARC
  8
CSLAYER1
  6
CONTINUOUS
 62
     6
 10
634.541668
 20
207.894634
 40
2.000000
 50
58.651219
 51
103.726260
  0
ARC
  8
CSLAYER1
  6
CONTINUOUS
 62
     6
 10
632.257813
 20
207.722484
 40
2.000000
 50
54.662162
 51
84.894980
  0
ARC
  8
CSLAYER1
  6
CONTINUOUS
 62
     6
 10
647.729914
 20
229.543945
 40
24.749992
 50
234.662162
 51
305.337948
  0
ARC
  8
CSLAYER1
  6
CONTINUOUS
 62
     6
 10
663.202057
 20
207.722514
 40
2.000000
 50
95.105130
 51
125.337948
  0
ARC
  8
CSLAYER1
  6
CONTINUOUS
 62
     6
 10
662.579173
 20
214.694746
 40
5.000000
 50
-103.726150
 51
13.726379
  0
ARC
  8
CSLAYER1
  6
CONTINUOUS
 62
     6
 10
669.379252
 20
216.355744
 40
2.000000
 50
148.651338
 51
193.726379
  0
ARC
  8
CSLAYER1
  6
CONTINUOUS
 62
     6
 10
647.729914
 20
229.543945
 40
23.350000
 50
-31.348662
 51
8.545419
  0
ARC
  8
CSLAYER1
  6
CONTINUOUS
 62
     6
 10
672.800941
 20
233.293977
 40
2.000000
 50
90.000050
 51
188.058733
  0
ARC
  8
CSLAYER1
  6
CONTINUOUS
 62
     6
 10
674.215746
 20
233.293977
 40
2.000000
 50
90.000050
 51
188.058733
  0
ARC
  8
CSLAYER1
  6
CONTINUOUS
 62
     6
 10
647.729914
 20
229.543945
 40
24.749992
 50
-35.337719
 51
8.058733
  0
ARC
  8
CSLAYER1
  6
CONTINUOUS
 62
     6
 10
669.551407
 20
214.071889
 40
2.000000
 50
144.662281
 51
174.895099
  0
ARC
  8
CSLAYER1
  6
CONTINUOUS
 62
     6
 10
660.918202
 20
207.894659
 40
2.000000
 50
76.273850
 51
121.348891
  0
ARC
  8
CSLAYER1
  6
CONTINUOUS
 62
     6
 10
647.729914
 20
229.543945
 40
23.350000
 50
187.065500
 51
301.348891
  0
ARC
  8
CSLAYER1
  6
CONTINUOUS
 62
     6
 10
623.267102
 20
226.511898
 40
1.300000
 50
7.065500
 51
90.000000
  0
LINE
  8
CSLAYER1
  6
CONTINUOUS
 62
     6
 10
623.075584
 20
227.811898
 11
626.048774
 21
227.811898
  0
ARC
  8
CSLAYER1
  6
CONTINUOUS
 62
     6
 10
626.048774
 20
225.811898
 40
2.000000
 50
9.766802
 51
90.000000
  0
ARC
  8
CSLAYER1
  6
CONTINUOUS
 62
     6
 10
628.273290
 20
213.293952
 40
2.000000
 50
39.868322
 51
90.000050
  0
LINE
  8
CSLAYER1
  6
CONTINUOUS
 62
     6
 10
628.273288
 20
215.293952
 11
609.729929
 21
215.293936
  0
CIRCLE
  8
CSLAYER1
  6
CONTINUOUS
 62
     6
 10
647.729914
 20
229.543945
 40
16.000000
  0
ARC
  8
CSLAYER1
  6
CONTINUOUS
 62
     6
 10
669.407951
 20
233.293972
 40
2.000000
 50
90.000050
 51
189.814321
  0
LINE
  8
CSLAYER1
  6
CONTINUOUS
 62
     6
 10
669.407950
 20
235.293972
 11
691.053961
 21
235.293991
  0
ARC
  8
CSLAYER1
  6
CONTINUOUS
 62
     6
 10
691.053960
 20
237.294017
 40
2.000000
 50
270.000017
 51
357.808988
  0
LINE
  8
CSLAYER1
  6
CONTINUOUS
 62
     6
 10
693.052498
 20
237.217555
 11
693.686697
 21
253.794018
  0
ARC
  8
CSLAYER1
  6
CONTINUOUS
 62
     6
 10
695.529926
 20
254.793985
 40
1.000000
 50
-89.999983
 51
0.000011
  0
LINE
  8
CSLAYER1
  6
CONTINUOUS
 62
     6
 10
696.529926
 20
254.793985
 11
696.529926
 21
255.793985
  0
ARC
  8
CSLAYER1
  6
CONTINUOUS
 62
     6
 10
695.529926
 20
255.793985
 40
1.000000
 50
0.000011
 51
90.000017
  0
LINE
  8
CSLAYER1
  6
CONTINUOUS
 62
     6
 10
693.804343
 20
256.794018
 11
693.921990
 21
259.794018
  0
ARC
  8
CSLAYER1
  6
CONTINUOUS
 62
     6
 10
695.529925
 20
260.793985
 40
1.000000
 50
-89.999983
 51
0.000011
  0
LINE
  8
CSLAYER1
  6
CONTINUOUS
 62
     6
 10
696.529925
 20
260.793985
 11
696.529925
 21
261.793985
  0
ARC
  8
CSLAYER1
  6
CONTINUOUS
 62
     6
 10
695.529925
 20
261.793985
 40
1.000000
 50
0.000011
 51
90.000017
  0
LINE
  8
CSLAYER1
  6
CONTINUOUS
 62
     6
 10
694.039636
 20
262.794018
 11
694.157283
 21
265.794018
  0
ARC
  8
CSLAYER1
  6
CONTINUOUS
 62
     6
 10
695.529924
 20
266.793985
 40
1.000000
 50
-89.999983
 51
0.000011
  0
LINE
  8
CSLAYER1
  6
CONTINUOUS
 62
     6
 10
696.529924
 20
266.793985
 11
696.529924
 21
267.793985
  0
ARC
  8
CSLAYER1
  6
CONTINUOUS
 62
     6
 10
695.529924
 20
267.793985
 40
1.000000
 50
0.000011
 51
90.000017
  0
LINE
  8
CSLAYER1
  6
CONTINUOUS
 62
     6
 10
694.274929
 20
268.794018
 11
694.454473
 21
273.372390
  0
ARC
  8
CSLAYER1
  6
CONTINUOUS
 62
     6
 10
696.452937
 20
273.294019
 40
2.000000
 50
90.000017
 51
177.754268
  0
LINE
  8
CSLAYER1
  6
CONTINUOUS
 62
     6
 10
695.979350
 20
272.160038
 11
700.552379
 21
272.160042
  0
ARC
  8
CSLAYER1
  6
CONTINUOUS
 62
     6
 10
702.729845
 20
273.026072
 40
1.000000
 50
180.000069
 51
239.999922
  0
ARC
  8
CSLAYER1
  6
CONTINUOUS
 62
     6
 10
701.729846
 20
271.294015
 40
1.000000
 50
0.000049
 51
60.000132
  0
LINE
  8
CSLAYER1
  6
CONTINUOUS
 62
     6
 10
702.729846
 20
271.294016
 11
702.729875
 21
239.294001
  0
ARC
  8
CSLAYER1
  6
CONTINUOUS
 62
     6
 10
701.729875
 20
239.294000
 40
1.000000
 50
-89.999950
 51
0.000031
  0
LINE
  8
CSLAYER1
  6
CONTINUOUS
 62
     6
 10
701.729876
 20
238.294000
 11
696.229876
 21
238.293996
  0
ARC
  8
CSLAYER1
  6
CONTINUOUS
 62
     6
 10
696.229876
 20
237.793996
 40
0.500000
 50
90.000030
 51
180.000069
  0
ARC
  8
CSLAYER1
  6
CONTINUOUS
 62
     6
 10
695.229876
 20
237.793995
 40
0.500000
 50
-89.999950
 51
0.000031
  0
LINE
  8
CSLAYER1
  6
CONTINUOUS
 62
     6
 10
695.229877
 20
237.293995
 11
693.785994
 21
237.293994
  0
ARC
  8
CSLAYER1
  6
CONTINUOUS
 62
     6
 10
693.785995
 20
236.293990
 40
1.000000
 50
90.000030
 51
180.000069
  0
LINE
  8
CSLAYER1
  6
CONTINUOUS
 62
     6
 10
695.729875
 20
239.208711
 11
695.729865
 21
251.001718
  0
LINE
  8
CSLAYER1
  6
CONTINUOUS
 62
     6
 10
701.729845
 20
273.026071
 11
701.729844
 21
274.294015
  0
ARC
  8
CSLAYER1
  6
CONTINUOUS
 62
     6
 10
702.729844
 20
274.294016
 40
1.000000
 50
90.000030
 51
180.000069
  0
LINE
  8
CSLAYER1
  6
CONTINUOUS
 62
     6
 10
709.729876
 20
285.293973
 11
709.729876
 21
292.293980
  0
ARC
  8
CSLAYER1
  6
CONTINUOUS
 62
     6
 10
707.729876
 20
292.293980
 40
2.000000
 50
0.000003
 51
89.999992
  0
LINE
  8
CSLAYER1
  6
CONTINUOUS
 62
     6
 10
707.729876
 20
294.293974
 11
647.729854
 21
294.293986
  0
LINE
  8
CSLAYER1
  6
CONTINUOUS
 62
     6
 10
647.729854
 20
294.293986
 11
647.729854
 21
295.293986
  0
LINE
  8
CSLAYER1
  6
CONTINUOUS
 62
     6
 10
647.729838
 20
295.294001
 11
647.729838
 21
294.294001
  0
ARC
  8
CSLAYER1
  6
CONTINUOUS
 62
     6
 10
647.729853
 20
292.293986
 40
2.000000
 50
89.999997
 51
179.999986
  0
LINE
  8
CSLAYER1
  6
CONTINUOUS
 62
     6
 10
645.729853
 20
292.293986
 11
645.729852
 21
285.293986
  0
LINE
  8
CSLAYER1
  6
CONTINUOUS
 62
     6
 10
645.729830
 20
285.293986
 11
709.729876
 21
285.293973
  0
LINE
  8
CSLAYER1
  6
CONTINUOUS
 62
     6
 10
707.729892
 20
294.293995
 11
707.729892
 21
295.293995
  0
ARC
  8
CSLAYER1
  6
CONTINUOUS
 62
     6
 10
707.229870
 20
295.168973
 40
0.125000
 50
-0.000005
 51
89.999977
  0
LINE
  8
CSLAYER1
  6
CONTINUOUS
 62
     6
 10
707.354870
 20
295.168973
 11
707.354870
 21
294.418973
  0
ARC
  8
CSLAYER1
  6
CONTINUOUS
 62
     6
 10
707.229870
 20
294.418973
 40
0.125000
 50
270.057332
 51
359.999995
  0
ARC
  8
CSLAYER1
  6
CONTINUOUS
 62
     6
 10
706.973645
 20
295.553983
 40
0.258129
 50
-89.942668
 51
4.999748
  0
LINE
  8
CSLAYER1
  6
CONTINUOUS
 62
     6
 10
707.228894
 20
295.576627
 11
707.158337
 21
296.395383
  0
ARC
  8
CSLAYER1
  6
CONTINUOUS
 62
     6
 10
705.881970
 20
296.282102
 40
1.290623
 50
5.000076
 51
73.742815
  0
ARC
  8
CSLAYER1
  6
CONTINUOUS
 62
     6
 10
703.729869
 20
288.793974
 40
9.089782
 50
73.970944
 51
106.034584
  0
ARC
  8
CSLAYER1
  6
CONTINUOUS
 62
     6
 10
701.577771
 20
296.282104
 40
1.290623
 50
106.257207
 51
174.999905
  0
LINE
  8
CSLAYER1
  6
CONTINUOUS
 62
     6
 10
700.301404
 20
296.395385
 11
700.230847
 21
295.576629
  0
ARC
  8
CSLAYER1
  6
CONTINUOUS
 62
     6
 10
700.486096
 20
295.553985
 40
0.258129
 50
175.000288
 51
269.999996
  0
ARC
  8
CSLAYER1
  6
CONTINUOUS
 62
     6
 10
700.229870
 20
295.168975
 40
0.125000
 50
89.999991
 51
180.000041
  0
LINE
  8
CSLAYER1
  6
CONTINUOUS
 62
     6
 10
700.104870
 20
295.168975
 11
700.104870
 21
294.418975
  0
ARC
  8
CSLAYER1
  6
CONTINUOUS
 62
     6
 10
700.229870
 20
294.418975
 40
0.125000
 50
180.000041
 51
269.999996
  0
LINE
  8
CSLAYER1
  6
CONTINUOUS
 62
     6
 10
703.294934
 20
295.294005
 11
703.849743
 21
294.294005
  0
LINE
  8
CSLAYER1
  6
CONTINUOUS
 62
     6
 10
704.474743
 20
294.294005
 11
703.919934
 21
295.294005
  0
LINE
  8
CSLAYER1
  6
CONTINUOUS
 62
     6
 10
708.729854
 20
295.293973
 11
708.729870
 21
377.293973
  0
LINE
  8
CSLAYER1
  6
CONTINUOUS
 62
     6
 10
708.729870
 20
377.293973
 11
646.729870
 21
377.293986
  0
LINE
  8
CSLAYER1
  6
CONTINUOUS
 62
     6
 10
646.729870
 20
377.293986
 11
646.729854
 21
295.293986
  0
LINE
  8
CSLAYER1
  6
CONTINUOUS
 62
     6
 10
646.729854
 20
295.293986
 11
708.729854
 21
295.293973
  0
ARC
  8
CSLAYER1
  6
CONTINUOUS
 62
     6
 10
655.229859
 20
295.168986
 40
0.125000
 50
0.000026
 51
90.000008
  0
LINE
  8
CSLAYER1
  6
CONTINUOUS
 62
     6
 10
655.354859
 20
295.168986
 11
655.354860
 21
294.418986
  0
ARC
  8
CSLAYER1
  6
CONTINUOUS
 62
     6
 10
655.229860
 20
294.418986
 40
0.125000
 50
-89.942637
 51
0.000026
  0
ARC
  8
CSLAYER1
  6
CONTINUOUS
 62
     6
 10
654.973634
 20
295.553995
 40
0.258129
 50
-89.942637
 51
4.999779
  0
LINE
  8
CSLAYER1
  6
CONTINUOUS
 62
     6
 10
655.228883
 20
295.576640
 11
655.158326
 21
296.395396
  0
ARC
  8
CSLAYER1
  6
CONTINUOUS
 62
     6
 10
653.881959
 20
296.282114
 40
1.290623
 50
5.000107
 51
73.742846
  0
ARC
  8
CSLAYER1
  6
CONTINUOUS
 62
     6
 10
651.729861
 20
288.793985
 40
9.089782
 50
73.970974
 51
106.034614
  0
ARC
  8
CSLAYER1
  6
CONTINUOUS
 62
     6
 10
649.577760
 20
296.282113
 40
1.290623
 50
106.257238
 51
174.999936
  0
LINE
  8
CSLAYER1
  6
CONTINUOUS
 62
     6
 10
648.301392
 20
296.395394
 11
648.230836
 21
295.576638
  0
ARC
  8
CSLAYER1
  6
CONTINUOUS
 62
     6
 10
648.486085
 20
295.553994
 40
0.258129
 50
175.000319
 51
270.000026
  0
ARC
  8
CSLAYER1
  6
CONTINUOUS
 62
     6
 10
648.229859
 20
295.168984
 40
0.125000
 50
90.000021
 51
180.000072
  0
LINE
  8
CSLAYER1
  6
CONTINUOUS
 62
     6
 10
648.104859
 20
295.168984
 11
648.104860
 21
294.418984
  0
ARC
  8
CSLAYER1
  6
CONTINUOUS
 62
     6
 10
648.229860
 20
294.418984
 40
0.125000
 50
180.000072
 51
270.000026
  0
LINE
  8
CSLAYER1
  6
CONTINUOUS
 62
     6
 10
651.294923
 20
295.294015
 11
651.849733
 21
294.294015
  0
LINE
  8
CSLAYER1
  6
CONTINUOUS
 62
     6
 10
652.474733
 20
294.294015
 11
651.919923
 21
295.294015
  0
ARC
  8
CSLAYER1
  6
CONTINUOUS
 62
     6
 10
644.729830
 20
285.293951
 40
1.000000
 50
-89.999950
 51
0.000031
  0
LINE
  8
CSLAYER1
  6
CONTINUOUS
 62
     6
 10
647.729892
 20
377.293986
 11
648.253560
 21
407.294138
  0
LINE
  8
CSLAYER1
  6
CONTINUOUS
 62
     6
 10
648.253560
 20
407.294138
 11
649.271013
 21
408.293985
  0
LINE
  8
CSLAYER1
  6
CONTINUOUS
 62
     6
 10
649.271013
 20
408.293985
 11
706.188769
 21
408.293974
  0
LINE
  8
CSLAYER1
  6
CONTINUOUS
 62
     6
 10
706.188769
 20
408.293974
 11
707.206222
 21
407.294126
  0
LINE
  8
CSLAYER1
  6
CONTINUOUS
 62
     6
 10
707.206222
 20
407.294126
 11
707.729869
 21
377.293958
  0
LINE
  8
CSLAYER1
  6
CONTINUOUS
 62
     6
 10
707.206224
 20
407.293974
 11
648.253557
 21
407.293985
  0
LINE
  8
CSLAYER1
  6
CONTINUOUS
 62
     6
 10
560.625253
 20
407.293994
 11
501.672586
 21
407.293994
  0
LINE
  8
CSLAYER1
  6
CONTINUOUS
 62
     6
 10
501.672586
 20
407.293994
 11
502.672586
 21
408.293994
  0
LINE
  8
CSLAYER1
  6
CONTINUOUS
 62
     6
 10
502.672586
 20
408.293994
 11
559.625253
 21
408.293994
  0
LINE
  8
CSLAYER1
  6
CONTINUOUS
 62
     6
 10
559.625253
 20
408.293994
 11
560.625253
 21
407.293994
  0
LINE
  8
CSLAYER1
  6
CONTINUOUS
 62
     6
 10
560.625207
 20
407.294032
 11
561.148889
 21
377.294024
  0
LINE
  8
CSLAYER1
  6
CONTINUOUS
 62
     6
 10
531.948923
 20
385.543994
 11
530.348916
 21
385.543994
  0
LINE
  8
CSLAYER1
  6
CONTINUOUS
 62
     6
 10
530.348916
 20
385.543994
 11
530.348916
 21
391.043994
  0
LINE
  8
CSLAYER1
  6
CONTINUOUS
 62
     6
 10
530.348916
 20
391.043994
 11
531.948923
 21
391.043994
  0
LINE
  8
CSLAYER1
  6
CONTINUOUS
 62
     6
 10
531.948923
 20
391.043994
 11
531.948923
 21
385.543994
  0
CIRCLE
  8
CSLAYER1
  6
CONTINUOUS
 62
     6
 10
531.148904
 20
388.293994
 40
8.000000
  0
CIRCLE
  8
CSLAYER1
  6
CONTINUOUS
 62
     6
 10
531.148904
 20
388.293994
 40
6.000000
  0
LINE
  8
CSLAYER1
  6
CONTINUOUS
 62
     6
 10
501.359033
 20
389.393985
 11
495.625497
 21
389.393985
  0
ARC
  8
CSLAYER1
  6
CONTINUOUS
 62
     6
 10
496.578134
 20
388.843982
 40
1.100006
 50
150.000007
 51
209.999995
  0
ARC
  8
CSLAYER1
  6
CONTINUOUS
 62
     6
 10
496.578134
 20
387.743975
 40
1.100006
 50
150.000007
 51
209.999995
  0
ARC
  8
CSLAYER1
  6
CONTINUOUS
 62
     6
 10
494.672861
 20
387.743975
 40
1.100006
 50
-29.999998
 51
30.000003
  0
LINE
  8
CSLAYER1
  6
CONTINUOUS
 62
     6
 10
495.625497
 20
387.193988
 11
501.321741
 21
387.193988
  0
ARC
  8
CSLAYER1
  6
CONTINUOUS
 62
     6
 10
491.760675
 20
387.744006
 40
1.099999
 50
-29.999650
 51
30.000345
  0
ARC
  8
CSLAYER1
  6
CONTINUOUS
 62
     6
 10
493.665918
 20
388.844012
 40
1.099999
 50
150.000362
 51
210.000350
  0
ARC
  8
CSLAYER1
  6
CONTINUOUS
 62
     6
 10
492.713266
 20
402.952838
 40
13.558834
 50
242.536202
 51
270.000086
  0
LINE
  8
CSLAYER1
  6
CONTINUOUS
 62
     6
 10
486.460107
 20
390.922061
 11
485.445489
 21
388.970004
  0
ARC
  8
CSLAYER1
  6
CONTINUOUS
 62
     6
 10
492.713266
 20
402.952838
 40
15.758816
 50
242.536202
 51
269.942691
  0
ARC
  8
CSLAYER1
  6
CONTINUOUS
 62
     6
 10
492.713266
 20
373.635165
 40
13.558834
 50
89.999978
 51
117.463868
  0
LINE
  8
CSLAYER1
  6
CONTINUOUS
 62
     6
 10
486.460092
 20
385.665927
 11
485.445474
 21
387.617984
  0
ARC
  8
CSLAYER1
  6
CONTINUOUS
 62
     6
 10
492.713266
 20
373.635165
 40
15.758816
 50
111.534143
 51
117.463868
  0
LINE
  8
CSLAYER1
  6
CONTINUOUS
 62
     6
 10
485.657220
 20
389.377383
 11
482.577417
 21
390.778872
  0
LINE
  8
CSLAYER1
  6
CONTINUOUS
 62
     6
 10
482.856759
 20
391.352298
 11
485.864175
 21
389.775515
  0
LINE
  8
CSLAYER1
  6
CONTINUOUS
 62
     6
 10
486.118310
 20
390.264437
 11
483.180246
 21
391.881594
  0
LINE
  8
CSLAYER1
  6
CONTINUOUS
 62
     6
 10
485.657220
 20
387.210604
 11
482.577402
 21
385.809100
  0
LINE
  8
CSLAYER1
  6
CONTINUOUS
 62
     6
 10
482.856759
 20
385.235690
 11
485.864160
 21
386.812472
  0
LINE
  8
CSLAYER1
  6
CONTINUOUS
 62
     6
 10
486.118280
 20
386.323550
 11
483.180231
 21
384.706378
  0
ARC
  8
CSLAYER1
  6
CONTINUOUS
 62
     6
 10
491.760660
 20
388.844004
 40
1.099999
 50
-29.999650
 51
30.000345
  0
LINE
  8
CSLAYER1
  6
CONTINUOUS
 62
     6
 10
501.148889
 20
377.294024
 11
501.672571
 21
407.294032
  0
LINE
  8
CSLAYER1
  6
CONTINUOUS
 62
     6
 10
407.303259
 20
483.871521
 11
392.803264
 21
483.871521
  0
ARC
  8
CSLAYER1
  6
CONTINUOUS
 62
     6
 10
397.303259
 20
485.871521
 40
2.000000
 50
180.000018
 51
269.999999
  0
LINE
  8
CSLAYER1
  6
CONTINUOUS
 62
     6
 10
395.303259
 20
485.871521
 11
395.303259
 21
541.871521
  0
ARC
  8
CSLAYER1
  6
CONTINUOUS
 62
     6
 10
397.303259
 20
541.871521
 40
2.000000
 50
90.000019
 51
180.000000
  0
ARC
  8
CSLAYER1
  6
CONTINUOUS
 62
     6
 10
393.303259
 20
540.871649
 40
2.000000
 50
-89.999975
 51
0.000000
  0
LINE
  8
CSLAYER1
  6
CONTINUOUS
 62
     6
 10
393.303260
 20
538.871649
 11
373.303219
 21
538.871640
  0
ARC
  8
CSLAYER1
  6
CONTINUOUS
 62
     6
 10
373.303218
 20
540.871640
 40
2.000000
 50
180.000041
 51
270.000025
  0
LINE
  8
CSLAYER1
  6
CONTINUOUS
 62
     6
 10
380.103247
 20
540.350449
 11
380.103247
 21
552.203140
  0
ARC
  8
CSLAYER1
  6
CONTINUOUS
 62
     6
 10
385.003272
 20
552.871521
 40
1.000000
 50
-0.000020
 51
89.999961
  0
LINE
  8
CSLAYER1
  6
CONTINUOUS
 62
     6
 10
386.003272
 20
552.871521
 11
386.003272
 21
540.350449
  0
ARC
  8
CSLAYER1
  6
CONTINUOUS
 62
     6
 10
391.303259
 20
540.871648
 40
2.000000
 50
180.000000
 51
270.000025
  0
LINE
  8
CSLAYER1
  6
CONTINUOUS
 62
     6
 10
389.303259
 20
540.871648
 11
389.303259
 21
552.871521
  0
ARC
  8
CSLAYER1
  6
CONTINUOUS
 62
     6
 10
388.303259
 20
552.871521
 40
1.000000
 50
-0.000020
 51
89.999961
  0
LINE
  8
CSLAYER1
  6
CONTINUOUS
 62
     6
 10
388.303259
 20
553.871521
 11
371.303209
 21
553.871521
  0
LINE
  8
CSLAYER1
  6
CONTINUOUS
 62
     6
 10
371.303204
 20
560.071511
 11
371.303242
 21
508.071495
  0
ARC
  8
CSLAYER1
  6
CONTINUOUS
 62
     6
 10
365.303242
 20
508.071492
 40
6.000000
 50
-89.999974
 51
0.000065
  0
LINE
  8
CSLAYER1
  6
CONTINUOUS
 62
     6
 10
365.303238
 20
502.071492
 11
341.503204
 21
502.071489
  0
ARC
  8
CSLAYER1
  6
CONTINUOUS
 62
     6
 10
339.303215
 20
534.071451
 40
31.000000
 50
-85.930444
 51
265.930414
  0
LINE
  8
CSLAYER1
  6
CONTINUOUS
 62
     6
 10
337.103209
 20
504.152232
 11
337.103197
 21
495.736957
  0
ARC
  8
CSLAYER1
  6
CONTINUOUS
 62
     6
 10
337.653174
 20
496.689578
 40
1.099999
 50
240.000174
 51
300.000162
  0
ARC
  8
CSLAYER1
  6
CONTINUOUS
 62
     6
 10
338.753172
 20
496.689577
 40
1.099999
 50
240.000174
 51
300.000162
  0
ARC
  8
CSLAYER1
  6
CONTINUOUS
 62
     6
 10
338.753179
 20
494.784334
 40
1.099999
 50
60.000162
 51
120.000157
  0
LINE
  8
CSLAYER1
  6
CONTINUOUS
 62
     6
 10
339.303190
 20
495.736956
 11
339.303210
 21
504.152231
  0
LINE
  8
CSLAYER1
  6
CONTINUOUS
 62
     6
 10
341.503207
 20
504.152230
 11
341.503195
 21
495.736955
  0
ARC
  8
CSLAYER1
  6
CONTINUOUS
 62
     6
 10
340.953207
 20
494.784333
 40
1.099999
 50
59.999834
 51
119.999829
  0
ARC
  8
CSLAYER1
  6
CONTINUOUS
 62
     6
 10
340.953215
 20
496.689576
 40
1.099999
 50
239.999846
 51
299.999834
  0
LINE
  8
CSLAYER1
  6
CONTINUOUS
 62
     6
 10
341.503195
 20
495.871440
 11
393.303259
 21
495.871462
  0
ARC
  8
CSLAYER1
  6
CONTINUOUS
 62
     6
 10
393.303260
 20
493.871462
 40
2.000000
 50
-0.000020
 51
89.999961
  0
ARC
  8
CSLAYER1
  6
CONTINUOUS
 62
     6
 10
394.803279
 20
493.871441
 40
2.000000
 50
123.626331
 51
179.999995
  0
LINE
  8
CSLAYER1
  6
CONTINUOUS
 62
     6
 10
392.803268
 20
493.871441
 11
392.803260
 21
474.871526
  0
ARC
  8
CSLAYER1
  6
CONTINUOUS
 62
     6
 10
391.803260
 20
474.871527
 40
1.000000
 50
269.999974
 51
359.999955
  0
LINE
  8
CSLAYER1
  6
CONTINUOUS
 62
     6
 10
391.809109
 20
473.871544
 11
346.803259
 21
473.871529
  0
ARC
  8
CSLAYER1
  6
CONTINUOUS
 62
     6
 10
346.803260
 20
474.871546
 40
1.000000
 50
179.999993
 51
269.999974
  0
LINE
  8
CSLAYER1
  6
CONTINUOUS
 62
     6
 10
345.803260
 20
474.871547
 11
345.803268
 21
493.871441
  0
ARC
  8
CSLAYER1
  6
CONTINUOUS
 62
     6
 10
343.803240
 20
493.871441
 40
2.000000
 50
0.000005
 51
90.000044
  0
ARC
  8
CSLAYER1
  6
CONTINUOUS
 62
     6
 10
339.853217
 20
496.689577
 40
1.099999
 50
239.999846
 51
299.999834
  0
LINE
  8
CSLAYER1
  6
CONTINUOUS
 62
     6
 10
337.103197
 20
495.871438
 11
322.303239
 21
495.871432
  0
ARC
  8
CSLAYER1
  6
CONTINUOUS
 62
     6
 10
322.303239
 20
496.871432
 40
1.000000
 50
209.999941
 51
270.000024
  0
ARC
  8
CSLAYER1
  6
CONTINUOUS
 62
     6
 10
320.571184
 20
495.871431
 40
1.000000
 50
29.999961
 51
90.000044
  0
LINE
  8
CSLAYER1
  6
CONTINUOUS
 62
     6
 10
320.571184
 20
496.871431
 11
315.303239
 21
496.871428
  0
ARC
  8
CSLAYER1
  6
CONTINUOUS
 62
     6
 10
315.303238
 20
497.871428
 40
1.000000
 50
180.000042
 51
270.000024
  0
LINE
  8
CSLAYER1
  6
CONTINUOUS
 62
     6
 10
314.303238
 20
497.871428
 11
314.303237
 21
502.071486
  0
ARC
  8
CSLAYER1
  6
CONTINUOUS
 62
     6
 10
313.303227
 20
508.071486
 40
6.000000
 50
180.000045
 51
270.000026
  0
LINE
  8
CSLAYER1
  6
CONTINUOUS
 62
     6
 10
307.303227
 20
508.071467
 11
307.303204
 21
560.071483
  0
ARC
  8
CSLAYER1
  6
CONTINUOUS
 62
     6
 10
313.303204
 20
560.071486
 40
6.000000
 50
90.000006
 51
180.000045
  0
LINE
  8
CSLAYER1
  6
CONTINUOUS
 62
     6
 10
313.303202
 20
566.071486
 11
365.303202
 21
566.071508
  0
ARC
  8
CSLAYER1
  6
CONTINUOUS
 62
     6
 10
365.303204
 20
560.071508
 40
6.000000
 50
0.000025
 51
90.000006
  0
LINE
  8
CSLAYER1
  6
CONTINUOUS
 62
     6
 10
367.166671
 20
560.627009
 11
366.414357
 21
560.627010
  0
ARC
  8
CSLAYER1
  6
CONTINUOUS
 62
     6
 10
366.414357
 20
561.182572
 40
0.555556
 50
179.999968
 51
269.999956
  0
LINE
  8
CSLAYER1
  6
CONTINUOUS
 62
     6
 10
365.858824
 20
561.182573
 11
365.858824
 21
561.934829
  0
ARC
  8
CSLAYER1
  6
CONTINUOUS
 62
     6
 10
365.303260
 20
560.071448
 40
1.944444
 50
73.398367
 51
106.601529
  0
LINE
  8
CSLAYER1
  6
CONTINUOUS
 62
     6
 10
364.747700
 20
561.934830
 11
364.747699
 21
561.182574
  0
ARC
  8
CSLAYER1
  6
CONTINUOUS
 62
     6
 10
364.192166
 20
561.182574
 40
0.555556
 50
269.999956
 51
359.942606
  0
LINE
  8
CSLAYER1
  6
CONTINUOUS
 62
     6
 10
364.192165
 20
560.627012
 11
363.439851
 21
560.627012
  0
ARC
  8
CSLAYER1
  6
CONTINUOUS
 62
     6
 10
365.303260
 20
560.071448
 40
1.944444
 50
163.398373
 51
196.601535
  0
LINE
  8
CSLAYER1
  6
CONTINUOUS
 62
     6
 10
363.439850
 20
559.515888
 11
364.192164
 21
559.515887
  0
ARC
  8
CSLAYER1
  6
CONTINUOUS
 62
     6
 10
364.192164
 20
558.960324
 40
0.555556
 50
-0.000048
 51
89.942643
  0
LINE
  8
CSLAYER1
  6
CONTINUOUS
 62
     6
 10
364.747697
 20
558.960324
 11
364.747696
 21
558.208067
  0
ARC
  8
CSLAYER1
  6
CONTINUOUS
 62
     6
 10
365.303260
 20
560.071448
 40
1.944444
 50
253.398389
 51
286.601524
  0
LINE
  8
CSLAYER1
  6
CONTINUOUS
 62
     6
 10
365.858821
 20
558.208067
 11
365.858822
 21
558.960323
  0
ARC
  8
CSLAYER1
  6
CONTINUOUS
 62
     6
 10
366.414355
 20
558.960323
 40
0.555556
 50
89.999961
 51
179.999968
  0
LINE
  8
CSLAYER1
  6
CONTINUOUS
 62
     6
 10
366.414356
 20
559.515885
 11
367.166670
 21
559.515884
  0
ARC
  8
CSLAYER1
  6
CONTINUOUS
 62
     6
 10
365.303260
 20
560.071448
 40
1.944444
 50
-16.601642
 51
16.601547
  0
CIRCLE
  8
CSLAYER1
  6
CONTINUOUS
 62
     6
 10
365.303260
 20
560.071436
 40
3.500000
  0
ARC
  8
CSLAYER1
  6
CONTINUOUS
 62
     6
 10
391.303259
 20
545.871521
 40
2.000000
 50
180.000018
 51
269.999999
  0
LINE
  8
CSLAYER1
  6
CONTINUOUS
 62
     6
 10
391.303259
 20
543.871521
 11
407.303259
 21
543.871521
  0
LINE
  8
CSLAYER1
  6
CONTINUOUS
 62
     6
 10
407.303259
 20
543.871521
 11
407.303259
 21
483.871521
  0
LINE
  8
CSLAYER1
  6
CONTINUOUS
 62
     6
 10
389.101973
 20
474.871527
 11
389.101981
 21
493.871443
  0
ARC
  8
CSLAYER1
  6
CONTINUOUS
 62
     6
 10
391.101981
 20
493.871442
 40
2.000000
 50
123.626498
 51
179.999995
  0
LINE
  8
CSLAYER1
  6
CONTINUOUS
 62
     6
 10
382.200826
 20
493.871428
 11
382.200818
 21
475.895976
  0
LINE
  8
CSLAYER1
  6
CONTINUOUS
 62
     6
 10
376.803259
 20
473.871533
 11
376.803259
 21
472.371533
  0
LINE
  8
CSLAYER1
  6
CONTINUOUS
 62
     6
 10
376.803259
 20
472.371533
 11
361.803290
 21
472.371540
  0
LINE
  8
CSLAYER1
  6
CONTINUOUS
 62
     6
 10
361.803290
 20
472.371540
 11
362.303290
 21
471.871539
  0
LINE
  8
CSLAYER1
  6
CONTINUOUS
 62
     6
 10
362.303290
 20
471.871539
 11
376.303259
 21
471.871533
  0
LINE
  8
CSLAYER1
  6
CONTINUOUS
 62
     6
 10
376.303259
 20
471.871533
 11
376.803259
 21
472.371533
  0
LINE
  8
CSLAYER1
  6
CONTINUOUS
 62
     6
 10
375.180029
 20
471.871534
 11
375.180028
 21
470.671522
  0
LINE
  8
CSLAYER1
  6
CONTINUOUS
 62
     6
 10
363.426549
 20
470.671527
 11
363.426550
 21
471.871539
  0
LINE
  8
CSLAYER1
  6
CONTINUOUS
 62
     6
 10
361.803290
 20
472.371540
 11
361.803290
 21
473.871540
  0
LINE
  8
CSLAYER1
  6
CONTINUOUS
 62
     6
 10
356.405704
 20
475.895987
 11
356.405712
 21
493.871440
  0
LINE
  8
CSLAYER1
  6
CONTINUOUS
 62
     6
 10
349.455140
 20
493.871443
 11
349.455132
 21
474.871545
  0
ARC
  8
CSLAYER1
  6
CONTINUOUS
 62
     6
 10
350.455132
 20
474.871545
 40
1.000000
 50
179.999993
 51
269.999974
  0
LINE
  8
CSLAYER1
  6
CONTINUOUS
 62
     6
 10
344.320117
 20
483.296863
 11
342.543274
 21
486.317863
  0
ARC
  8
CSLAYER1
  6
CONTINUOUS
 62
     6
 10
355.062218
 20
492.824802
 40
13.559023
 50
180.000284
 51
207.463982
  0
ARC
  8
CSLAYER1
  6
CONTINUOUS
 62
     6
 10
340.953196
 20
491.872093
 40
1.099999
 50
59.999691
 51
119.999692
  0
ARC
  8
CSLAYER1
  6
CONTINUOUS
 62
     6
 10
339.853198
 20
491.872108
 40
1.099999
 50
59.999691
 51
119.999692
  0
ARC
  8
CSLAYER1
  6
CONTINUOUS
 62
     6
 10
339.853206
 20
493.777367
 40
1.099999
 50
239.999709
 51
299.999697
  0
ARC
  8
CSLAYER1
  6
CONTINUOUS
 62
     6
 10
355.062218
 20
492.824802
 40
15.759004
 50
180.000210
 51
207.463963
  0
LINE
  8
CSLAYER1
  6
CONTINUOUS
 62
     6
 10
341.079237
 20
485.556900
 11
343.031286
 21
486.571517
  0
LINE
  8
CSLAYER1
  6
CONTINUOUS
 62
     6
 10
342.055258
 20
486.064215
 11
343.669434
 21
482.958657
  0
LINE
  8
CSLAYER1
  6
CONTINUOUS
 62
     6
 10
343.018751
 20
482.620452
 11
341.567245
 21
485.810562
  0
ARC
  8
CSLAYER1
  6
CONTINUOUS
 62
     6
 10
323.544235
 20
492.824642
 40
15.758933
 50
-27.463485
 51
0.000373
  0
ARC
  8
CSLAYER1
  6
CONTINUOUS
 62
     6
 10
338.753191
 20
491.872124
 40
1.099999
 50
60.000326
 51
120.000321
  0
ARC
  8
CSLAYER1
  6
CONTINUOUS
 62
     6
 10
337.653182
 20
493.777368
 40
1.099999
 50
240.000338
 51
300.000326
  0
ARC
  8
CSLAYER1
  6
CONTINUOUS
 62
     6
 10
323.544235
 20
492.824642
 40
13.558951
 50
-27.463387
 51
0.000393
  0
LINE
  8
CSLAYER1
  6
CONTINUOUS
 62
     6
 10
335.575170
 20
486.571502
 11
337.527214
 21
485.556887
  0
LINE
  8
CSLAYER1
  6
CONTINUOUS
 62
     6
 10
337.039180
 20
485.810563
 11
335.587673
 21
482.620453
  0
LINE
  8
CSLAYER1
  6
CONTINUOUS
 62
     6
 10
334.936990
 20
482.958659
 11
336.551167
 21
486.064216
  0
LINE
  8
CSLAYER1
  6
CONTINUOUS
 62
     6
 10
336.063151
 20
486.317864
 11
334.286306
 21
483.296865
  0
ARC
  8
CSLAYER1
  6
CONTINUOUS
 62
     6
 10
337.653193
 20
491.872109
 40
1.099999
 50
60.000326
 51
120.000321
  0
LINE
  8
CSLAYER1
  6
CONTINUOUS
 62
     6
 10
337.103206
 20
502.071489
 11
313.303230
 21
502.071486
  0
ARC
  8
CSLAYER1
  6
CONTINUOUS
 62
     6
 10
313.303196
 20
508.071472
 40
1.944444
 50
253.398391
 51
286.601553
  0
LINE
  8
CSLAYER1
  6
CONTINUOUS
 62
     6
 10
312.747633
 20
506.208091
 11
312.747633
 21
506.960348
  0
ARC
  8
CSLAYER1
  6
CONTINUOUS
 62
     6
 10
312.192100
 20
506.960348
 40
0.555556
 50
-0.000008
 51
89.999981
  0
LINE
  8
CSLAYER1
  6
CONTINUOUS
 62
     6
 10
312.192100
 20
507.515911
 11
311.439785
 21
507.515911
  0
ARC
  8
CSLAYER1
  6
CONTINUOUS
 62
     6
 10
313.303196
 20
508.071472
 40
1.944444
 50
163.398382
 51
196.601571
  0
LINE
  8
CSLAYER1
  6
CONTINUOUS
 62
     6
 10
311.439786
 20
508.627036
 11
312.192100
 21
508.627035
  0
ARC
  8
CSLAYER1
  6
CONTINUOUS
 62
     6
 10
312.192101
 20
509.182598
 40
0.555556
 50
269.999986
 51
359.999992
  0
LINE
  8
CSLAYER1
  6
CONTINUOUS
 62
     6
 10
312.747634
 20
509.182598
 11
312.747634
 21
509.934854
  0
ARC
  8
CSLAYER1
  6
CONTINUOUS
 62
     6
 10
313.303196
 20
508.071472
 40
1.944444
 50
73.398414
 51
106.601548
  0
LINE
  8
CSLAYER1
  6
CONTINUOUS
 62
     6
 10
313.858759
 20
509.934854
 11
313.858759
 21
509.182597
  0
ARC
  8
CSLAYER1
  6
CONTINUOUS
 62
     6
 10
314.414292
 20
509.182597
 40
0.555556
 50
179.999976
 51
269.942667
  0
LINE
  8
CSLAYER1
  6
CONTINUOUS
 62
     6
 10
314.414292
 20
508.627034
 11
315.166607
 21
508.627034
  0
ARC
  8
CSLAYER1
  6
CONTINUOUS
 62
     6
 10
313.303196
 20
508.071472
 40
1.944444
 50
-16.601603
 51
16.601559
  0
LINE
  8
CSLAYER1
  6
CONTINUOUS
 62
     6
 10
315.166606
 20
507.515909
 11
314.414292
 21
507.515910
  0
ARC
  8
CSLAYER1
  6
CONTINUOUS
 62
     6
 10
314.414291
 20
506.960347
 40
0.555556
 50
89.999981
 51
179.942630
  0
LINE
  8
CSLAYER1
  6
CONTINUOUS
 62
     6
 10
313.858758
 20
506.960347
 11
313.858758
 21
506.208091
  0
CIRCLE
  8
CSLAYER1
  6
CONTINUOUS
 62
     6
 10
313.303197
 20
508.071485
 40
3.500000
  0
LINE
  8
CSLAYER1
  6
CONTINUOUS
 62
     6
 10
321.303237
 20
502.071487
 11
321.303239
 21
497.501237
  0
ARC
  8
CSLAYER1
  6
CONTINUOUS
 62
     6
 10
347.455112
 20
493.871442
 40
2.000000
 50
0.000005
 51
90.000044
  0
LINE
  8
CSLAYER1
  6
CONTINUOUS
 62
     6
 10
363.439817
 20
507.515889
 11
364.192131
 21
507.515889
  0
ARC
  8
CSLAYER1
  6
CONTINUOUS
 62
     6
 10
364.192131
 20
506.960326
 40
0.555556
 50
0.057321
 51
89.999971
  0
LINE
  8
CSLAYER1
  6
CONTINUOUS
 62
     6
 10
364.747664
 20
506.960326
 11
364.747664
 21
506.208069
  0
ARC
  8
CSLAYER1
  6
CONTINUOUS
 62
     6
 10
365.303227
 20
508.071450
 40
1.944444
 50
253.398399
 51
286.601560
  0
LINE
  8
CSLAYER1
  6
CONTINUOUS
 62
     6
 10
365.858789
 20
506.208069
 11
365.858789
 21
506.960325
  0
ARC
  8
CSLAYER1
  6
CONTINUOUS
 62
     6
 10
366.414323
 20
506.960325
 40
0.555556
 50
89.999971
 51
179.999960
  0
LINE
  8
CSLAYER1
  6
CONTINUOUS
 62
     6
 10
366.414323
 20
507.515888
 11
367.166637
 21
507.515887
  0
ARC
  8
CSLAYER1
  6
CONTINUOUS
 62
     6
 10
365.303227
 20
508.071450
 40
1.944444
 50
-16.601619
 51
16.601569
  0
LINE
  8
CSLAYER1
  6
CONTINUOUS
 62
     6
 10
367.166638
 20
508.627012
 11
366.414323
 21
508.627012
  0
ARC
  8
CSLAYER1
  6
CONTINUOUS
 62
     6
 10
366.414324
 20
509.182575
 40
0.555556
 50
179.999960
 51
269.999966
  0
LINE
  8
CSLAYER1
  6
CONTINUOUS
 62
     6
 10
365.858790
 20
509.182575
 11
365.858791
 21
509.934832
  0
ARC
  8
CSLAYER1
  6
CONTINUOUS
 62
     6
 10
365.303227
 20
508.071450
 40
1.944444
 50
73.398404
 51
106.601538
  0
LINE
  8
CSLAYER1
  6
CONTINUOUS
 62
     6
 10
364.747666
 20
509.934832
 11
364.747665
 21
509.182575
  0
ARC
  8
CSLAYER1
  6
CONTINUOUS
 62
     6
 10
364.192132
 20
509.182576
 40
0.555556
 50
270.057285
 51
359.999975
  0
LINE
  8
CSLAYER1
  6
CONTINUOUS
 62
     6
 10
364.192132
 20
508.627013
 11
363.439817
 21
508.627014
  0
ARC
  8
CSLAYER1
  6
CONTINUOUS
 62
     6
 10
365.303227
 20
508.071450
 40
1.944444
 50
163.398392
 51
196.601554
  0
CIRCLE
  8
CSLAYER1
  6
CONTINUOUS
 62
     6
 10
365.303227
 20
508.071463
 40
3.500000
  0
ARC
  8
CSLAYER1
  6
CONTINUOUS
 62
     6
 10
373.303240
 20
510.371636
 40
2.000000
 50
90.000025
 51
180.000041
  0
LINE
  8
CSLAYER1
  6
CONTINUOUS
 62
     6
 10
373.303240
 20
512.371636
 11
393.303259
 21
512.371644
  0
ARC
  8
CSLAYER1
  6
CONTINUOUS
 62
     6
 10
393.303259
 20
510.371644
 40
2.000000
 50
0.000000
 51
90.000025
  0
ARC
  8
CSLAYER1
  6
CONTINUOUS
 62
     6
 10
393.303259
 20
517.371643
 40
2.000000
 50
-89.999975
 51
0.000000
  0
LINE
  8
CSLAYER1
  6
CONTINUOUS
 62
     6
 10
393.303260
 20
515.371643
 11
373.303236
 21
515.371634
  0
ARC
  8
CSLAYER1
  6
CONTINUOUS
 62
     6
 10
373.303235
 20
517.371634
 40
2.000000
 50
180.000041
 51
270.000025
  0
LINE
  8
CSLAYER1
  6
CONTINUOUS
 62
     6
 10
346.121391
 20
534.071448
 11
342.753990
 21
534.071449
  0
LINE
  8
CSLAYER1
  6
CONTINUOUS
 62
     6
 10
342.753990
 20
534.071449
 11
342.712294
 21
530.662361
  0
LINE
  8
CSLAYER1
  6
CONTINUOUS
 62
     6
 10
342.712294
 20
530.662361
 11
332.485027
 21
534.071454
  0
LINE
  8
CSLAYER1
  6
CONTINUOUS
 62
     6
 10
332.485027
 20
534.071454
 11
335.917255
 21
534.071452
  0
LINE
  8
CSLAYER1
  6
CONTINUOUS
 62
     6
 10
335.917255
 20
534.071452
 11
335.894121
 21
537.480540
  0
LINE
  8
CSLAYER1
  6
CONTINUOUS
 62
     6
 10
335.894121
 20
537.480540
 11
346.121383
 21
534.071450
  0
CIRCLE
  8
CSLAYER1
  6
CONTINUOUS
 62
     6
 10
339.303238
 20
534.071458
 40
30.000000
  0
CIRCLE
  8
CSLAYER1
  6
CONTINUOUS
 62
     6
 10
339.303207
 20
534.071451
 40
6.818180
  0
CIRCLE
  8
CSLAYER1
  6
CONTINUOUS
 62
     6
 10
339.303207
 20
534.071451
 40
7.909089
  0
CIRCLE
  8
CSLAYER1
  6
CONTINUOUS
 62
     6
 10
339.303207
 20
534.071451
 40
16.000000
  0
CIRCLE
  8
CSLAYER1
  6
CONTINUOUS
 62
     6
 10
339.303207
 20
534.071451
 40
17.000000
  0
LINE
  8
CSLAYER1
  6
CONTINUOUS
 62
     6
 10
335.917255
 20
534.071452
 11
335.917255
 21
534.071467
  0
ARC
  8
CSLAYER1
  6
CONTINUOUS
 62
     6
 10
313.303207
 20
560.071470
 40
1.944444
 50
253.398428
 51
286.601562
  0
LINE
  8
CSLAYER1
  6
CONTINUOUS
 62
     6
 10
312.747645
 20
558.208089
 11
312.747645
 21
558.960346
  0
ARC
  8
CSLAYER1
  6
CONTINUOUS
 62
     6
 10
312.192111
 20
558.960346
 40
0.555556
 50
-0.000016
 51
89.999990
  0
LINE
  8
CSLAYER1
  6
CONTINUOUS
 62
     6
 10
312.192111
 20
559.515908
 11
311.439797
 21
559.515908
  0
ARC
  8
CSLAYER1
  6
CONTINUOUS
 62
     6
 10
313.303207
 20
560.071470
 40
1.944444
 50
163.398405
 51
196.601594
  0
LINE
  8
CSLAYER1
  6
CONTINUOUS
 62
     6
 10
311.439797
 20
560.627033
 11
312.192111
 21
560.627033
  0
ARC
  8
CSLAYER1
  6
CONTINUOUS
 62
     6
 10
312.192111
 20
561.182595
 40
0.555556
 50
269.999995
 51
359.999984
  0
LINE
  8
CSLAYER1
  6
CONTINUOUS
 62
     6
 10
312.747645
 20
561.182595
 11
312.747645
 21
561.934852
  0
ARC
  8
CSLAYER1
  6
CONTINUOUS
 62
     6
 10
313.303207
 20
560.071470
 40
1.944444
 50
73.398423
 51
106.601584
  0
LINE
  8
CSLAYER1
  6
CONTINUOUS
 62
     6
 10
313.858769
 20
561.934852
 11
313.858769
 21
561.182595
  0
ARC
  8
CSLAYER1
  6
CONTINUOUS
 62
     6
 10
314.414303
 20
561.182595
 40
0.555556
 50
180.057346
 51
269.999995
  0
LINE
  8
CSLAYER1
  6
CONTINUOUS
 62
     6
 10
314.414303
 20
560.627033
 11
315.166617
 21
560.627033
  0
ARC
  8
CSLAYER1
  6
CONTINUOUS
 62
     6
 10
313.303207
 20
560.071470
 40
1.944444
 50
-16.601583
 51
16.601578
  0
LINE
  8
CSLAYER1
  6
CONTINUOUS
 62
     6
 10
315.166617
 20
559.515908
 11
314.414303
 21
559.515908
  0
ARC
  8
CSLAYER1
  6
CONTINUOUS
 62
     6
 10
314.414303
 20
558.960346
 40
0.555556
 50
90.057309
 51
179.999999
  0
LINE
  8
CSLAYER1
  6
CONTINUOUS
 62
     6
 10
313.858769
 20
558.960346
 11
313.858769
 21
558.208089
  0
CIRCLE
  8
CSLAYER1
  6
CONTINUOUS
 62
     6
 10
313.303208
 20
560.071458
 40
3.500000
  0
ARC
  8
CSLAYER1
  6
CONTINUOUS
 62
     6
 10
388.101973
 20
474.871528
 40
1.000000
 50
269.999974
 51
359.999955
  0
LINE
  8
CSLAYER1
  6
CONTINUOUS
 62
     6
 10
375.103235
 20
140.421750
 11
375.103235
 21
139.221750
  0
LINE
  8
CSLAYER1
  6
CONTINUOUS
 62
     6
 10
376.303235
 20
139.221749
 11
376.803235
 21
138.721749
  0
LINE
  8
CSLAYER1
  6
CONTINUOUS
 62
     6
 10
376.803235
 20
138.721749
 11
376.803235
 21
137.221751
  0
LINE
  8
CSLAYER1
  6
CONTINUOUS
 62
     6
 10
376.803235
 20
138.721749
 11
361.803235
 21
138.721749
  0
LINE
  8
CSLAYER1
  6
CONTINUOUS
 62
     6
 10
361.803235
 20
138.721751
 11
362.303235
 21
139.221751
  0
LINE
  8
CSLAYER1
  6
CONTINUOUS
 62
     6
 10
362.303235
 20
139.221751
 11
376.303235
 21
139.221749
  0
LINE
  8
CSLAYER1
  6
CONTINUOUS
 62
     6
 10
382.200793
 20
135.197306
 11
382.200793
 21
99.552698
  0
ARC
  8
CSLAYER1
  6
CONTINUOUS
 62
     6
 10
381.632649
 20
98.164457
 40
1.500000
 50
6.149748
 51
67.742940
  0
LINE
  8
CSLAYER1
  6
CONTINUOUS
 62
     6
 10
383.124012
 20
98.325147
 11
383.124012
 21
96.594816
  0
LINE
  8
CSLAYER1
  6
CONTINUOUS
 62
     6
 10
383.025280
 20
98.721752
 11
355.581192
 21
98.721752
  0
LINE
  8
CSLAYER1
  6
CONTINUOUS
 62
     6
 10
355.482455
 20
98.325145
 11
355.482455
 21
96.594814
  0
ARC
  8
CSLAYER1
  6
CONTINUOUS
 62
     6
 10
356.973822
 20
98.164454
 40
1.500000
 50
112.257062
 51
173.850254
  0
LINE
  8
CSLAYER1
  6
CONTINUOUS
 62
     6
 10
356.405678
 20
99.552695
 11
356.405678
 21
135.197306
  0
LINE
  8
CSLAYER1
  6
CONTINUOUS
 62
     6
 10
361.803235
 20
137.221751
 11
361.803235
 21
138.721751
  0
LINE
  8
CSLAYER1
  6
CONTINUOUS
 62
     6
 10
363.503235
 20
139.221750
 11
363.503235
 21
140.421750
  0
ARC
  8
CSLAYER1
  6
CONTINUOUS
 62
     6
 10
350.455107
 20
136.221751
 40
1.000000
 50
90.000001
 51
179.999982
  0
LINE
  8
CSLAYER1
  6
CONTINUOUS
 62
     6
 10
349.455107
 20
136.221751
 11
349.455107
 21
99.725733
  0
ARC
  8
CSLAYER1
  6
CONTINUOUS
 62
     6
 10
348.889586
 20
98.336421
 40
1.500000
 50
1.221738
 51
67.851172
  0
LINE
  8
CSLAYER1
  6
CONTINUOUS
 62
     6
 10
350.389250
 20
98.368404
 11
350.389250
 21
96.508296
  0
LINE
  8
CSLAYER1
  6
CONTINUOUS
 62
     6
 10
350.339248
 20
98.721752
 11
345.303235
 21
98.721752
  0
ARC
  8
CSLAYER1
  6
CONTINUOUS
 62
     6
 10
345.303235
 20
98.221746
 40
0.500000
 50
90.000000
 51
180.000000
  0
LINE
  8
CSLAYER1
  6
CONTINUOUS
 62
     6
 10
344.803235
 20
98.221746
 11
344.803235
 21
96.721752
  0
ARC
  8
CSLAYER1
  6
CONTINUOUS
 62
     6
 10
345.803235
 20
96.721752
 40
1.000000
 50
180.000000
 51
250.528779
  0
ARC
  8
CSLAYER1
  6
CONTINUOUS
 62
     6
 10
345.303235
 20
95.307539
 40
0.500000
 50
0.000000
 51
70.528779
  0
LINE
  8
CSLAYER1
  6
CONTINUOUS
 62
     6
 10
345.803235
 20
95.307539
 11
345.803235
 21
73.971751
  0
ARC
  8
CSLAYER1
  6
CONTINUOUS
 62
     6
 10
347.553235
 20
73.971751
 40
1.750000
 50
180.000000
 51
270.000000
  0
ARC
  8
CSLAYER1
  6
CONTINUOUS
 62
     6
 10
347.553235
 20
70.471751
 40
1.750000
 50
0.000000
 51
90.000000
  0
LINE
  8
CSLAYER1
  6
CONTINUOUS
 62
     6
 10
349.303235
 20
70.538812
 11
349.303235
 21
58.221751
  0
ARC
  8
CSLAYER1
  6
CONTINUOUS
 62
     6
 10
350.303235
 20
58.221751
 40
1.000000
 50
180.000000
 51
270.000000
  0
LINE
  8
CSLAYER1
  6
CONTINUOUS
 62
     6
 10
350.303235
 20
57.221751
 11
388.303235
 21
57.221751
  0
ARC
  8
CSLAYER1
  6
CONTINUOUS
 62
     6
 10
388.303235
 20
58.221751
 40
1.000000
 50
270.000000
 51
360.000000
  0
LINE
  8
CSLAYER1
  6
CONTINUOUS
 62
     6
 10
389.303235
 20
58.221751
 11
389.303235
 21
70.471751
  0
ARC
  8
CSLAYER1
  6
CONTINUOUS
 62
     6
 10
391.053235
 20
70.471751
 40
1.750000
 50
90.000000
 51
180.000000
  0
LINE
  8
CSLAYER1
  6
CONTINUOUS
 62
     6
 10
391.053235
 20
72.221751
 11
347.762852
 21
72.221751
  0
LINE
  8
CSLAYER1
  6
CONTINUOUS
 62
     6
 10
352.603223
 20
70.742823
 11
352.603223
 21
58.221751
  0
ARC
  8
CSLAYER1
  6
CONTINUOUS
 62
     6
 10
353.603223
 20
58.221751
 40
1.000000
 50
180.000000
 51
269.999981
  0
LINE
  8
CSLAYER1
  6
CONTINUOUS
 62
     6
 10
358.503248
 20
58.890132
 11
358.503248
 21
70.742823
  0
ARC
  8
CSLAYER1
  6
CONTINUOUS
 62
     6
 10
339.303235
 20
77.221746
 40
18.000000
 50
185.739170
 51
302.757277
  0
ARC
  8
CSLAYER1
  6
CONTINUOUS
 62
     6
 10
319.403486
 20
75.221746
 40
2.000000
 50
5.739170
 51
90.000000
  0
LINE
  8
CSLAYER1
  6
CONTINUOUS
 62
     6
 10
319.403486
 20
77.221746
 11
316.303235
 21
77.221746
  0
ARC
  8
CSLAYER1
  6
CONTINUOUS
 62
     6
 10
316.303235
 20
79.221746
 40
2.000000
 50
180.000000
 51
270.000000
  0
LINE
  8
CSLAYER1
  6
CONTINUOUS
 62
     6
 10
314.303235
 20
79.221746
 11
314.303235
 21
113.221746
  0
ARC
  8
CSLAYER1
  6
CONTINUOUS
 62
     6
 10
315.303235
 20
113.221746
 40
1.000000
 50
90.000000
 51
180.000000
  0
LINE
  8
CSLAYER1
  6
CONTINUOUS
 62
     6
 10
315.303235
 20
114.221746
 11
320.462364
 21
114.221746
  0
ARC
  8
CSLAYER1
  6
CONTINUOUS
 62
     6
 10
320.462364
 20
115.221746
 40
1.000000
 50
270.000000
 51
330.000000
  0
ARC
  8
CSLAYER1
  6
CONTINUOUS
 62
     6
 10
322.194415
 20
114.221746
 40
1.000000
 50
90.000000
 51
150.000000
  0
LINE
  8
CSLAYER1
  6
CONTINUOUS
 62
     6
 10
322.194415
 20
115.221746
 11
343.803235
 21
115.221746
  0
ARC
  8
CSLAYER1
  6
CONTINUOUS
 62
     6
 10
343.803235
 20
117.221746
 40
2.000000
 50
270.000000
 51
360.000000
  0
ARC
  8
CSLAYER1
  6
CONTINUOUS
 62
     6
 10
345.303235
 20
99.221746
 40
0.500000
 50
270.000000
 51
360.000000
  0
LINE
  8
CSLAYER1
  6
CONTINUOUS
 62
     6
 10
345.303235
 20
98.721746
 11
324.303235
 21
98.721746
  0
ARC
  8
CSLAYER1
  6
CONTINUOUS
 62
     6
 10
324.303235
 20
97.721746
 40
1.000000
 50
90.000000
 51
180.000000
  0
LINE
  8
CSLAYER1
  6
CONTINUOUS
 62
     6
 10
323.303235
 20
97.721746
 11
323.303235
 21
77.221746
  0
ARC
  8
CSLAYER1
  6
CONTINUOUS
 62
     6
 10
339.303235
 20
77.221746
 40
16.000000
 50
180.000000
 51
296.387800
  0
ARC
  8
CSLAYER1
  6
CONTINUOUS
 62
     6
 10
347.303235
 20
61.097231
 40
2.000000
 50
0.000000
 51
116.387800
  0
CIRCLE
  8
CSLAYER1
  6
CONTINUOUS
 62
     6
 10
365.303235
 20
51.021753
 40
1.600000
  0
ARC
  8
CSLAYER1
  6
CONTINUOUS
 62
     6
 10
365.303235
 20
51.021753
 40
6.000000
 50
270.000000
 51
360.000000
  0
LINE
  8
CSLAYER1
  6
CONTINUOUS
 62
     6
 10
371.303235
 20
51.021753
 11
371.303235
 21
57.221751
  0
LINE
  8
CSLAYER1
  6
CONTINUOUS
 62
     6
 10
380.103223
 20
58.890132
 11
380.103223
 21
70.742823
  0
LINE
  8
CSLAYER1
  6
CONTINUOUS
 62
     6
 10
386.003248
 20
70.742823
 11
386.003248
 21
58.221751
  0
ARC
  8
CSLAYER1
  6
CONTINUOUS
 62
     6
 10
385.003248
 20
58.221751
 40
1.000000
 50
-89.999961
 51
0.000020
  0
ARC
  8
CSLAYER1
  6
CONTINUOUS
 62
     6
 10
391.303235
 20
65.221752
 40
2.000000
 50
90.000000
 51
180.000000
  0
LINE
  8
CSLAYER1
  6
CONTINUOUS
 62
     6
 10
391.303235
 20
67.221752
 11
407.303235
 21
67.221752
  0
LINE
  8
CSLAYER1
  6
CONTINUOUS
 62
     6
 10
407.303235
 20
67.221752
 11
407.303235
 21
127.221752
  0
LINE
  8
CSLAYER1
  6
CONTINUOUS
 62
     6
 10
407.303235
 20
127.221752
 11
394.803235
 21
127.221752
  0
ARC
  8
CSLAYER1
  6
CONTINUOUS
 62
     6
 10
394.803235
 20
129.221752
 40
2.000000
 50
180.000000
 51
270.000000
  0
LINE
  8
CSLAYER1
  6
CONTINUOUS
 62
     6
 10
395.303235
 20
125.221752
 11
395.303235
 21
116.221754
  0
ARC
  8
CSLAYER1
  6
CONTINUOUS
 62
     6
 10
393.303235
 20
116.221754
 40
2.000000
 50
270.000000
 51
360.000000
  0
LINE
  8
CSLAYER1
  6
CONTINUOUS
 62
     6
 10
393.303235
 20
114.221754
 11
391.101948
 21
114.221754
  0
ARC
  8
CSLAYER1
  6
CONTINUOUS
 62
     6
 10
391.101948
 20
116.221754
 40
2.000000
 50
180.000000
 51
270.000000
  0
LINE
  8
CSLAYER1
  6
CONTINUOUS
 62
     6
 10
392.803235
 20
115.221754
 11
392.803235
 21
136.221753
  0
ARC
  8
CSLAYER1
  6
CONTINUOUS
 62
     6
 10
391.803235
 20
136.221753
 40
1.000000
 50
0.000000
 51
90.000006
  0
LINE
  8
CSLAYER1
  6
CONTINUOUS
 62
     6
 10
391.805391
 20
137.221751
 11
346.803235
 21
137.221751
  0
ARC
  8
CSLAYER1
  6
CONTINUOUS
 62
     6
 10
346.803235
 20
136.221753
 40
1.000000
 50
89.999994
 51
180.000000
  0
LINE
  8
CSLAYER1
  6
CONTINUOUS
 62
     6
 10
345.803235
 20
136.221753
 11
345.803235
 21
99.221746
  0
LINE
  8
CSLAYER1
  6
CONTINUOUS
 62
     6
 10
345.583283
 20
95.721752
 11
387.303235
 21
95.721752
  0
ARC
  8
CSLAYER1
  6
CONTINUOUS
 62
     6
 10
387.303235
 20
96.721752
 40
1.000000
 50
270.000000
 51
360.000000
  0
LINE
  8
CSLAYER1
  6
CONTINUOUS
 62
     6
 10
388.303235
 20
96.721752
 11
388.303235
 21
97.721752
  0
LINE
  8
CSLAYER1
  6
CONTINUOUS
 62
     6
 10
389.101948
 20
99.725733
 11
389.101948
 21
136.221751
  0
ARC
  8
CSLAYER1
  6
CONTINUOUS
 62
     6
 10
388.101948
 20
136.221751
 40
1.000000
 50
0.000020
 51
90.000001
  0
ARC
  8
CSLAYER1
  6
CONTINUOUS
 62
     6
 10
397.303235
 20
125.221752
 40
2.000000
 50
90.000000
 51
180.000000
  0
ARC
  8
CSLAYER1
  6
CONTINUOUS
 62
     6
 10
393.803235
 20
115.221754
 40
1.000000
 50
180.000000
 51
258.066490
  0
ARC
  8
CSLAYER1
  6
CONTINUOUS
 62
     6
 10
387.303235
 20
94.721752
 40
1.000000
 50
90.000000
 51
180.000000
  0
LINE
  8
CSLAYER1
  6
CONTINUOUS
 62
     6
 10
386.303235
 20
94.721752
 11
386.303235
 21
94.157921
  0
LINE
  8
CSLAYER1
  6
CONTINUOUS
 62
     6
 10
386.303235
 20
92.721752
 11
386.303235
 21
81.221752
  0
LINE
  8
CSLAYER1
  6
CONTINUOUS
 62
     6
 10
387.303235
 20
80.221751
 11
393.303235
 21
80.221751
  0
ARC
  8
CSLAYER1
  6
CONTINUOUS
 62
     6
 10
393.303235
 20
78.221751
 40
2.000000
 50
0.000000
 51
90.000000
  0
LINE
  8
CSLAYER1
  6
CONTINUOUS
 62
     6
 10
395.303235
 20
78.221751
 11
395.303235
 21
69.221752
  0
ARC
  8
CSLAYER1
  6
CONTINUOUS
 62
     6
 10
397.303235
 20
69.221752
 40
2.000000
 50
180.000000
 51
270.000000
  0
ARC
  8
CSLAYER1
  6
CONTINUOUS
 62
     6
 10
391.053235
 20
73.971751
 40
1.750000
 50
270.000000
 51
360.000000
  0
LINE
  8
CSLAYER1
  6
CONTINUOUS
 62
     6
 10
392.803235
 20
73.971751
 11
392.803235
 21
79.221751
  0
ARC
  8
CSLAYER1
  6
CONTINUOUS
 62
     6
 10
393.803235
 20
79.221751
 40
1.000000
 50
101.933510
 51
180.000000
  0
ARC
  8
CSLAYER1
  6
CONTINUOUS
 62
     6
 10
387.303235
 20
79.221751
 40
1.000000
 50
90.000000
 51
180.000000
  0
LINE
  8
CSLAYER1
  6
CONTINUOUS
 62
     6
 10
365.303235
 20
45.021753
 11
313.303235
 21
45.021753
  0
ARC
  8
CSLAYER1
  6
CONTINUOUS
 62
     6
 10
313.303235
 20
51.021753
 40
6.000000
 50
180.000000
 51
270.000000
  0
LINE
  8
CSLAYER1
  6
CONTINUOUS
 62
     6
 10
307.303235
 20
51.021753
 11
307.303235
 21
103.021753
  0
ARC
  8
CSLAYER1
  6
CONTINUOUS
 62
     6
 10
313.303235
 20
103.021753
 40
6.000000
 50
90.000000
 51
180.000000
  0
LINE
  8
CSLAYER1
  6
CONTINUOUS
 62
     6
 10
313.303235
 20
109.021753
 11
314.303235
 21
109.021753
  0
ARC
  8
CSLAYER1
  6
CONTINUOUS
 62
     6
 10
313.303235
 20
103.021784
 40
1.600000
 50
51.317813
 51
308.682187
  0
LINE
  8
CSLAYER1
  6
CONTINUOUS
 62
     6
 10
321.328389
 20
113.721746
 11
321.328389
 21
80.221746
  0
LINE
  8
CSLAYER1
  6
CONTINUOUS
 62
     6
 10
320.686333
 20
79.221746
 11
323.303235
 21
79.221746
  0
ARC
  8
CSLAYER1
  6
CONTINUOUS
 62
     6
 10
320.686333
 20
80.221746
 40
1.000000
 50
210.000000
 51
270.000000
  0
ARC
  8
CSLAYER1
  6
CONTINUOUS
 62
     6
 10
318.954282
 20
79.221746
 40
1.000000
 50
30.000000
 51
90.000000
  0
LINE
  8
CSLAYER1
  6
CONTINUOUS
 62
     6
 10
318.954282
 20
80.221746
 11
315.303235
 21
80.221746
  0
ARC
  8
CSLAYER1
  6
CONTINUOUS
 62
     6
 10
315.303235
 20
81.221746
 40
1.000000
 50
180.000000
 51
270.000000
  0
CIRCLE
  8
CSLAYER1
  6
CONTINUOUS
 62
     6
 10
313.303235
 20
51.021753
 40
1.600000
  0
TEXT
  8
CSLAYER1
 62
     6
 10
324.470367
 20
532.103333
 40
3.409090
 41
1.200000
  1
S
 50
281.999969
 51
3.000000
  7
JX_FONT
 72
     5
 11
325.037398
 21
529.435658
  0
TEXT
  8
CSLAYER1
 62
     6
 10
325.203705
 20
529.062439
 40
3.409090
 41
1.200000
  1
A
 50
294.000000
 51
3.000000
  7
JX_FONT
 72
     5
 11
326.312986
 21
526.570952
  0
TEXT
  8
CSLAYER1
 62
     6
 10
326.553253
 20
526.240417
 40
3.409090
 41
1.596000
  1
W
 50
306.000000
 51
3.000000
  7
JX_FONT
 72
     5
 11
328.685310
 21
523.305893
  0
TEXT
  8
CSLAYER1
 62
     6
 10
328.459991
 20
523.760681
 40
3.409090
 41
1.200000
  1
A
 50
317.999969
 51
3.000000
  7
JX_FONT
 72
     5
 11
330.486749
 21
521.935779
  0
TEXT
  8
CSLAYER1
 62
     6
 10
330.840607
 20
521.731628
 40
3.409090
 41
1.200000
  1
M
 50
329.999969
 51
3.000000
  7
JX_FONT
 72
     5
 11
333.202493
 21
520.367991
  0
TEXT
  8
CSLAYER1
 62
     6
 10
333.591156
 20
520.241821
 40
3.409090
 41
1.200000
  1
U
 50
341.999969
 51
3.000000
  7
JX_FONT
 72
     5
 11
336.184945
 21
519.399047
  0
TEXT
  8
CSLAYER1
 62
     6
 10
336.591339
 20
519.356445
 40
3.409090
 41
1.200000
  1
R
 50
353.999939
 51
3.000000
  7
JX_FONT
 72
     5
 11
339.303671
 21
519.071365
  0
TEXT
  8
CSLAYER1
 62
     6
 10
339.709991
 20
519.114197
 40
3.409090
 41
1.200000
  1
A
 50
5.999969
 51
3.000000
  7
JX_FONT
 72
     5
 11
342.422323
 21
519.399273
  0
TEXT
  8
CSLAYER1
 62
     6
 10
352.459869
 20
526.945129
 40
3.409090
 41
1.200000
  1
K
 50
66.000031
 51
3.000000
  7
JX_FONT
 72
     5
 11
353.569150
 21
529.436617
  0
TEXT
  8
CSLAYER1
 62
     6
 10
353.654022
 20
529.836243
 40
3.409090
 41
0.792000
  1
I
 50
77.999969
 51
3.000000
  7
JX_FONT
 72
     5
 11
354.028264
 21
531.596908
  0
TEXT
  8
CSLAYER1
 62
     6
 10
348.423981
 20
522.209900
 40
3.409090
 41
1.200000
  1
E
 50
41.999939
 51
3.000000
  7
JX_FONT
 72
     5
 11
350.450741
 21
524.034799
  0
TEXT
  8
CSLAYER1
 62
     6
 10
350.690765
 20
524.365417
 40
3.409090
 41
1.200000
  1
N
 50
54.000031
 51
3.000000
  7
JX_FONT
 72
     5
 11
352.293814
 21
526.571828
  0
TEXT
  8
CSLAYER1
 62
     6
 10
324.385345
 20
535.230164
 40
3.410000
 41
1.200000
  1
*
 50
269.999969
 51
3.000000
  7
JX_FONT
 72
     5
 11
324.385344
 21
532.502163
  0
TEXT
  8
CSLAYER1
 62
     6
 10
345.015228
 20
547.900940
 40
3.409090
 41
1.200000
  1
U
 50
161.999969
 51
3.000000
  7
JX_FONT
 72
     5
 11
342.421439
 21
548.743715
  0
TEXT
  8
CSLAYER1
 62
     6
 10
342.015045
 20
548.786316
 40
3.409090
 41
1.200000
  1
R
 50
173.999954
 51
3.000000
  7
JX_FONT
 72
     5
 11
339.302714
 21
549.071396
  0
TEXT
  8
CSLAYER1
 62
     6
 10
338.896393
 20
549.028625
 40
3.409090
 41
1.200000
  1
A
 50
185.999985
 51
3.000000
  7
JX_FONT
 72
     5
 11
336.184061
 21
548.743549
  0
TEXT
  8
CSLAYER1
 62
     6
 10
326.146454
 20
541.197693
 40
3.409090
 41
1.200000
  1
K
 50
246.000031
 51
3.000000
  7
JX_FONT
 72
     5
 11
325.037174
 21
538.706205
  0
TEXT
  8
CSLAYER1
 62
     6
 10
324.952362
 20
538.306580
 40
3.409090
 41
0.792000
  1
I
 50
257.999969
 51
3.000000
  7
JX_FONT
 72
     5
 11
324.578120
 21
536.545915
  0
TEXT
  8
CSLAYER1
 62
     6
 10
332.847870
 20
547.570007
 40
3.409090
 41
1.200000
  1
D
 50
210.000015
 51
3.000000
  7
JX_FONT
 72
     5
 11
330.485983
 21
546.206371
  0
TEXT
  8
CSLAYER1
 62
     6
 10
330.182465
 20
545.932922
 40
3.409090
 41
1.200000
  1
E
 50
221.999939
 51
3.000000
  7
JX_FONT
 72
     5
 11
328.155705
 21
544.108023
  0
TEXT
  8
CSLAYER1
 62
     6
 10
327.915619
 20
543.777405
 40
3.409090
 41
1.200000
  1
N
 50
234.000031
 51
3.000000
  7
JX_FONT
 72
     5
 11
326.312570
 21
541.570995
  0
TEXT
  8
CSLAYER1
 62
     6
 10
354.136017
 20
536.039490
 40
3.409090
 41
1.200000
  1
S
 50
101.999977
 51
3.000000
  7
JX_FONT
 72
     5
 11
353.568986
 21
538.707165
  0
TEXT
  8
CSLAYER1
 62
     6
 10
353.402679
 20
539.080383
 40
3.409090
 41
1.200000
  1
A
 50
114.000023
 51
3.000000
  7
JX_FONT
 72
     5
 11
352.293397
 21
541.571870
  0
TEXT
  8
CSLAYER1
 62
     6
 10
352.053131
 20
541.902405
 40
3.409090
 41
1.596000
  1
W
 50
126.000008
 51
3.000000
  7
JX_FONT
 72
     5
 11
349.921074
 21
544.836929
  0
TEXT
  8
CSLAYER1
 62
     6
 10
350.146393
 20
544.382141
 40
3.409090
 41
1.200000
  1
A
 50
138.000000
 51
3.000000
  7
JX_FONT
 72
     5
 11
348.119635
 21
546.207042
  0
TEXT
  8
CSLAYER1
 62
     6
 10
347.765717
 20
546.411194
 40
3.409090
 41
1.200000
  1
M
 50
149.999985
 51
3.000000
  7
JX_FONT
 72
     5
 11
345.403830
 21
547.774830
  0
TEXT
  8
CSLAYER1
 62
     6
 10
354.221039
 20
532.912659
 40
3.410000
 41
1.200000
  1
*
 50
89.999969
 51
3.000000
  7
JX_FONT
 72
     5
 11
354.221040
 21
535.640659
  0
ENDSEC
  0
EOF
