  0
SECTION
  2
HEADER
  9
$ACADVER
  1
AC1006
  9
$INSBASE
 10
0.000000
 20
0.000000
 30
0.0
  9
$EXTMIN
 10
0.000000
 20
0.000000
  9
$EXTMAX
 10
420.000000
 20
297.000000
  9
$LIMMIN
 10
0.000000
 20
0.000000
  9
$LIMMAX
 10
420.000000
 20
297.000000
  9
$VIEWCTR
 10
210.000000
 20
148.500000
  9
$VIEWSIZE
 40
297.000000
  9
$SNAPMODE
 70
     0
  9
$SNAPUNIT
 10
1.0
 20
1.0
  9
$SNAPBASE
 10
0.0
 20
0.0
  9
$SNAPANG
 50
0.0
  9
$SNAPSTYLE
 70
     0
  9
$SNAPISOPAIR
 70
     0
  9
$GRIDMODE
 70
     0
  9
$GRIDUNIT
 10
0.0
 20
0.0
  9
$ORTHOMODE
 70
     0
  9
$REGENMODE
 70
     1
  9
$FILLMODE
 70
     1
  9
$QTEXTMODE
 70
     0
  9
$DRAGMODE
 70
     2
  9
$LTSCALE
 40
15.000000
  9
$OSMODE
 70
     0
  9
$ATTMODE
 70
     1
  9
$TEXTSIZE
 40
0.2
  9
$TRACEWID
 40
0.05
  9
$TEXTSTYLE
  7
STANDARD
  9
$CLAYER
  8
CSLAYER1
  9
$CELTYPE
  6
BYLAYER
  9
$CECOLOR
 62
   256
  9
$DIMSCALE
 40
1.0
  9
$DIMASZ
 40
0.18
  9
$DIMEXO
 40
0.0625
  9
$DIMDLI
 40
0.38
  9
$DIMRND
 40
0.0
  9
$DIMDLE
 40
0.0
  9
$DIMEXE
 40
0.18
  9
$DIMTP
 40
0.0
  9
$DIMTM
 40
0.0
  9
$DIMTXT
 40
0.18
  9
$DIMCEN
 40
0.09
  9
$DIMTSZ
 40
0.0
  9
$DIMTOL
 70
     0
  9
$DIMLIM
 70
     0
  9
$DIMTIH
 70
     1
  9
$DIMTOH
 70
     1
  9
$DIMSE1
 70
     0
  9
$DIMSE2
 70
     0
  9
$DIMTAD
 70
     0
  9
$DIMZIN
 70
     0
  9
$DIMBLK
  1

  9
$LUNITS
 70
     2
  9
$LUPREC
 70
     4
  9
$AXISMODE
 70
     0
  9
$AXISUNIT
 10
0.0
 20
0.0
  9
$SKETCHINC
 40
0.1
  9
$FILLETRAD
 40
0.0
  9
$AUNITS
 70
     0
  9
$AUPREC
 70
     0
  9
$MENU
  1
ACAD
  9
$ELEVATION
 40
0.0
  9
$THICKNESS
 40
0.0
  9
$VIEWDIR
 10
0.0
 20
0.0
 30
1.0
  9
$LIMCHECK
 70
     0
  9
$BLIPMODE
 70
     1
  9
$CHAMFERA
 40
0.0
  9
$CHAMFERB
 40
0.0
  9
$FASTZOOM
 70
     1
  9
$SKPOLY
 70
     0
  9
$TDCREATE
 40
0.000000
  9
$TDUPDATE
 40
0.000000
  9
$TDINDWG
 40
0.0
  9
$TDUSRTIMER
 40
0.0
  9
$USRTIMER
 70
     1
  9
$ANGBASE
 50
0.0
  9
$ANGDIR
 70
     0
  9
$PDMODE
 70
     0
  9
$PDSIZE
 40
0.0
  9
$PLINEWID
 40
0.0
  9
$COORDS
 70
     0
  9
$USERI1
 70
     0
  9
$USERI2
 70
     0
  9
$USERI3
 70
     0
  9
$USERI4
 70
     0
  9
$USERI5
 70
     0
  9
$USERR1
 40
0.0
  9
$USERR2
 40
0.0
  9
$USERR3
 40
0.0
  9
$USERR4
 40
0.0
  9
$USERR5
 40
0.0
  0
ENDSEC
  0
SECTION
  2
TABLES
  0
TABLE
  2
LTYPE
 70
     9
  0
LTYPE
  2
CONTINUOUS
 70
    64
  3
Solid line
 72
    65
 73
     0
 40
0.0
  0
LTYPE
  2
DASHED
 70
    64
  3
__ __ __ __ __ __ __ __ __ __ __ __ __ __ __
 72
    65
 73
     2
 40
0.75
 49
0.5
 49
-0.25
  0
LTYPE
  2
HIDDEN
 70
    64
  3
_ _ _ _ _ _ _ _ _ _ _ _ _ _ _ _ _ _ _ _ _ _ _
 72
    65
 73
     2
 40
0.375
 49
0.25
 49
-0.125
  0
LTYPE
  2
DOT
 70
    64
  3
...............................................
 72
    65
 73
     2
 40
0.25
 49
0.0
 49
-0.25
  0
LTYPE
  2
DASHDOT
 70
    64
  3
__ . __ . __ . __ . __ . __ . __ . __ . __ . __
 72
    65
 73
     4
 40
1.0
 49
0.5
 49
-0.25
 49
0.0
 49
-0.25
  0
LTYPE
  2
DIVIDE
 70
    64
  3
__ . . __ . . __ . . __ . . __ . . __ . . __
 72
    65
 73
     6
 40
1.25
 49
0.5
 49
-0.25
 49
0.0
 49
-0.25
 49
0.0
 49
-0.25
  0
LTYPE
  2
CENTER
 70
    64
  3
____ _ ____ _ ____ _ ____ _ ____ _ ____ _ ____ 
 72
    65
 73
     4
 40
2.0
 49
1.25
 49
-0.25
 49
0.25
 49
-0.25
  0
LTYPE
  2
PHANTOM
 70
    64
  3
______  __  __  ______  __  __  ______  __  __ 
 72
    65
 73
     6
 40
2.5
 49
1.25
 49
-0.25
 49
0.25
 49
-0.25
 49
0.25
 49
-0.25
  0
LTYPE
  2
BORDER
 70
    64
  3
__ __ . __ __ . __ __ . __ __ . __ __ . __ __ .
 72
    65
 73
     6
 40
1.75
 49
0.5
 49
-0.25
 49
0.5
 49
-0.25
 49
0.0
 49
-0.25
  0
ENDTAB
  0
TABLE
  2
LAYER
 70
    16
  0
LAYER
  2
CSLAYER1
 70
    64
 62
     7
  6
CONTINUOUS
  0
LAYER
  2
CSLAYER2
 70
    64
 62
     7
  6
CONTINUOUS
  0
LAYER
  2
CSLAYER3
 70
    64
 62
     7
  6
CONTINUOUS
  0
LAYER
  2
CSLAYER4
 70
    64
 62
     7
  6
CONTINUOUS
  0
LAYER
  2
CSLAYER5
 70
    64
 62
     7
  6
CONTINUOUS
  0
LAYER
  2
CSLAYER6
 70
    64
 62
     7
  6
CONTINUOUS
  0
LAYER
  2
CSLAYER7
 70
    64
 62
     7
  6
CONTINUOUS
  0
LAYER
  2
CSLAYER8
 70
    64
 62
     7
  6
CONTINUOUS
  0
LAYER
  2
CSLAYER9
 70
    64
 62
     7
  6
CONTINUOUS
  0
LAYER
  2
CSLAYER10
 70
    64
 62
     7
  6
CONTINUOUS
  0
LAYER
  2
CSLAYER11
 70
    64
 62
     7
  6
CONTINUOUS
  0
LAYER
  2
CSLAYER12
 70
    64
 62
     7
  6
CONTINUOUS
  0
LAYER
  2
CSLAYER13
 70
    64
 62
     7
  6
CONTINUOUS
  0
LAYER
  2
CSLAYER14
 70
    64
 62
     7
  6
CONTINUOUS
  0
LAYER
  2
CSLAYER15
 70
    64
 62
     7
  6
CONTINUOUS
  0
LAYER
  2
CSLAYER16
 70
    64
 62
     7
  6
CONTINUOUS
  0
ENDTAB
  0
TABLE
  2
STYLE
 70
     1
  0
STYLE
  2
JX_FONT
 70
     0
 40
1.0
 41
1.0
 50
0.0
 71
     0
 42
1.0
  3
monotxt
  4
bigfont
  0
ENDTAB
  0
TABLE
  2
VIEW
 70
     0
  0
ENDTAB
  0
ENDSEC
  0
SECTION
  2
BLOCKS
  0
ENDSEC
  0
SECTION
  2
ENTITIES
  0
LINE
  8
CSLAYER1
  6
CONTINUOUS
 62
     6
 10
391.599849
 20
178.336135
 11
339.599910
 21
178.336135
  0
LINE
  8
CSLAYER1
  6
CENTER
 62
     3
 10
365.599849
 20
111.336135
 11
365.599849
 21
181.336135
  0
LINE
  8
CSLAYER1
  6
CONTINUOUS
 62
     6
 10
397.599849
 20
120.336135
 11
397.599849
 21
172.336135
  0
ARC
  8
CSLAYER1
  6
CONTINUOUS
 62
     6
 10
391.599849
 20
172.336135
 40
6.000000
 50
0.000000
 51
90.000003
  0
LINE
  8
CSLAYER1
  6
CONTINUOUS
 62
     6
 10
391.599849
 20
114.336135
 11
339.599910
 21
114.336135
  0
CIRCLE
  8
CSLAYER1
  6
CONTINUOUS
 62
     6
 10
365.599849
 20
146.336150
 40
4.000000
  0
CIRCLE
  8
CSLAYER1
  6
CONTINUOUS
 62
     6
 10
365.599849
 20
146.336150
 40
15.000000
  0
CIRCLE
  8
CSLAYER1
  6
CONTINUOUS
 62
     6
 10
365.599849
 20
146.336150
 40
17.500000
  0
LINE
  8
CSLAYER1
  6
CONTINUOUS
 62
     6
 10
333.599910
 20
120.336135
 11
333.599910
 21
172.336135
  0
LINE
  8
CSLAYER1
  6
CENTER
 62
     3
 10
400.599819
 20
146.336135
 11
330.599941
 21
146.336135
  0
CIRCLE
  8
CSLAYER1
  6
CONTINUOUS
 62
     6
 10
365.599849
 20
146.336135
 40
13.000000
  0
ARC
  8
CSLAYER1
  6
CONTINUOUS
 62
     6
 10
339.599849
 20
172.336135
 40
6.000000
 50
90.000000
 51
180.000003
  0
ARC
  8
CSLAYER1
  6
CONTINUOUS
 62
     6
 10
339.599849
 20
120.336135
 40
6.000000
 50
180.000000
 51
270.000003
  0
ARC
  8
CSLAYER1
  6
CONTINUOUS
 62
     6
 10
391.599849
 20
120.336135
 40
6.000000
 50
269.999997
 51
360.000000
  0
LINE
  8
CSLAYER1
  6
CENTER
 62
     3
 10
396.539119
 20
120.336135
 11
386.599849
 21
120.336135
  0
LINE
  8
CSLAYER1
  6
CENTER
 62
     3
 10
391.599849
 20
125.336135
 11
391.599849
 21
115.336135
  0
CIRCLE
  8
CSLAYER1
  6
CONTINUOUS
 62
     6
 10
391.599849
 20
120.336135
 40
2.250000
  0
LINE
  8
CSLAYER1
  6
CENTER
 62
     3
 10
334.660579
 20
120.336135
 11
344.599849
 21
120.336135
  0
LINE
  8
CSLAYER1
  6
CENTER
 62
     3
 10
339.599849
 20
125.336135
 11
339.599849
 21
115.336135
  0
CIRCLE
  8
CSLAYER1
  6
CONTINUOUS
 62
     6
 10
339.599849
 20
120.336135
 40
2.250000
  0
LINE
  8
CSLAYER1
  6
CENTER
 62
     3
 10
339.599849
 20
177.275405
 11
339.599849
 21
167.336135
  0
LINE
  8
CSLAYER1
  6
CENTER
 62
     3
 10
344.599849
 20
172.336135
 11
334.599849
 21
172.336135
  0
CIRCLE
  8
CSLAYER1
  6
CONTINUOUS
 62
     6
 10
339.599849
 20
172.336135
 40
2.250000
  0
LINE
  8
CSLAYER1
  6
CENTER
 62
     3
 10
396.539119
 20
172.336135
 11
386.599849
 21
172.336135
  0
LINE
  8
CSLAYER1
  6
CENTER
 62
     3
 10
391.599849
 20
167.336135
 11
391.599849
 21
177.336135
  0
CIRCLE
  8
CSLAYER1
  6
CONTINUOUS
 62
     6
 10
391.599849
 20
172.336135
 40
2.250000
  0
ARC
  8
CSLAYER1
  6
CENTER
 62
     3
 10
365.599849
 20
146.336119
 40
24.000000
 50
114.927254
 51
155.072670
  0
CIRCLE
  8
CSLAYER1
  6
CONTINUOUS
 62
     6
 10
348.629329
 20
163.306685
 40
4.500000
  0
ARC
  8
CSLAYER1
  6
CONTINUOUS
 62
     6
 10
348.629329
 20
163.306685
 40
2.397500
 50
253.398434
 51
286.601595
  0
ARC
  8
CSLAYER1
  6
CONTINUOUS
 62
     6
 10
348.629329
 20
163.306685
 40
2.397500
 50
163.398424
 51
196.601586
  0
ARC
  8
CSLAYER1
  6
CONTINUOUS
 62
     6
 10
348.629329
 20
163.306685
 40
2.397500
 50
73.398442
 51
106.601576
  0
ARC
  8
CSLAYER1
  6
CONTINUOUS
 62
     6
 10
348.629329
 20
163.306685
 40
2.397500
 50
-16.601584
 51
16.601604
  0
LINE
  8
CSLAYER1
  6
CONTINUOUS
 62
     6
 10
347.944332
 20
164.676680
 11
347.944332
 21
165.604247
  0
LINE
  8
CSLAYER1
  6
CONTINUOUS
 62
     6
 10
347.944332
 20
161.936690
 11
347.944332
 21
161.009124
  0
LINE
  8
CSLAYER1
  6
CONTINUOUS
 62
     6
 10
349.314327
 20
164.676680
 11
349.314327
 21
165.604247
  0
LINE
  8
CSLAYER1
  6
CONTINUOUS
 62
     6
 10
349.314327
 20
161.936690
 11
349.314327
 21
161.009124
  0
LINE
  8
CSLAYER1
  6
CONTINUOUS
 62
     6
 10
347.259334
 20
162.621688
 11
346.331783
 21
162.621688
  0
LINE
  8
CSLAYER1
  6
CONTINUOUS
 62
     6
 10
349.999324
 20
162.621688
 11
350.926876
 21
162.621688
  0
LINE
  8
CSLAYER1
  6
CONTINUOUS
 62
     6
 10
347.259334
 20
163.991683
 11
346.331783
 21
163.991683
  0
LINE
  8
CSLAYER1
  6
CONTINUOUS
 62
     6
 10
349.999324
 20
163.991683
 11
350.926876
 21
163.991683
  0
ARC
  8
CSLAYER1
  6
CONTINUOUS
 62
     6
 10
347.259334
 20
164.676680
 40
0.685000
 50
270.000001
 51
359.942691
  0
ARC
  8
CSLAYER1
  6
CONTINUOUS
 62
     6
 10
349.999324
 20
164.676680
 40
0.685000
 50
180.000005
 51
270.000001
  0
ARC
  8
CSLAYER1
  6
CONTINUOUS
 62
     6
 10
349.999324
 20
161.936690
 40
0.685000
 50
90.000009
 51
180.000005
  0
ARC
  8
CSLAYER1
  6
CONTINUOUS
 62
     6
 10
347.259334
 20
161.936690
 40
0.685000
 50
0.000000
 51
90.000009
  0
CIRCLE
  8
CSLAYER1
  6
CONTINUOUS
 62
     6
 10
348.629329
 20
163.306685
 40
5.500000
  0
LINE
  8
CSLAYER1
  6
CENTER
 62
     3
 10
343.649471
 20
168.286513
 11
353.609125
 21
158.326874
  0
ARC
  8
CSLAYER1
  6
CENTER
 62
     3
 10
365.599849
 20
146.336150
 40
24.000000
 50
294.927254
 51
335.072670
  0
CIRCLE
  8
CSLAYER1
  6
CONTINUOUS
 62
     6
 10
382.570369
 20
129.365584
 40
4.500000
  0
ARC
  8
CSLAYER1
  6
CONTINUOUS
 62
     6
 10
382.570369
 20
129.365584
 40
2.397500
 50
73.398434
 51
106.601595
  0
ARC
  8
CSLAYER1
  6
CONTINUOUS
 62
     6
 10
382.570369
 20
129.365584
 40
2.397500
 50
-16.601576
 51
16.601586
  0
ARC
  8
CSLAYER1
  6
CONTINUOUS
 62
     6
 10
382.570369
 20
129.365584
 40
2.397500
 50
253.398442
 51
286.601576
  0
ARC
  8
CSLAYER1
  6
CONTINUOUS
 62
     6
 10
382.570369
 20
129.365584
 40
2.397500
 50
163.398416
 51
196.601604
  0
LINE
  8
CSLAYER1
  6
CONTINUOUS
 62
     6
 10
383.255367
 20
127.995589
 11
383.255367
 21
127.068023
  0
LINE
  8
CSLAYER1
  6
CONTINUOUS
 62
     6
 10
383.255367
 20
130.735579
 11
383.255367
 21
131.663146
  0
LINE
  8
CSLAYER1
  6
CONTINUOUS
 62
     6
 10
381.885372
 20
127.995589
 11
381.885372
 21
127.068023
  0
LINE
  8
CSLAYER1
  6
CONTINUOUS
 62
     6
 10
381.885372
 20
130.735579
 11
381.885372
 21
131.663146
  0
LINE
  8
CSLAYER1
  6
CONTINUOUS
 62
     6
 10
383.940364
 20
130.050582
 11
384.867916
 21
130.050582
  0
LINE
  8
CSLAYER1
  6
CONTINUOUS
 62
     6
 10
381.200374
 20
130.050582
 11
380.272823
 21
130.050582
  0
LINE
  8
CSLAYER1
  6
CONTINUOUS
 62
     6
 10
383.940364
 20
128.680587
 11
384.867916
 21
128.680587
  0
LINE
  8
CSLAYER1
  6
CONTINUOUS
 62
     6
 10
381.200374
 20
128.680587
 11
380.272823
 21
128.680587
  0
ARC
  8
CSLAYER1
  6
CONTINUOUS
 62
     6
 10
383.940364
 20
127.995589
 40
0.685000
 50
90.000001
 51
179.942691
  0
ARC
  8
CSLAYER1
  6
CONTINUOUS
 62
     6
 10
381.200374
 20
127.995589
 40
0.685000
 50
0.000005
 51
90.000001
  0
ARC
  8
CSLAYER1
  6
CONTINUOUS
 62
     6
 10
381.200374
 20
130.735579
 40
0.685000
 50
-89.999991
 51
0.000005
  0
ARC
  8
CSLAYER1
  6
CONTINUOUS
 62
     6
 10
383.940364
 20
130.735579
 40
0.685000
 50
180.000000
 51
270.000009
  0
CIRCLE
  8
CSLAYER1
  6
CONTINUOUS
 62
     6
 10
382.570369
 20
129.365584
 40
5.500000
  0
LINE
  8
CSLAYER1
  6
CENTER
 62
     3
 10
387.550228
 20
124.385756
 11
377.590574
 21
134.345396
  0
CIRCLE
  8
CSLAYER1
  6
CONTINUOUS
 62
     6
 10
371.226361
 20
136.562980
 40
1.181817
  0
ARC
  8
CSLAYER1
  6
CONTINUOUS
 62
     6
 10
371.226361
 20
136.562980
 40
2.532799
 50
50.235874
 51
203.481567
  0
LINE
  8
CSLAYER1
  6
CONTINUOUS
 62
     6
 10
368.903300
 20
135.553793
 11
369.408010
 21
133.906450
  0
CIRCLE
  8
CSLAYER1
  6
CONTINUOUS
 62
     6
 10
359.973337
 20
136.562980
 40
1.181817
  0
ARC
  8
CSLAYER1
  6
CONTINUOUS
 62
     6
 10
359.973337
 20
136.562980
 40
2.532799
 50
-23.481552
 51
129.764124
  0
LINE
  8
CSLAYER1
  6
CONTINUOUS
 62
     6
 10
362.296399
 20
135.553793
 11
361.791688
 21
133.906450
  0
ARC
  8
CSLAYER1
  6
CONTINUOUS
 62
     6
 10
365.599849
 20
145.648784
 40
11.323712
 50
-37.903087
 51
217.903071
  0
ARC
  8
CSLAYER1
  6
CONTINUOUS
 62
     6
 10
373.602332
 20
139.418362
 40
1.181817
 50
230.236306
 51
322.096613
  0
ARC
  8
CSLAYER1
  6
CONTINUOUS
 62
     6
 10
357.597366
 20
139.418362
 40
1.181817
 50
217.903402
 51
309.763723
  0
LINE
  8
CSLAYER1
  6
CENTER
 62
     3
 10
105.599865
 20
52.989034
 11
318.099880
 21
52.989034
  0
LINE
  8
CSLAYER1
  6
CONTINUOUS
 62
     6
 10
288.599880
 20
84.989034
 11
288.599880
 21
20.989034
  0
LINE
  8
CSLAYER1
  6
CONTINUOUS
 62
     6
 10
290.599880
 20
67.989034
 11
290.599880
 21
37.989034
  0
LINE
  8
CSLAYER1
  6
CONTINUOUS
 62
     6
 10
315.099880
 20
56.989034
 11
315.099880
 21
48.989034
  0
LINE
  8
CSLAYER1
  6
CONTINUOUS
 62
     6
 10
196.599880
 20
83.989034
 11
196.599880
 21
21.989034
  0
LINE
  8
CSLAYER1
  6
CONTINUOUS
 62
     6
 10
290.599880
 20
56.989034
 11
315.099880
 21
56.989034
  0
LINE
  8
CSLAYER1
  6
CONTINUOUS
 62
     6
 10
290.599880
 20
48.989034
 11
315.099880
 21
48.989034
  0
LINE
  8
CSLAYER1
  6
CONTINUOUS
 62
     6
 10
279.599880
 20
82.989034
 11
278.599880
 21
82.989034
  0
LINE
  8
CSLAYER1
  6
CONTINUOUS
 62
     6
 10
278.599880
 20
22.989034
 11
279.599880
 21
22.989034
  0
LINE
  8
CSLAYER1
  6
CONTINUOUS
 62
     6
 10
288.599880
 20
67.989034
 11
290.599880
 21
67.989034
  0
LINE
  8
CSLAYER1
  6
CONTINUOUS
 62
     6
 10
288.599880
 20
37.989034
 11
290.599880
 21
37.989034
  0
LINE
  8
CSLAYER1
  6
CONTINUOUS
 62
     6
 10
196.599880
 20
21.989034
 11
278.599880
 21
21.989034
  0
LINE
  8
CSLAYER1
  6
CONTINUOUS
 62
     6
 10
196.599880
 20
83.989034
 11
278.599880
 21
83.989034
  0
LINE
  8
CSLAYER1
  6
CONTINUOUS
 62
     6
 10
279.599880
 20
82.989034
 11
279.599880
 21
22.989034
  0
LINE
  8
CSLAYER1
  6
CONTINUOUS
 62
     6
 10
288.599880
 20
84.989034
 11
281.599880
 21
84.989034
  0
LINE
  8
CSLAYER1
  6
CONTINUOUS
 62
     6
 10
278.599880
 20
83.989034
 11
278.599880
 21
21.989034
  0
LINE
  8
CSLAYER1
  6
CONTINUOUS
 62
     6
 10
288.599880
 20
20.989034
 11
281.599880
 21
20.989034
  0
ARC
  8
CSLAYER1
  6
CONTINUOUS
 62
     6
 10
281.599880
 20
82.989034
 40
2.000000
 50
90.000000
 51
180.000000
  0
ARC
  8
CSLAYER1
  6
CONTINUOUS
 62
     6
 10
281.599880
 20
22.989034
 40
2.000000
 50
180.000000
 51
270.000000
  0
LINE
  8
CSLAYER1
  6
CENTER
 62
     3
 10
276.599880
 20
26.989030
 11
290.599880
 21
26.989030
  0
LINE
  8
CSLAYER1
  6
CENTER
 62
     3
 10
276.599886
 20
78.989041
 11
290.599886
 21
78.989037
  0
LINE
  8
CSLAYER1
  6
CONTINUOUS
 62
     6
 10
278.599849
 20
177.336149
 11
278.599849
 21
115.336149
  0
LINE
  8
CSLAYER1
  6
CONTINUOUS
 62
     6
 10
196.599849
 20
177.336149
 11
196.599849
 21
115.336149
  0
LINE
  8
CSLAYER1
  6
CENTER
 62
     3
 10
185.599849
 20
159.336149
 11
185.599849
 21
97.764631
  0
CIRCLE
  8
CSLAYER1
  6
CONTINUOUS
 62
     6
 10
185.599849
 20
146.336149
 40
8.000000
  0
CIRCLE
  8
CSLAYER1
  6
CONTINUOUS
 62
     6
 10
185.599849
 20
146.336149
 40
6.000000
  0
CIRCLE
  8
CSLAYER1
  6
CONTINUOUS
 62
     3
 10
185.599849
 20
146.336149
 40
5.500000
  0
LINE
  8
CSLAYER1
  6
CONTINUOUS
 62
     6
 10
188.349849
 20
147.136152
 11
182.849849
 21
147.136152
  0
LINE
  8
CSLAYER1
  6
CONTINUOUS
 62
     6
 10
188.349849
 20
145.536146
 11
182.849849
 21
145.536146
  0
LINE
  8
CSLAYER1
  6
CONTINUOUS
 62
     6
 10
182.849849
 20
147.136152
 11
182.849849
 21
145.536146
  0
LINE
  8
CSLAYER1
  6
CONTINUOUS
 62
     6
 10
188.349849
 20
147.136152
 11
188.349849
 21
145.536146
  0
ARC
  8
CSLAYER1
  6
CONTINUOUS
 62
     6
 10
170.941005
 20
107.900496
 40
15.758816
 50
332.536202
 51
359.942691
  0
ARC
  8
CSLAYER1
  6
CONTINUOUS
 62
     6
 10
170.941005
 20
107.900496
 40
13.558834
 50
332.536202
 51
359.942691
  0
ARC
  8
CSLAYER1
  6
CONTINUOUS
 62
     6
 10
186.149837
 20
106.947905
 40
1.099999
 50
60.000350
 51
120.000345
  0
ARC
  8
CSLAYER1
  6
CONTINUOUS
 62
     6
 10
185.049839
 20
106.947890
 40
1.099999
 50
60.000350
 51
120.000345
  0
ARC
  8
CSLAYER1
  6
CONTINUOUS
 62
     6
 10
185.049831
 20
108.853148
 40
1.099999
 50
240.000362
 51
300.000350
  0
LINE
  8
CSLAYER1
  6
CONTINUOUS
 62
     6
 10
183.629406
 20
101.305540
 11
182.012249
 21
98.367468
  0
LINE
  8
CSLAYER1
  6
CONTINUOUS
 62
     6
 10
184.118328
 20
101.051405
 11
182.541546
 21
98.043989
  0
LINE
  8
CSLAYER1
  6
CONTINUOUS
 62
     6
 10
184.516460
 20
100.844450
 11
183.114971
 21
97.764647
  0
LINE
  8
CSLAYER1
  6
CONTINUOUS
 62
     6
 10
182.971782
 20
101.647337
 11
184.923839
 21
100.632719
  0
ARC
  8
CSLAYER1
  6
CONTINUOUS
 62
     6
 10
200.258693
 20
107.900496
 40
15.758816
 50
202.422068
 51
207.463868
  0
ARC
  8
CSLAYER1
  6
CONTINUOUS
 62
     6
 10
200.258693
 20
107.900496
 40
13.558834
 50
179.999978
 51
207.463868
  0
LINE
  8
CSLAYER1
  6
CONTINUOUS
 62
     6
 10
187.570293
 20
101.305510
 11
189.187465
 21
98.367453
  0
LINE
  8
CSLAYER1
  6
CONTINUOUS
 62
     6
 10
187.081371
 20
101.051390
 11
188.658153
 21
98.043989
  0
LINE
  8
CSLAYER1
  6
CONTINUOUS
 62
     6
 10
186.683239
 20
100.844450
 11
188.084743
 21
97.764631
  0
LINE
  8
CSLAYER1
  6
CONTINUOUS
 62
     6
 10
188.227916
 20
101.647322
 11
186.275859
 21
100.632704
  0
ARC
  8
CSLAYER1
  6
CONTINUOUS
 62
     6
 10
185.049862
 20
111.765364
 40
1.100006
 50
240.000007
 51
299.999995
  0
ARC
  8
CSLAYER1
  6
CONTINUOUS
 62
     6
 10
186.149868
 20
111.765364
 40
1.100006
 50
240.000007
 51
299.999995
  0
ARC
  8
CSLAYER1
  6
CONTINUOUS
 62
     6
 10
186.149868
 20
109.860090
 40
1.100006
 50
60.000002
 51
120.000003
  0
LINE
  8
CSLAYER1
  6
CONTINUOUS
 62
     6
 10
186.699855
 20
116.508955
 11
186.699855
 21
110.812727
  0
LINE
  8
CSLAYER1
  6
CONTINUOUS
 62
     6
 10
184.499859
 20
116.547362
 11
184.499859
 21
110.812727
  0
LINE
  8
CSLAYER1
  6
CONTINUOUS
 62
     6
 10
278.599849
 20
177.336149
 11
196.599849
 21
177.336149
  0
LINE
  8
CSLAYER1
  6
CONTINUOUS
 62
     6
 10
278.599849
 20
115.336149
 11
196.599849
 21
115.336149
  0
LINE
  8
CSLAYER1
  6
CENTER
 62
     3
 10
105.599865
 20
146.336152
 11
317.099859
 21
146.336135
  0
LINE
  8
CSLAYER1
  6
CONTINUOUS
 62
     3
 10
223.599865
 20
177.336149
 11
223.599865
 21
162.836119
  0
LINE
  8
CSLAYER1
  6
CONTINUOUS
 62
     3
 10
224.599865
 20
161.836119
 11
260.599849
 21
161.836119
  0
ARC
  8
CSLAYER1
  6
CONTINUOUS
 62
     3
 10
224.599865
 20
162.836119
 40
1.000000
 50
180.000005
 51
270.000001
  0
TEXT
  8
CSLAYER1
 62
     3
 10
240.137589
 20
174.836121
 40
3.500000
 41
1.125000
  1
N P
 50
270.000000
 51
10.000000
  7
JX_FONT
 72
     5
 11
240.137589
 21
164.336121
  0
LINE
  8
CSLAYER1
  6
CONTINUOUS
 62
     3
 10
261.599849
 20
177.336149
 11
261.599849
 21
162.836119
  0
ARC
  8
CSLAYER1
  6
CONTINUOUS
 62
     3
 10
260.599849
 20
162.836119
 40
1.000000
 50
269.999999
 51
359.999995
  0
LINE
  8
CSLAYER1
  6
CONTINUOUS
 62
     6
 10
288.599849
 20
178.336139
 11
288.599849
 21
114.336139
  0
LINE
  8
CSLAYER1
  6
CONTINUOUS
 62
     6
 10
290.599849
 20
161.336139
 11
290.599849
 21
131.336139
  0
LINE
  8
CSLAYER1
  6
CONTINUOUS
 62
     6
 10
315.099849
 20
150.336139
 11
315.099849
 21
142.336139
  0
LINE
  8
CSLAYER1
  6
CONTINUOUS
 62
     6
 10
290.599849
 20
150.336139
 11
315.099849
 21
150.336139
  0
LINE
  8
CSLAYER1
  6
CONTINUOUS
 62
     6
 10
290.599849
 20
142.336139
 11
315.099849
 21
142.336139
  0
LINE
  8
CSLAYER1
  6
CONTINUOUS
 62
     6
 10
279.599849
 20
176.336139
 11
278.599849
 21
176.336139
  0
LINE
  8
CSLAYER1
  6
CONTINUOUS
 62
     6
 10
278.599849
 20
116.336139
 11
279.599849
 21
116.336139
  0
LINE
  8
CSLAYER1
  6
CONTINUOUS
 62
     6
 10
288.599849
 20
161.336139
 11
290.599849
 21
161.336139
  0
LINE
  8
CSLAYER1
  6
CONTINUOUS
 62
     6
 10
288.599849
 20
131.336139
 11
290.599849
 21
131.336139
  0
LINE
  8
CSLAYER1
  6
CONTINUOUS
 62
     6
 10
279.599849
 20
176.336139
 11
279.599849
 21
116.336139
  0
LINE
  8
CSLAYER1
  6
CONTINUOUS
 62
     6
 10
288.599849
 20
178.336139
 11
281.599849
 21
178.336139
  0
LINE
  8
CSLAYER1
  6
CONTINUOUS
 62
     6
 10
288.599849
 20
114.336139
 11
281.599849
 21
114.336139
  0
ARC
  8
CSLAYER1
  6
CONTINUOUS
 62
     6
 10
281.599849
 20
176.336139
 40
2.000000
 50
90.000000
 51
180.000000
  0
ARC
  8
CSLAYER1
  6
CONTINUOUS
 62
     6
 10
281.599849
 20
116.336139
 40
2.000000
 50
180.000000
 51
270.000000
  0
LINE
  8
CSLAYER1
  6
CENTER
 62
     3
 10
276.599849
 20
120.336136
 11
290.599849
 21
120.336136
  0
LINE
  8
CSLAYER1
  6
CENTER
 62
     3
 10
276.599856
 20
172.336146
 11
290.599856
 21
172.336142
  0
LINE
  8
CSLAYER1
  6
CONTINUOUS
 62
     6
 10
168.599849
 20
175.847384
 11
196.599849
 21
176.336145
  0
LINE
  8
CSLAYER1
  6
CONTINUOUS
 62
     6
 10
168.599849
 20
116.824908
 11
196.599849
 21
116.336145
  0
LINE
  8
CSLAYER1
  6
CONTINUOUS
 62
     6
 10
84.099834
 20
178.336154
 11
32.099895
 21
178.336154
  0
LINE
  8
CSLAYER1
  6
CONTINUOUS
 62
     6
 10
90.099834
 20
120.336154
 11
90.099834
 21
172.336154
  0
ARC
  8
CSLAYER1
  6
CONTINUOUS
 62
     6
 10
84.099834
 20
172.336154
 40
6.000000
 50
0.000000
 51
90.000003
  0
LINE
  8
CSLAYER1
  6
CONTINUOUS
 62
     6
 10
84.099834
 20
114.336154
 11
60.299829
 21
114.336154
  0
LINE
  8
CSLAYER1
  6
CONTINUOUS
 62
     6
 10
26.099895
 20
120.336154
 11
26.099895
 21
172.336154
  0
ARC
  8
CSLAYER1
  6
CONTINUOUS
 62
     6
 10
32.099834
 20
172.336154
 40
6.000000
 50
90.000000
 51
180.000003
  0
ARC
  8
CSLAYER1
  6
CONTINUOUS
 62
     6
 10
32.099834
 20
120.336154
 40
6.000000
 50
180.000000
 51
270.000003
  0
ARC
  8
CSLAYER1
  6
CONTINUOUS
 62
     6
 10
84.099834
 20
120.336154
 40
6.000000
 50
269.999997
 51
360.000000
  0
LINE
  8
CSLAYER1
  6
CENTER
 62
     3
 10
89.039104
 20
120.336154
 11
79.099834
 21
120.336154
  0
LINE
  8
CSLAYER1
  6
CENTER
 62
     3
 10
84.099834
 20
125.336154
 11
84.099834
 21
115.336154
  0
CIRCLE
  8
CSLAYER1
  6
CONTINUOUS
 62
     6
 10
84.099834
 20
120.336154
 40
2.250000
  0
LINE
  8
CSLAYER1
  6
CENTER
 62
     3
 10
27.160564
 20
120.336154
 11
37.099834
 21
120.336154
  0
LINE
  8
CSLAYER1
  6
CENTER
 62
     3
 10
32.099834
 20
125.336154
 11
32.099834
 21
115.336154
  0
CIRCLE
  8
CSLAYER1
  6
CONTINUOUS
 62
     6
 10
32.099834
 20
120.336154
 40
2.250000
  0
LINE
  8
CSLAYER1
  6
CENTER
 62
     3
 10
32.099834
 20
177.275424
 11
32.099834
 21
167.336154
  0
LINE
  8
CSLAYER1
  6
CENTER
 62
     3
 10
37.099834
 20
172.336154
 11
27.099834
 21
172.336154
  0
CIRCLE
  8
CSLAYER1
  6
CONTINUOUS
 62
     6
 10
32.099834
 20
172.336154
 40
2.250000
  0
LINE
  8
CSLAYER1
  6
CENTER
 62
     3
 10
89.039104
 20
172.336154
 11
79.099834
 21
172.336154
  0
LINE
  8
CSLAYER1
  6
CENTER
 62
     3
 10
84.099834
 20
167.336154
 11
84.099834
 21
177.336154
  0
CIRCLE
  8
CSLAYER1
  6
CONTINUOUS
 62
     6
 10
84.099834
 20
172.336154
 40
2.250000
  0
LINE
  8
CSLAYER1
  6
CENTER
 62
     3
 10
58.099834
 20
97.980114
 11
58.099834
 21
181.336154
  0
LINE
  8
CSLAYER1
  6
CENTER
 62
     3
 10
93.099834
 20
146.336154
 11
23.099834
 21
146.336154
  0
LINE
  8
CSLAYER1
  6
CENTER
 62
     3
 10
185.599895
 20
41.989051
 11
185.599895
 21
63.989051
  0
LINE
  8
CSLAYER1
  6
CONTINUOUS
 62
     6
 10
168.599895
 20
82.500282
 11
196.599895
 21
82.989051
  0
LINE
  8
CSLAYER1
  6
CONTINUOUS
 62
     6
 10
168.599895
 20
23.477821
 11
196.599895
 21
22.989051
  0
ARC
  8
CSLAYER1
  6
CONTINUOUS
 62
     6
 10
185.599895
 20
54.089057
 40
1.100000
 50
-89.999999
 51
90.000019
  0
ARC
  8
CSLAYER1
  6
CONTINUOUS
 62
     6
 10
185.599895
 20
51.889045
 40
1.100000
 50
-89.999999
 51
90.000019
  0
LINE
  8
CSLAYER1
  6
CONTINUOUS
 62
     6
 10
186.699871
 20
54.089057
 11
186.699871
 21
51.889045
  0
ARC
  8
CSLAYER1
  6
CONTINUOUS
 62
     6
 10
185.599895
 20
52.989051
 40
8.000000
 50
-164.038007
 51
163.614510
  0
LINE
  8
CSLAYER1
  6
CONTINUOUS
 62
     6
 10
168.599895
 20
22.989051
 11
168.599895
 21
82.989051
  0
LINE
  8
CSLAYER1
  6
CONTINUOUS
 62
     6
 10
134.599895
 20
22.989051
 11
134.599895
 21
82.989051
  0
LINE
  8
CSLAYER1
  6
CONTINUOUS
 62
     6
 10
127.599895
 20
82.989051
 11
127.599895
 21
22.989051
  0
LINE
  8
CSLAYER1
  6
CONTINUOUS
 62
     6
 10
127.599895
 20
82.989051
 11
168.599895
 21
82.989051
  0
LINE
  8
CSLAYER1
  6
CONTINUOUS
 62
     6
 10
127.599895
 20
22.989051
 11
168.599895
 21
22.989051
  0
ARC
  8
CSLAYER1
  6
CONTINUOUS
 62
     6
 10
179.164287
 20
68.747901
 40
15.758816
 50
242.536193
 51
270.000110
  0
ARC
  8
CSLAYER1
  6
CONTINUOUS
 62
     6
 10
179.164287
 20
68.747901
 40
13.558834
 50
242.536193
 51
270.000083
  0
ARC
  8
CSLAYER1
  6
CONTINUOUS
 62
     6
 10
178.211666
 20
53.539085
 40
1.099999
 50
-29.999656
 51
30.000332
  0
ARC
  8
CSLAYER1
  6
CONTINUOUS
 62
     6
 10
178.211651
 20
54.639076
 40
1.099999
 50
-29.999656
 51
30.000332
  0
ARC
  8
CSLAYER1
  6
CONTINUOUS
 62
     6
 10
180.116909
 20
54.639091
 40
1.099999
 50
150.000353
 51
210.000354
  0
LINE
  8
CSLAYER1
  6
CONTINUOUS
 62
     6
 10
170.166820
 20
57.381873
 11
172.569317
 21
56.059486
  0
LINE
  8
CSLAYER1
  6
CONTINUOUS
 62
     6
 10
169.885173
 20
56.844642
 11
172.315166
 21
55.570594
  0
LINE
  8
CSLAYER1
  6
CONTINUOUS
 62
     6
 10
169.636150
 20
56.297401
 11
172.108196
 21
55.172462
  0
LINE
  8
CSLAYER1
  6
CONTINUOUS
 62
     6
 10
172.911113
 20
56.717140
 11
171.896465
 21
54.765052
  0
ARC
  8
CSLAYER1
  6
CONTINUOUS
 62
     6
 10
183.029094
 20
54.639030
 40
1.100006
 50
149.999997
 51
209.999999
  0
ARC
  8
CSLAYER1
  6
CONTINUOUS
 62
     6
 10
183.029094
 20
53.539024
 40
1.100006
 50
149.999997
 51
209.999999
  0
ARC
  8
CSLAYER1
  6
CONTINUOUS
 62
     6
 10
181.123821
 20
53.539024
 40
1.100006
 50
-30.000011
 51
29.999977
  0
ARC
  8
CSLAYER1
  6
CONTINUOUS
 62
     6
 10
179.164287
 20
37.230201
 40
15.758816
 50
89.999900
 51
117.463817
  0
ARC
  8
CSLAYER1
  6
CONTINUOUS
 62
     6
 10
179.164287
 20
37.230201
 40
13.558834
 50
89.999927
 51
117.463817
  0
ARC
  8
CSLAYER1
  6
CONTINUOUS
 62
     6
 10
178.211651
 20
51.339027
 40
1.099999
 50
-30.000346
 51
29.999656
  0
ARC
  8
CSLAYER1
  6
CONTINUOUS
 62
     6
 10
178.211666
 20
52.439018
 40
1.099999
 50
-30.000346
 51
29.999656
  0
ARC
  8
CSLAYER1
  6
CONTINUOUS
 62
     6
 10
180.116924
 20
52.439002
 40
1.099999
 50
149.999656
 51
209.999658
  0
LINE
  8
CSLAYER1
  6
CONTINUOUS
 62
     6
 10
170.362651
 20
48.704017
 11
172.569317
 21
49.918617
  0
LINE
  8
CSLAYER1
  6
CONTINUOUS
 62
     6
 10
170.072246
 20
49.231574
 11
172.315166
 21
50.407508
  0
LINE
  8
CSLAYER1
  6
CONTINUOUS
 62
     6
 10
169.798137
 20
49.754432
 11
172.108196
 21
50.805641
  0
LINE
  8
CSLAYER1
  6
CONTINUOUS
 62
     6
 10
172.911113
 20
49.260963
 11
171.896465
 21
51.213050
  0
ARC
  8
CSLAYER1
  6
CONTINUOUS
 62
     6
 10
183.029094
 20
52.439079
 40
1.100006
 50
149.999997
 51
209.999999
  0
ARC
  8
CSLAYER1
  6
CONTINUOUS
 62
     6
 10
183.029094
 20
51.339073
 40
1.100006
 50
149.999997
 51
209.999999
  0
ARC
  8
CSLAYER1
  6
CONTINUOUS
 62
     6
 10
181.123821
 20
51.339073
 40
1.100006
 50
-30.000011
 51
29.999977
  0
LINE
  8
CSLAYER1
  6
CONTINUOUS
 62
     6
 10
182.076458
 20
52.989051
 11
185.599895
 21
52.989051
  0
LINE
  8
CSLAYER1
  6
CONTINUOUS
 62
     6
 10
182.076458
 20
55.189063
 11
185.599895
 21
55.189063
  0
LINE
  8
CSLAYER1
  6
CONTINUOUS
 62
     6
 10
182.076458
 20
50.789039
 11
185.599895
 21
50.789039
  0
LINE
  8
CSLAYER1
  6
CENTER
 62
     3
 10
148.828899
 20
44.989051
 11
171.599895
 21
44.989051
  0
ARC
  8
CSLAYER1
  6
CONTINUOUS
 62
     6
 10
160.599895
 20
45.869056
 40
0.880000
 50
-89.999999
 51
90.000019
  0
ARC
  8
CSLAYER1
  6
CONTINUOUS
 62
     6
 10
160.599895
 20
44.109046
 40
0.880000
 50
-89.999999
 51
90.000019
  0
ARC
  8
CSLAYER1
  6
CONTINUOUS
 62
     6
 10
156.451397
 20
57.596137
 40
12.607053
 50
242.536193
 51
270.000110
  0
ARC
  8
CSLAYER1
  6
CONTINUOUS
 62
     6
 10
156.451397
 20
57.596137
 40
10.847068
 50
242.536193
 51
270.000083
  0
ARC
  8
CSLAYER1
  6
CONTINUOUS
 62
     6
 10
155.689296
 20
45.429054
 40
0.879999
 50
-29.999656
 51
30.000332
  0
ARC
  8
CSLAYER1
  6
CONTINUOUS
 62
     6
 10
155.689296
 20
46.309058
 40
0.879999
 50
-29.999656
 51
30.000332
  0
ARC
  8
CSLAYER1
  6
CONTINUOUS
 62
     6
 10
157.213497
 20
46.309058
 40
0.879999
 50
150.000353
 51
210.000354
  0
LINE
  8
CSLAYER1
  6
CONTINUOUS
 62
     6
 10
149.253429
 20
48.503303
 11
151.175426
 21
47.445411
  0
LINE
  8
CSLAYER1
  6
CONTINUOUS
 62
     6
 10
149.028118
 20
48.073524
 11
150.972118
 21
47.054267
  0
LINE
  8
CSLAYER1
  6
CONTINUOUS
 62
     6
 10
148.828899
 20
47.635719
 11
150.806560
 21
46.735755
  0
LINE
  8
CSLAYER1
  6
CONTINUOUS
 62
     6
 10
151.448864
 20
47.971504
 11
150.637157
 21
46.409858
  0
ARC
  8
CSLAYER1
  6
CONTINUOUS
 62
     6
 10
158.543270
 20
46.309058
 40
0.880005
 50
149.999997
 51
209.999999
  0
ARC
  8
CSLAYER1
  6
CONTINUOUS
 62
     6
 10
158.543270
 20
45.429054
 40
0.880005
 50
149.999997
 51
209.999999
  0
ARC
  8
CSLAYER1
  6
CONTINUOUS
 62
     6
 10
157.019069
 20
45.429054
 40
0.880005
 50
-30.000011
 51
29.999977
  0
ARC
  8
CSLAYER1
  6
CONTINUOUS
 62
     6
 10
156.451397
 20
32.381965
 40
12.607053
 50
89.999900
 51
117.463817
  0
ARC
  8
CSLAYER1
  6
CONTINUOUS
 62
     6
 10
156.451397
 20
32.381965
 40
10.847068
 50
89.999927
 51
117.463817
  0
ARC
  8
CSLAYER1
  6
CONTINUOUS
 62
     6
 10
155.689296
 20
43.669044
 40
0.879999
 50
-30.000346
 51
29.999656
  0
ARC
  8
CSLAYER1
  6
CONTINUOUS
 62
     6
 10
155.689296
 20
44.549049
 40
0.879999
 50
-30.000346
 51
29.999656
  0
ARC
  8
CSLAYER1
  6
CONTINUOUS
 62
     6
 10
157.213497
 20
44.549049
 40
0.879999
 50
149.999656
 51
209.999658
  0
LINE
  8
CSLAYER1
  6
CONTINUOUS
 62
     6
 10
149.410076
 20
41.561012
 11
151.175426
 21
42.532691
  0
LINE
  8
CSLAYER1
  6
CONTINUOUS
 62
     6
 10
149.177776
 20
41.983070
 11
150.972118
 21
42.923835
  0
LINE
  8
CSLAYER1
  6
CONTINUOUS
 62
     6
 10
148.958477
 20
42.401344
 11
150.806560
 21
43.242347
  0
LINE
  8
CSLAYER1
  6
CONTINUOUS
 62
     6
 10
151.448864
 20
42.006599
 11
150.637157
 21
43.568244
  0
ARC
  8
CSLAYER1
  6
CONTINUOUS
 62
     6
 10
158.543270
 20
44.549049
 40
0.880005
 50
149.999997
 51
209.999999
  0
ARC
  8
CSLAYER1
  6
CONTINUOUS
 62
     6
 10
158.543270
 20
43.669044
 40
0.880005
 50
149.999997
 51
209.999999
  0
ARC
  8
CSLAYER1
  6
CONTINUOUS
 62
     6
 10
157.019069
 20
43.669044
 40
0.880005
 50
-30.000011
 51
29.999977
  0
LINE
  8
CSLAYER1
  6
CONTINUOUS
 62
     6
 10
157.781170
 20
44.989051
 11
160.599895
 21
44.989051
  0
LINE
  8
CSLAYER1
  6
CONTINUOUS
 62
     6
 10
157.781170
 20
46.749061
 11
160.599895
 21
46.749061
  0
LINE
  8
CSLAYER1
  6
CONTINUOUS
 62
     6
 10
157.781170
 20
43.229041
 11
160.599895
 21
43.229041
  0
LINE
  8
CSLAYER1
  6
CENTER
 62
     3
 10
160.599895
 20
52.208625
 11
160.599895
 21
37.600135
  0
LINE
  8
CSLAYER1
  6
CONTINUOUS
 62
     6
 10
168.599849
 20
176.336162
 11
168.599849
 21
116.336162
  0
LINE
  8
CSLAYER1
  6
CONTINUOUS
 62
     6
 10
134.599849
 20
116.336162
 11
134.599849
 21
176.336162
  0
LINE
  8
CSLAYER1
  6
CONTINUOUS
 62
     6
 10
127.599849
 20
176.336162
 11
127.599849
 21
116.336162
  0
LINE
  8
CSLAYER1
  6
CONTINUOUS
 62
     6
 10
127.599849
 20
176.336162
 11
168.599849
 21
176.336162
  0
LINE
  8
CSLAYER1
  6
CONTINUOUS
 62
     6
 10
127.599849
 20
116.336162
 11
168.599849
 21
116.336162
  0
ARC
  8
CSLAYER1
  6
CONTINUOUS
 62
     6
 10
160.599895
 20
44.989046
 40
5.250000
 50
-160.080973
 51
160.080864
  0
ARC
  8
CSLAYER1
  6
CONTINUOUS
 62
     6
 10
160.599895
 20
44.989046
 40
2.500000
 50
-135.251029
 51
135.250717
  0
ARC
  8
CSLAYER1
  6
CONTINUOUS
 62
     6
 10
160.599895
 20
44.989046
 40
5.250000
 50
179.473624
 51
180.526271
  0
LINE
  8
CSLAYER1
  6
CENTER
 62
     3
 10
160.599849
 20
122.579196
 11
160.599849
 21
100.374244
  0
LINE
  8
CSLAYER1
  6
CONTINUOUS
 62
     3
 10
161.479900
 20
118.836547
 11
161.479900
 21
118.336547
  0
ARC
  8
CSLAYER1
  6
CONTINUOUS
 62
     6
 10
148.872829
 20
108.482917
 40
12.607053
 50
332.536202
 51
359.942691
  0
ARC
  8
CSLAYER1
  6
CONTINUOUS
 62
     6
 10
148.872829
 20
108.482917
 40
10.847068
 50
332.536202
 51
359.942691
  0
ARC
  8
CSLAYER1
  6
CONTINUOUS
 62
     6
 10
161.039882
 20
107.720848
 40
0.879999
 50
60.000350
 51
120.000345
  0
ARC
  8
CSLAYER1
  6
CONTINUOUS
 62
     6
 10
160.159877
 20
107.720848
 40
0.879999
 50
60.000350
 51
120.000345
  0
ARC
  8
CSLAYER1
  6
CONTINUOUS
 62
     6
 10
160.159877
 20
109.245048
 40
0.879999
 50
240.000362
 51
300.000350
  0
LINE
  8
CSLAYER1
  6
CONTINUOUS
 62
     6
 10
159.023525
 20
103.206962
 11
157.729793
 21
100.856498
  0
LINE
  8
CSLAYER1
  6
CONTINUOUS
 62
     6
 10
159.414669
 20
103.003654
 11
158.153240
 21
100.597724
  0
LINE
  8
CSLAYER1
  6
CONTINUOUS
 62
     6
 10
159.733181
 20
102.838096
 11
158.611980
 21
100.374259
  0
LINE
  8
CSLAYER1
  6
CONTINUOUS
 62
     6
 10
158.497432
 20
103.480400
 11
160.059078
 21
102.668708
  0
ARC
  8
CSLAYER1
  6
CONTINUOUS
 62
     6
 10
172.326961
 20
108.482917
 40
12.607053
 50
201.534171
 51
207.463868
  0
ARC
  8
CSLAYER1
  6
CONTINUOUS
 62
     6
 10
172.326961
 20
108.482917
 40
10.847068
 50
179.999978
 51
207.463868
  0
LINE
  8
CSLAYER1
  6
CONTINUOUS
 62
     6
 10
162.176235
 20
103.206947
 11
163.469997
 21
100.856498
  0
LINE
  8
CSLAYER1
  6
CONTINUOUS
 62
     6
 10
161.785091
 20
103.003654
 11
163.046535
 21
100.597724
  0
LINE
  8
CSLAYER1
  6
CONTINUOUS
 62
     6
 10
161.466594
 20
102.838096
 11
162.587810
 21
100.374244
  0
LINE
  8
CSLAYER1
  6
CONTINUOUS
 62
     6
 10
162.702327
 20
103.480400
 11
161.140682
 21
102.668693
  0
ARC
  8
CSLAYER1
  6
CONTINUOUS
 62
     6
 10
160.159893
 20
111.574821
 40
0.880005
 50
240.000007
 51
299.999995
  0
ARC
  8
CSLAYER1
  6
CONTINUOUS
 62
     6
 10
161.039898
 20
111.574821
 40
0.880005
 50
240.000007
 51
299.999995
  0
ARC
  8
CSLAYER1
  6
CONTINUOUS
 62
     6
 10
161.039898
 20
110.050621
 40
0.880005
 50
60.000002
 51
120.000003
  0
LINE
  8
CSLAYER1
  6
CENTER
 62
     3
 10
152.349849
 20
117.335391
 11
168.849849
 21
117.335391
  0
POLYLINE
  8
CSLAYER1
  6
CONTINUOUS
 62
     3
 66
     1
 10
0.0
 20
0.0
 30
0.0
  0
VERTEX
  8
CSLAYER1
  6
CONTINUOUS
 62
     3
 10
165.849849
 20
117.335387
 30
0.0
  0
VERTEX
  8
CSLAYER1
  6
CONTINUOUS
 62
     3
 10
165.829872
 20
117.553277
 30
0.0
  0
VERTEX
  8
CSLAYER1
  6
CONTINUOUS
 62
     3
 10
165.770091
 20
117.769508
 30
0.0
  0
VERTEX
  8
CSLAYER1
  6
CONTINUOUS
 62
     3
 10
165.735005
 20
117.855438
 30
0.0
  0
SEQEND
  0
LINE
  8
CSLAYER1
  6
CONTINUOUS
 62
     6
 10
161.479900
 20
115.856618
 11
161.479900
 21
110.812721
  0
LINE
  8
CSLAYER1
  6
CONTINUOUS
 62
     6
 10
159.719890
 20
115.856613
 11
159.719890
 21
110.812721
  0
POLYLINE
  8
CSLAYER1
  6
CONTINUOUS
 62
     3
 66
     1
 10
0.0
 20
0.0
 30
0.0
  0
VERTEX
  8
CSLAYER1
  6
CONTINUOUS
 62
     3
 10
155.626998
 20
116.854472
 30
0.0
  0
VERTEX
  8
CSLAYER1
  6
CONTINUOUS
 62
     3
 10
155.792623
 20
116.732470
 30
0.0
  0
VERTEX
  8
CSLAYER1
  6
CONTINUOUS
 62
     3
 10
155.994835
 20
116.615056
 30
0.0
  0
VERTEX
  8
CSLAYER1
  6
CONTINUOUS
 62
     3
 10
156.147600
 20
116.540512
 30
0.0
  0
SEQEND
  0
POLYLINE
  8
CSLAYER1
  6
CONTINUOUS
 62
     3
 66
     1
 10
0.0
 20
0.0
 30
0.0
  0
VERTEX
  8
CSLAYER1
  6
CONTINUOUS
 62
     3
 10
165.464260
 20
118.275792
 30
0.0
  0
VERTEX
  8
CSLAYER1
  6
CONTINUOUS
 62
     3
 10
165.273631
 20
118.474100
 30
0.0
  0
VERTEX
  8
CSLAYER1
  6
CONTINUOUS
 62
     3
 10
165.047431
 20
118.663742
 30
0.0
  0
VERTEX
  8
CSLAYER1
  6
CONTINUOUS
 62
     3
 10
164.787383
 20
118.843274
 30
0.0
  0
VERTEX
  8
CSLAYER1
  6
CONTINUOUS
 62
     3
 10
164.689617
 20
118.902940
 30
0.0
  0
SEQEND
  0
POLYLINE
  8
CSLAYER1
  6
CONTINUOUS
 62
     3
 66
     1
 10
0.0
 20
0.0
 30
0.0
  0
VERTEX
  8
CSLAYER1
  6
CONTINUOUS
 62
     3
 10
164.244789
 20
119.134667
 30
0.0
  0
VERTEX
  8
CSLAYER1
  6
CONTINUOUS
 62
     3
 10
163.901603
 20
119.279095
 30
0.0
  0
VERTEX
  8
CSLAYER1
  6
CONTINUOUS
 62
     3
 10
163.533288
 20
119.408731
 30
0.0
  0
VERTEX
  8
CSLAYER1
  6
CONTINUOUS
 62
     3
 10
163.307701
 20
119.477192
 30
0.0
  0
SEQEND
  0
POLYLINE
  8
CSLAYER1
  6
CONTINUOUS
 62
     3
 66
     1
 10
0.0
 20
0.0
 30
0.0
  0
VERTEX
  8
CSLAYER1
  6
CONTINUOUS
 62
     3
 10
162.823060
 20
119.600168
 30
0.0
  0
VERTEX
  8
CSLAYER1
  6
CONTINUOUS
 62
     3
 10
162.400084
 20
119.683819
 30
0.0
  0
VERTEX
  8
CSLAYER1
  6
CONTINUOUS
 62
     3
 10
161.963408
 20
119.749597
 30
0.0
  0
VERTEX
  8
CSLAYER1
  6
CONTINUOUS
 62
     3
 10
161.837076
 20
119.764978
 30
0.0
  0
SEQEND
  0
POLYLINE
  8
CSLAYER1
  6
CONTINUOUS
 62
     3
 66
     1
 10
0.0
 20
0.0
 30
0.0
  0
VERTEX
  8
CSLAYER1
  6
CONTINUOUS
 62
     3
 10
161.339150
 20
119.810479
 30
0.0
  0
VERTEX
  8
CSLAYER1
  6
CONTINUOUS
 62
     3
 10
160.883329
 20
119.831744
 30
0.0
  0
VERTEX
  8
CSLAYER1
  6
CONTINUOUS
 62
     3
 10
160.425350
 20
119.834009
 30
0.0
  0
VERTEX
  8
CSLAYER1
  6
CONTINUOUS
 62
     3
 10
160.339648
 20
119.832318
 30
0.0
  0
SEQEND
  0
POLYLINE
  8
CSLAYER1
  6
CONTINUOUS
 62
     3
 66
     1
 10
0.0
 20
0.0
 30
0.0
  0
VERTEX
  8
CSLAYER1
  6
CONTINUOUS
 62
     3
 10
159.835693
 20
119.808767
 30
0.0
  0
VERTEX
  8
CSLAYER1
  6
CONTINUOUS
 62
     3
 10
159.385906
 20
119.767640
 30
0.0
  0
VERTEX
  8
CSLAYER1
  6
CONTINUOUS
 62
     3
 10
158.945358
 20
119.708003
 30
0.0
  0
VERTEX
  8
CSLAYER1
  6
CONTINUOUS
 62
     3
 10
158.847365
 20
119.691995
 30
0.0
  0
SEQEND
  0
POLYLINE
  8
CSLAYER1
  6
CONTINUOUS
 62
     3
 66
     1
 10
0.0
 20
0.0
 30
0.0
  0
VERTEX
  8
CSLAYER1
  6
CONTINUOUS
 62
     3
 10
158.356723
 20
119.595710
 30
0.0
  0
VERTEX
  8
CSLAYER1
  6
CONTINUOUS
 62
     3
 10
157.951559
 20
119.494013
 30
0.0
  0
VERTEX
  8
CSLAYER1
  6
CONTINUOUS
 62
     3
 10
157.566550
 20
119.375888
 30
0.0
  0
VERTEX
  8
CSLAYER1
  6
CONTINUOUS
 62
     3
 10
157.396599
 20
119.316119
 30
0.0
  0
SEQEND
  0
POLYLINE
  8
CSLAYER1
  6
CONTINUOUS
 62
     3
 66
     1
 10
0.0
 20
0.0
 30
0.0
  0
VERTEX
  8
CSLAYER1
  6
CONTINUOUS
 62
     3
 10
156.933179
 20
119.124627
 30
0.0
  0
VERTEX
  8
CSLAYER1
  6
CONTINUOUS
 62
     3
 10
156.619653
 20
118.965642
 30
0.0
  0
VERTEX
  8
CSLAYER1
  6
CONTINUOUS
 62
     3
 10
156.336419
 20
118.794249
 30
0.0
  0
VERTEX
  8
CSLAYER1
  6
CONTINUOUS
 62
     3
 10
156.085632
 20
118.611754
 30
0.0
  0
VERTEX
  8
CSLAYER1
  6
CONTINUOUS
 62
     3
 10
156.081222
 20
118.608210
 30
0.0
  0
SEQEND
  0
POLYLINE
  8
CSLAYER1
  6
CONTINUOUS
 62
     3
 66
     1
 10
0.0
 20
0.0
 30
0.0
  0
VERTEX
  8
CSLAYER1
  6
CONTINUOUS
 62
     3
 10
155.722244
 20
118.260165
 30
0.0
  0
VERTEX
  8
CSLAYER1
  6
CONTINUOUS
 62
     3
 10
155.571546
 20
118.054212
 30
0.0
  0
VERTEX
  8
CSLAYER1
  6
CONTINUOUS
 62
     3
 10
155.459117
 20
117.842789
 30
0.0
  0
VERTEX
  8
CSLAYER1
  6
CONTINUOUS
 62
     3
 10
155.385811
 20
117.627503
 30
0.0
  0
VERTEX
  8
CSLAYER1
  6
CONTINUOUS
 62
     3
 10
155.352188
 20
117.409995
 30
0.0
  0
VERTEX
  8
CSLAYER1
  6
CONTINUOUS
 62
     3
 10
155.349849
 20
117.335387
 30
0.0
  0
SEQEND
  0
LINE
  8
CSLAYER1
  6
CONTINUOUS
 62
     3
 10
161.479900
 20
117.836547
 11
161.479900
 21
117.335776
  0
LINE
  8
CSLAYER1
  6
CONTINUOUS
 62
     3
 10
161.479900
 20
116.836547
 11
161.479900
 21
116.336547
  0
LINE
  8
CSLAYER1
  6
CONTINUOUS
 62
     3
 10
159.719799
 20
118.836547
 11
159.719799
 21
118.336547
  0
LINE
  8
CSLAYER1
  6
CONTINUOUS
 62
     3
 10
159.719799
 20
117.836547
 11
159.719799
 21
117.335776
  0
LINE
  8
CSLAYER1
  6
CONTINUOUS
 62
     3
 10
159.719799
 20
116.836547
 11
159.719799
 21
116.336547
  0
POLYLINE
  8
CSLAYER1
  6
CONTINUOUS
 62
     3
 66
     1
 10
0.0
 20
0.0
 30
0.0
  0
VERTEX
  8
CSLAYER1
  6
CONTINUOUS
 62
     3
 10
165.038896
 20
116.534508
 30
0.0
  0
VERTEX
  8
CSLAYER1
  6
CONTINUOUS
 62
     3
 10
165.266310
 20
116.648095
 30
0.0
  0
VERTEX
  8
CSLAYER1
  6
CONTINUOUS
 62
     3
 10
165.458210
 20
116.766913
 30
0.0
  0
VERTEX
  8
CSLAYER1
  6
CONTINUOUS
 62
     3
 10
165.570615
 20
116.852715
 30
0.0
  0
SEQEND
  0
POLYLINE
  8
CSLAYER1
  6
CONTINUOUS
 62
     6
 66
     1
 10
0.0
 20
0.0
 30
0.0
  0
VERTEX
  8
CSLAYER1
  6
CONTINUOUS
 62
     6
 10
156.684326
 20
116.336162
 30
0.0
  0
VERTEX
  8
CSLAYER1
  6
CONTINUOUS
 62
     6
 10
157.004037
 20
116.242461
 30
0.0
  0
VERTEX
  8
CSLAYER1
  6
CONTINUOUS
 62
     6
 10
157.351113
 20
116.157078
 30
0.0
  0
VERTEX
  8
CSLAYER1
  6
CONTINUOUS
 62
     6
 10
157.722915
 20
116.080663
 30
0.0
  0
VERTEX
  8
CSLAYER1
  6
CONTINUOUS
 62
     6
 10
158.116612
 20
116.013798
 30
0.0
  0
VERTEX
  8
CSLAYER1
  6
CONTINUOUS
 62
     6
 10
158.529207
 20
115.956990
 30
0.0
  0
VERTEX
  8
CSLAYER1
  6
CONTINUOUS
 62
     6
 10
158.957562
 20
115.910673
 30
0.0
  0
VERTEX
  8
CSLAYER1
  6
CONTINUOUS
 62
     6
 10
159.398415
 20
115.875199
 30
0.0
  0
VERTEX
  8
CSLAYER1
  6
CONTINUOUS
 62
     6
 10
159.848412
 20
115.850837
 30
0.0
  0
VERTEX
  8
CSLAYER1
  6
CONTINUOUS
 62
     6
 10
160.304128
 20
115.837775
 30
0.0
  0
VERTEX
  8
CSLAYER1
  6
CONTINUOUS
 62
     6
 10
160.762095
 20
115.836109
 30
0.0
  0
VERTEX
  8
CSLAYER1
  6
CONTINUOUS
 62
     6
 10
161.218826
 20
115.845855
 30
0.0
  0
VERTEX
  8
CSLAYER1
  6
CONTINUOUS
 62
     6
 10
161.670847
 20
115.866937
 30
0.0
  0
VERTEX
  8
CSLAYER1
  6
CONTINUOUS
 62
     6
 10
162.114717
 20
115.899194
 30
0.0
  0
VERTEX
  8
CSLAYER1
  6
CONTINUOUS
 62
     6
 10
162.547058
 20
115.942382
 30
0.0
  0
VERTEX
  8
CSLAYER1
  6
CONTINUOUS
 62
     6
 10
162.964580
 20
115.996171
 30
0.0
  0
VERTEX
  8
CSLAYER1
  6
CONTINUOUS
 62
     6
 10
163.364104
 20
116.060153
 30
0.0
  0
VERTEX
  8
CSLAYER1
  6
CONTINUOUS
 62
     6
 10
163.742591
 20
116.133840
 30
0.0
  0
VERTEX
  8
CSLAYER1
  6
CONTINUOUS
 62
     6
 10
164.097160
 20
116.216672
 30
0.0
  0
VERTEX
  8
CSLAYER1
  6
CONTINUOUS
 62
     6
 10
164.425112
 20
116.308018
 30
0.0
  0
VERTEX
  8
CSLAYER1
  6
CONTINUOUS
 62
     6
 10
164.515373
 20
116.336162
 30
0.0
  0
SEQEND
  0
ARC
  8
CSLAYER1
  6
CONTINUOUS
 62
     6
 10
58.099834
 20
146.336154
 40
31.000000
 50
-85.930427
 51
244.995759
  0
CIRCLE
  8
CSLAYER1
  6
CONTINUOUS
 62
     6
 10
58.099834
 20
146.336154
 40
30.000017
  0
LINE
  8
CSLAYER1
  6
CENTER
 62
     3
 10
106.599849
 20
236.356021
 11
317.099859
 21
236.356021
  0
LINE
  8
CSLAYER1
  6
CONTINUOUS
 62
     6
 10
315.099849
 20
240.356025
 11
290.599849
 21
240.356025
  0
LINE
  8
CSLAYER1
  6
CONTINUOUS
 62
     6
 10
315.099849
 20
232.356025
 11
290.599865
 21
232.356025
  0
LINE
  8
CSLAYER1
  6
CONTINUOUS
 62
     6
 10
278.599849
 20
267.356025
 11
278.599849
 21
205.356025
  0
LINE
  8
CSLAYER1
  6
CONTINUOUS
 62
     6
 10
196.599849
 20
267.356025
 11
196.599849
 21
205.356025
  0
LINE
  8
CSLAYER1
  6
CONTINUOUS
 62
     6
 10
278.599849
 20
267.356025
 11
196.599849
 21
267.356025
  0
LINE
  8
CSLAYER1
  6
CONTINUOUS
 62
     6
 10
278.599849
 20
205.356025
 11
196.599849
 21
205.356025
  0
LINE
  8
CSLAYER1
  6
CONTINUOUS
 62
     6
 10
279.599849
 20
206.356025
 11
278.599849
 21
206.356025
  0
LINE
  8
CSLAYER1
  6
CONTINUOUS
 62
     6
 10
290.599849
 20
221.356025
 11
290.599849
 21
251.356025
  0
LINE
  8
CSLAYER1
  6
CONTINUOUS
 62
     6
 10
279.599849
 20
266.356025
 11
278.599849
 21
266.356025
  0
ARC
  8
CSLAYER1
  6
CONTINUOUS
 62
     6
 10
281.599849
 20
266.356025
 40
2.000000
 50
90.000003
 51
179.999991
  0
LINE
  8
CSLAYER1
  6
CONTINUOUS
 62
     6
 10
288.599849
 20
204.355995
 11
288.599849
 21
268.356025
  0
LINE
  8
CSLAYER1
  6
CONTINUOUS
 62
     6
 10
290.599849
 20
251.356025
 11
288.599849
 21
251.356025
  0
LINE
  8
CSLAYER1
  6
CONTINUOUS
 62
     6
 10
288.599849
 20
268.356025
 11
281.599849
 21
268.356025
  0
LINE
  8
CSLAYER1
  6
CONTINUOUS
 62
     6
 10
290.599849
 20
221.356025
 11
288.599849
 21
221.356025
  0
ARC
  8
CSLAYER1
  6
CONTINUOUS
 62
     6
 10
281.599849
 20
206.355995
 40
2.000000
 50
180.000005
 51
269.999973
  0
LINE
  8
CSLAYER1
  6
CONTINUOUS
 62
     6
 10
288.599849
 20
204.355995
 11
281.599849
 21
204.355995
  0
LINE
  8
CSLAYER1
  6
CONTINUOUS
 62
     6
 10
279.599849
 20
266.356025
 11
279.599849
 21
206.355995
  0
LINE
  8
CSLAYER1
  6
CENTER
 62
     3
 10
276.599849
 20
210.356010
 11
290.599849
 21
210.356010
  0
LINE
  8
CSLAYER1
  6
CENTER
 62
     3
 10
276.599856
 20
262.356020
 11
290.599856
 21
262.356017
  0
LINE
  8
CSLAYER1
  6
CONTINUOUS
 62
     6
 10
279.599834
 20
266.356041
 11
278.599834
 21
266.356041
  0
LINE
  8
CSLAYER1
  6
CONTINUOUS
 62
     6
 10
168.599849
 20
265.867265
 11
196.599865
 21
266.356006
  0
LINE
  8
CSLAYER1
  6
CONTINUOUS
 62
     6
 10
168.599849
 20
206.844777
 11
196.599865
 21
206.356036
  0
LINE
  8
CSLAYER1
  6
CONTINUOUS
 62
     3
 10
224.599849
 20
209.509240
 11
260.599849
 21
209.509240
  0
ARC
  8
CSLAYER1
  6
CONTINUOUS
 62
     3
 10
224.599849
 20
210.509240
 40
1.000000
 50
180.000005
 51
270.000001
  0
ARC
  8
CSLAYER1
  6
CONTINUOUS
 62
     3
 10
260.599849
 20
210.509240
 40
1.000000
 50
270.000001
 51
359.942691
  0
LINE
  8
CSLAYER1
  6
CONTINUOUS
 62
     3
 10
223.599849
 20
262.202808
 11
223.599849
 21
210.509240
  0
LINE
  8
CSLAYER1
  6
CONTINUOUS
 62
     3
 10
261.599849
 20
262.202808
 11
261.599849
 21
210.509240
  0
TEXT
  8
CSLAYER1
 62
     3
 10
241.378754
 20
241.854416
 40
3.500000
 41
1.125000
  1
N P
 50
-90.000000
 51
10.000000
  7
JX_FONT
 72
     5
 11
241.378754
 21
231.354416
  0
LINE
  8
CSLAYER1
  6
CONTINUOUS
 62
     3
 10
224.599849
 20
263.202808
 11
260.599849
 21
263.202808
  0
ARC
  8
CSLAYER1
  6
CONTINUOUS
 62
     3
 10
224.599849
 20
262.202808
 40
1.000000
 50
90.000009
 51
180.000005
  0
ARC
  8
CSLAYER1
  6
CONTINUOUS
 62
     3
 10
260.599849
 20
262.202808
 40
1.000000
 50
0.057319
 51
90.000009
  0
LINE
  8
CSLAYER1
  6
CONTINUOUS
 62
     6
 10
315.099849
 20
232.356025
 11
315.099849
 21
240.356025
  0
LINE
  8
CSLAYER1
  6
CONTINUOUS
 62
     6
 10
134.599849
 20
206.356036
 11
134.599849
 21
266.356036
  0
LINE
  8
CSLAYER1
  6
CONTINUOUS
 62
     6
 10
127.599849
 20
266.356036
 11
127.599849
 21
206.356036
  0
LINE
  8
CSLAYER1
  6
CONTINUOUS
 62
     6
 10
127.599849
 20
266.356036
 11
168.599849
 21
266.356036
  0
LINE
  8
CSLAYER1
  6
CONTINUOUS
 62
     6
 10
127.599849
 20
206.356036
 11
168.599849
 21
206.356036
  0
LINE
  8
CSLAYER1
  6
CONTINUOUS
 62
     6
 10
168.599849
 20
266.356036
 11
168.599849
 21
206.356036
  0
LINE
  8
CSLAYER1
  6
CONTINUOUS
 62
     6
 10
60.299814
 20
111.096616
 11
60.299839
 21
116.416934
  0
LINE
  8
CSLAYER1
  6
CONTINUOUS
 62
     6
 10
55.899817
 20
111.096616
 11
55.899841
 21
116.416934
  0
LINE
  8
CSLAYER1
  6
CONTINUOUS
 62
     6
 10
58.099810
 20
111.096616
 11
58.099842
 21
116.416934
  0
ARC
  8
CSLAYER1
  6
CONTINUOUS
 62
     6
 10
73.858839
 20
108.184469
 40
15.759004
 50
180.000235
 51
207.463987
  0
ARC
  8
CSLAYER1
  6
CONTINUOUS
 62
     6
 10
73.858839
 20
108.184469
 40
13.559023
 50
180.000308
 51
207.464006
  0
ARC
  8
CSLAYER1
  6
CONTINUOUS
 62
     6
 10
58.649836
 20
112.049237
 40
1.099999
 50
239.999870
 51
299.999858
  0
ARC
  8
CSLAYER1
  6
CONTINUOUS
 62
     6
 10
59.749834
 20
112.049237
 40
1.099999
 50
239.999870
 51
299.999858
  0
ARC
  8
CSLAYER1
  6
CONTINUOUS
 62
     6
 10
59.749827
 20
110.143994
 40
1.099999
 50
59.999858
 51
119.999853
  0
ARC
  8
CSLAYER1
  6
CONTINUOUS
 62
     6
 10
59.749817
 20
107.231754
 40
1.099999
 50
59.999715
 51
119.999716
  0
ARC
  8
CSLAYER1
  6
CONTINUOUS
 62
     6
 10
58.649819
 20
107.231769
 40
1.099999
 50
59.999715
 51
119.999716
  0
ARC
  8
CSLAYER1
  6
CONTINUOUS
 62
     6
 10
58.649826
 20
109.137027
 40
1.099999
 50
239.999733
 51
299.999721
  0
LINE
  8
CSLAYER1
  6
CONTINUOUS
 62
     6
 10
61.339897
 20
101.677524
 11
63.116742
 21
98.656525
  0
LINE
  8
CSLAYER1
  6
CONTINUOUS
 62
     6
 10
60.851882
 20
101.423877
 11
62.466059
 21
98.318320
  0
LINE
  8
CSLAYER1
  6
CONTINUOUS
 62
     6
 10
60.363869
 20
101.170224
 11
61.815376
 21
97.980114
  0
LINE
  8
CSLAYER1
  6
CONTINUOUS
 62
     6
 10
61.827910
 20
101.931179
 11
59.875861
 21
100.916561
  0
ARC
  8
CSLAYER1
  6
CONTINUOUS
 62
     6
 10
42.340856
 20
108.184296
 40
15.758933
 50
-27.463461
 51
0.000397
  0
ARC
  8
CSLAYER1
  6
CONTINUOUS
 62
     6
 10
42.340856
 20
108.184296
 40
13.558951
 50
-27.463363
 51
0.000417
  0
ARC
  8
CSLAYER1
  6
CONTINUOUS
 62
     6
 10
56.449793
 20
112.049237
 40
1.099999
 50
240.000198
 51
300.000186
  0
ARC
  8
CSLAYER1
  6
CONTINUOUS
 62
     6
 10
57.549791
 20
112.049237
 40
1.099999
 50
240.000198
 51
300.000186
  0
ARC
  8
CSLAYER1
  6
CONTINUOUS
 62
     6
 10
57.549799
 20
110.143994
 40
1.099999
 50
60.000186
 51
120.000181
  0
ARC
  8
CSLAYER1
  6
CONTINUOUS
 62
     6
 10
57.549813
 20
107.231784
 40
1.099999
 50
60.000350
 51
120.000345
  0
ARC
  8
CSLAYER1
  6
CONTINUOUS
 62
     6
 10
56.449814
 20
107.231769
 40
1.099999
 50
60.000350
 51
120.000345
  0
ARC
  8
CSLAYER1
  6
CONTINUOUS
 62
     6
 10
56.449803
 20
109.137027
 40
1.099999
 50
240.000362
 51
300.000350
  0
LINE
  8
CSLAYER1
  6
CONTINUOUS
 62
     6
 10
54.859775
 20
101.677523
 11
53.082931
 21
98.656523
  0
LINE
  8
CSLAYER1
  6
CONTINUOUS
 62
     6
 10
55.347791
 20
101.423875
 11
53.733614
 21
98.318318
  0
LINE
  8
CSLAYER1
  6
CONTINUOUS
 62
     6
 10
55.835803
 20
101.170223
 11
54.384298
 21
97.980112
  0
LINE
  8
CSLAYER1
  6
CONTINUOUS
 62
     6
 10
54.371794
 20
101.931161
 11
56.323838
 21
100.916547
  0
LINE
  8
CSLAYER1
  6
CENTER
 62
     3
 10
50.886570
 20
120.265840
 11
46.365988
 21
103.927407
  0
ARC
  8
CSLAYER1
  6
CONTINUOUS
 62
     6
 10
35.765877
 20
112.892988
 40
12.607053
 50
317.070225
 51
344.534143
  0
ARC
  8
CSLAYER1
  6
CONTINUOUS
 62
     6
 10
35.765877
 20
112.892988
 40
10.847068
 50
317.070225
 51
344.534116
  0
ARC
  8
CSLAYER1
  6
CONTINUOUS
 62
     6
 10
47.289152
 20
108.913937
 40
0.879999
 50
44.534377
 51
104.534365
  0
ARC
  8
CSLAYER1
  6
CONTINUOUS
 62
     6
 10
46.441013
 20
109.148605
 40
0.879999
 50
44.534377
 51
104.534365
  0
ARC
  8
CSLAYER1
  6
CONTINUOUS
 62
     6
 10
46.847466
 20
110.617612
 40
0.879999
 50
224.534385
 51
284.534387
  0
LINE
  8
CSLAYER1
  6
CONTINUOUS
 62
     6
 10
42.609998
 20
103.530917
 11
44.142114
 21
105.101213
  0
LINE
  8
CSLAYER1
  6
CONTINUOUS
 62
     6
 10
42.964132
 20
103.199157
 11
44.464878
 21
104.800962
  0
LINE
  8
CSLAYER1
  6
CONTINUOUS
 62
     6
 10
43.332958
 20
102.890404
 11
44.727708
 21
104.556463
  0
LINE
  8
CSLAYER1
  6
CONTINUOUS
 62
     6
 10
43.707988
 20
105.505040
 11
44.996630
 21
104.306288
  0
ARC
  8
CSLAYER1
  6
CONTINUOUS
 62
     6
 10
47.202071
 20
111.899233
 40
0.880005
 50
224.534030
 51
284.534032
  0
ARC
  8
CSLAYER1
  6
CONTINUOUS
 62
     6
 10
48.050210
 20
111.664565
 40
0.880005
 50
224.534030
 51
284.534032
  0
ARC
  8
CSLAYER1
  6
CONTINUOUS
 62
     6
 10
47.643758
 20
110.195558
 40
0.880005
 50
44.534022
 51
104.534010
  0
ARC
  8
CSLAYER1
  6
CONTINUOUS
 62
     6
 10
60.067019
 20
106.169227
 40
12.607053
 50
164.533933
 51
191.997850
  0
ARC
  8
CSLAYER1
  6
CONTINUOUS
 62
     6
 10
60.067019
 20
106.169227
 40
10.847068
 50
164.533960
 51
191.997850
  0
ARC
  8
CSLAYER1
  6
CONTINUOUS
 62
     6
 10
48.985430
 20
108.444603
 40
0.879999
 50
44.533687
 51
104.533689
  0
ARC
  8
CSLAYER1
  6
CONTINUOUS
 62
     6
 10
48.137291
 20
108.679270
 40
0.879999
 50
44.533687
 51
104.533689
  0
ARC
  8
CSLAYER1
  6
CONTINUOUS
 62
     6
 10
48.543744
 20
110.148278
 40
0.879999
 50
224.533689
 51
284.533690
  0
LINE
  8
CSLAYER1
  6
CONTINUOUS
 62
     6
 10
49.342674
 20
101.830618
 11
48.876939
 21
103.791157
  0
LINE
  8
CSLAYER1
  6
CONTINUOUS
 62
     6
 10
48.873953
 20
101.719279
 11
48.445744
 21
103.699516
  0
LINE
  8
CSLAYER1
  6
CONTINUOUS
 62
     6
 10
48.412346
 20
101.619460
 11
48.094617
 21
103.624890
  0
LINE
  8
CSLAYER1
  6
CONTINUOUS
 62
     6
 10
49.456898
 20
103.914403
 11
47.735346
 21
103.548526
  0
ARC
  8
CSLAYER1
  6
CONTINUOUS
 62
     6
 10
48.898349
 20
111.429898
 40
0.880005
 50
224.534030
 51
284.534032
  0
ARC
  8
CSLAYER1
  6
CONTINUOUS
 62
     6
 10
49.746488
 20
111.195231
 40
0.880005
 50
224.534030
 51
284.534032
  0
ARC
  8
CSLAYER1
  6
CONTINUOUS
 62
     6
 10
49.340036
 20
109.726223
 40
0.880005
 50
44.534022
 51
104.534010
  0
LINE
  8
CSLAYER1
  6
CONTINUOUS
 62
     6
 10
48.271053
 20
110.812728
 11
49.699857
 21
115.976801
  0
LINE
  8
CSLAYER1
  6
CONTINUOUS
 62
     6
 10
46.574775
 20
111.282063
 11
48.003579
 21
116.446135
  0
LINE
  8
CSLAYER1
  6
CONTINUOUS
 62
     6
 10
49.967331
 20
110.343393
 11
51.396135
 21
115.507466
  0
ARC
  8
CSLAYER1
  6
CONTINUOUS
 62
     6
 10
49.022716
 20
113.529383
 40
5.250000
 50
254.007657
 51
255.060304
  0
LINE
  8
CSLAYER1
  6
CONTINUOUS
 62
     6
 10
45.039959
 20
118.822463
 11
55.159744
 21
116.022471
  0
LINE
  8
CSLAYER1
  6
CONTINUOUS
 62
     6
 10
46.085643
 20
116.976781
 11
53.314061
 21
114.976786
  0
ARC
  8
CSLAYER1
  6
CONTINUOUS
 62
     6
 10
53.714060
 20
116.422470
 40
1.500000
 50
254.534033
 51
344.534033
  0
ARC
  8
CSLAYER1
  6
CONTINUOUS
 62
     6
 10
46.485642
 20
118.422465
 40
1.500000
 50
164.534033
 51
254.534033
  0
LINE
  8
CSLAYER1
  6
CONTINUOUS
 62
     6
 10
53.776806
 20
116.649247
 11
53.714060
 21
116.422470
  0
LINE
  8
CSLAYER1
  6
CONTINUOUS
 62
     6
 10
46.548388
 20
118.649242
 11
46.485642
 21
118.422465
  0
ARC
  8
CSLAYER1
  6
CONTINUOUS
 62
     6
 10
58.099834
 20
146.336154
 40
31.000000
 50
264.072307
 51
265.930431
  0
LINE
  8
CSLAYER1
  6
CONTINUOUS
 62
     6
 10
51.072051
 20
114.336154
 11
55.899831
 21
114.336154
  0
LINE
  8
CSLAYER1
  6
CONTINUOUS
 62
     6
 10
47.419779
 20
114.336154
 11
32.099895
 21
114.336154
  0
ARC
  8
CSLAYER1
  6
CONTINUOUS
 62
     6
 10
58.099827
 20
146.336154
 40
15.000000
 50
-0.000000
 51
180.000000
  0
ARC
  8
CSLAYER1
  6
CONTINUOUS
 62
     6
 10
58.099827
 20
146.336154
 40
12.000000
 50
15.000000
 51
65.000000
  0
LINE
  8
CSLAYER1
  6
CONTINUOUS
 62
     6
 10
63.171246
 20
157.211848
 11
64.439101
 21
159.930771
  0
LINE
  8
CSLAYER1
  6
CONTINUOUS
 62
     6
 10
69.690937
 20
149.441983
 11
72.588715
 21
150.218440
  0
ARC
  8
CSLAYER1
  6
CONTINUOUS
 62
     6
 10
58.099827
 20
146.336154
 40
12.000000
 50
115.000000
 51
165.000000
  0
LINE
  8
CSLAYER1
  6
CONTINUOUS
 62
     6
 10
53.028408
 20
157.211848
 11
51.760553
 21
159.930771
  0
LINE
  8
CSLAYER1
  6
CONTINUOUS
 62
     6
 10
46.508717
 20
149.441983
 11
43.610940
 21
150.218440
  0
LINE
  8
CSLAYER1
  6
CONTINUOUS
 62
     6
 10
73.099827
 20
146.336154
 11
73.099827
 21
122.136154
  0
LINE
  8
CSLAYER1
  6
CONTINUOUS
 62
     6
 10
71.099827
 20
120.136154
 11
45.099827
 21
120.136154
  0
LINE
  8
CSLAYER1
  6
CONTINUOUS
 62
     6
 10
43.099827
 20
146.336154
 11
43.099827
 21
122.136154
  0
ARC
  8
CSLAYER1
  6
CONTINUOUS
 62
     6
 10
71.099827
 20
122.136154
 40
2.000000
 50
270.000000
 51
360.000000
  0
ARC
  8
CSLAYER1
  6
CONTINUOUS
 62
     6
 10
45.099827
 20
122.136154
 40
2.000000
 50
180.000000
 51
270.000000
  0
LINE
  8
CSLAYER1
  6
CONTINUOUS
 62
     6
 10
69.599827
 20
122.336154
 11
46.599827
 21
122.336154
  0
LINE
  8
CSLAYER1
  6
CONTINUOUS
 62
     6
 10
64.599827
 20
126.536154
 11
51.599827
 21
126.536154
  0
LINE
  8
CSLAYER1
  6
CONTINUOUS
 62
     6
 10
71.099827
 20
124.536154
 11
71.099827
 21
123.836154
  0
ARC
  8
CSLAYER1
  6
CONTINUOUS
 62
     6
 10
69.599827
 20
123.836154
 40
1.500000
 50
270.000000
 51
360.000000
  0
LINE
  8
CSLAYER1
  6
CONTINUOUS
 62
     6
 10
45.099827
 20
124.536154
 11
45.099827
 21
123.836154
  0
ARC
  8
CSLAYER1
  6
CONTINUOUS
 62
     6
 10
46.599827
 20
123.836154
 40
1.500000
 50
180.000000
 51
270.000000
  0
LINE
  8
CSLAYER1
  6
CONTINUOUS
 62
     6
 10
71.099827
 20
124.536154
 11
66.599827
 21
124.536154
  0
LINE
  8
CSLAYER1
  6
CONTINUOUS
 62
     6
 10
49.599827
 20
124.536154
 11
45.099827
 21
124.536154
  0
ARC
  8
CSLAYER1
  6
CONTINUOUS
 62
     6
 10
51.599827
 20
125.536154
 40
1.000000
 50
90.000000
 51
180.000000
  0
ARC
  8
CSLAYER1
  6
CONTINUOUS
 62
     6
 10
49.599827
 20
125.536154
 40
1.000000
 50
270.000000
 51
360.000000
  0
ARC
  8
CSLAYER1
  6
CONTINUOUS
 62
     6
 10
64.599827
 20
125.536154
 40
1.000000
 50
0.000000
 51
90.000000
  0
ARC
  8
CSLAYER1
  6
CONTINUOUS
 62
     6
 10
66.599827
 20
125.536154
 40
1.000000
 50
180.000000
 51
270.000000
  0
LINE
  8
CSLAYER1
  6
CONTINUOUS
 62
     6
 10
58.849827
 20
126.536154
 11
58.849827
 21
125.036154
  0
LINE
  8
CSLAYER1
  6
CONTINUOUS
 62
     6
 10
58.474827
 20
118.011154
 11
58.099827
 21
117.636154
  0
LINE
  8
CSLAYER1
  6
CONTINUOUS
 62
     6
 10
57.349827
 20
126.536154
 11
57.349827
 21
125.036154
  0
TEXT
  8
CSLAYER1
 62
     3
 10
52.045517
 20
127.126511
 40
2.000000
 41
1.500000
  1
1
 50
0.000000
 51
10.000000
  7
JX_FONT
 72
     5
 11
54.045517
 21
127.126511
  0
TEXT
  8
CSLAYER1
 62
     3
 10
54.545517
 20
127.126511
 40
2.000000
 41
1.500000
  1
2
 50
0.000000
 51
10.000000
  7
JX_FONT
 72
     5
 11
56.545517
 21
127.126511
  0
TEXT
  8
CSLAYER1
 62
     3
 10
57.045517
 20
127.126511
 40
2.000000
 41
1.500000
  1
3
 50
0.000000
 51
10.000000
  7
JX_FONT
 72
     5
 11
59.045517
 21
127.126511
  0
TEXT
  8
CSLAYER1
 62
     3
 10
59.545509
 20
127.126511
 40
2.000000
 41
1.500000
  1
4
 50
0.000000
 51
10.000000
  7
JX_FONT
 72
     5
 11
61.545509
 21
127.126511
  0
TEXT
  8
CSLAYER1
 62
     3
 10
62.045502
 20
127.126511
 40
2.000000
 41
1.500000
  1
5
 50
0.000000
 51
10.000000
  7
JX_FONT
 72
     5
 11
64.045502
 21
127.126511
  0
TEXT
  8
CSLAYER1
 62
     6
 10
46.790298
 20
128.168030
 40
2.000000
 41
0.934615
  1
HEDS-5500
 50
90.000000
 51
0.000000
  7
JX_FONT
 72
     5
 11
46.790298
 21
144.368029
  0
CIRCLE
  8
CSLAYER1
  6
CONTINUOUS
 62
     6
 10
58.099827
 20
146.336154
 40
7.500000
  0
LINE
  8
CSLAYER1
  6
CONTINUOUS
 62
     6
 10
54.099827
 20
146.836154
 11
62.099827
 21
146.836154
  0
LINE
  8
CSLAYER1
  6
CONTINUOUS
 62
     6
 10
62.099827
 20
146.836154
 11
62.099827
 21
145.836154
  0
LINE
  8
CSLAYER1
  6
CONTINUOUS
 62
     6
 10
62.099827
 20
145.836154
 11
54.099827
 21
145.836154
  0
LINE
  8
CSLAYER1
  6
CONTINUOUS
 62
     6
 10
54.099827
 20
145.836154
 11
54.099827
 21
146.836154
  0
ARC
  8
CSLAYER1
  6
CONTINUOUS
 62
     6
 10
58.099827
 20
146.336154
 40
9.250000
 50
77.513110
 51
102.486890
  0
LINE
  8
CSLAYER1
  6
CONTINUOUS
 62
     6
 10
56.099827
 20
155.367350
 11
56.099827
 21
153.564570
  0
LINE
  8
CSLAYER1
  6
CONTINUOUS
 62
     6
 10
60.099827
 20
155.367350
 11
60.099827
 21
153.564570
  0
ARC
  8
CSLAYER1
  6
CONTINUOUS
 62
     6
 10
58.099827
 20
146.336154
 40
9.250000
 50
197.513110
 51
222.486890
  0
LINE
  8
CSLAYER1
  6
CONTINUOUS
 62
     6
 10
51.278582
 20
140.088505
 11
52.839835
 21
140.989895
  0
LINE
  8
CSLAYER1
  6
CONTINUOUS
 62
     6
 10
49.278582
 20
143.552607
 11
50.839835
 21
144.453997
  0
ARC
  8
CSLAYER1
  6
CONTINUOUS
 62
     6
 10
58.099827
 20
146.336154
 40
9.250000
 50
317.513110
 51
342.486890
  0
LINE
  8
CSLAYER1
  6
CONTINUOUS
 62
     6
 10
66.921072
 20
143.552607
 11
65.359819
 21
144.453997
  0
LINE
  8
CSLAYER1
  6
CONTINUOUS
 62
     6
 10
64.921072
 20
140.088505
 11
63.359819
 21
140.989895
  0
LINE
  8
CSLAYER1
  6
CONTINUOUS
 62
     6
 10
58.849827
 20
125.036154
 11
58.474827
 21
124.536154
  0
LINE
  8
CSLAYER1
  6
CONTINUOUS
 62
     6
 10
58.474827
 20
124.536154
 11
58.474827
 21
122.336154
  0
LINE
  8
CSLAYER1
  6
CONTINUOUS
 62
     6
 10
58.474827
 20
120.136154
 11
58.474827
 21
118.011154
  0
LINE
  8
CSLAYER1
  6
CONTINUOUS
 62
     6
 10
57.724827
 20
118.011154
 11
58.099827
 21
117.636154
  0
LINE
  8
CSLAYER1
  6
CONTINUOUS
 62
     6
 10
57.349827
 20
125.036154
 11
57.724827
 21
124.536154
  0
LINE
  8
CSLAYER1
  6
CONTINUOUS
 62
     6
 10
57.724827
 20
124.536154
 11
57.724827
 21
122.336154
  0
LINE
  8
CSLAYER1
  6
CONTINUOUS
 62
     6
 10
57.724827
 20
120.136154
 11
57.724827
 21
118.011154
  0
LINE
  8
CSLAYER1
  6
CONTINUOUS
 62
     6
 10
61.349827
 20
126.536154
 11
61.349827
 21
125.036154
  0
LINE
  8
CSLAYER1
  6
CONTINUOUS
 62
     6
 10
60.974827
 20
118.011154
 11
60.599827
 21
117.636154
  0
LINE
  8
CSLAYER1
  6
CONTINUOUS
 62
     6
 10
59.849827
 20
126.536154
 11
59.849827
 21
125.036154
  0
LINE
  8
CSLAYER1
  6
CONTINUOUS
 62
     6
 10
61.349827
 20
125.036154
 11
60.974827
 21
124.536154
  0
LINE
  8
CSLAYER1
  6
CONTINUOUS
 62
     6
 10
60.974827
 20
124.536154
 11
60.974827
 21
122.336154
  0
LINE
  8
CSLAYER1
  6
CONTINUOUS
 62
     6
 10
60.974827
 20
120.136154
 11
60.974827
 21
118.011154
  0
LINE
  8
CSLAYER1
  6
CONTINUOUS
 62
     6
 10
60.224827
 20
118.011154
 11
60.599827
 21
117.636154
  0
LINE
  8
CSLAYER1
  6
CONTINUOUS
 62
     6
 10
59.849827
 20
125.036154
 11
60.224827
 21
124.536154
  0
LINE
  8
CSLAYER1
  6
CONTINUOUS
 62
     6
 10
60.224827
 20
124.536154
 11
60.224827
 21
122.336154
  0
LINE
  8
CSLAYER1
  6
CONTINUOUS
 62
     6
 10
60.224827
 20
120.136154
 11
60.224827
 21
118.011154
  0
LINE
  8
CSLAYER1
  6
CONTINUOUS
 62
     6
 10
63.849827
 20
126.536154
 11
63.849827
 21
125.036154
  0
LINE
  8
CSLAYER1
  6
CONTINUOUS
 62
     6
 10
63.474827
 20
118.011154
 11
63.099827
 21
117.636154
  0
LINE
  8
CSLAYER1
  6
CONTINUOUS
 62
     6
 10
62.349827
 20
126.536154
 11
62.349827
 21
125.036154
  0
LINE
  8
CSLAYER1
  6
CONTINUOUS
 62
     6
 10
63.849827
 20
125.036154
 11
63.474827
 21
124.536154
  0
LINE
  8
CSLAYER1
  6
CONTINUOUS
 62
     6
 10
63.474827
 20
124.536154
 11
63.474827
 21
122.336154
  0
LINE
  8
CSLAYER1
  6
CONTINUOUS
 62
     6
 10
63.474827
 20
120.136154
 11
63.474827
 21
118.011154
  0
LINE
  8
CSLAYER1
  6
CONTINUOUS
 62
     6
 10
62.724827
 20
118.011154
 11
63.099827
 21
117.636154
  0
LINE
  8
CSLAYER1
  6
CONTINUOUS
 62
     6
 10
62.349827
 20
125.036154
 11
62.724827
 21
124.536154
  0
LINE
  8
CSLAYER1
  6
CONTINUOUS
 62
     6
 10
62.724827
 20
124.536154
 11
62.724827
 21
122.336154
  0
LINE
  8
CSLAYER1
  6
CONTINUOUS
 62
     6
 10
62.724827
 20
120.136154
 11
62.724827
 21
118.011154
  0
LINE
  8
CSLAYER1
  6
CONTINUOUS
 62
     6
 10
54.849827
 20
126.536154
 11
54.849827
 21
125.036154
  0
LINE
  8
CSLAYER1
  6
CONTINUOUS
 62
     6
 10
55.224827
 20
118.011154
 11
55.599827
 21
117.636154
  0
LINE
  8
CSLAYER1
  6
CONTINUOUS
 62
     6
 10
56.349827
 20
126.536154
 11
56.349827
 21
125.036154
  0
LINE
  8
CSLAYER1
  6
CONTINUOUS
 62
     6
 10
54.849827
 20
125.036154
 11
55.224827
 21
124.536154
  0
LINE
  8
CSLAYER1
  6
CONTINUOUS
 62
     6
 10
55.224827
 20
124.536154
 11
55.224827
 21
122.336154
  0
LINE
  8
CSLAYER1
  6
CONTINUOUS
 62
     6
 10
55.224827
 20
120.136154
 11
55.224827
 21
118.011154
  0
LINE
  8
CSLAYER1
  6
CONTINUOUS
 62
     6
 10
55.974827
 20
118.011154
 11
55.599827
 21
117.636154
  0
LINE
  8
CSLAYER1
  6
CONTINUOUS
 62
     6
 10
56.349827
 20
125.036154
 11
55.974827
 21
124.536154
  0
LINE
  8
CSLAYER1
  6
CONTINUOUS
 62
     6
 10
55.974827
 20
124.536154
 11
55.974827
 21
122.336154
  0
LINE
  8
CSLAYER1
  6
CONTINUOUS
 62
     6
 10
55.974827
 20
120.136154
 11
55.974827
 21
118.011154
  0
LINE
  8
CSLAYER1
  6
CONTINUOUS
 62
     6
 10
52.349827
 20
126.536154
 11
52.349827
 21
125.036154
  0
LINE
  8
CSLAYER1
  6
CONTINUOUS
 62
     6
 10
52.724827
 20
118.011154
 11
53.099827
 21
117.636154
  0
LINE
  8
CSLAYER1
  6
CONTINUOUS
 62
     6
 10
53.849827
 20
126.536154
 11
53.849827
 21
125.036154
  0
LINE
  8
CSLAYER1
  6
CONTINUOUS
 62
     6
 10
52.349827
 20
125.036154
 11
52.724827
 21
124.536154
  0
LINE
  8
CSLAYER1
  6
CONTINUOUS
 62
     6
 10
52.724827
 20
124.536154
 11
52.724827
 21
122.336154
  0
LINE
  8
CSLAYER1
  6
CONTINUOUS
 62
     6
 10
52.724827
 20
120.136154
 11
52.724827
 21
118.011154
  0
LINE
  8
CSLAYER1
  6
CONTINUOUS
 62
     6
 10
53.474827
 20
118.011154
 11
53.099827
 21
117.636154
  0
LINE
  8
CSLAYER1
  6
CONTINUOUS
 62
     6
 10
53.849827
 20
125.036154
 11
53.474827
 21
124.536154
  0
LINE
  8
CSLAYER1
  6
CONTINUOUS
 62
     6
 10
53.474827
 20
124.536154
 11
53.474827
 21
122.336154
  0
LINE
  8
CSLAYER1
  6
CONTINUOUS
 62
     6
 10
53.474827
 20
120.136154
 11
53.474827
 21
118.011154
  0
LINE
  8
CSLAYER1
  6
CONTINUOUS
 62
     6
 10
109.299849
 20
249.356021
 11
109.299849
 21
223.356021
  0
LINE
  8
CSLAYER1
  6
CONTINUOUS
 62
     6
 10
111.299849
 20
251.356021
 11
127.599849
 21
251.356021
  0
LINE
  8
CSLAYER1
  6
CONTINUOUS
 62
     6
 10
111.299849
 20
221.356021
 11
127.599849
 21
221.356021
  0
ARC
  8
CSLAYER1
  6
CONTINUOUS
 62
     6
 10
111.299849
 20
223.356021
 40
2.000000
 50
180.000000
 51
270.000000
  0
ARC
  8
CSLAYER1
  6
CONTINUOUS
 62
     6
 10
111.299849
 20
249.356021
 40
2.000000
 50
90.000000
 51
180.000000
  0
LINE
  8
CSLAYER1
  6
CONTINUOUS
 62
     6
 10
109.299849
 20
242.695299
 11
113.124068
 21
242.695299
  0
LINE
  8
CSLAYER1
  6
CONTINUOUS
 62
     6
 10
109.964486
 20
250.844914
 11
113.124068
 21
250.844914
  0
LINE
  8
CSLAYER1
  6
CONTINUOUS
 62
     6
 10
113.124068
 20
242.695299
 11
113.124068
 21
250.844914
  0
LINE
  8
CSLAYER1
  6
CONTINUOUS
 62
     6
 10
113.124068
 20
248.401051
 11
127.599849
 21
248.401051
  0
LINE
  8
CSLAYER1
  6
CONTINUOUS
 62
     6
 10
113.124068
 20
244.841631
 11
127.599849
 21
244.841631
  0
LINE
  8
CSLAYER1
  6
CONTINUOUS
 62
     6
 10
109.299849
 20
230.016743
 11
113.124068
 21
230.016743
  0
LINE
  8
CSLAYER1
  6
CONTINUOUS
 62
     6
 10
109.964486
 20
221.867127
 11
113.124068
 21
221.867127
  0
LINE
  8
CSLAYER1
  6
CONTINUOUS
 62
     6
 10
113.124068
 20
230.016743
 11
113.124068
 21
221.867127
  0
LINE
  8
CSLAYER1
  6
CONTINUOUS
 62
     6
 10
113.124068
 20
224.310991
 11
127.599849
 21
224.310991
  0
LINE
  8
CSLAYER1
  6
CONTINUOUS
 62
     6
 10
113.124068
 20
227.870411
 11
127.599849
 21
227.870411
  0
LINE
  8
CSLAYER1
  6
CONTINUOUS
 62
     6
 10
113.124068
 20
226.235632
 11
119.107192
 21
226.235632
  0
LINE
  8
CSLAYER1
  6
CONTINUOUS
 62
     6
 10
113.124068
 20
225.207124
 11
119.107192
 21
225.207124
  0
LINE
  8
CSLAYER1
  6
CONTINUOUS
 62
     6
 10
119.107192
 20
226.235632
 11
119.107192
 21
225.207124
  0
LINE
  8
CSLAYER1
  6
CONTINUOUS
 62
     6
 10
124.899868
 20
158.705245
 11
124.899868
 21
161.336165
  0
LINE
  8
CSLAYER1
  6
CONTINUOUS
 62
     6
 10
113.124068
 20
159.930831
 11
113.124068
 21
150.218489
  0
LINE
  8
CSLAYER1
  6
CONTINUOUS
 62
     6
 10
119.107192
 20
157.407637
 11
119.107192
 21
156.371199
  0
LINE
  8
CSLAYER1
  6
CONTINUOUS
 62
     6
 10
109.390303
 20
159.930831
 11
113.124068
 21
159.930831
  0
LINE
  8
CSLAYER1
  6
CONTINUOUS
 62
     6
 10
113.124068
 20
150.218489
 11
109.299849
 21
150.218489
  0
LINE
  8
CSLAYER1
  6
CONTINUOUS
 62
     6
 10
119.107192
 20
157.407637
 11
113.124068
 21
157.407637
  0
LINE
  8
CSLAYER1
  6
CONTINUOUS
 62
     6
 10
119.107192
 20
156.371199
 11
113.124068
 21
156.371199
  0
ARC
  8
CSLAYER1
  6
CONTINUOUS
 62
     6
 10
111.299849
 20
122.136150
 40
2.000000
 50
180.000005
 51
270.000001
  0
LINE
  8
CSLAYER1
  6
CONTINUOUS
 62
     6
 10
109.299849
 20
159.336165
 11
109.299849
 21
122.136150
  0
LINE
  8
CSLAYER1
  6
CONTINUOUS
 62
     6
 10
121.279835
 20
117.636150
 11
121.919849
 21
117.636150
  0
LINE
  8
CSLAYER1
  6
CONTINUOUS
 62
     6
 10
121.279835
 20
120.136150
 11
121.279835
 21
117.636150
  0
LINE
  8
CSLAYER1
  6
CONTINUOUS
 62
     6
 10
121.919849
 20
120.136150
 11
121.919849
 21
117.636150
  0
LINE
  8
CSLAYER1
  6
CONTINUOUS
 62
     6
 10
111.299849
 20
120.136150
 11
127.599849
 21
120.136150
  0
LINE
  8
CSLAYER1
  6
CONTINUOUS
 62
     6
 10
111.299849
 20
161.336165
 11
127.599849
 21
161.336165
  0
LINE
  8
CSLAYER1
  6
CONTINUOUS
 62
     6
 10
113.124068
 20
158.705245
 11
127.599849
 21
158.705245
  0
LINE
  8
CSLAYER1
  6
CONTINUOUS
 62
     6
 10
113.124068
 20
155.275801
 11
127.599849
 21
155.275801
  0
ARC
  8
CSLAYER1
  6
CONTINUOUS
 62
     6
 10
111.299849
 20
159.336165
 40
2.000000
 50
89.999999
 51
179.999995
  0
LINE
  8
CSLAYER1
  6
CONTINUOUS
 62
     6
 10
109.299895
 20
65.989034
 11
109.299895
 21
39.989034
  0
LINE
  8
CSLAYER1
  6
CONTINUOUS
 62
     6
 10
111.299895
 20
67.989034
 11
127.599895
 21
67.989034
  0
LINE
  8
CSLAYER1
  6
CONTINUOUS
 62
     6
 10
111.299895
 20
37.989034
 11
127.599895
 21
37.989034
  0
ARC
  8
CSLAYER1
  6
CONTINUOUS
 62
     6
 10
111.299895
 20
39.989034
 40
2.000000
 50
180.000000
 51
270.000000
  0
ARC
  8
CSLAYER1
  6
CONTINUOUS
 62
     6
 10
111.299895
 20
65.989034
 40
2.000000
 50
90.000000
 51
180.000000
  0
LINE
  8
CSLAYER1
  6
CONTINUOUS
 62
     6
 10
121.279895
 20
53.309034
 11
121.919895
 21
53.309034
  0
LINE
  8
CSLAYER1
  6
CONTINUOUS
 62
     6
 10
121.279895
 20
52.669034
 11
121.919895
 21
52.669034
  0
LINE
  8
CSLAYER1
  6
CONTINUOUS
 62
     6
 10
121.919895
 20
53.309034
 11
121.919895
 21
52.669034
  0
LINE
  8
CSLAYER1
  6
CONTINUOUS
 62
     6
 10
121.279895
 20
53.309034
 11
121.279895
 21
52.669034
  0
LINE
  8
CSLAYER1
  6
CONTINUOUS
 62
     6
 10
124.599895
 20
67.989034
 11
124.599895
 21
65.489034
  0
LINE
  8
CSLAYER1
  6
CONTINUOUS
 62
     6
 10
124.599895
 20
65.489034
 11
127.599895
 21
65.489034
  0
LINE
  8
CSLAYER1
  6
CONTINUOUS
 62
     6
 10
124.599895
 20
61.989034
 11
124.599895
 21
43.989034
  0
LINE
  8
CSLAYER1
  6
CONTINUOUS
 62
     6
 10
124.599895
 20
37.989034
 11
124.599895
 21
40.489034
  0
LINE
  8
CSLAYER1
  6
CONTINUOUS
 62
     6
 10
124.599895
 20
40.489034
 11
127.599895
 21
40.489034
  0
LINE
  8
CSLAYER1
  6
CONTINUOUS
 62
     6
 10
124.599895
 20
61.989034
 11
127.599895
 21
61.989034
  0
LINE
  8
CSLAYER1
  6
CONTINUOUS
 62
     6
 10
124.599895
 20
43.989034
 11
127.599895
 21
43.989034
  0
LINE
  8
CSLAYER1
  6
CONTINUOUS
 62
     6
 10
117.499895
 20
60.239034
 11
124.599895
 21
60.239034
  0
LINE
  8
CSLAYER1
  6
CONTINUOUS
 62
     6
 10
117.499895
 20
45.739034
 11
124.599895
 21
45.739034
  0
LINE
  8
CSLAYER1
  6
CONTINUOUS
 62
     6
 10
117.499895
 20
60.239034
 11
117.499895
 21
45.739034
  0
LINE
  8
CSLAYER1
  6
CONTINUOUS
 62
     6
 10
121.279895
 20
55.849034
 11
121.919895
 21
55.849034
  0
LINE
  8
CSLAYER1
  6
CONTINUOUS
 62
     6
 10
121.279895
 20
55.209034
 11
121.919895
 21
55.209034
  0
LINE
  8
CSLAYER1
  6
CONTINUOUS
 62
     6
 10
121.919895
 20
55.849034
 11
121.919895
 21
55.209034
  0
LINE
  8
CSLAYER1
  6
CONTINUOUS
 62
     6
 10
121.279895
 20
55.849034
 11
121.279895
 21
55.209034
  0
LINE
  8
CSLAYER1
  6
CONTINUOUS
 62
     6
 10
121.279895
 20
58.389034
 11
121.919895
 21
58.389034
  0
LINE
  8
CSLAYER1
  6
CONTINUOUS
 62
     6
 10
121.279895
 20
57.749034
 11
121.919895
 21
57.749034
  0
LINE
  8
CSLAYER1
  6
CONTINUOUS
 62
     6
 10
121.919895
 20
58.389034
 11
121.919895
 21
57.749034
  0
LINE
  8
CSLAYER1
  6
CONTINUOUS
 62
     6
 10
121.279895
 20
58.389034
 11
121.279895
 21
57.749034
  0
LINE
  8
CSLAYER1
  6
CONTINUOUS
 62
     6
 10
121.279895
 20
50.769034
 11
121.919895
 21
50.769034
  0
LINE
  8
CSLAYER1
  6
CONTINUOUS
 62
     6
 10
121.279895
 20
50.129034
 11
121.919895
 21
50.129034
  0
LINE
  8
CSLAYER1
  6
CONTINUOUS
 62
     6
 10
121.919895
 20
50.769034
 11
121.919895
 21
50.129034
  0
LINE
  8
CSLAYER1
  6
CONTINUOUS
 62
     6
 10
121.279895
 20
50.769034
 11
121.279895
 21
50.129034
  0
LINE
  8
CSLAYER1
  6
CONTINUOUS
 62
     6
 10
121.279895
 20
48.229034
 11
121.919895
 21
48.229034
  0
LINE
  8
CSLAYER1
  6
CONTINUOUS
 62
     6
 10
121.279895
 20
47.589034
 11
121.919895
 21
47.589034
  0
LINE
  8
CSLAYER1
  6
CONTINUOUS
 62
     6
 10
121.919895
 20
48.229034
 11
121.919895
 21
47.589034
  0
LINE
  8
CSLAYER1
  6
CONTINUOUS
 62
     6
 10
121.279895
 20
48.229034
 11
121.279895
 21
47.589034
  0
ARC
  8
CSLAYER1
  6
CONTINUOUS
 62
     6
 10
185.599895
 20
52.989051
 40
8.000000
 50
179.442517
 51
180.557483
  0
LINE
  8
CSLAYER1
  6
CONTINUOUS
 62
     6
 10
164.000257
 20
48.989051
 11
168.599895
 21
48.989051
  0
LINE
  8
CSLAYER1
  6
CONTINUOUS
 62
     6
 10
164.000257
 20
40.989051
 11
168.599895
 21
40.989051
  0
CIRCLE
  8
CSLAYER1
  6
CONTINUOUS
 62
     6
 10
365.599849
 20
146.336135
 40
5.000000
  0
ENDSEC
  0
EOF
