  0
SECTION
  2
HEADER
  9
$ACADVER
  1
AC1015
  9
$ACADMAINTVER
 70
     6
  9
$DWGCODEPAGE
  3
ANSI_932
  9
$INSBASE
 10
0.0
 20
0.0
 30
0.0
  9
$EXTMIN
 10
0.0
 20
0.0
 30
0.0
  9
$EXTMAX
 10
420.0
 20
297.0
 30
0.0
  9
$LIMMIN
 10
0.0
 20
0.0
  9
$LIMMAX
 10
420.0
 20
297.0
  9
$ORTHOMODE
 70
     0
  9
$REGENMODE
 70
     1
  9
$FILLMODE
 70
     1
  9
$QTEXTMODE
 70
     0
  9
$MIRRTEXT
 70
     1
  9
$LTSCALE
 40
1.0
  9
$ATTMODE
 70
     1
  9
$TEXTSIZE
 40
2.5
  9
$TRACEWID
 40
1.0
  9
$TEXTSTYLE
  7
FX_VECTOR
  9
$CLAYER
  8
0
  9
$CELTYPE
  6
ByLayer
  9
$CECOLOR
 62
   256
  9
$CELTSCALE
 40
1.0
  9
$DISPSILH
 70
     0
  9
$DIMSCALE
 40
1.0
  9
$DIMASZ
 40
3.0
  9
$DIMEXO
 40
1.0
  9
$DIMDLI
 40
8.0
  9
$DIMRND
 40
0.0
  9
$DIMDLE
 40
5.0
  9
$DIMEXE
 40
1.0
  9
$DIMTP
 40
0.0
  9
$DIMTM
 40
0.0
  9
$DIMTXT
 40
3.5
  9
$DIMCEN
 40
2.5
  9
$DIMTSZ
 40
0.0
  9
$DIMTOL
 70
     0
  9
$DIMLIM
 70
     0
  9
$DIMTIH
 70
     0
  9
$DIMTOH
 70
     0
  9
$DIMSE1
 70
     0
  9
$DIMSE2
 70
     0
  9
$DIMTAD
 70
     1
  9
$DIMZIN
 70
     8
  9
$DIMBLK
  1

  9
$DIMASO
 70
     1
  9
$DIMSHO
 70
     1
  9
$DIMPOST
  1

  9
$DIMAPOST
  1

  9
$DIMALT
 70
     0
  9
$DIMALTD
 70
     3
  9
$DIMALTF
 40
0.03937
  9
$DIMLFAC
 40
1.0
  9
$DIMTOFL
 70
     1
  9
$DIMTVP
 40
0.0
  9
$DIMTIX
 70
     0
  9
$DIMSOXD
 70
     0
  9
$DIMSAH
 70
     1
  9
$DIMBLK1
  1
FXTIP_ARROW_S
  9
$DIMBLK2
  1
FXTIP_ARROW_E
  9
$DIMSTYLE
  2
FXDIMINFO
  9
$DIMCLRD
 70
     7
  9
$DIMCLRE
 70
     7
  9
$DIMCLRT
 70
     7
  9
$DIMTFAC
 40
1.0
  9
$DIMGAP
 40
0.5
  9
$DIMJUST
 70
     0
  9
$DIMSD1
 70
     0
  9
$DIMSD2
 70
     0
  9
$DIMTOLJ
 70
     1
  9
$DIMTZIN
 70
     8
  9
$DIMALTZ
 70
     0
  9
$DIMALTTZ
 70
     0
  9
$DIMUPT
 70
     0
  9
$DIMDEC
 70
     2
  9
$DIMTDEC
 70
     2
  9
$DIMALTU
 70
     2
  9
$DIMALTTD
 70
     3
  9
$DIMTXSTY
  7
FX_VECTOR
  9
$DIMAUNIT
 70
     0
  9
$DIMADEC
 70
     2
  9
$DIMALTRND
 40
0.0
  9
$DIMAZIN
 70
     2
  9
$DIMDSEP
 70
    46
  9
$DIMATFIT
 70
     3
  9
$DIMFRAC
 70
     0
  9
$DIMLDRBLK
  1
FXTIP_ARROW_S
  9
$DIMLUNIT
 70
     2
  9
$DIMLWD
 70
    -2
  9
$DIMLWE
 70
    -2
  9
$DIMTMOVE
 70
     0
  9
$LUNITS
 70
     2
  9
$LUPREC
 70
     4
  9
$SKETCHINC
 40
1.0
  9
$FILLETRAD
 40
10.0
  9
$AUNITS
 70
     0
  9
$AUPREC
 70
     0
  9
$MENU
  1
.
  9
$ELEVATION
 40
0.0
  9
$PELEVATION
 40
0.0
  9
$THICKNESS
 40
0.0
  9
$LIMCHECK
 70
     0
  9
$CHAMFERA
 40
10.0
  9
$CHAMFERB
 40
10.0
  9
$CHAMFERC
 40
20.0
  9
$CHAMFERD
 40
0.0
  9
$SKPOLY
 70
     0
  9
$TDCREATE
 40
2456323.634501771
  9
$TDUCREATE
 40
2456323.259501771
  9
$TDUPDATE
 40
2456323.634501782
  9
$TDUUPDATE
 40
2456323.259501782
  9
$TDINDWG
 40
0.0000000116
  9
$TDUSRTIMER
 40
0.0000000116
  9
$USRTIMER
 70
     1
  9
$ANGBASE
 50
0.0
  9
$ANGDIR
 70
     0
  9
$PDMODE
 70
     0
  9
$PDSIZE
 40
0.0
  9
$PLINEWID
 40
0.0
  9
$SPLFRAME
 70
     0
  9
$SPLINETYPE
 70
     6
  9
$SPLINESEGS
 70
     8
  9
$HANDSEED
  5
315
  9
$SURFTAB1
 70
     6
  9
$SURFTAB2
 70
     6
  9
$SURFTYPE
 70
     6
  9
$SURFU
 70
     6
  9
$SURFV
 70
     6
  9
$UCSBASE
  2

  9
$UCSNAME
  2

  9
$UCSORG
 10
0.0
 20
0.0
 30
0.0
  9
$UCSXDIR
 10
1.0
 20
0.0
 30
0.0
  9
$UCSYDIR
 10
0.0
 20
1.0
 30
0.0
  9
$UCSORTHOREF
  2

  9
$UCSORTHOVIEW
 70
     0
  9
$UCSORGTOP
 10
0.0
 20
0.0
 30
0.0
  9
$UCSORGBOTTOM
 10
0.0
 20
0.0
 30
0.0
  9
$UCSORGLEFT
 10
0.0
 20
0.0
 30
0.0
  9
$UCSORGRIGHT
 10
0.0
 20
0.0
 30
0.0
  9
$UCSORGFRONT
 10
0.0
 20
0.0
 30
0.0
  9
$UCSORGBACK
 10
0.0
 20
0.0
 30
0.0
  9
$PUCSBASE
  2

  9
$PUCSNAME
  2

  9
$PUCSORG
 10
0.0
 20
0.0
 30
0.0
  9
$PUCSXDIR
 10
1.0
 20
0.0
 30
0.0
  9
$PUCSYDIR
 10
0.0
 20
1.0
 30
0.0
  9
$PUCSORTHOREF
  2

  9
$PUCSORTHOVIEW
 70
     0
  9
$PUCSORGTOP
 10
0.0
 20
0.0
 30
0.0
  9
$PUCSORGBOTTOM
 10
0.0
 20
0.0
 30
0.0
  9
$PUCSORGLEFT
 10
0.0
 20
0.0
 30
0.0
  9
$PUCSORGRIGHT
 10
0.0
 20
0.0
 30
0.0
  9
$PUCSORGFRONT
 10
0.0
 20
0.0
 30
0.0
  9
$PUCSORGBACK
 10
0.0
 20
0.0
 30
0.0
  9
$USERI1
 70
     0
  9
$USERI2
 70
     0
  9
$USERI3
 70
     0
  9
$USERI4
 70
     0
  9
$USERI5
 70
     0
  9
$USERR1
 40
0.0
  9
$USERR2
 40
0.0
  9
$USERR3
 40
0.0
  9
$USERR4
 40
0.0
  9
$USERR5
 40
0.0
  9
$WORLDVIEW
 70
     1
  9
$SHADEDGE
 70
     3
  9
$SHADEDIF
 70
    70
  9
$TILEMODE
 70
     1
  9
$MAXACTVP
 70
    64
  9
$PINSBASE
 10
0.0
 20
0.0
 30
0.0
  9
$PLIMCHECK
 70
     0
  9
$PEXTMIN
 10
1.000000000000000E+20
 20
1.000000000000000E+20
 30
1.000000000000000E+20
  9
$PEXTMAX
 10
-1.000000000000000E+20
 20
-1.000000000000000E+20
 30
-1.000000000000000E+20
  9
$PLIMMIN
 10
0.0
 20
0.0
  9
$PLIMMAX
 10
420.0
 20
297.0
  9
$UNITMODE
 70
     0
  9
$VISRETAIN
 70
     1
  9
$PLINEGEN
 70
     0
  9
$PSLTSCALE
 70
     1
  9
$TREEDEPTH
 70
  3020
  9
$CMLSTYLE
  2
Standard
  9
$CMLJUST
 70
     0
  9
$CMLSCALE
 40
20.0
  9
$PROXYGRAPHICS
 70
     1
  9
$MEASUREMENT
 70
     1
  9
$CELWEIGHT
370
    -1
  9
$ENDCAPS
280
     0
  9
$JOINSTYLE
280
     0
  9
$LWDISPLAY
290
     0
  9
$INSUNITS
 70
     4
  9
$HYPERLINKBASE
  1

  9
$STYLESHEET
  1

  9
$XEDIT
290
     1
  9
$CEPSNTYPE
380
     0
  9
$PSTYLEMODE
290
     1
  9
$FINGERPRINTGUID
  2
{35DE5E99-0E4F-4FBC-ADD2-C97105CEC570}
  9
$VERSIONGUID
  2
{FAEB1C32-E019-11D5-929B-00C0DF256EC4}
  9
$EXTNAMES
290
     1
  9
$PSVPSCALE
 40
0.0
  9
$OLESTARTUP
290
     0
  0
ENDSEC
  0
SECTION
  2
CLASSES
  0
CLASS
  1
ACDBDICTIONARYWDFLT
  2
AcDbDictionaryWithDefault
  3
ObjectDBX Classes
 90
        0
280
     0
281
     0
  0
CLASS
  1
VISUALSTYLE
  2
AcDbVisualStyle
  3
ObjectDBX Classes
 90
     4095
280
     0
281
     0
  0
CLASS
  1
MATERIAL
  2
AcDbMaterial
  3
ObjectDBX Classes
 90
     1153
280
     0
281
     0
  0
CLASS
  1
DICTIONARYVAR
  2
AcDbDictionaryVar
  3
ObjectDBX Classes
 90
        0
280
     0
281
     0
  0
CLASS
  1
ACDBPLACEHOLDER
  2
AcDbPlaceHolder
  3
ObjectDBX Classes
 90
        0
280
     0
281
     0
  0
CLASS
  1
LAYOUT
  2
AcDbLayout
  3
ObjectDBX Classes
 90
        0
280
     0
281
     0
  0
ENDSEC
  0
SECTION
  2
TABLES
  0
TABLE
  2
VPORT
  5
8
330
0
100
AcDbSymbolTable
 70
     1
  0
VPORT
  5
29
330
8
100
AcDbSymbolTableRecord
100
AcDbViewportTableRecord
  2
*Active
 70
     0
 10
0.0
 20
0.0
 11
1.0
 21
1.0
 12
210.0
 22
148.5
 13
0.0
 23
0.0
 14
10.0
 24
10.0
 15
10.0
 25
10.0
 16
0.0
 26
0.0
 36
1.0
 17
0.0
 27
0.0
 37
0.0
 40
297.0
 41
1.414141414141414
 42
50.0
 43
0.0
 44
0.0
 50
0.0
 51
0.0
 71
     0
 72
   100
 73
     1
 74
     3
 75
     0
 76
     0
 77
     0
 78
     0
281
     0
 65
     1
110
0.0
120
0.0
130
0.0
111
1.0
121
0.0
131
0.0
112
0.0
122
1.0
132
0.0
 79
     0
146
0.0
  0
ENDTAB
  0
TABLE
  2
LTYPE
  5
5
330
0
100
AcDbSymbolTable
 70
     4
  0
LTYPE
  5
14
330
5
100
AcDbSymbolTableRecord
100
AcDbLinetypeTableRecord
  2
ByBlock
 70
     0
  3

 72
    65
 73
     0
 40
0.0
  0
LTYPE
  5
15
330
5
100
AcDbSymbolTableRecord
100
AcDbLinetypeTableRecord
  2
ByLayer
 70
     0
  3

 72
    65
 73
     0
 40
0.0
  0
LTYPE
  5
16
330
5
100
AcDbSymbolTableRecord
100
AcDbLinetypeTableRecord
  2
Continuous
 70
     0
  3
Solid line
 72
    65
 73
     0
 40
0.0
  0
LTYPE
  5
A8
330
5
100
AcDbSymbolTableRecord
100
AcDbLinetypeTableRecord
  2
実線
 70
     0
  3

 72
    65
 73
     0
 40
0.0
  0
LTYPE
  5
A9
330
5
100
AcDbSymbolTableRecord
100
AcDbLinetypeTableRecord
  2
一点鎖線
 70
     0
  3

 72
    65
 73
     4
 40
13.0
 49
10.0
 74
     0
 49
-1.0
 74
     0
 49
1.0
 74
     0
 49
-1.0
 74
     0
  0
LTYPE
  5
2E5
330
5
100
AcDbSymbolTableRecord
100
AcDbLinetypeTableRecord
  2
破線
 70
     0
  3

 72
    65
 73
     2
 40
2.8
 49
2.0
 74
     0
 49
-0.8
 74
     0
  0
ENDTAB
  0
TABLE
  2
LAYER
  5
2
330
0
100
AcDbSymbolTable
 70
     3
  0
LAYER
  5
10
330
2
100
AcDbSymbolTableRecord
100
AcDbLayerTableRecord
  2
0
 70
     0
 62
     7
  6
Continuous
370
    -3
390
F
  0
LAYER
  5
A7
330
2
100
AcDbSymbolTableRecord
100
AcDbLayerTableRecord
  2
GR1_01
 70
     0
 62
     1
  6
実線
370
    40
390
F
  0
LAYER
  5
2D9
330
2
100
AcDbSymbolTableRecord
100
AcDbLayerTableRecord
  2
作図レイヤ
 70
     0
 62
     5
  6
実線
370
    40
390
F
  0
ENDTAB
  0
TABLE
  2
STYLE
  5
3
330
0
100
AcDbSymbolTable
 70
     2
  0
STYLE
  5
11
330
3
100
AcDbSymbolTableRecord
100
AcDbTextStyleTableRecord
  2
Standard
 70
     0
 40
0.0
 41
1.0
 50
0.0
 71
     0
 42
2.5
  3
txt
  4

  0
STYLE
  5
3F
330
3
100
AcDbSymbolTableRecord
100
AcDbTextStyleTableRecord
  2
FX_VECTOR
 70
     0
 40
0.0
 41
1.0
 50
0.0
 71
     0
 42
0.2
  3
MONOTXT.SHX
  4
BigFont.shx
  0
ENDTAB
  0
TABLE
  2
VIEW
  5
6
330
0
100
AcDbSymbolTable
 70
     0
  0
ENDTAB
  0
TABLE
  2
UCS
  5
7
330
0
100
AcDbSymbolTable
 70
     0
  0
ENDTAB
  0
TABLE
  2
APPID
  5
9
330
0
100
AcDbSymbolTable
 70
     1
  0
APPID
  5
12
330
9
100
AcDbSymbolTableRecord
100
AcDbRegAppTableRecord
  2
ACAD
 70
     0
  0
ENDTAB
  0
TABLE
  2
DIMSTYLE
  5
A
330
0
100
AcDbSymbolTable
 70
     2
100
AcDbDimStyleTable
  0
DIMSTYLE
105
27
330
A
100
AcDbSymbolTableRecord
100
AcDbDimStyleTableRecord
  2
ISO-25
 70
     0
 41
2.5
 42
0.625
 43
3.75
 44
1.25
 73
     0
 74
     0
 77
     1
 78
     8
140
2.5
141
2.5
143
0.03937007874016
147
0.625
171
     3
172
     1
178
     0
271
     2
272
     2
274
     3
278
    44
283
     0
284
     8
340
11
  0
DIMSTYLE
105
A6
330
A
100
AcDbSymbolTableRecord
100
AcDbDimStyleTableRecord
  2
FXDIMINFO
 70
     0
 41
3.0
 42
1.0
 43
8.0
 44
1.0
 46
5.0
 73
     0
 74
     0
 77
     1
 78
     8
 79
     2
140
3.5
141
2.5
143
0.03937
147
0.5
171
     3
172
     1
173
     1
176
     7
177
     7
271
     2
178
     7
179
     2
271
     2
272
     2
274
     3
284
     8
340
3F
341
40
343
40
344
46
  0
ENDTAB
  0
TABLE
  2
BLOCK_RECORD
  5
1
330
0
100
AcDbSymbolTable
 70
    43
  0
BLOCK_RECORD
  5
1F
330
1
100
AcDbSymbolTableRecord
100
AcDbBlockTableRecord
  2
*Model_Space
340
22
  0
BLOCK_RECORD
  5
1B
330
1
100
AcDbSymbolTableRecord
100
AcDbBlockTableRecord
  2
*Paper_Space
340
1E
  0
BLOCK_RECORD
  5
23
330
1
100
AcDbSymbolTableRecord
100
AcDbBlockTableRecord
  2
*Paper_Space0
340
26
  0
BLOCK_RECORD
  5
40
330
1
100
AcDbSymbolTableRecord
100
AcDbBlockTableRecord
  2
FXTIP_ARROW_S
340
0
  0
BLOCK_RECORD
  5
46
330
1
100
AcDbSymbolTableRecord
100
AcDbBlockTableRecord
  2
FXTIP_ARROW_E
340
0
  0
BLOCK_RECORD
  5
4C
330
1
100
AcDbSymbolTableRecord
100
AcDbBlockTableRecord
  2
FXTIP_BLACKDOT_S
340
0
  0
BLOCK_RECORD
  5
52
330
1
100
AcDbSymbolTableRecord
100
AcDbBlockTableRecord
  2
FXTIP_BLACKDOT_E
340
0
  0
BLOCK_RECORD
  5
58
330
1
100
AcDbSymbolTableRecord
100
AcDbBlockTableRecord
  2
FXTIP_TRIANGLE_S
340
0
  0
BLOCK_RECORD
  5
5F
330
1
100
AcDbSymbolTableRecord
100
AcDbBlockTableRecord
  2
FXTIP_TRIANGLE_E
340
0
  0
BLOCK_RECORD
  5
66
330
1
100
AcDbSymbolTableRecord
100
AcDbBlockTableRecord
  2
FXTIP_ARCHITECT_S
340
0
  0
BLOCK_RECORD
  5
6C
330
1
100
AcDbSymbolTableRecord
100
AcDbBlockTableRecord
  2
FXTIP_ARCHITECT_E
340
0
  0
BLOCK_RECORD
  5
72
330
1
100
AcDbSymbolTableRecord
100
AcDbBlockTableRecord
  2
FXTIP_CIVIL_S
340
0
  0
BLOCK_RECORD
  5
78
330
1
100
AcDbSymbolTableRecord
100
AcDbBlockTableRecord
  2
FXTIP_CIVIL_E
340
0
  0
BLOCK_RECORD
  5
7E
330
1
100
AcDbSymbolTableRecord
100
AcDbBlockTableRecord
  2
FXTIP_WHITEDOT_S
340
0
  0
BLOCK_RECORD
  5
83
330
1
100
AcDbSymbolTableRecord
100
AcDbBlockTableRecord
  2
FXTIP_WHITEDOT_E
340
0
  0
BLOCK_RECORD
  5
88
330
1
100
AcDbSymbolTableRecord
100
AcDbBlockTableRecord
  2
FXTIP_UPARROW_S
340
0
  0
BLOCK_RECORD
  5
8D
330
1
100
AcDbSymbolTableRecord
100
AcDbBlockTableRecord
  2
FXTIP_UPARROW_E
340
0
  0
BLOCK_RECORD
  5
92
330
1
100
AcDbSymbolTableRecord
100
AcDbBlockTableRecord
  2
FXTIP_DOWNARROW_S
340
0
  0
BLOCK_RECORD
  5
97
330
1
100
AcDbSymbolTableRecord
100
AcDbBlockTableRecord
  2
FXTIP_DOWNARROW_E
340
0
  0
BLOCK_RECORD
  5
9C
330
1
100
AcDbSymbolTableRecord
100
AcDbBlockTableRecord
  2
FXTIP_BLACKTRIANGLE_S
340
0
  0
BLOCK_RECORD
  5
A1
330
1
100
AcDbSymbolTableRecord
100
AcDbBlockTableRecord
  2
FXTIP_BLACKTRIANGLE_E
340
0
  0
BLOCK_RECORD
  5
BA
330
1
100
AcDbSymbolTableRecord
100
AcDbBlockTableRecord
  2
BLKF022
340
0
102
{BLKREFS
331
BD
102
}
  0
BLOCK_RECORD
  5
C7
330
1
100
AcDbSymbolTableRecord
100
AcDbBlockTableRecord
  2
BLKF023
340
0
102
{BLKREFS
331
CA
102
}
  0
BLOCK_RECORD
  5
F9
330
1
100
AcDbSymbolTableRecord
100
AcDbBlockTableRecord
  2
BLKF024
340
0
102
{BLKREFS
331
FC
102
}
  0
BLOCK_RECORD
  5
108
330
1
100
AcDbSymbolTableRecord
100
AcDbBlockTableRecord
  2
BLKF025
340
0
102
{BLKREFS
331
10B
102
}
  0
BLOCK_RECORD
  5
118
330
1
100
AcDbSymbolTableRecord
100
AcDbBlockTableRecord
  2
BLKF026
340
0
102
{BLKREFS
331
11B
102
}
  0
BLOCK_RECORD
  5
131
330
1
100
AcDbSymbolTableRecord
100
AcDbBlockTableRecord
  2
BLKF027
340
0
102
{BLKREFS
331
134
102
}
  0
BLOCK_RECORD
  5
137
330
1
100
AcDbSymbolTableRecord
100
AcDbBlockTableRecord
  2
BLKF028
340
0
102
{BLKREFS
331
13A
102
}
  0
BLOCK_RECORD
  5
147
330
1
100
AcDbSymbolTableRecord
100
AcDbBlockTableRecord
  2
BLKF029
340
0
102
{BLKREFS
331
14A
102
}
  0
BLOCK_RECORD
  5
15A
330
1
100
AcDbSymbolTableRecord
100
AcDbBlockTableRecord
  2
BLKF030
340
0
102
{BLKREFS
331
15D
102
}
  0
BLOCK_RECORD
  5
16D
330
1
100
AcDbSymbolTableRecord
100
AcDbBlockTableRecord
  2
BLKF031
340
0
102
{BLKREFS
331
170
102
}
  0
BLOCK_RECORD
  5
17F
330
1
100
AcDbSymbolTableRecord
100
AcDbBlockTableRecord
  2
BLKF032
340
0
102
{BLKREFS
331
182
102
}
  0
BLOCK_RECORD
  5
191
330
1
100
AcDbSymbolTableRecord
100
AcDbBlockTableRecord
  2
BLKF033
340
0
102
{BLKREFS
331
194
102
}
  0
BLOCK_RECORD
  5
1A6
330
1
100
AcDbSymbolTableRecord
100
AcDbBlockTableRecord
  2
BLKF034
340
0
102
{BLKREFS
331
1A9
102
}
  0
BLOCK_RECORD
  5
1B2
330
1
100
AcDbSymbolTableRecord
100
AcDbBlockTableRecord
  2
BLKF035
340
0
102
{BLKREFS
331
1B5
102
}
  0
BLOCK_RECORD
  5
1BE
330
1
100
AcDbSymbolTableRecord
100
AcDbBlockTableRecord
  2
BLKF036
340
0
102
{BLKREFS
331
1C1
102
}
  0
BLOCK_RECORD
  5
1CA
330
1
100
AcDbSymbolTableRecord
100
AcDbBlockTableRecord
  2
BLKF037
340
0
102
{BLKREFS
331
1CD
102
}
  0
BLOCK_RECORD
  5
234
330
1
100
AcDbSymbolTableRecord
100
AcDbBlockTableRecord
  2
BLKF038
340
0
102
{BLKREFS
331
237
102
}
  0
BLOCK_RECORD
  5
241
330
1
100
AcDbSymbolTableRecord
100
AcDbBlockTableRecord
  2
BLKF039
340
0
102
{BLKREFS
331
244
102
}
  0
BLOCK_RECORD
  5
24E
330
1
100
AcDbSymbolTableRecord
100
AcDbBlockTableRecord
  2
BLKF040
340
0
102
{BLKREFS
331
251
102
}
  0
BLOCK_RECORD
  5
25B
330
1
100
AcDbSymbolTableRecord
100
AcDbBlockTableRecord
  2
BLKF041
340
0
102
{BLKREFS
331
25E
102
}
  0
BLOCK_RECORD
  5
26E
330
1
100
AcDbSymbolTableRecord
100
AcDbBlockTableRecord
  2
BLKF042
340
0
102
{BLKREFS
331
271
102
}
  0
BLOCK_RECORD
  5
281
330
1
100
AcDbSymbolTableRecord
100
AcDbBlockTableRecord
  2
BLKF043
340
0
102
{BLKREFS
331
284
102
}
  0
BLOCK_RECORD
  5
294
330
1
100
AcDbSymbolTableRecord
100
AcDbBlockTableRecord
  2
BLKF044
340
0
102
{BLKREFS
331
297
102
}
  0
BLOCK_RECORD
  5
2A6
330
1
100
AcDbSymbolTableRecord
100
AcDbBlockTableRecord
  2
BLKF045
340
0
102
{BLKREFS
331
2A9
102
}
  0
ENDTAB
  0
ENDSEC
  0
SECTION
  2
BLOCKS
  0
BLOCK
  5
20
330
1F
100
AcDbEntity
  8
0
100
AcDbBlockBegin
  2
*Model_Space
 70
     0
 10
0.0
 20
0.0
 30
0.0
  3
*Model_Space
  1

  0
ENDBLK
  5
21
330
1F
100
AcDbEntity
  8
0
100
AcDbBlockEnd
  0
BLOCK
  5
1C
330
1B
100
AcDbEntity
 67
     1
  8
0
100
AcDbBlockBegin
  2
*Paper_Space
 70
     0
 10
0.0
 20
0.0
 30
0.0
  3
*Paper_Space
  1

  0
ENDBLK
  5
1D
330
1B
100
AcDbEntity
 67
     1
  8
0
100
AcDbBlockEnd
  0
BLOCK
  5
24
330
23
100
AcDbEntity
  8
0
100
AcDbBlockBegin
  2
*Paper_Space0
 70
     0
 10
0.0
 20
0.0
 30
0.0
  3
*Paper_Space0
  1

  0
ENDBLK
  5
25
330
23
100
AcDbEntity
  8
0
100
AcDbBlockEnd
  0
BLOCK
  5
41
330
40
100
AcDbEntity
  8
0
100
AcDbBlockBegin
  2
FXTIP_ARROW_S
 70
     0
 10
0.0
 20
0.0
 30
0.0
  3
FXTIP_ARROW_S
  1

  0
LINE
  5
43
330
40
100
AcDbEntity
  8
0
  6
Continuous
 62
     0
370
    -2
100
AcDbLine
 10
0.0
 20
0.0
 30
0.0
 11
-1.0
 21
0.0000000000000001
 31
0.0
  0
LINE
  5
44
330
40
100
AcDbEntity
  8
0
  6
Continuous
 62
     0
370
    -2
100
AcDbLine
 10
0.0
 20
0.0
 30
0.0
 11
-0.9914448613738104
 21
-0.1305261922200515
 31
0.0
  0
LINE
  5
45
330
40
100
AcDbEntity
  8
0
  6
Continuous
 62
     0
370
    -2
100
AcDbLine
 10
0.0
 20
0.0
 30
0.0
 11
-0.9914448613738104
 21
0.1305261922200517
 31
0.0
  0
ENDBLK
  5
42
330
40
100
AcDbEntity
  8
0
100
AcDbBlockEnd
  0
BLOCK
  5
47
330
46
100
AcDbEntity
  8
0
100
AcDbBlockBegin
  2
FXTIP_ARROW_E
 70
     0
 10
0.0
 20
0.0
 30
0.0
  3
FXTIP_ARROW_E
  1

  0
LINE
  5
49
330
46
100
AcDbEntity
  8
0
  6
Continuous
 62
     0
370
    -2
100
AcDbLine
 10
0.0
 20
0.0
 30
0.0
 11
-1.0
 21
0.0
 31
0.0
  0
LINE
  5
4A
330
46
100
AcDbEntity
  8
0
  6
Continuous
 62
     0
370
    -2
100
AcDbLine
 10
0.0
 20
0.0
 30
0.0
 11
-0.9914448613738104
 21
0.1305261922200516
 31
0.0
  0
LINE
  5
4B
330
46
100
AcDbEntity
  8
0
  6
Continuous
 62
     0
370
    -2
100
AcDbLine
 10
0.0
 20
0.0
 30
0.0
 11
-0.9914448613738104
 21
-0.1305261922200516
 31
0.0
  0
ENDBLK
  5
48
330
46
100
AcDbEntity
  8
0
100
AcDbBlockEnd
  0
BLOCK
  5
4D
330
4C
100
AcDbEntity
  8
0
100
AcDbBlockBegin
  2
FXTIP_BLACKDOT_S
 70
     0
 10
0.0
 20
0.0
 30
0.0
  3
FXTIP_BLACKDOT_S
  1

  0
LINE
  5
4F
330
4C
100
AcDbEntity
  8
0
  6
Continuous
 62
     0
370
    -2
100
AcDbLine
 10
0.0
 20
0.0
 30
0.0
 11
-1.0
 21
0.0000000000000001
 31
0.0
  0
LWPOLYLINE
  5
50
330
4C
100
AcDbEntity
  8
0
  6
Continuous
 62
     0
370
    -2
100
AcDbPolyline
 90
        2
 70
     1
 10
-0.25
 20
0.0
 40
0.5
 41
0.5
 42
1.0
 10
0.25
 20
0.0
 40
0.5
 41
0.5
 42
1.0
  0
CIRCLE
  5
51
330
4C
100
AcDbEntity
  8
0
  6
Continuous
 62
     0
370
    -2
100
AcDbCircle
 10
0.0
 20
0.0
 30
0.0
 40
0.5
  0
ENDBLK
  5
4E
330
4C
100
AcDbEntity
  8
0
100
AcDbBlockEnd
  0
BLOCK
  5
53
330
52
100
AcDbEntity
  8
0
100
AcDbBlockBegin
  2
FXTIP_BLACKDOT_E
 70
     0
 10
0.0
 20
0.0
 30
0.0
  3
FXTIP_BLACKDOT_E
  1

  0
LINE
  5
55
330
52
100
AcDbEntity
  8
0
  6
Continuous
 62
     0
370
    -2
100
AcDbLine
 10
0.0
 20
0.0
 30
0.0
 11
-1.0
 21
0.0
 31
0.0
  0
LWPOLYLINE
  5
56
330
52
100
AcDbEntity
  8
0
  6
Continuous
 62
     0
370
    -2
100
AcDbPolyline
 90
        2
 70
     1
 10
-0.25
 20
0.0
 40
0.5
 41
0.5
 42
1.0
 10
0.25
 20
0.0
 40
0.5
 41
0.5
 42
1.0
  0
CIRCLE
  5
57
330
52
100
AcDbEntity
  8
0
  6
Continuous
 62
     0
370
    -2
100
AcDbCircle
 10
0.0
 20
0.0
 30
0.0
 40
0.5
  0
ENDBLK
  5
54
330
52
100
AcDbEntity
  8
0
100
AcDbBlockEnd
  0
BLOCK
  5
59
330
58
100
AcDbEntity
  8
0
100
AcDbBlockBegin
  2
FXTIP_TRIANGLE_S
 70
     0
 10
0.0
 20
0.0
 30
0.0
  3
FXTIP_TRIANGLE_S
  1

  0
LINE
  5
5B
330
58
100
AcDbEntity
  8
0
  6
Continuous
 62
     0
370
    -2
100
AcDbLine
 10
0.0
 20
0.0
 30
0.0
 11
-1.0
 21
0.0000000000000001
 31
0.0
  0
LINE
  5
5C
330
58
100
AcDbEntity
  8
0
  6
Continuous
 62
     0
370
    -2
100
AcDbLine
 10
0.0
 20
0.0
 30
0.0
 11
-0.9914448613738104
 21
-0.1305261922200515
 31
0.0
  0
LINE
  5
5D
330
58
100
AcDbEntity
  8
0
  6
Continuous
 62
     0
370
    -2
100
AcDbLine
 10
0.0
 20
0.0
 30
0.0
 11
-0.9914448613738104
 21
0.1305261922200517
 31
0.0
  0
LINE
  5
5E
330
58
100
AcDbEntity
  8
0
  6
Continuous
 62
     0
370
    -2
100
AcDbLine
 10
-0.9914448613738104
 20
-0.1305261922200515
 30
0.0
 11
-0.9914448613738104
 21
0.1305261922200517
 31
0.0
  0
ENDBLK
  5
5A
330
58
100
AcDbEntity
  8
0
100
AcDbBlockEnd
  0
BLOCK
  5
60
330
5F
100
AcDbEntity
  8
0
100
AcDbBlockBegin
  2
FXTIP_TRIANGLE_E
 70
     0
 10
0.0
 20
0.0
 30
0.0
  3
FXTIP_TRIANGLE_E
  1

  0
LINE
  5
62
330
5F
100
AcDbEntity
  8
0
  6
Continuous
 62
     0
370
    -2
100
AcDbLine
 10
0.0
 20
0.0
 30
0.0
 11
-1.0
 21
0.0
 31
0.0
  0
LINE
  5
63
330
5F
100
AcDbEntity
  8
0
  6
Continuous
 62
     0
370
    -2
100
AcDbLine
 10
0.0
 20
0.0
 30
0.0
 11
-0.9914448613738104
 21
0.1305261922200516
 31
0.0
  0
LINE
  5
64
330
5F
100
AcDbEntity
  8
0
  6
Continuous
 62
     0
370
    -2
100
AcDbLine
 10
0.0
 20
0.0
 30
0.0
 11
-0.9914448613738104
 21
-0.1305261922200516
 31
0.0
  0
LINE
  5
65
330
5F
100
AcDbEntity
  8
0
  6
Continuous
 62
     0
370
    -2
100
AcDbLine
 10
-0.9914448613738104
 20
0.1305261922200516
 30
0.0
 11
-0.9914448613738104
 21
-0.1305261922200516
 31
0.0
  0
ENDBLK
  5
61
330
5F
100
AcDbEntity
  8
0
100
AcDbBlockEnd
  0
BLOCK
  5
67
330
66
100
AcDbEntity
  8
0
100
AcDbBlockBegin
  2
FXTIP_ARCHITECT_S
 70
     0
 10
0.0
 20
0.0
 30
0.0
  3
FXTIP_ARCHITECT_S
  1

  0
LINE
  5
69
330
66
100
AcDbEntity
  8
0
  6
Continuous
 62
     0
370
    -2
100
AcDbLine
 10
0.0
 20
0.0
 30
0.0
 11
-1.0
 21
0.0000000000000001
 31
0.0
  0
LINE
  5
6A
330
66
100
AcDbEntity
  8
0
  6
Continuous
 62
     0
370
    -2
100
AcDbLine
 10
0.0
 20
0.0
 30
0.0
 11
-0.7071067811865476
 21
-0.7071067811865474
 31
0.0
  0
LINE
  5
6B
330
66
100
AcDbEntity
  8
0
  6
Continuous
 62
     0
370
    -2
100
AcDbLine
 10
0.0
 20
0.0
 30
0.0
 11
0.7071067811865476
 21
0.7071067811865474
 31
0.0
  0
ENDBLK
  5
68
330
66
100
AcDbEntity
  8
0
100
AcDbBlockEnd
  0
BLOCK
  5
6D
330
6C
100
AcDbEntity
  8
0
100
AcDbBlockBegin
  2
FXTIP_ARCHITECT_E
 70
     0
 10
0.0
 20
0.0
 30
0.0
  3
FXTIP_ARCHITECT_E
  1

  0
LINE
  5
6F
330
6C
100
AcDbEntity
  8
0
  6
Continuous
 62
     0
370
    -2
100
AcDbLine
 10
0.0
 20
0.0
 30
0.0
 11
-1.0
 21
0.0
 31
0.0
  0
LINE
  5
70
330
6C
100
AcDbEntity
  8
0
  6
Continuous
 62
     0
370
    -2
100
AcDbLine
 10
0.0
 20
0.0
 30
0.0
 11
0.7071067811865475
 21
0.7071067811865475
 31
0.0
  0
LINE
  5
71
330
6C
100
AcDbEntity
  8
0
  6
Continuous
 62
     0
370
    -2
100
AcDbLine
 10
0.0
 20
0.0
 30
0.0
 11
-0.7071067811865475
 21
-0.7071067811865475
 31
0.0
  0
ENDBLK
  5
6E
330
6C
100
AcDbEntity
  8
0
100
AcDbBlockEnd
  0
BLOCK
  5
73
330
72
100
AcDbEntity
  8
0
100
AcDbBlockBegin
  2
FXTIP_CIVIL_S
 70
     0
 10
0.0
 20
0.0
 30
0.0
  3
FXTIP_CIVIL_S
  1

  0
LINE
  5
75
330
72
100
AcDbEntity
  8
0
  6
Continuous
 62
     0
370
    -2
100
AcDbLine
 10
0.0
 20
0.0
 30
0.0
 11
-1.0
 21
0.0000000000000001
 31
0.0
  0
LINE
  5
76
330
72
100
AcDbEntity
  8
0
  6
Continuous
 62
     0
370
    -2
100
AcDbLine
 10
0.0
 20
-0.0833333333333333
 30
0.0
 11
-1.0
 21
-0.0833333333333332
 31
0.0
  0
LINE
  5
77
330
72
100
AcDbEntity
  8
0
  6
Continuous
 62
     0
370
    -2
100
AcDbLine
 10
0.0
 20
-0.1666666666666667
 30
0.0
 11
-1.0
 21
-0.1666666666666666
 31
0.0
  0
ENDBLK
  5
74
330
72
100
AcDbEntity
  8
0
100
AcDbBlockEnd
  0
BLOCK
  5
79
330
78
100
AcDbEntity
  8
0
100
AcDbBlockBegin
  2
FXTIP_CIVIL_E
 70
     0
 10
0.0
 20
0.0
 30
0.0
  3
FXTIP_CIVIL_E
  1

  0
LINE
  5
7B
330
78
100
AcDbEntity
  8
0
  6
Continuous
 62
     0
370
    -2
100
AcDbLine
 10
0.0
 20
0.0
 30
0.0
 11
-1.0
 21
0.0
 31
0.0
  0
LINE
  5
7C
330
78
100
AcDbEntity
  8
0
  6
Continuous
 62
     0
370
    -2
100
AcDbLine
 10
0.0
 20
0.0833333333333333
 30
0.0
 11
-1.0
 21
0.0833333333333333
 31
0.0
  0
LINE
  5
7D
330
78
100
AcDbEntity
  8
0
  6
Continuous
 62
     0
370
    -2
100
AcDbLine
 10
0.0
 20
0.1666666666666667
 30
0.0
 11
-1.0
 21
0.1666666666666667
 31
0.0
  0
ENDBLK
  5
7A
330
78
100
AcDbEntity
  8
0
100
AcDbBlockEnd
  0
BLOCK
  5
7F
330
7E
100
AcDbEntity
  8
0
100
AcDbBlockBegin
  2
FXTIP_WHITEDOT_S
 70
     0
 10
0.0
 20
0.0
 30
0.0
  3
FXTIP_WHITEDOT_S
  1

  0
LINE
  5
81
330
7E
100
AcDbEntity
  8
0
  6
Continuous
 62
     0
370
    -2
100
AcDbLine
 10
0.0
 20
0.0
 30
0.0
 11
-1.0
 21
0.0000000000000001
 31
0.0
  0
CIRCLE
  5
82
330
7E
100
AcDbEntity
  8
0
  6
Continuous
 62
     0
370
    -2
100
AcDbCircle
 10
0.0
 20
0.0
 30
0.0
 40
0.5
  0
ENDBLK
  5
80
330
7E
100
AcDbEntity
  8
0
100
AcDbBlockEnd
  0
BLOCK
  5
84
330
83
100
AcDbEntity
  8
0
100
AcDbBlockBegin
  2
FXTIP_WHITEDOT_E
 70
     0
 10
0.0
 20
0.0
 30
0.0
  3
FXTIP_WHITEDOT_E
  1

  0
LINE
  5
86
330
83
100
AcDbEntity
  8
0
  6
Continuous
 62
     0
370
    -2
100
AcDbLine
 10
0.0
 20
0.0
 30
0.0
 11
-1.0
 21
0.0
 31
0.0
  0
CIRCLE
  5
87
330
83
100
AcDbEntity
  8
0
  6
Continuous
 62
     0
370
    -2
100
AcDbCircle
 10
0.0
 20
0.0
 30
0.0
 40
0.5
  0
ENDBLK
  5
85
330
83
100
AcDbEntity
  8
0
100
AcDbBlockEnd
  0
BLOCK
  5
89
330
88
100
AcDbEntity
  8
0
100
AcDbBlockBegin
  2
FXTIP_UPARROW_S
 70
     0
 10
0.0
 20
0.0
 30
0.0
  3
FXTIP_UPARROW_S
  1

  0
LINE
  5
8B
330
88
100
AcDbEntity
  8
0
  6
Continuous
 62
     0
370
    -2
100
AcDbLine
 10
0.0
 20
0.0
 30
0.0
 11
-1.0
 21
0.0000000000000001
 31
0.0
  0
LINE
  5
8C
330
88
100
AcDbEntity
  8
0
  6
Continuous
 62
     0
370
    -2
100
AcDbLine
 10
0.0
 20
0.0
 30
0.0
 11
-0.9914448613738104
 21
-0.1305261922200515
 31
0.0
  0
ENDBLK
  5
8A
330
88
100
AcDbEntity
  8
0
100
AcDbBlockEnd
  0
BLOCK
  5
8E
330
8D
100
AcDbEntity
  8
0
100
AcDbBlockBegin
  2
FXTIP_UPARROW_E
 70
     0
 10
0.0
 20
0.0
 30
0.0
  3
FXTIP_UPARROW_E
  1

  0
LINE
  5
90
330
8D
100
AcDbEntity
  8
0
  6
Continuous
 62
     0
370
    -2
100
AcDbLine
 10
0.0
 20
0.0
 30
0.0
 11
-1.0
 21
0.0
 31
0.0
  0
LINE
  5
91
330
8D
100
AcDbEntity
  8
0
  6
Continuous
 62
     0
370
    -2
100
AcDbLine
 10
0.0
 20
0.0
 30
0.0
 11
-0.9914448613738104
 21
0.1305261922200516
 31
0.0
  0
ENDBLK
  5
8F
330
8D
100
AcDbEntity
  8
0
100
AcDbBlockEnd
  0
BLOCK
  5
93
330
92
100
AcDbEntity
  8
0
100
AcDbBlockBegin
  2
FXTIP_DOWNARROW_S
 70
     0
 10
0.0
 20
0.0
 30
0.0
  3
FXTIP_DOWNARROW_S
  1

  0
LINE
  5
95
330
92
100
AcDbEntity
  8
0
  6
Continuous
 62
     0
370
    -2
100
AcDbLine
 10
0.0
 20
0.0
 30
0.0
 11
-1.0
 21
0.0000000000000001
 31
0.0
  0
LINE
  5
96
330
92
100
AcDbEntity
  8
0
  6
Continuous
 62
     0
370
    -2
100
AcDbLine
 10
0.0
 20
0.0
 30
0.0
 11
-0.9914448613738104
 21
0.1305261922200517
 31
0.0
  0
ENDBLK
  5
94
330
92
100
AcDbEntity
  8
0
100
AcDbBlockEnd
  0
BLOCK
  5
98
330
97
100
AcDbEntity
  8
0
100
AcDbBlockBegin
  2
FXTIP_DOWNARROW_E
 70
     0
 10
0.0
 20
0.0
 30
0.0
  3
FXTIP_DOWNARROW_E
  1

  0
LINE
  5
9A
330
97
100
AcDbEntity
  8
0
  6
Continuous
 62
     0
370
    -2
100
AcDbLine
 10
0.0
 20
0.0
 30
0.0
 11
-1.0
 21
0.0
 31
0.0
  0
LINE
  5
9B
330
97
100
AcDbEntity
  8
0
  6
Continuous
 62
     0
370
    -2
100
AcDbLine
 10
0.0
 20
0.0
 30
0.0
 11
-0.9914448613738104
 21
-0.1305261922200516
 31
0.0
  0
ENDBLK
  5
99
330
97
100
AcDbEntity
  8
0
100
AcDbBlockEnd
  0
BLOCK
  5
9D
330
9C
100
AcDbEntity
  8
0
100
AcDbBlockBegin
  2
FXTIP_BLACKTRIANGLE_S
 70
     0
 10
0.0
 20
0.0
 30
0.0
  3
FXTIP_BLACKTRIANGLE_S
  1

  0
LINE
  5
9F
330
9C
100
AcDbEntity
  8
0
  6
Continuous
 62
     0
370
    -2
100
AcDbLine
 10
0.0
 20
0.0
 30
0.0
 11
-1.0
 21
0.0000000000000001
 31
0.0
  0
SOLID
  5
A0
330
9C
100
AcDbEntity
  8
0
  6
Continuous
 62
     0
370
    -2
100
AcDbTrace
 10
0.0
 20
0.0
 30
0.0
 11
-0.9914448613738104
 21
-0.1305261922200515
 31
0.0
 12
-0.9914448613738104
 22
0.1305261922200517
 32
0.0
 13
-0.9914448613738104
 23
0.1305261922200517
 33
0.0
  0
ENDBLK
  5
9E
330
9C
100
AcDbEntity
  8
0
100
AcDbBlockEnd
  0
BLOCK
  5
A2
330
A1
100
AcDbEntity
  8
0
100
AcDbBlockBegin
  2
FXTIP_BLACKTRIANGLE_E
 70
     0
 10
0.0
 20
0.0
 30
0.0
  3
FXTIP_BLACKTRIANGLE_E
  1

  0
LINE
  5
A4
330
A1
100
AcDbEntity
  8
0
  6
Continuous
 62
     0
370
    -2
100
AcDbLine
 10
0.0
 20
0.0
 30
0.0
 11
-1.0
 21
0.0
 31
0.0
  0
SOLID
  5
A5
330
A1
100
AcDbEntity
  8
0
  6
Continuous
 62
     0
370
    -2
100
AcDbTrace
 10
0.0
 20
0.0
 30
0.0
 11
-0.9914448613738104
 21
0.1305261922200516
 31
0.0
 12
-0.9914448613738104
 22
-0.1305261922200516
 32
0.0
 13
-0.9914448613738104
 23
-0.1305261922200516
 33
0.0
  0
ENDBLK
  5
A3
330
A1
100
AcDbEntity
  8
0
100
AcDbBlockEnd
  0
BLOCK
  5
BB
330
BA
100
AcDbEntity
  8
0
100
AcDbBlockBegin
  2
BLKF022
 70
     0
 10
0.0
 20
0.0
 30
0.0
  3
BLKF022
  1

  0
LINE
  5
BE
330
BA
100
AcDbEntity
  8
0
  6
ByBlock
 62
     0
370
    -2
100
AcDbLine
 10
212.6682524394312
 20
78.47392898784958
 30
0.0
 11
212.6682524394312
 21
140.4739289878496
 31
0.0
  0
LINE
  5
BF
330
BA
100
AcDbEntity
  8
0
  6
ByBlock
 62
     0
370
    -2
100
AcDbLine
 10
216.1682524394313
 20
70.47392898784958
 30
0.0
 11
216.1682524394312
 21
148.4739289878496
 31
0.0
  0
LINE
  5
C0
330
BA
100
AcDbEntity
  8
0
  6
ByBlock
 62
     0
370
    -2
100
AcDbLine
 10
212.6682524394313
 20
140.4739461546803
 30
0.0
 11
213.0780349648126
 21
140.4739461538774
 31
0.0
  0
LINE
  5
C1
330
BA
100
AcDbEntity
  8
0
  6
ByBlock
 62
     0
370
    -2
100
AcDbLine
 10
222.6682524394312
 20
69.47392898784955
 30
0.0
 11
222.6682524394312
 21
149.4739289878496
 31
0.0
  0
LINE
  5
C2
330
BA
100
AcDbEntity
  8
0
  6
ByBlock
 62
     0
370
    -2
100
AcDbLine
 10
213.0780364205552
 20
78.47392898784958
 30
0.0
 11
212.6682524394312
 21
78.47392898784958
 31
0.0
  0
LINE
  5
C3
330
BA
100
AcDbEntity
  8
0
  6
ByBlock
 62
     0
370
    -2
100
AcDbLine
 10
222.6682524394312
 20
69.47392898784958
 30
0.0
 11
217.1682524394313
 21
69.47392898784958
 31
0.0
  0
LINE
  5
C4
330
BA
100
AcDbEntity
  8
0
  6
ByBlock
 62
     0
370
    -2
100
AcDbLine
 10
222.6682524394312
 20
149.4739289878495
 30
0.0
 11
217.1682524394312
 21
149.4739289878496
 31
0.0
  0
ARC
  5
C5
330
BA
100
AcDbEntity
  8
0
  6
ByBlock
 62
     0
370
    -2
100
AcDbCircle
 10
217.1682524394312
 20
148.4739289878496
 30
0.0
 40
1.0
100
AcDbArc
 50
90.0
 51
180.0
  0
ARC
  5
C6
330
BA
100
AcDbEntity
  8
0
  6
ByBlock
 62
     0
370
    -2
100
AcDbCircle
 10
217.1682524394313
 20
70.47392898784958
 30
0.0
 40
1.0
100
AcDbArc
 50
180.0
 51
270.0
  0
ENDBLK
  5
BC
330
BA
100
AcDbEntity
  8
0
100
AcDbBlockEnd
  0
BLOCK
  5
C8
330
C7
100
AcDbEntity
  8
0
100
AcDbBlockBegin
  2
BLKF023
 70
     0
 10
0.0
 20
0.0
 30
0.0
  3
BLKF023
  1

  0
LINE
  5
CB
330
C7
100
AcDbEntity
  8
0
  6
ByBlock
 62
     0
370
    -2
100
AcDbLine
 10
114.6682524394312
 20
80.97392898784958
 30
0.0
 11
114.6682524394312
 21
137.9739289878496
 31
0.0
  0
LINE
  5
CC
330
C7
100
AcDbEntity
  8
0
  6
ByBlock
 62
     0
370
    -2
100
AcDbLine
 10
115.6682524394312
 20
79.9577999555915
 30
0.0
 11
115.6682524394312
 21
138.9900580201076
 31
0.0
  0
LINE
  5
CD
330
C7
100
AcDbEntity
  8
GR1_01
  6
一点鎖線
 62
     7
370
    20
100
AcDbLine
 10
134.6682524394322
 20
122.4739466971409
 30
0.0
 11
134.6682524394322
 21
55.86599247272227
 31
0.0
  0
CIRCLE
  5
CE
330
C7
100
AcDbEntity
  8
0
  6
ByBlock
 62
     0
370
    -2
100
AcDbCircle
 10
134.6682524394322
 20
109.4739466971411
 30
0.0
 40
8.0
  0
CIRCLE
  5
CF
330
C7
100
AcDbEntity
  8
0
  6
ByBlock
 62
     0
370
    -2
100
AcDbCircle
 10
134.6682524394322
 20
109.4739466971411
 30
0.0
 40
6.0
  0
CIRCLE
  5
D0
330
C7
100
AcDbEntity
  8
0
  6
ByBlock
 62
     7
370
    20
100
AcDbCircle
 10
134.6682524394322
 20
109.4739466971411
 30
0.0
 40
5.5
  0
LINE
  5
D1
330
C7
100
AcDbEntity
  8
0
  6
ByBlock
 62
     0
370
    -2
100
AcDbLine
 10
137.4182524394322
 20
110.273949748901
 30
0.0
 11
131.9182524394322
 21
110.273949748901
 31
0.0
  0
LINE
  5
D2
330
C7
100
AcDbEntity
  8
0
  6
ByBlock
 62
     0
370
    -2
100
AcDbLine
 10
137.4182524394322
 20
108.673943645381
 30
0.0
 11
131.9182524394322
 21
108.673943645381
 31
0.0
  0
LINE
  5
D3
330
C7
100
AcDbEntity
  8
0
  6
ByBlock
 62
     0
370
    -2
100
AcDbLine
 10
131.9182524394322
 20
110.273949748901
 30
0.0
 11
131.9182524394322
 21
108.673943645381
 31
0.0
  0
LINE
  5
D4
330
C7
100
AcDbEntity
  8
0
  6
ByBlock
 62
     0
370
    -2
100
AcDbLine
 10
137.4182524394322
 20
110.273949748901
 30
0.0
 11
137.4182524394322
 21
108.673943645381
 31
0.0
  0
ARC
  5
D5
330
C7
100
AcDbEntity
  8
0
  6
ByBlock
 62
     0
370
    -2
100
AcDbCircle
 10
120.0094019299341
 20
66.00185673053215
 30
0.0
 40
15.758815765381
100
AcDbArc
 50
332.53620185589
 51
359.9426910704
  0
ARC
  5
D6
330
C7
100
AcDbEntity
  8
0
  6
ByBlock
 62
     0
370
    -2
100
AcDbCircle
 10
120.0094019299341
 20
66.00185673053215
 30
0.0
 40
13.558834075928
100
AcDbArc
 50
332.53620185589
 51
359.9426910704
  0
ARC
  5
D7
330
C7
100
AcDbEntity
  8
0
  6
ByBlock
 62
     0
370
    -2
100
AcDbCircle
 10
135.2182337170461
 20
65.04926578815218
 30
0.0
 40
1.0999990701675
100
AcDbArc
 50
60.0003500093
 51
120.00034484876
  0
ARC
  5
D8
330
C7
100
AcDbEntity
  8
0
  6
ByBlock
 62
     0
370
    -2
100
AcDbCircle
 10
134.1182352429261
 20
65.04925052936221
 30
0.0
 40
1.0999990701675
100
AcDbArc
 50
60.0003500093
 51
120.00034484876
  0
ARC
  5
D9
330
C7
100
AcDbEntity
  8
0
  6
ByBlock
 62
     0
370
    -2
100
AcDbCircle
 10
134.1182276135261
 20
66.95450870807224
 30
0.0
 40
1.0999990701675
100
AcDbArc
 50
240.00036184845
 51
300.00034985772
  0
LINE
  5
DA
330
C7
100
AcDbEntity
  8
0
  6
ByBlock
 62
     0
370
    -2
100
AcDbLine
 10
132.6978021984861
 20
59.40690128619224
 30
0.0
 11
131.0806452160661
 21
56.46882908160217
 31
0.0
  0
LINE
  5
DB
330
C7
100
AcDbEntity
  8
0
  6
ByBlock
 62
     0
370
    -2
100
AcDbLine
 10
133.1867243176261
 20
59.15276615436221
 30
0.0
 11
131.6099420910661
 21
56.14535038287227
 31
0.0
  0
LINE
  5
DC
330
C7
100
AcDbEntity
  8
0
  6
ByBlock
 62
     0
370
    -2
100
AcDbLine
 10
133.5848566418461
 20
58.94581119830218
 30
0.0
 11
132.1833673840361
 21
55.86600773151224
 31
0.0
  0
LINE
  5
DD
330
C7
100
AcDbEntity
  8
0
  6
ByBlock
 62
     0
370
    -2
100
AcDbLine
 10
132.0401789074761
 20
59.74869816119224
 30
0.0
 11
133.9922357922361
 21
58.73408024127218
 31
0.0
  0
ARC
  5
DE
330
C7
100
AcDbEntity
  8
0
  6
ByBlock
 62
     0
370
    -2
100
AcDbCircle
 10
149.3270899182161
 20
66.00185673053215
 30
0.0
 40
15.758815765381
100
AcDbArc
 50
202.422068054
 51
207.4638678125
  0
ARC
  5
DF
330
C7
100
AcDbEntity
  8
0
  6
ByBlock
 62
     0
370
    -2
100
AcDbCircle
 10
149.3270899182161
 20
66.00185673053215
 30
0.0
 40
13.558834075928
100
AcDbArc
 50
179.9999776882
 51
207.4638678125
  0
LINE
  5
E0
330
C7
100
AcDbEntity
  8
0
  6
ByBlock
 62
     0
370
    -2
100
AcDbLine
 10
136.6386896496561
 20
59.40687076861218
 30
0.0
 11
138.2558618908761
 21
56.46881382281219
 31
0.0
  0
LINE
  5
E1
330
C7
100
AcDbEntity
  8
0
  6
ByBlock
 62
     0
370
    -2
100
AcDbLine
 10
136.1497675305161
 20
59.15275089557224
 30
0.0
 11
137.7265497570861
 21
56.14535038287227
 31
0.0
  0
LINE
  5
E2
330
C7
100
AcDbEntity
  8
0
  6
ByBlock
 62
     0
370
    -2
100
AcDbLine
 10
135.7516352063061
 20
58.94581119830218
 30
0.0
 11
137.1531397229061
 21
55.86599247272227
 31
0.0
  0
LINE
  5
E3
330
C7
100
AcDbEntity
  8
0
  6
ByBlock
 62
     0
370
    -2
100
AcDbLine
 10
137.2963129406761
 20
59.74868290240227
 30
0.0
 11
135.3442560559061
 21
58.73406498248221
 31
0.0
  0
ARC
  5
E4
330
C7
100
AcDbEntity
  8
0
  6
ByBlock
 62
     0
370
    -2
100
AcDbCircle
 10
134.1182581311061
 20
69.86672489459215
 30
0.0
 40
1.1000061035156
100
AcDbArc
 50
240.00000667861
 51
299.99999468788
  0
ARC
  5
E5
330
C7
100
AcDbEntity
  8
0
  6
ByBlock
 62
     0
370
    -2
100
AcDbCircle
 10
135.2182642346261
 20
69.86672489459215
 30
0.0
 40
1.1000061035156
100
AcDbArc
 50
240.00000667861
 51
299.99999468788
  0
ARC
  5
E6
330
C7
100
AcDbEntity
  8
0
  6
ByBlock
 62
     0
370
    -2
100
AcDbCircle
 10
135.2182642346261
 20
67.96145145709215
 30
0.0
 40
1.1000061035156
100
AcDbArc
 50
60.00000166965199
 51
120.0000033393
  0
LINE
  5
E7
330
C7
100
AcDbEntity
  8
0
  6
ByBlock
 62
     0
370
    -2
100
AcDbLine
 10
135.7682585349617
 20
79.63360630888937
 30
0.0
 11
135.7682520275861
 21
68.91408817584215
 31
0.0
  0
LINE
  5
E8
330
C7
100
AcDbEntity
  8
0
  6
ByBlock
 62
     0
370
    -2
100
AcDbLine
 10
133.5682615849823
 20
79.66909013066325
 30
0.0
 11
133.5682550793461
 21
68.91408817584215
 31
0.0
  0
LINE
  5
E9
330
C7
100
AcDbEntity
  8
0
  6
ByBlock
 62
     0
370
    -2
100
AcDbLine
 10
145.6682524394312
 20
79.47392898784958
 30
0.0
 11
145.6682524394312
 21
139.4739289878496
 31
0.0
  0
LINE
  5
EA
330
C7
100
AcDbEntity
  8
0
  6
ByBlock
 62
     0
370
    -2
100
AcDbLine
 10
145.6682524394313
 20
139.4739289878496
 30
0.0
 11
115.6681223919633
 21
138.9900559225678
 31
0.0
  0
LINE
  5
EB
330
C7
100
AcDbEntity
  8
0
  6
ByBlock
 62
     0
370
    -2
100
AcDbLine
 10
145.6682524394312
 20
79.47392898784955
 30
0.0
 11
115.6681223919634
 21
79.9578020531313
 31
0.0
  0
LINE
  5
EC
330
C7
100
AcDbEntity
  8
0
  6
ByBlock
 62
     0
370
    -2
100
AcDbLine
 10
114.6682524394312
 20
137.9739289878496
 30
0.0
 11
115.6681223919633
 21
138.9900559225678
 31
0.0
  0
LINE
  5
ED
330
C7
100
AcDbEntity
  8
0
  6
ByBlock
 62
     0
370
    -2
100
AcDbLine
 10
114.6682524394312
 20
80.97392898784958
 30
0.0
 11
115.6681223919634
 21
79.9578020531313
 31
0.0
  0
ENDBLK
  5
C9
330
C7
100
AcDbEntity
  8
0
100
AcDbBlockEnd
  0
BLOCK
  5
FA
330
F9
100
AcDbEntity
  8
0
100
AcDbBlockBegin
  2
BLKF024
 70
     0
 10
0.0
 20
0.0
 30
0.0
  3
BLKF024
  1

  0
CIRCLE
  5
FD
330
F9
100
AcDbEntity
  8
0
  6
ByBlock
 62
     0
370
    -2
100
AcDbCircle
 10
362.1588059851556
 20
78.47392898784958
 30
0.0
 40
3.5
  0
LINE
  5
FE
330
F9
100
AcDbEntity
  8
0
  6
ByBlock
 62
     0
370
    -2
100
AcDbLine
 10
361.6588059851556
 20
80.57392898784957
 30
0.0
 11
362.6588059851556
 21
80.57392898784957
 31
0.0
  0
LINE
  5
FF
330
F9
100
AcDbEntity
  8
0
  6
ByBlock
 62
     0
370
    -2
100
AcDbLine
 10
364.2588059851556
 20
78.97392898784958
 30
0.0
 11
364.2588059851556
 21
77.97392898784958
 31
0.0
  0
LINE
  5
100
330
F9
100
AcDbEntity
  8
0
  6
ByBlock
 62
     0
370
    -2
100
AcDbLine
 10
361.6588059851556
 20
76.37392898784958
 30
0.0
 11
362.6588059851556
 21
76.37392898784958
 31
0.0
  0
LINE
  5
101
330
F9
100
AcDbEntity
  8
0
  6
ByBlock
 62
     0
370
    -2
100
AcDbLine
 10
360.0588059851556
 20
78.97392898784958
 30
0.0
 11
360.0588059851556
 21
77.97392898784958
 31
0.0
  0
ARC
  5
102
330
F9
100
AcDbEntity
  8
0
  6
ByBlock
 62
     0
370
    -2
100
AcDbCircle
 10
364.2588059851556
 20
80.57392898784957
 30
0.0
 40
1.600000000000023
100
AcDbArc
 50
180.0
 51
270.0
  0
ARC
  5
103
330
F9
100
AcDbEntity
  8
0
  6
ByBlock
 62
     0
370
    -2
100
AcDbCircle
 10
360.0588059851556
 20
80.57392898784957
 30
0.0
 40
1.600000000000023
100
AcDbArc
 50
270.0
 51
0.0
  0
ARC
  5
104
330
F9
100
AcDbEntity
  8
0
  6
ByBlock
 62
     0
370
    -2
100
AcDbCircle
 10
360.0588059851556
 20
76.37392898784958
 30
0.0
 40
1.600000000000023
100
AcDbArc
 50
0.0
 51
90.0
  0
ARC
  5
105
330
F9
100
AcDbEntity
  8
0
  6
ByBlock
 62
     0
370
    -2
100
AcDbCircle
 10
364.2588059851556
 20
76.37392898784958
 30
0.0
 40
1.600000000000023
100
AcDbArc
 50
90.0
 51
180.0
  0
ENDBLK
  5
FB
330
F9
100
AcDbEntity
  8
0
100
AcDbBlockEnd
  0
BLOCK
  5
109
330
108
100
AcDbEntity
  8
0
100
AcDbBlockBegin
  2
BLKF025
 70
     0
 10
0.0
 20
0.0
 30
0.0
  3
BLKF025
  1

  0
CIRCLE
  5
10C
330
108
100
AcDbEntity
  8
0
  6
ByBlock
 62
     0
370
    -2
100
AcDbCircle
 10
389.0055935024732
 20
124.9739289878495
 30
0.0
 40
3.5
  0
LINE
  5
10D
330
108
100
AcDbEntity
  8
0
  6
ByBlock
 62
     0
370
    -2
100
AcDbLine
 10
387.4369401545259
 20
123.4909162859573
 30
0.0
 11
386.936940154526
 21
124.3569416897417
 31
0.0
  0
LINE
  5
10E
330
108
100
AcDbEntity
  8
0
  6
ByBlock
 62
     0
370
    -2
100
AcDbLine
 10
387.5225808005811
 20
126.5425823357968
 30
0.0
 11
388.3886062043655
 21
127.0425823357968
 31
0.0
  0
LINE
  5
10F
330
108
100
AcDbEntity
  8
0
  6
ByBlock
 62
     0
370
    -2
100
AcDbLine
 10
391.0742468504205
 20
125.5909162859573
 30
0.0
 11
390.5742468504206
 21
126.4569416897417
 31
0.0
  0
LINE
  5
110
330
108
100
AcDbEntity
  8
0
  6
ByBlock
 62
     0
370
    -2
100
AcDbLine
 10
389.622580800581
 20
122.9052756399021
 30
0.0
 11
390.4886062043655
 21
123.4052756399021
 31
0.0
  0
ARC
  5
111
330
108
100
AcDbEntity
  8
0
  6
ByBlock
 62
     0
370
    -2
100
AcDbCircle
 10
386.136940154526
 20
125.7425823357968
 30
0.0
 40
1.600000000000023
100
AcDbArc
 50
300.0
 51
30.00000000000002
  0
ARC
  5
112
330
108
100
AcDbEntity
  8
0
  6
ByBlock
 62
     0
370
    -2
100
AcDbCircle
 10
388.2369401545259
 20
122.1052756399021
 30
0.0
 40
1.600000000000023
100
AcDbArc
 50
30.0
 51
120.0
  0
ARC
  5
113
330
108
100
AcDbEntity
  8
0
  6
ByBlock
 62
     0
370
    -2
100
AcDbCircle
 10
391.8742468504205
 20
124.2052756399021
 30
0.0
 40
1.600000000000023
100
AcDbArc
 50
120.0
 51
210.0
  0
ARC
  5
114
330
108
100
AcDbEntity
  8
0
  6
ByBlock
 62
     0
370
    -2
100
AcDbCircle
 10
389.7742468504206
 20
127.8425823357968
 30
0.0
 40
1.600000000000023
100
AcDbArc
 50
210.0
 51
300.0
  0
ENDBLK
  5
10A
330
108
100
AcDbEntity
  8
0
100
AcDbBlockEnd
  0
BLOCK
  5
119
330
118
100
AcDbEntity
  8
0
100
AcDbBlockBegin
  2
BLKF026
 70
     0
 10
0.0
 20
0.0
 30
0.0
  3
BLKF026
  1

  0
CIRCLE
  5
11C
330
118
100
AcDbEntity
  8
0
  6
ByBlock
 62
     0
370
    -2
100
AcDbCircle
 10
335.3120184678381
 20
124.9739289878495
 30
0.0
 40
3.5
  0
LINE
  5
11D
330
118
100
AcDbEntity
  8
0
  6
ByBlock
 62
     0
370
    -2
100
AcDbLine
 10
336.8806718157854
 20
123.4909162859573
 30
0.0
 11
337.3806718157853
 21
124.3569416897417
 31
0.0
  0
LINE
  5
11E
330
118
100
AcDbEntity
  8
0
  6
ByBlock
 62
     0
370
    -2
100
AcDbLine
 10
336.7950311697302
 20
126.5425823357968
 30
0.0
 11
335.9290057659458
 21
127.0425823357968
 31
0.0
  0
LINE
  5
11F
330
118
100
AcDbEntity
  8
0
  6
ByBlock
 62
     0
370
    -2
100
AcDbLine
 10
333.2433651198908
 20
125.5909162859573
 30
0.0
 11
333.7433651198907
 21
126.4569416897417
 31
0.0
  0
LINE
  5
120
330
118
100
AcDbEntity
  8
0
  6
ByBlock
 62
     0
370
    -2
100
AcDbLine
 10
334.6950311697303
 20
122.9052756399021
 30
0.0
 11
333.8290057659459
 21
123.4052756399021
 31
0.0
  0
ARC
  5
121
330
118
100
AcDbEntity
  8
0
  6
ByBlock
 62
     0
370
    -2
100
AcDbCircle
 10
338.1806718157853
 20
125.7425823357968
 30
0.0
 40
1.600000000000023
100
AcDbArc
 50
149.9999999999995
 51
240.0
  0
ARC
  5
122
330
118
100
AcDbEntity
  8
0
  6
ByBlock
 62
     0
370
    -2
100
AcDbCircle
 10
336.0806718157854
 20
122.1052756399021
 30
0.0
 40
1.600000000000023
100
AcDbArc
 50
60.00000000000001
 51
149.9999999999995
  0
ARC
  5
123
330
118
100
AcDbEntity
  8
0
  6
ByBlock
 62
     0
370
    -2
100
AcDbCircle
 10
332.4433651198908
 20
124.2052756399021
 30
0.0
 40
1.600000000000023
100
AcDbArc
 50
329.9999999999995
 51
59.99999999999999
  0
ARC
  5
124
330
118
100
AcDbEntity
  8
0
  6
ByBlock
 62
     0
370
    -2
100
AcDbCircle
 10
334.5433651198907
 20
127.8425823357968
 30
0.0
 40
1.600000000000023
100
AcDbArc
 50
240.0
 51
329.9999999999995
  0
ENDBLK
  5
11A
330
118
100
AcDbEntity
  8
0
100
AcDbBlockEnd
  0
BLOCK
  5
132
330
131
100
AcDbEntity
  8
0
100
AcDbBlockBegin
  2
BLKF027
 70
     0
 10
0.0
 20
0.0
 30
0.0
  3
BLKF027
  1

  0
LINE
  5
135
330
131
100
AcDbEntity
  8
0
  6
ByBlock
 62
     0
370
    -2
100
AcDbLine
 10
145.6682524394312
 20
140.4739289878495
 30
0.0
 11
145.6682524394312
 21
78.47392898784955
 31
0.0
  0
LINE
  5
136
330
131
100
AcDbEntity
  8
0
  6
ByBlock
 62
     0
370
    -2
100
AcDbLine
 10
212.6682524394312
 20
140.4739289878496
 30
0.0
 11
212.6682524394312
 21
78.47392898784958
 31
0.0
  0
INSERT
  5
13A
330
131
100
AcDbEntity
  8
0
  6
ByBlock
 62
     7
370
    20
100
AcDbBlockReference
  2
BLKF028
 10
0.0
 20
0.0
 30
0.0
  0
LINE
  5
141
330
131
100
AcDbEntity
  8
0
  6
ByBlock
 62
     0
370
    -2
100
AcDbLine
 10
212.6682524394312
 20
78.47392898784958
 30
0.0
 11
145.6682524394312
 21
78.47392898784955
 31
0.0
  0
LINE
  5
142
330
131
100
AcDbEntity
  8
0
  6
ByBlock
 62
     0
370
    -2
100
AcDbLine
 10
212.6682524394312
 20
140.4739289878496
 30
0.0
 11
145.6682524394312
 21
140.4739289878496
 31
0.0
  0
ENDBLK
  5
133
330
131
100
AcDbEntity
  8
0
100
AcDbBlockEnd
  0
BLOCK
  5
138
330
137
100
AcDbEntity
  8
0
100
AcDbBlockBegin
  2
BLKF028
 70
     0
 10
0.0
 20
0.0
 30
0.0
  3
BLKF028
  1

  0
LINE
  5
13B
330
137
100
AcDbEntity
  8
0
  6
ByBlock
 62
     0
370
    -2
100
AcDbLine
 10
163.1682524394313
 20
140.4739289878496
 30
0.0
 11
163.1682524394313
 21
129.4739289878496
 31
0.0
  0
LINE
  5
13C
330
137
100
AcDbEntity
  8
0
  6
ByBlock
 62
     0
370
    -2
100
AcDbLine
 10
164.1682524394313
 20
128.4739289878496
 30
0.0
 11
194.1682676982213
 21
128.4739289878496
 31
0.0
  0
LINE
  5
13D
330
137
100
AcDbEntity
  8
0
  6
ByBlock
 62
     0
370
    -2
100
AcDbLine
 10
195.1682676982213
 20
129.4739289878496
 30
0.0
 11
195.1682510361715
 21
140.4739289878496
 31
0.0
  0
ARC
  5
13E
330
137
100
AcDbEntity
  8
0
  6
ByBlock
 62
     0
370
    -2
100
AcDbCircle
 10
164.1682524394313
 20
129.4739289878496
 30
0.0
 40
1.0
100
AcDbArc
 50
180.00001866933
 51
270.0000280039999
  0
ARC
  5
13F
330
137
100
AcDbEntity
  8
0
  6
ByBlock
 62
     0
370
    -2
100
AcDbCircle
 10
194.1682676982213
 20
129.4739289878496
 30
0.0
 40
1.0
100
AcDbArc
 50
270.0000280039999
 51
359.9426910704
  0
TEXT
  5
140
330
137
100
AcDbEntity
  8
0
  6
ByBlock
 62
     0
370
    -2
100
AcDbText
 10
177.1522064208984
 20
138.2593841552734
 30
0.0
 40
3.5
  1
ＮＰ
 50
270.0000076293945
 41
1.272727272727274
 51
10.0
  7
FX_VECTOR
 72
     5
 11
177.1522073530048
 21
131.2593841552735
 31
0.0
100
AcDbText
  0
ENDBLK
  5
139
330
137
100
AcDbEntity
  8
0
100
AcDbBlockEnd
  0
BLOCK
  5
148
330
147
100
AcDbEntity
  8
0
100
AcDbBlockBegin
  2
BLKF029
 70
     0
 10
0.0
 20
0.0
 30
0.0
  3
BLKF029
  1

  0
LINE
  5
14B
330
147
100
AcDbEntity
  8
0
  6
ByBlock
 62
     0
370
    -2
100
AcDbLine
 10
269.3109868495231
 20
147.326751866299
 30
0.0
 11
269.6682524394313
 21
146.707949712782
 31
0.0
  0
LINE
  5
14C
330
147
100
AcDbEntity
  8
0
  6
ByBlock
 62
     0
370
    -2
100
AcDbLine
 10
269.6682524394313
 20
146.707949712782
 30
0.0
 11
269.6682524394313
 21
138.707949712782
 31
0.0
  0
LINE
  5
14D
330
147
100
AcDbEntity
  8
0
  6
ByBlock
 62
     0
370
    -2
100
AcDbLine
 10
269.6682524394313
 20
138.707949712782
 30
0.0
 11
269.3109868495231
 21
138.0891475592649
 31
0.0
  0
ARC
  5
14E
330
147
100
AcDbEntity
  8
0
  6
ByBlock
 62
     0
370
    -2
100
AcDbCircle
 10
267.6235942406927
 20
146.1720513279197
 30
0.0
 40
2.044658198738527
100
AcDbArc
 50
325.6157525319574
 51
34.3842474680419
  0
ARC
  5
14F
330
147
100
AcDbEntity
  8
0
  6
ByBlock
 62
     0
370
    -2
100
AcDbCircle
 10
262.0255180293397
 20
142.707949712782
 30
0.0
 40
7.642734410091656
100
AcDbArc
 50
342.4120462260061
 51
17.58795377399429
  0
ARC
  5
150
330
147
100
AcDbEntity
  8
0
  6
ByBlock
 62
     0
370
    -2
100
AcDbCircle
 10
267.6235942406927
 20
139.2438480976442
 30
0.0
 40
2.044658198738527
100
AcDbArc
 50
325.6157525319574
 51
34.3842474680419
  0
LINE
  5
151
330
147
100
AcDbEntity
  8
0
  6
ByBlock
 62
     0
370
    -2
100
AcDbLine
 10
269.3109868495231
 20
138.0891475592649
 30
0.0
 11
265.6682524394313
 21
138.0891475592649
 31
0.0
  0
LINE
  5
152
330
147
100
AcDbEntity
  8
0
  6
ByBlock
 62
     0
370
    -2
100
AcDbLine
 10
265.6682524394313
 20
138.0891475592649
 30
0.0
 11
265.6682524394313
 21
147.326751866299
 31
0.0
  0
LINE
  5
153
330
147
100
AcDbEntity
  8
0
  6
ByBlock
 62
     0
370
    -2
100
AcDbLine
 10
265.6682524394313
 20
147.326751866299
 30
0.0
 11
269.3109868495231
 21
147.326751866299
 31
0.0
  0
LINE
  5
154
330
147
100
AcDbEntity
  8
0
  6
ByBlock
 62
     0
370
    -2
100
AcDbLine
 10
269.3109868495231
 20
145.0173507895404
 30
0.0
 11
265.6682524394313
 21
145.0173507895404
 31
0.0
  0
LINE
  5
155
330
147
100
AcDbEntity
  8
0
  6
ByBlock
 62
     0
370
    -2
100
AcDbLine
 10
269.3109868495231
 20
140.3985486360235
 30
0.0
 11
265.6682524394313
 21
140.3985486360235
 31
0.0
  0
LINE
  5
156
330
147
100
AcDbEntity
  8
0
  6
ByBlock
 62
     0
370
    -2
100
AcDbLine
 10
265.6682524394313
 20
147.707949712782
 30
0.0
 11
265.6682524394313
 21
137.707949712782
 31
0.0
  0
LINE
  5
157
330
147
100
AcDbEntity
  8
0
  6
ByBlock
 62
     0
370
    -2
100
AcDbLine
 10
265.6682524394313
 20
137.707949712782
 30
0.0
 11
264.6682524394313
 21
137.707949712782
 31
0.0
  0
LINE
  5
158
330
147
100
AcDbEntity
  8
0
  6
ByBlock
 62
     0
370
    -2
100
AcDbLine
 10
264.6682524394313
 20
137.707949712782
 30
0.0
 11
264.6682524394313
 21
147.707949712782
 31
0.0
  0
LINE
  5
159
330
147
100
AcDbEntity
  8
0
  6
ByBlock
 62
     0
370
    -2
100
AcDbLine
 10
264.6682524394313
 20
147.707949712782
 30
0.0
 11
265.6682524394313
 21
147.707949712782
 31
0.0
  0
ENDBLK
  5
149
330
147
100
AcDbEntity
  8
0
100
AcDbBlockEnd
  0
BLOCK
  5
15B
330
15A
100
AcDbEntity
  8
0
100
AcDbBlockBegin
  2
BLKF030
 70
     0
 10
0.0
 20
0.0
 30
0.0
  3
BLKF030
  1

  0
LINE
  5
15E
330
15A
100
AcDbEntity
  8
0
  6
ByBlock
 62
     0
370
    -2
100
AcDbLine
 10
269.3109878168828
 20
80.85871051467387
 30
0.0
 11
269.6682532771893
 21
80.23990828633137
 31
0.0
  0
LINE
  5
15F
330
15A
100
AcDbEntity
  8
0
  6
ByBlock
 62
     0
370
    -2
100
AcDbLine
 10
269.6682532771893
 20
80.23990828633137
 30
0.0
 11
269.6682516016732
 21
72.23990828633154
 31
0.0
  0
LINE
  5
160
330
15A
100
AcDbEntity
  8
0
  6
ByBlock
 62
     0
370
    -2
100
AcDbLine
 10
269.6682516016732
 20
72.23990828633154
 30
0.0
 11
269.3109858821634
 21
71.62110620764008
 31
0.0
  0
ARC
  5
161
330
15A
100
AcDbEntity
  8
0
  6
ByBlock
 62
     0
370
    -2
100
AcDbCircle
 10
267.6235949662126
 20
79.7040103297013
 30
0.0
 40
2.044658198738504
100
AcDbArc
 50
325.6157405319569
 51
34.38423546804231
  0
ARC
  5
162
330
15A
100
AcDbEntity
  8
0
  6
ByBlock
 62
     0
370
    -2
100
AcDbCircle
 10
262.0255180293398
 20
76.23990988702201
 30
0.0
 40
7.642734410091656
100
AcDbArc
 50
342.4120342260061
 51
17.58794177399424
  0
ARC
  5
163
330
15A
100
AcDbEntity
  8
0
  6
ByBlock
 62
     0
370
    -2
100
AcDbCircle
 10
267.6235935151731
 20
72.775807099426
 30
0.0
 40
2.044658198738504
100
AcDbArc
 50
325.6157405319569
 51
34.38423546804231
  0
LINE
  5
164
330
15A
100
AcDbEntity
  8
0
  6
ByBlock
 62
     0
370
    -2
100
AcDbLine
 10
269.3109858821634
 20
71.62110620764008
 30
0.0
 11
265.6682514720717
 21
71.62110697057258
 31
0.0
  0
LINE
  5
165
330
15A
100
AcDbEntity
  8
0
  6
ByBlock
 62
     0
370
    -2
100
AcDbLine
 10
265.6682514720717
 20
71.62110697057258
 30
0.0
 11
265.6682534067911
 21
80.8587112776064
 31
0.0
  0
LINE
  5
166
330
15A
100
AcDbEntity
  8
0
  6
ByBlock
 62
     0
370
    -2
100
AcDbLine
 10
265.6682534067911
 20
80.8587112776064
 30
0.0
 11
269.3109878168828
 21
80.85871051467387
 31
0.0
  0
LINE
  5
167
330
15A
100
AcDbEntity
  8
0
  6
ByBlock
 62
     0
370
    -2
100
AcDbLine
 10
269.3109873332029
 20
78.54930943791541
 30
0.0
 11
265.6682529231112
 21
78.54931020084794
 31
0.0
  0
LINE
  5
168
330
15A
100
AcDbEntity
  8
0
  6
ByBlock
 62
     0
370
    -2
100
AcDbLine
 10
269.3109863658432
 20
73.93050728439854
 30
0.0
 11
265.6682519557515
 21
73.93050804733105
 31
0.0
  0
LINE
  5
169
330
15A
100
AcDbEntity
  8
0
  6
ByBlock
 62
     0
370
    -2
100
AcDbLine
 10
265.6682534866289
 20
81.23990912408937
 30
0.0
 11
265.6682513922338
 21
71.23990912408959
 31
0.0
  0
LINE
  5
16A
330
15A
100
AcDbEntity
  8
0
  6
ByBlock
 62
     0
370
    -2
100
AcDbLine
 10
265.6682513922338
 20
71.23990912408959
 30
0.0
 11
264.6682513922339
 21
71.23990933352911
 31
0.0
  0
LINE
  5
16B
330
15A
100
AcDbEntity
  8
0
  6
ByBlock
 62
     0
370
    -2
100
AcDbLine
 10
264.6682513922339
 20
71.23990933352911
 30
0.0
 11
264.6682534866289
 21
81.23990933352889
 31
0.0
  0
LINE
  5
16C
330
15A
100
AcDbEntity
  8
0
  6
ByBlock
 62
     0
370
    -2
100
AcDbLine
 10
264.6682534866289
 20
81.23990933352889
 30
0.0
 11
265.6682534866289
 21
81.23990912408937
 31
0.0
  0
ENDBLK
  5
15C
330
15A
100
AcDbEntity
  8
0
100
AcDbBlockEnd
  0
BLOCK
  5
16E
330
16D
100
AcDbEntity
  8
0
100
AcDbBlockBegin
  2
BLKF031
 70
     0
 10
0.0
 20
0.0
 30
0.0
  3
BLKF031
  1

  0
LINE
  5
171
330
16D
100
AcDbEntity
  8
0
  6
ByBlock
 62
     0
370
    -2
100
AcDbLine
 10
216.1682524394313
 20
138.207949712782
 30
0.0
 11
214.7767556455556
 21
138.2808749696285
 31
0.0
  0
LINE
  5
172
330
16D
100
AcDbEntity
  8
0
  6
ByBlock
 62
     0
370
    -2
100
AcDbLine
 10
216.1682524394313
 20
147.207949712782
 30
0.0
 11
214.7767556455556
 21
147.1350244559355
 31
0.0
  0
LINE
  5
173
330
16D
100
AcDbEntity
  8
0
  6
ByBlock
 62
     0
370
    -2
100
AcDbLine
 10
216.1682524394313
 20
138.207949712782
 30
0.0
 11
216.1682524394313
 21
147.207949712782
 31
0.0
  0
ARC
  5
174
330
16D
100
AcDbEntity
  8
0
  6
ByBlock
 62
     0
370
    -2
100
AcDbCircle
 10
214.8604931755443
 20
139.8786822252358
 30
0.0
 40
1.6
100
AcDbArc
 50
195.7859896410124
 51
266.9999999999994
  0
ARC
  5
175
330
16D
100
AcDbEntity
  8
0
  6
ByBlock
 62
     0
370
    -2
100
AcDbCircle
 10
214.8604931755443
 20
145.5372172003282
 30
0.0
 40
1.6
100
AcDbArc
 50
93.00000000000053
 51
164.2140103589876
  0
ARC
  5
176
330
16D
100
AcDbEntity
  8
0
  6
ByBlock
 62
     0
370
    -2
100
AcDbCircle
 10
224.8682524394312
 20
142.707949712782
 30
0.0
 40
12.0
100
AcDbArc
 50
164.2140103589876
 51
195.7859896410124
  0
LINE
  5
177
330
16D
100
AcDbEntity
  8
0
  6
ByBlock
 62
     0
370
    -2
100
AcDbLine
 10
269.6682524394313
 20
140.207949712782
 30
0.0
 11
280.3682524394313
 21
140.207949712782
 31
0.0
  0
LINE
  5
178
330
16D
100
AcDbEntity
  8
0
  6
ByBlock
 62
     0
370
    -2
100
AcDbLine
 10
269.6682524394313
 20
145.207949712782
 30
0.0
 11
280.3682524394313
 21
145.207949712782
 31
0.0
  0
LINE
  5
179
330
16D
100
AcDbEntity
  8
0
  6
ByBlock
 62
     0
370
    -2
100
AcDbLine
 10
281.1682524394312
 20
141.007949712782
 30
0.0
 11
281.1682524394312
 21
144.407949712782
 31
0.0
  0
LINE
  5
17A
330
16D
100
AcDbEntity
  8
0
  6
ByBlock
 62
     7
370
    20
100
AcDbLine
 10
269.6682524394313
 20
140.707949712782
 30
0.0
 11
280.8682524394313
 21
140.707949712782
 31
0.0
  0
LINE
  5
17B
330
16D
100
AcDbEntity
  8
0
  6
ByBlock
 62
     7
370
    20
100
AcDbLine
 10
269.6682524394313
 20
144.707949712782
 30
0.0
 11
280.8682524394313
 21
144.707949712782
 31
0.0
  0
LINE
  5
17C
330
16D
100
AcDbEntity
  8
0
  6
ByBlock
 62
     0
370
    -2
100
AcDbLine
 10
281.1682524394312
 20
144.407949712782
 30
0.0
 11
280.3682524394313
 21
145.207949712782
 31
0.0
  0
LINE
  5
17D
330
16D
100
AcDbEntity
  8
0
  6
ByBlock
 62
     0
370
    -2
100
AcDbLine
 10
280.3682524394313
 20
140.207949712782
 30
0.0
 11
281.1682524394312
 21
141.007949712782
 31
0.0
  0
LINE
  5
17E
330
16D
100
AcDbEntity
  8
0
  6
ByBlock
 62
     0
370
    -2
100
AcDbLine
 10
280.3682524394313
 20
140.207949712782
 30
0.0
 11
280.3682524394313
 21
145.207949712782
 31
0.0
  0
ENDBLK
  5
16F
330
16D
100
AcDbEntity
  8
0
100
AcDbBlockEnd
  0
BLOCK
  5
180
330
17F
100
AcDbEntity
  8
0
100
AcDbBlockBegin
  2
BLKF032
 70
     0
 10
0.0
 20
0.0
 30
0.0
  3
BLKF032
  1

  0
LINE
  5
183
330
17F
100
AcDbEntity
  8
0
  6
ByBlock
 62
     0
370
    -2
100
AcDbLine
 10
216.1682514969535
 20
71.73991956822849
 30
0.0
 11
214.7767547183514
 21
71.81284511650941
 31
0.0
  0
LINE
  5
184
330
17F
100
AcDbEntity
  8
0
  6
ByBlock
 62
     0
370
    -2
100
AcDbLine
 10
216.1682533819091
 20
80.73991956822832
 30
0.0
 11
214.7767565727601
 21
80.6669946028162
 31
0.0
  0
LINE
  5
185
330
17F
100
AcDbEntity
  8
0
  6
ByBlock
 62
     0
370
    -2
100
AcDbLine
 10
216.1682514969535
 20
71.73991956822849
 30
0.0
 11
216.1682533819091
 21
80.73991956822832
 31
0.0
  0
ARC
  5
186
330
17F
100
AcDbEntity
  8
0
  6
ByBlock
 62
     0
370
    -2
100
AcDbCircle
 10
214.8604925829841
 20
73.41065235457873
 30
0.0
 40
1.6
100
AcDbArc
 50
195.7859776410124
 51
266.9999879999995
  0
ARC
  5
187
330
17F
100
AcDbEntity
  8
0
  6
ByBlock
 62
     0
370
    -2
100
AcDbCircle
 10
214.8604937681048
 20
79.069187329671
 30
0.0
 40
1.6
100
AcDbArc
 50
92.99998800000054
 51
164.2139983589876
  0
ARC
  5
188
330
17F
100
AcDbEntity
  8
0
  6
ByBlock
 62
     0
370
    -2
100
AcDbCircle
 10
224.8682524394311
 20
76.23991774610465
 30
0.0
 40
12.0
100
AcDbArc
 50
164.2139983589876
 51
195.7859776410124
  0
LINE
  5
189
330
17F
100
AcDbEntity
  8
0
  6
ByBlock
 62
     0
370
    -2
100
AcDbLine
 10
269.6682519158325
 20
73.73990836321465
 30
0.0
 11
280.3682519158311
 21
73.73990612221189
 31
0.0
  0
LINE
  5
18A
330
17F
100
AcDbEntity
  8
0
  6
ByBlock
 62
     0
370
    -2
100
AcDbLine
 10
269.6682529630301
 20
78.73990836321454
 30
0.0
 11
280.3682529630287
 21
78.73990612221178
 31
0.0
  0
LINE
  5
18B
330
17F
100
AcDbEntity
  8
0
  6
ByBlock
 62
     0
370
    -2
100
AcDbLine
 10
281.1682520833827
 20
74.53990595466027
 30
0.0
 11
281.1682527954771
 21
77.93990595466019
 31
0.0
  0
LINE
  5
18C
330
17F
100
AcDbEntity
  8
0
  6
ByBlock
 62
     7
370
    20
100
AcDbLine
 10
269.6682520205522
 20
74.23990836321465
 30
0.0
 11
280.8682520205508
 21
74.23990601749213
 31
0.0
  0
LINE
  5
18D
330
17F
100
AcDbEntity
  8
0
  6
ByBlock
 62
     7
370
    20
100
AcDbLine
 10
269.6682528583103
 20
78.23990836321454
 30
0.0
 11
280.8682528583088
 21
78.23990601749205
 31
0.0
  0
LINE
  5
18E
330
17F
100
AcDbEntity
  8
0
  6
ByBlock
 62
     0
370
    -2
100
AcDbLine
 10
281.1682527954771
 20
77.93990595466019
 30
0.0
 11
280.3682529630287
 21
78.73990612221178
 31
0.0
  0
LINE
  5
18F
330
17F
100
AcDbEntity
  8
0
  6
ByBlock
 62
     0
370
    -2
100
AcDbLine
 10
280.3682519158311
 20
73.73990612221189
 30
0.0
 11
281.1682520833827
 21
74.53990595466027
 31
0.0
  0
LINE
  5
190
330
17F
100
AcDbEntity
  8
0
  6
ByBlock
 62
     0
370
    -2
100
AcDbLine
 10
280.3682519158311
 20
73.73990612221189
 30
0.0
 11
280.3682529630287
 21
78.73990612221178
 31
0.0
  0
ENDBLK
  5
181
330
17F
100
AcDbEntity
  8
0
100
AcDbBlockEnd
  0
BLOCK
  5
192
330
191
100
AcDbEntity
  8
0
100
AcDbBlockBegin
  2
BLKF033
 70
     0
 10
0.0
 20
0.0
 30
0.0
  3
BLKF033
  1

  0
LINE
  5
195
330
191
100
AcDbEntity
  8
0
  6
ByBlock
 62
     0
370
    -2
100
AcDbLine
 10
296.6682533082598
 20
119.4739257297447
 30
0.0
 11
270.6682524394313
 21
119.4739257297447
 31
0.0
  0
LINE
  5
196
330
191
100
AcDbEntity
  8
0
  6
ByBlock
 62
     0
370
    -2
100
AcDbLine
 10
296.6682533082598
 20
129.4739257297447
 30
0.0
 11
270.6682524394313
 21
129.4739257297447
 31
0.0
  0
LINE
  5
197
330
191
100
AcDbEntity
  8
0
  6
ByBlock
 62
     0
370
    -2
100
AcDbLine
 10
296.6682533082598
 20
122.4739257297447
 30
0.0
 11
273.6682533082598
 21
122.4739257297447
 31
0.0
  0
LINE
  5
198
330
191
100
AcDbEntity
  8
0
  6
ByBlock
 62
     0
370
    -2
100
AcDbLine
 10
296.6682533082598
 20
126.4739257297447
 30
0.0
 11
273.6682533082598
 21
126.4739257297447
 31
0.0
  0
ARC
  5
199
330
191
100
AcDbEntity
  8
0
  6
ByBlock
 62
     0
370
    -2
100
AcDbCircle
 10
273.6682533082598
 20
124.4739257297447
 30
0.0
 40
1.999999999999972
100
AcDbArc
 50
90.0
 51
270.0
  0
LINE
  5
19A
330
191
100
AcDbEntity
  8
GR1_01
  6
一点鎖線
 62
     7
370
    20
100
AcDbLine
 10
299.6682533082598
 20
124.4739257297447
 30
0.0
 11
258.6682524394313
 21
124.4739257297447
 31
0.0
  0
LINE
  5
19B
330
191
100
AcDbEntity
  8
0
  6
ByBlock
 62
     0
370
    -2
100
AcDbLine
 10
296.6682533082598
 20
119.4739257297447
 30
0.0
 11
296.6682533082598
 21
129.4739257297446
 31
0.0
  0
LINE
  5
19C
330
191
100
AcDbEntity
  8
0
  6
ByBlock
 62
     0
370
    -2
100
AcDbLine
 10
222.6682524394313
 20
69.47392898784955
 30
0.0
 11
222.6682524394312
 21
149.4739289878496
 31
0.0
  0
LINE
  5
19D
330
191
100
AcDbEntity
  8
0
  6
ByBlock
 62
     0
370
    -2
100
AcDbLine
 10
264.6682524394313
 20
70.47392898784955
 30
0.0
 11
264.6682524394312
 21
148.4739289878495
 31
0.0
  0
LINE
  5
19E
330
191
100
AcDbEntity
  8
0
  6
ByBlock
 62
     0
370
    -2
100
AcDbLine
 10
263.6682524394313
 20
69.47392898784955
 30
0.0
 11
222.6682524394312
 21
69.47392898784955
 31
0.0
  0
LINE
  5
19F
330
191
100
AcDbEntity
  8
0
  6
ByBlock
 62
     0
370
    -2
100
AcDbLine
 10
263.6682524394312
 20
149.4739289878495
 30
0.0
 11
222.6682524394313
 21
149.4739289878496
 31
0.0
  0
LINE
  5
1A0
330
191
100
AcDbEntity
  8
0
  6
ByBlock
 62
     0
370
    -2
100
AcDbLine
 10
270.6682524394313
 20
110.4739257297448
 30
0.0
 11
270.6682524394313
 21
138.4739257297447
 31
0.0
  0
LINE
  5
1A1
330
191
100
AcDbEntity
  8
0
  6
ByBlock
 62
     0
370
    -2
100
AcDbLine
 10
269.6682524394313
 20
109.4739257297448
 30
0.0
 11
264.6682524394313
 21
109.4739257297447
 31
0.0
  0
ARC
  5
1A2
330
191
100
AcDbEntity
  8
0
  6
ByBlock
 62
     0
370
    -2
100
AcDbCircle
 10
263.6682524394312
 20
148.4739289878495
 30
0.0
 40
1.0
100
AcDbArc
 50
0.0
 51
90.0
  0
ARC
  5
1A3
330
191
100
AcDbEntity
  8
0
  6
ByBlock
 62
     0
370
    -2
100
AcDbCircle
 10
263.6682524394313
 20
70.47392898784955
 30
0.0
 40
1.0
100
AcDbArc
 50
270.0
 51
0.0
  0
ARC
  5
1A4
330
191
100
AcDbEntity
  8
0
  6
ByBlock
 62
     0
370
    -2
100
AcDbCircle
 10
269.6682524394313
 20
110.4739257297448
 30
0.0
 40
1.0
100
AcDbArc
 50
270.0
 51
0.0
  0
ARC
  5
1A5
330
191
100
AcDbEntity
  8
0
  6
ByBlock
 62
     0
370
    -2
100
AcDbCircle
 10
269.6682524394313
 20
138.4739257297447
 30
0.0
 40
1.0
100
AcDbArc
 50
0.0
 51
90.00000000000162
  0
ENDBLK
  5
193
330
191
100
AcDbEntity
  8
0
100
AcDbBlockEnd
  0
BLOCK
  5
1A7
330
1A6
100
AcDbEntity
  8
0
100
AcDbBlockBegin
  2
BLKF034
 70
     0
 10
0.0
 20
0.0
 30
0.0
  3
BLKF034
  1

  0
LINE
  5
1AA
330
1A6
100
AcDbEntity
  8
0
  6
ByBlock
 62
     0
370
    -2
100
AcDbLine
 10
328.9247872693879
 20
138.0891455501004
 30
0.0
 11
332.9247872693879
 21
140.3985466268589
 31
0.0
  0
LINE
  5
1AB
330
1A6
100
AcDbEntity
  8
0
  6
ByBlock
 62
     0
370
    -2
100
AcDbLine
 10
332.9247872693879
 20
140.3985466268589
 30
0.0
 11
332.9247872693879
 21
145.0173487803758
 31
0.0
  0
LINE
  5
1AC
330
1A6
100
AcDbEntity
  8
0
  6
ByBlock
 62
     0
370
    -2
100
AcDbLine
 10
332.9247872693879
 20
145.0173487803758
 30
0.0
 11
328.9247872693879
 21
147.3267498571343
 31
0.0
  0
LINE
  5
1AD
330
1A6
100
AcDbEntity
  8
0
  6
ByBlock
 62
     0
370
    -2
100
AcDbLine
 10
328.9247872693879
 20
147.3267498571343
 30
0.0
 11
324.9247872693879
 21
145.0173487803758
 31
0.0
  0
LINE
  5
1AE
330
1A6
100
AcDbEntity
  8
0
  6
ByBlock
 62
     0
370
    -2
100
AcDbLine
 10
324.9247872693879
 20
145.0173487803758
 30
0.0
 11
324.9247872693879
 21
140.3985466268589
 31
0.0
  0
LINE
  5
1AF
330
1A6
100
AcDbEntity
  8
0
  6
ByBlock
 62
     0
370
    -2
100
AcDbLine
 10
324.9247872693879
 20
140.3985466268589
 30
0.0
 11
328.9247872693879
 21
138.0891455501004
 31
0.0
  0
CIRCLE
  5
1B0
330
1A6
100
AcDbEntity
  8
0
  6
ByBlock
 62
     0
370
    -2
100
AcDbCircle
 10
328.9247872693879
 20
142.7079477036174
 30
0.0
 40
3.9
  0
CIRCLE
  5
1B1
330
1A6
100
AcDbEntity
  8
0
  6
ByBlock
 62
     0
370
    -2
100
AcDbCircle
 10
328.9247872693879
 20
142.7079477036174
 30
0.0
 40
5.0
  0
ENDBLK
  5
1A8
330
1A6
100
AcDbEntity
  8
0
100
AcDbBlockEnd
  0
BLOCK
  5
1B3
330
1B2
100
AcDbEntity
  8
0
100
AcDbBlockBegin
  2
BLKF035
 70
     0
 10
0.0
 20
0.0
 30
0.0
  3
BLKF035
  1

  0
LINE
  5
1B6
330
1B2
100
AcDbEntity
  8
0
  6
ByBlock
 62
     0
370
    -2
100
AcDbLine
 10
395.3928247009234
 20
138.0891455501004
 30
0.0
 11
399.3928247009234
 21
140.3985466268589
 31
0.0
  0
LINE
  5
1B7
330
1B2
100
AcDbEntity
  8
0
  6
ByBlock
 62
     0
370
    -2
100
AcDbLine
 10
399.3928247009234
 20
140.3985466268589
 30
0.0
 11
399.3928247009234
 21
145.0173487803759
 31
0.0
  0
LINE
  5
1B8
330
1B2
100
AcDbEntity
  8
0
  6
ByBlock
 62
     0
370
    -2
100
AcDbLine
 10
399.3928247009234
 20
145.0173487803759
 30
0.0
 11
395.3928247009234
 21
147.3267498571344
 31
0.0
  0
LINE
  5
1B9
330
1B2
100
AcDbEntity
  8
0
  6
ByBlock
 62
     0
370
    -2
100
AcDbLine
 10
395.3928247009234
 20
147.3267498571344
 30
0.0
 11
391.3928247009234
 21
145.0173487803759
 31
0.0
  0
LINE
  5
1BA
330
1B2
100
AcDbEntity
  8
0
  6
ByBlock
 62
     0
370
    -2
100
AcDbLine
 10
391.3928247009234
 20
145.0173487803759
 30
0.0
 11
391.3928247009234
 21
140.3985466268589
 31
0.0
  0
LINE
  5
1BB
330
1B2
100
AcDbEntity
  8
0
  6
ByBlock
 62
     0
370
    -2
100
AcDbLine
 10
391.3928247009234
 20
140.3985466268589
 30
0.0
 11
395.3928247009234
 21
138.0891455501004
 31
0.0
  0
CIRCLE
  5
1BC
330
1B2
100
AcDbEntity
  8
0
  6
ByBlock
 62
     0
370
    -2
100
AcDbCircle
 10
395.3928247009234
 20
142.7079477036174
 30
0.0
 40
3.9
  0
CIRCLE
  5
1BD
330
1B2
100
AcDbEntity
  8
0
  6
ByBlock
 62
     0
370
    -2
100
AcDbCircle
 10
395.3928247009234
 20
142.7079477036174
 30
0.0
 40
5.0
  0
ENDBLK
  5
1B4
330
1B2
100
AcDbEntity
  8
0
100
AcDbBlockEnd
  0
BLOCK
  5
1BF
330
1BE
100
AcDbEntity
  8
0
100
AcDbBlockBegin
  2
BLKF036
 70
     0
 10
0.0
 20
0.0
 30
0.0
  3
BLKF036
  1

  0
LINE
  5
1C2
330
1BE
100
AcDbEntity
  8
0
  6
ByBlock
 62
     0
370
    -2
100
AcDbLine
 10
328.9247872693878
 20
71.62110811856465
 30
0.0
 11
332.9247872693878
 21
73.93050919532314
 31
0.0
  0
LINE
  5
1C3
330
1BE
100
AcDbEntity
  8
0
  6
ByBlock
 62
     0
370
    -2
100
AcDbLine
 10
332.9247872693878
 20
73.93050919532314
 30
0.0
 11
332.9247872693878
 21
78.54931134884012
 31
0.0
  0
LINE
  5
1C4
330
1BE
100
AcDbEntity
  8
0
  6
ByBlock
 62
     0
370
    -2
100
AcDbLine
 10
332.9247872693878
 20
78.54931134884012
 30
0.0
 11
328.9247872693878
 21
80.85871242559861
 31
0.0
  0
LINE
  5
1C5
330
1BE
100
AcDbEntity
  8
0
  6
ByBlock
 62
     0
370
    -2
100
AcDbLine
 10
328.9247872693878
 20
80.85871242559861
 30
0.0
 11
324.9247872693878
 21
78.54931134884012
 31
0.0
  0
LINE
  5
1C6
330
1BE
100
AcDbEntity
  8
0
  6
ByBlock
 62
     0
370
    -2
100
AcDbLine
 10
324.9247872693878
 20
78.54931134884012
 30
0.0
 11
324.9247872693878
 21
73.93050919532314
 31
0.0
  0
LINE
  5
1C7
330
1BE
100
AcDbEntity
  8
0
  6
ByBlock
 62
     0
370
    -2
100
AcDbLine
 10
324.9247872693878
 20
73.93050919532314
 30
0.0
 11
328.9247872693878
 21
71.62110811856465
 31
0.0
  0
CIRCLE
  5
1C8
330
1BE
100
AcDbEntity
  8
0
  6
ByBlock
 62
     0
370
    -2
100
AcDbCircle
 10
328.9247872693878
 20
76.23991027208163
 30
0.0
 40
3.9
  0
CIRCLE
  5
1C9
330
1BE
100
AcDbEntity
  8
0
  6
ByBlock
 62
     0
370
    -2
100
AcDbCircle
 10
328.9247872693878
 20
76.23991027208163
 30
0.0
 40
5.0
  0
ENDBLK
  5
1C0
330
1BE
100
AcDbEntity
  8
0
100
AcDbBlockEnd
  0
BLOCK
  5
1CB
330
1CA
100
AcDbEntity
  8
0
100
AcDbBlockBegin
  2
BLKF037
 70
     0
 10
0.0
 20
0.0
 30
0.0
  3
BLKF037
  1

  0
LINE
  5
1CE
330
1CA
100
AcDbEntity
  8
0
  6
ByBlock
 62
     0
370
    -2
100
AcDbLine
 10
395.3928247009234
 20
71.62110811856482
 30
0.0
 11
399.3928247009234
 21
73.93050919532331
 31
0.0
  0
LINE
  5
1CF
330
1CA
100
AcDbEntity
  8
0
  6
ByBlock
 62
     0
370
    -2
100
AcDbLine
 10
399.3928247009234
 20
73.93050919532331
 30
0.0
 11
399.3928247009234
 21
78.54931134884029
 31
0.0
  0
LINE
  5
1D0
330
1CA
100
AcDbEntity
  8
0
  6
ByBlock
 62
     0
370
    -2
100
AcDbLine
 10
399.3928247009234
 20
78.54931134884029
 30
0.0
 11
395.3928247009234
 21
80.85871242559878
 31
0.0
  0
LINE
  5
1D1
330
1CA
100
AcDbEntity
  8
0
  6
ByBlock
 62
     0
370
    -2
100
AcDbLine
 10
395.3928247009234
 20
80.85871242559878
 30
0.0
 11
391.3928247009234
 21
78.54931134884029
 31
0.0
  0
LINE
  5
1D2
330
1CA
100
AcDbEntity
  8
0
  6
ByBlock
 62
     0
370
    -2
100
AcDbLine
 10
391.3928247009234
 20
78.54931134884029
 30
0.0
 11
391.3928247009234
 21
73.93050919532331
 31
0.0
  0
LINE
  5
1D3
330
1CA
100
AcDbEntity
  8
0
  6
ByBlock
 62
     0
370
    -2
100
AcDbLine
 10
391.3928247009234
 20
73.93050919532331
 30
0.0
 11
395.3928247009234
 21
71.62110811856482
 31
0.0
  0
CIRCLE
  5
1D4
330
1CA
100
AcDbEntity
  8
0
  6
ByBlock
 62
     0
370
    -2
100
AcDbCircle
 10
395.3928247009234
 20
76.2399102720818
 30
0.0
 40
3.9
  0
CIRCLE
  5
1D5
330
1CA
100
AcDbEntity
  8
0
  6
ByBlock
 62
     0
370
    -2
100
AcDbCircle
 10
395.3928247009234
 20
76.2399102720818
 30
0.0
 40
5.0
  0
ENDBLK
  5
1CC
330
1CA
100
AcDbEntity
  8
0
100
AcDbBlockEnd
  0
BLOCK
  5
235
330
234
100
AcDbEntity
  8
0
100
AcDbBlockBegin
  2
BLKF038
 70
     0
 10
0.0
 20
0.0
 30
0.0
  3
BLKF038
  1

  0
CIRCLE
  5
238
330
234
100
AcDbEntity
  8
0
  6
ByBlock
 62
     0
370
    -2
100
AcDbCircle
 10
83.84603500904609
 20
142.7079477036172
 30
0.0
 40
4.5
  0
LINE
  5
239
330
234
100
AcDbEntity
  8
0
  6
ByBlock
 62
     0
370
    -2
100
AcDbLine
 10
83.2460350090461
 20
145.1579477036172
 30
0.0
 11
84.44603500904608
 21
145.1579477036172
 31
0.0
  0
LINE
  5
23A
330
234
100
AcDbEntity
  8
0
  6
ByBlock
 62
     0
370
    -2
100
AcDbLine
 10
86.2960350090461
 20
143.3079477036172
 30
0.0
 11
86.2960350090461
 21
142.1079477036172
 31
0.0
  0
LINE
  5
23B
330
234
100
AcDbEntity
  8
0
  6
ByBlock
 62
     0
370
    -2
100
AcDbLine
 10
83.2460350090461
 20
140.2579477036172
 30
0.0
 11
84.44603500904608
 21
140.2579477036172
 31
0.0
  0
LINE
  5
23C
330
234
100
AcDbEntity
  8
0
  6
ByBlock
 62
     0
370
    -2
100
AcDbLine
 10
81.39603500904609
 20
143.3079477036172
 30
0.0
 11
81.39603500904609
 21
142.1079477036172
 31
0.0
  0
ARC
  5
23D
330
234
100
AcDbEntity
  8
0
  6
ByBlock
 62
     0
370
    -2
100
AcDbCircle
 10
86.2960350090461
 20
145.1579477036172
 30
0.0
 40
1.850000000000009
100
AcDbArc
 50
180.0
 51
270.0
  0
ARC
  5
23E
330
234
100
AcDbEntity
  8
0
  6
ByBlock
 62
     0
370
    -2
100
AcDbCircle
 10
81.39603500904609
 20
145.1579477036172
 30
0.0
 40
1.850000000000009
100
AcDbArc
 50
270.0
 51
0.0
  0
ARC
  5
23F
330
234
100
AcDbEntity
  8
0
  6
ByBlock
 62
     0
370
    -2
100
AcDbCircle
 10
81.39603500904609
 20
140.2579477036172
 30
0.0
 40
1.850000000000009
100
AcDbArc
 50
0.0
 51
90.0
  0
ARC
  5
240
330
234
100
AcDbEntity
  8
0
  6
ByBlock
 62
     0
370
    -2
100
AcDbCircle
 10
86.2960350090461
 20
140.2579477036172
 30
0.0
 40
1.850000000000009
100
AcDbArc
 50
90.0
 51
180.0
  0
ENDBLK
  5
236
330
234
100
AcDbEntity
  8
0
100
AcDbBlockEnd
  0
BLOCK
  5
242
330
241
100
AcDbEntity
  8
0
100
AcDbBlockBegin
  2
BLKF039
 70
     0
 10
0.0
 20
0.0
 30
0.0
  3
BLKF039
  1

  0
CIRCLE
  5
245
330
241
100
AcDbEntity
  8
0
  6
ByBlock
 62
     0
370
    -2
100
AcDbCircle
 10
17.37799757751084
 20
142.7079477036174
 30
0.0
 40
4.5
  0
LINE
  5
246
330
241
100
AcDbEntity
  8
0
  6
ByBlock
 62
     0
370
    -2
100
AcDbLine
 10
16.77799757751084
 20
145.1579477036174
 30
0.0
 11
17.97799757751084
 21
145.1579477036174
 31
0.0
  0
LINE
  5
247
330
241
100
AcDbEntity
  8
0
  6
ByBlock
 62
     0
370
    -2
100
AcDbLine
 10
19.82799757751084
 20
143.3079477036174
 30
0.0
 11
19.82799757751084
 21
142.1079477036174
 31
0.0
  0
LINE
  5
248
330
241
100
AcDbEntity
  8
0
  6
ByBlock
 62
     0
370
    -2
100
AcDbLine
 10
16.77799757751084
 20
140.2579477036174
 30
0.0
 11
17.97799757751084
 21
140.2579477036174
 31
0.0
  0
LINE
  5
249
330
241
100
AcDbEntity
  8
0
  6
ByBlock
 62
     0
370
    -2
100
AcDbLine
 10
14.92799757751084
 20
143.3079477036174
 30
0.0
 11
14.92799757751084
 21
142.1079477036174
 31
0.0
  0
ARC
  5
24A
330
241
100
AcDbEntity
  8
0
  6
ByBlock
 62
     0
370
    -2
100
AcDbCircle
 10
19.82799757751084
 20
145.1579477036174
 30
0.0
 40
1.849999999999998
100
AcDbArc
 50
180.0
 51
270.0
  0
ARC
  5
24B
330
241
100
AcDbEntity
  8
0
  6
ByBlock
 62
     0
370
    -2
100
AcDbCircle
 10
14.92799757751084
 20
145.1579477036174
 30
0.0
 40
1.849999999999998
100
AcDbArc
 50
270.0
 51
0.0
  0
ARC
  5
24C
330
241
100
AcDbEntity
  8
0
  6
ByBlock
 62
     0
370
    -2
100
AcDbCircle
 10
14.92799757751084
 20
140.2579477036174
 30
0.0
 40
1.849999999999998
100
AcDbArc
 50
0.0
 51
90.0
  0
ARC
  5
24D
330
241
100
AcDbEntity
  8
0
  6
ByBlock
 62
     0
370
    -2
100
AcDbCircle
 10
19.82799757751084
 20
140.2579477036174
 30
0.0
 40
1.849999999999998
100
AcDbArc
 50
90.0
 51
180.0
  0
ENDBLK
  5
243
330
241
100
AcDbEntity
  8
0
100
AcDbBlockEnd
  0
BLOCK
  5
24F
330
24E
100
AcDbEntity
  8
0
100
AcDbBlockBegin
  2
BLKF040
 70
     0
 10
0.0
 20
0.0
 30
0.0
  3
BLKF040
  1

  0
CIRCLE
  5
252
330
24E
100
AcDbEntity
  8
0
  6
ByBlock
 62
     0
370
    -2
100
AcDbCircle
 10
17.37799757751065
 20
76.23991027208169
 30
0.0
 40
4.5
  0
LINE
  5
253
330
24E
100
AcDbEntity
  8
0
  6
ByBlock
 62
     0
370
    -2
100
AcDbLine
 10
16.77799757751065
 20
78.68991027208169
 30
0.0
 11
17.97799757751065
 21
78.68991027208169
 31
0.0
  0
LINE
  5
254
330
24E
100
AcDbEntity
  8
0
  6
ByBlock
 62
     0
370
    -2
100
AcDbLine
 10
19.82799757751065
 20
76.83991027208168
 30
0.0
 11
19.82799757751065
 21
75.63991027208169
 31
0.0
  0
LINE
  5
255
330
24E
100
AcDbEntity
  8
0
  6
ByBlock
 62
     0
370
    -2
100
AcDbLine
 10
16.77799757751065
 20
73.78991027208168
 30
0.0
 11
17.97799757751065
 21
73.78991027208168
 31
0.0
  0
LINE
  5
256
330
24E
100
AcDbEntity
  8
0
  6
ByBlock
 62
     0
370
    -2
100
AcDbLine
 10
14.92799757751065
 20
76.83991027208168
 30
0.0
 11
14.92799757751065
 21
75.63991027208169
 31
0.0
  0
ARC
  5
257
330
24E
100
AcDbEntity
  8
0
  6
ByBlock
 62
     0
370
    -2
100
AcDbCircle
 10
19.82799757751065
 20
78.68991027208169
 30
0.0
 40
1.849999999999998
100
AcDbArc
 50
180.0
 51
270.0
  0
ARC
  5
258
330
24E
100
AcDbEntity
  8
0
  6
ByBlock
 62
     0
370
    -2
100
AcDbCircle
 10
14.92799757751065
 20
78.68991027208169
 30
0.0
 40
1.849999999999998
100
AcDbArc
 50
270.0
 51
0.0
  0
ARC
  5
259
330
24E
100
AcDbEntity
  8
0
  6
ByBlock
 62
     0
370
    -2
100
AcDbCircle
 10
14.92799757751065
 20
73.78991027208168
 30
0.0
 40
1.849999999999998
100
AcDbArc
 50
0.0
 51
90.0
  0
ARC
  5
25A
330
24E
100
AcDbEntity
  8
0
  6
ByBlock
 62
     0
370
    -2
100
AcDbCircle
 10
19.82799757751065
 20
73.78991027208168
 30
0.0
 40
1.849999999999998
100
AcDbArc
 50
90.0
 51
180.0
  0
ENDBLK
  5
250
330
24E
100
AcDbEntity
  8
0
100
AcDbBlockEnd
  0
BLOCK
  5
25C
330
25B
100
AcDbEntity
  8
0
100
AcDbBlockBegin
  2
BLKF041
 70
     0
 10
0.0
 20
0.0
 30
0.0
  3
BLKF041
  1

  0
CIRCLE
  5
25F
330
25B
100
AcDbEntity
  8
0
  6
ByBlock
 62
     0
370
    -2
100
AcDbCircle
 10
83.84603500904632
 20
76.23991027208186
 30
0.0
 40
4.5
  0
LINE
  5
260
330
25B
100
AcDbEntity
  8
0
  6
ByBlock
 62
     0
370
    -2
100
AcDbLine
 10
83.24603500904632
 20
78.68991027208186
 30
0.0
 11
84.44603500904631
 21
78.68991027208186
 31
0.0
  0
LINE
  5
261
330
25B
100
AcDbEntity
  8
0
  6
ByBlock
 62
     0
370
    -2
100
AcDbLine
 10
86.29603500904632
 20
76.83991027208185
 30
0.0
 11
86.29603500904632
 21
75.63991027208186
 31
0.0
  0
LINE
  5
262
330
25B
100
AcDbEntity
  8
0
  6
ByBlock
 62
     0
370
    -2
100
AcDbLine
 10
83.24603500904632
 20
73.78991027208185
 30
0.0
 11
84.44603500904631
 21
73.78991027208185
 31
0.0
  0
LINE
  5
263
330
25B
100
AcDbEntity
  8
0
  6
ByBlock
 62
     0
370
    -2
100
AcDbLine
 10
81.39603500904632
 20
76.83991027208185
 30
0.0
 11
81.39603500904632
 21
75.63991027208186
 31
0.0
  0
ARC
  5
264
330
25B
100
AcDbEntity
  8
0
  6
ByBlock
 62
     0
370
    -2
100
AcDbCircle
 10
86.29603500904632
 20
78.68991027208186
 30
0.0
 40
1.850000000000009
100
AcDbArc
 50
180.0
 51
270.0
  0
ARC
  5
265
330
25B
100
AcDbEntity
  8
0
  6
ByBlock
 62
     0
370
    -2
100
AcDbCircle
 10
81.39603500904632
 20
78.68991027208186
 30
0.0
 40
1.850000000000009
100
AcDbArc
 50
270.0
 51
0.0
  0
ARC
  5
266
330
25B
100
AcDbEntity
  8
0
  6
ByBlock
 62
     0
370
    -2
100
AcDbCircle
 10
81.39603500904632
 20
73.78991027208185
 30
0.0
 40
1.850000000000009
100
AcDbArc
 50
0.0
 51
90.0
  0
ARC
  5
267
330
25B
100
AcDbEntity
  8
0
  6
ByBlock
 62
     0
370
    -2
100
AcDbCircle
 10
86.29603500904632
 20
73.78991027208185
 30
0.0
 40
1.850000000000009
100
AcDbArc
 50
90.0
 51
180.0
  0
ENDBLK
  5
25D
330
25B
100
AcDbEntity
  8
0
100
AcDbBlockEnd
  0
BLOCK
  5
26F
330
26E
100
AcDbEntity
  8
0
100
AcDbBlockBegin
  2
BLKF042
 70
     0
 10
0.0
 20
0.0
 30
0.0
  3
BLKF042
  1

  0
LINE
  5
272
330
26E
100
AcDbEntity
  8
0
  6
ByBlock
 62
     0
370
    -2
100
AcDbLine
 10
269.3109868495231
 20
247.1332691779081
 30
0.0
 11
269.6682524394313
 21
246.5144670243911
 31
0.0
  0
LINE
  5
273
330
26E
100
AcDbEntity
  8
0
  6
ByBlock
 62
     0
370
    -2
100
AcDbLine
 10
269.6682524394313
 20
246.5144670243911
 30
0.0
 11
269.6682524394313
 21
238.5144670243911
 31
0.0
  0
LINE
  5
274
330
26E
100
AcDbEntity
  8
0
  6
ByBlock
 62
     0
370
    -2
100
AcDbLine
 10
269.6682524394313
 20
238.5144670243911
 30
0.0
 11
269.3109868495231
 21
237.8956648708741
 31
0.0
  0
ARC
  5
275
330
26E
100
AcDbEntity
  8
0
  6
ByBlock
 62
     0
370
    -2
100
AcDbCircle
 10
267.6235942406927
 20
245.9785686395289
 30
0.0
 40
2.044658198738527
100
AcDbArc
 50
325.6157525319574
 51
34.3842474680419
  0
ARC
  5
276
330
26E
100
AcDbEntity
  8
0
  6
ByBlock
 62
     0
370
    -2
100
AcDbCircle
 10
262.0255180293397
 20
242.5144670243911
 30
0.0
 40
7.642734410091656
100
AcDbArc
 50
342.4120462260061
 51
17.58795377399429
  0
ARC
  5
277
330
26E
100
AcDbEntity
  8
0
  6
ByBlock
 62
     0
370
    -2
100
AcDbCircle
 10
267.6235942406927
 20
239.0503654092533
 30
0.0
 40
2.044658198738527
100
AcDbArc
 50
325.6157525319574
 51
34.3842474680419
  0
LINE
  5
278
330
26E
100
AcDbEntity
  8
0
  6
ByBlock
 62
     0
370
    -2
100
AcDbLine
 10
269.3109868495231
 20
237.8956648708741
 30
0.0
 11
265.6682524394313
 21
237.8956648708741
 31
0.0
  0
LINE
  5
279
330
26E
100
AcDbEntity
  8
0
  6
ByBlock
 62
     0
370
    -2
100
AcDbLine
 10
265.6682524394313
 20
237.8956648708741
 30
0.0
 11
265.6682524394313
 21
247.1332691779081
 31
0.0
  0
LINE
  5
27A
330
26E
100
AcDbEntity
  8
0
  6
ByBlock
 62
     0
370
    -2
100
AcDbLine
 10
265.6682524394313
 20
247.1332691779081
 30
0.0
 11
269.3109868495231
 21
247.1332691779081
 31
0.0
  0
LINE
  5
27B
330
26E
100
AcDbEntity
  8
0
  6
ByBlock
 62
     0
370
    -2
100
AcDbLine
 10
269.3109868495231
 20
244.8238681011496
 30
0.0
 11
265.6682524394313
 21
244.8238681011496
 31
0.0
  0
LINE
  5
27C
330
26E
100
AcDbEntity
  8
0
  6
ByBlock
 62
     0
370
    -2
100
AcDbLine
 10
269.3109868495231
 20
240.2050659476326
 30
0.0
 11
265.6682524394313
 21
240.2050659476326
 31
0.0
  0
LINE
  5
27D
330
26E
100
AcDbEntity
  8
0
  6
ByBlock
 62
     0
370
    -2
100
AcDbLine
 10
265.6682524394313
 20
247.5144670243911
 30
0.0
 11
265.6682524394313
 21
237.5144670243911
 31
0.0
  0
LINE
  5
27E
330
26E
100
AcDbEntity
  8
0
  6
ByBlock
 62
     0
370
    -2
100
AcDbLine
 10
265.6682524394313
 20
237.5144670243911
 30
0.0
 11
264.6682524394313
 21
237.5144670243911
 31
0.0
  0
LINE
  5
27F
330
26E
100
AcDbEntity
  8
0
  6
ByBlock
 62
     0
370
    -2
100
AcDbLine
 10
264.6682524394313
 20
237.5144670243911
 30
0.0
 11
264.6682524394313
 21
247.5144670243911
 31
0.0
  0
LINE
  5
280
330
26E
100
AcDbEntity
  8
0
  6
ByBlock
 62
     0
370
    -2
100
AcDbLine
 10
264.6682524394313
 20
247.5144670243911
 30
0.0
 11
265.6682524394313
 21
247.5144670243911
 31
0.0
  0
ENDBLK
  5
270
330
26E
100
AcDbEntity
  8
0
100
AcDbBlockEnd
  0
BLOCK
  5
282
330
281
100
AcDbEntity
  8
0
100
AcDbBlockBegin
  2
BLKF043
 70
     0
 10
0.0
 20
0.0
 30
0.0
  3
BLKF043
  1

  0
LINE
  5
285
330
281
100
AcDbEntity
  8
0
  6
ByBlock
 62
     0
370
    -2
100
AcDbLine
 10
269.3109878168828
 20
180.665227826283
 30
0.0
 11
269.6682532771893
 21
180.0464255979405
 31
0.0
  0
LINE
  5
286
330
281
100
AcDbEntity
  8
0
  6
ByBlock
 62
     0
370
    -2
100
AcDbLine
 10
269.6682532771893
 20
180.0464255979405
 30
0.0
 11
269.6682516016732
 21
172.0464255979407
 31
0.0
  0
LINE
  5
287
330
281
100
AcDbEntity
  8
0
  6
ByBlock
 62
     0
370
    -2
100
AcDbLine
 10
269.6682516016732
 20
172.0464255979407
 30
0.0
 11
269.3109858821634
 21
171.4276235192492
 31
0.0
  0
ARC
  5
288
330
281
100
AcDbEntity
  8
0
  6
ByBlock
 62
     0
370
    -2
100
AcDbCircle
 10
267.6235949662126
 20
179.5105276413105
 30
0.0
 40
2.044658198738504
100
AcDbArc
 50
325.6157405319569
 51
34.38423546804231
  0
ARC
  5
289
330
281
100
AcDbEntity
  8
0
  6
ByBlock
 62
     0
370
    -2
100
AcDbCircle
 10
262.0255180293398
 20
176.0464271986312
 30
0.0
 40
7.642734410091656
100
AcDbArc
 50
342.4120342260061
 51
17.58794177399424
  0
ARC
  5
28A
330
281
100
AcDbEntity
  8
0
  6
ByBlock
 62
     0
370
    -2
100
AcDbCircle
 10
267.6235935151731
 20
172.5823244110352
 30
0.0
 40
2.044658198738504
100
AcDbArc
 50
325.6157405319569
 51
34.38423546804231
  0
LINE
  5
28B
330
281
100
AcDbEntity
  8
0
  6
ByBlock
 62
     0
370
    -2
100
AcDbLine
 10
269.3109858821634
 20
171.4276235192492
 30
0.0
 11
265.6682514720717
 21
171.4276242821817
 31
0.0
  0
LINE
  5
28C
330
281
100
AcDbEntity
  8
0
  6
ByBlock
 62
     0
370
    -2
100
AcDbLine
 10
265.6682514720717
 20
171.4276242821817
 30
0.0
 11
265.6682534067911
 21
180.6652285892156
 31
0.0
  0
LINE
  5
28D
330
281
100
AcDbEntity
  8
0
  6
ByBlock
 62
     0
370
    -2
100
AcDbLine
 10
265.6682534067911
 20
180.6652285892156
 30
0.0
 11
269.3109878168828
 21
180.665227826283
 31
0.0
  0
LINE
  5
28E
330
281
100
AcDbEntity
  8
0
  6
ByBlock
 62
     0
370
    -2
100
AcDbLine
 10
269.3109873332029
 20
178.3558267495246
 30
0.0
 11
265.6682529231112
 21
178.3558275124571
 31
0.0
  0
LINE
  5
28F
330
281
100
AcDbEntity
  8
0
  6
ByBlock
 62
     0
370
    -2
100
AcDbLine
 10
269.3109863658432
 20
173.7370245960077
 30
0.0
 11
265.6682519557515
 21
173.7370253589402
 31
0.0
  0
LINE
  5
290
330
281
100
AcDbEntity
  8
0
  6
ByBlock
 62
     0
370
    -2
100
AcDbLine
 10
265.6682534866289
 20
181.0464264356985
 30
0.0
 11
265.6682513922338
 21
171.0464264356987
 31
0.0
  0
LINE
  5
291
330
281
100
AcDbEntity
  8
0
  6
ByBlock
 62
     0
370
    -2
100
AcDbLine
 10
265.6682513922338
 20
171.0464264356987
 30
0.0
 11
264.6682513922339
 21
171.0464266451383
 31
0.0
  0
LINE
  5
292
330
281
100
AcDbEntity
  8
0
  6
ByBlock
 62
     0
370
    -2
100
AcDbLine
 10
264.6682513922339
 20
171.0464266451383
 30
0.0
 11
264.6682534866289
 21
181.046426645138
 31
0.0
  0
LINE
  5
293
330
281
100
AcDbEntity
  8
0
  6
ByBlock
 62
     0
370
    -2
100
AcDbLine
 10
264.6682534866289
 20
181.046426645138
 30
0.0
 11
265.6682534866289
 21
181.0464264356985
 31
0.0
  0
ENDBLK
  5
283
330
281
100
AcDbEntity
  8
0
100
AcDbBlockEnd
  0
BLOCK
  5
295
330
294
100
AcDbEntity
  8
0
100
AcDbBlockBegin
  2
BLKF044
 70
     0
 10
0.0
 20
0.0
 30
0.0
  3
BLKF044
  1

  0
LINE
  5
298
330
294
100
AcDbEntity
  8
0
  6
ByBlock
 62
     0
370
    -2
100
AcDbLine
 10
216.1682524394313
 20
238.0144670243911
 30
0.0
 11
214.7767556455556
 21
238.0873922812377
 31
0.0
  0
LINE
  5
299
330
294
100
AcDbEntity
  8
0
  6
ByBlock
 62
     0
370
    -2
100
AcDbLine
 10
216.1682524394313
 20
247.0144670243911
 30
0.0
 11
214.7767556455556
 21
246.9415417675447
 31
0.0
  0
LINE
  5
29A
330
294
100
AcDbEntity
  8
0
  6
ByBlock
 62
     0
370
    -2
100
AcDbLine
 10
216.1682524394313
 20
238.0144670243911
 30
0.0
 11
216.1682524394313
 21
247.0144670243911
 31
0.0
  0
ARC
  5
29B
330
294
100
AcDbEntity
  8
0
  6
ByBlock
 62
     0
370
    -2
100
AcDbCircle
 10
214.8604931755443
 20
239.6851995368449
 30
0.0
 40
1.6
100
AcDbArc
 50
195.7859896410124
 51
266.9999999999994
  0
ARC
  5
29C
330
294
100
AcDbEntity
  8
0
  6
ByBlock
 62
     0
370
    -2
100
AcDbCircle
 10
214.8604931755443
 20
245.3437345119373
 30
0.0
 40
1.6
100
AcDbArc
 50
93.00000000000053
 51
164.2140103589876
  0
ARC
  5
29D
330
294
100
AcDbEntity
  8
0
  6
ByBlock
 62
     0
370
    -2
100
AcDbCircle
 10
224.8682524394312
 20
242.5144670243911
 30
0.0
 40
12.0
100
AcDbArc
 50
164.2140103589876
 51
195.7859896410124
  0
LINE
  5
29E
330
294
100
AcDbEntity
  8
0
  6
ByBlock
 62
     0
370
    -2
100
AcDbLine
 10
269.6682524394313
 20
240.0144670243911
 30
0.0
 11
280.3682524394313
 21
240.0144670243911
 31
0.0
  0
LINE
  5
29F
330
294
100
AcDbEntity
  8
0
  6
ByBlock
 62
     0
370
    -2
100
AcDbLine
 10
269.6682524394313
 20
245.0144670243911
 30
0.0
 11
280.3682524394313
 21
245.0144670243911
 31
0.0
  0
LINE
  5
2A0
330
294
100
AcDbEntity
  8
0
  6
ByBlock
 62
     0
370
    -2
100
AcDbLine
 10
281.1682524394312
 20
240.8144670243912
 30
0.0
 11
281.1682524394312
 21
244.2144670243912
 31
0.0
  0
LINE
  5
2A1
330
294
100
AcDbEntity
  8
0
  6
ByBlock
 62
     7
370
    20
100
AcDbLine
 10
269.6682524394313
 20
240.5144670243911
 30
0.0
 11
280.8682524394313
 21
240.5144670243911
 31
0.0
  0
LINE
  5
2A2
330
294
100
AcDbEntity
  8
0
  6
ByBlock
 62
     7
370
    20
100
AcDbLine
 10
269.6682524394313
 20
244.5144670243911
 30
0.0
 11
280.8682524394313
 21
244.5144670243912
 31
0.0
  0
LINE
  5
2A3
330
294
100
AcDbEntity
  8
0
  6
ByBlock
 62
     0
370
    -2
100
AcDbLine
 10
281.1682524394312
 20
244.2144670243912
 30
0.0
 11
280.3682524394313
 21
245.0144670243911
 31
0.0
  0
LINE
  5
2A4
330
294
100
AcDbEntity
  8
0
  6
ByBlock
 62
     0
370
    -2
100
AcDbLine
 10
280.3682524394313
 20
240.0144670243911
 30
0.0
 11
281.1682524394312
 21
240.8144670243912
 31
0.0
  0
LINE
  5
2A5
330
294
100
AcDbEntity
  8
0
  6
ByBlock
 62
     0
370
    -2
100
AcDbLine
 10
280.3682524394313
 20
240.0144670243911
 30
0.0
 11
280.3682524394313
 21
245.0144670243911
 31
0.0
  0
ENDBLK
  5
296
330
294
100
AcDbEntity
  8
0
100
AcDbBlockEnd
  0
BLOCK
  5
2A7
330
2A6
100
AcDbEntity
  8
0
100
AcDbBlockBegin
  2
BLKF045
 70
     0
 10
0.0
 20
0.0
 30
0.0
  3
BLKF045
  1

  0
LINE
  5
2AA
330
2A6
100
AcDbEntity
  8
0
  6
ByBlock
 62
     0
370
    -2
100
AcDbLine
 10
216.1682514969535
 20
171.5464368798376
 30
0.0
 11
214.7767547183514
 21
171.6193624281186
 31
0.0
  0
LINE
  5
2AB
330
2A6
100
AcDbEntity
  8
0
  6
ByBlock
 62
     0
370
    -2
100
AcDbLine
 10
216.1682533819091
 20
180.5464368798375
 30
0.0
 11
214.7767565727601
 21
180.4735119144254
 31
0.0
  0
LINE
  5
2AC
330
2A6
100
AcDbEntity
  8
0
  6
ByBlock
 62
     0
370
    -2
100
AcDbLine
 10
216.1682514969535
 20
171.5464368798376
 30
0.0
 11
216.1682533819091
 21
180.5464368798375
 31
0.0
  0
ARC
  5
2AD
330
2A6
100
AcDbEntity
  8
0
  6
ByBlock
 62
     0
370
    -2
100
AcDbCircle
 10
214.8604925829841
 20
173.2171696661879
 30
0.0
 40
1.6
100
AcDbArc
 50
195.7859776410124
 51
266.9999879999995
  0
ARC
  5
2AE
330
2A6
100
AcDbEntity
  8
0
  6
ByBlock
 62
     0
370
    -2
100
AcDbCircle
 10
214.8604937681048
 20
178.8757046412802
 30
0.0
 40
1.6
100
AcDbArc
 50
92.99998800000054
 51
164.2139983589876
  0
ARC
  5
2AF
330
2A6
100
AcDbEntity
  8
0
  6
ByBlock
 62
     0
370
    -2
100
AcDbCircle
 10
224.8682524394311
 20
176.0464350577138
 30
0.0
 40
12.0
100
AcDbArc
 50
164.2139983589876
 51
195.7859776410124
  0
LINE
  5
2B0
330
2A6
100
AcDbEntity
  8
0
  6
ByBlock
 62
     0
370
    -2
100
AcDbLine
 10
269.6682519158325
 20
173.5464256748238
 30
0.0
 11
280.3682519158311
 21
173.546423433821
 31
0.0
  0
LINE
  5
2B1
330
2A6
100
AcDbEntity
  8
0
  6
ByBlock
 62
     0
370
    -2
100
AcDbLine
 10
269.6682529630301
 20
178.5464256748237
 30
0.0
 11
280.3682529630287
 21
178.5464234338209
 31
0.0
  0
LINE
  5
2B2
330
2A6
100
AcDbEntity
  8
0
  6
ByBlock
 62
     0
370
    -2
100
AcDbLine
 10
281.1682520833827
 20
174.3464232662694
 30
0.0
 11
281.1682527954771
 21
177.7464232662693
 31
0.0
  0
LINE
  5
2B3
330
2A6
100
AcDbEntity
  8
0
  6
ByBlock
 62
     7
370
    20
100
AcDbLine
 10
269.6682520205522
 20
174.0464256748238
 30
0.0
 11
280.8682520205508
 21
174.0464233291013
 31
0.0
  0
LINE
  5
2B4
330
2A6
100
AcDbEntity
  8
0
  6
ByBlock
 62
     7
370
    20
100
AcDbLine
 10
269.6682528583103
 20
178.0464256748237
 30
0.0
 11
280.8682528583088
 21
178.0464233291012
 31
0.0
  0
LINE
  5
2B5
330
2A6
100
AcDbEntity
  8
0
  6
ByBlock
 62
     0
370
    -2
100
AcDbLine
 10
281.1682527954771
 20
177.7464232662693
 30
0.0
 11
280.3682529630287
 21
178.5464234338209
 31
0.0
  0
LINE
  5
2B6
330
2A6
100
AcDbEntity
  8
0
  6
ByBlock
 62
     0
370
    -2
100
AcDbLine
 10
280.3682519158311
 20
173.546423433821
 30
0.0
 11
281.1682520833827
 21
174.3464232662694
 31
0.0
  0
LINE
  5
2B7
330
2A6
100
AcDbEntity
  8
0
  6
ByBlock
 62
     0
370
    -2
100
AcDbLine
 10
280.3682519158311
 20
173.546423433821
 30
0.0
 11
280.3682529630287
 21
178.5464234338209
 31
0.0
  0
ENDBLK
  5
2A8
330
2A6
100
AcDbEntity
  8
0
100
AcDbBlockEnd
  0
ENDSEC
  0
SECTION
  2
ENTITIES
  0
LINE
  5
AA
330
1F
100
AcDbEntity
  8
GR1_01
  6
一点鎖線
 62
     7
370
    20
100
AcDbLine
 10
405.1588059851557
 20
109.4739289878496
 30
0.0
 11
319.1588059851557
 21
109.4739289878496
 31
0.0
  0
LINE
  5
AB
330
1F
100
AcDbEntity
  8
GR1_01
  6
一点鎖線
 62
     7
370
    20
100
AcDbLine
 10
362.1588059851557
 20
152.4739289878496
 30
0.0
 11
362.1588059851557
 21
66.47392898784969
 31
0.0
  0
LINE
  5
AC
330
1F
100
AcDbEntity
  8
GR1_01
  6
一点鎖線
 62
     7
370
    20
100
AcDbLine
 10
334.5816415188803
 20
137.051093454125
 30
0.0
 11
323.2679330198956
 21
148.3648019531097
 31
0.0
  0
LINE
  5
AD
330
1F
100
AcDbEntity
  8
GR1_01
  6
一点鎖線
 62
     7
370
    20
100
AcDbLine
 10
380.1588059851557
 20
124.4739289878497
 30
0.0
 11
344.1588059851557
 21
124.4739289878497
 31
0.0
  0
LINE
  5
AE
330
1F
100
AcDbEntity
  8
GR1_01
 62
     3
100
AcDbLine
 10
396.1588059851557
 20
69.47392898784969
 30
0.0
 11
328.1588059851557
 21
69.47392898784969
 31
0.0
  0
LINE
  5
AF
330
1F
100
AcDbEntity
  8
GR1_01
 62
     3
100
AcDbLine
 10
396.1588059851557
 20
149.4739289878496
 30
0.0
 11
328.1588059851557
 21
149.4739289878496
 31
0.0
  0
LINE
  5
B0
330
1F
100
AcDbEntity
  8
GR1_01
 62
     3
100
AcDbLine
 10
402.1588059851557
 20
143.4739289878496
 30
0.0
 11
402.1588059851557
 21
75.47392898784969
 31
0.0
  0
LINE
  5
B1
330
1F
100
AcDbEntity
  8
GR1_01
 62
     3
100
AcDbLine
 10
322.1588059851557
 20
143.4739289878496
 30
0.0
 11
322.1588059851557
 21
75.47392898784969
 31
0.0
  0
ARC
  5
B2
330
1F
100
AcDbEntity
  8
GR1_01
  6
一点鎖線
 62
     7
370
    20
100
AcDbCircle
 10
362.1588059851557
 20
109.4739289878496
 30
0.0
 40
47.00000000000001
100
AcDbArc
 50
125.2357153350537
 51
144.7642846649462
  0
LINE
  5
B3
330
1F
100
AcDbEntity
  8
GR1_01
  6
一点鎖線
 62
     7
370
    20
100
AcDbLine
 10
209.8682524394312
 20
142.707949712782
 30
0.0
 11
284.1682524394312
 21
142.707949712782
 31
0.0
  0
LINE
  5
B4
330
1F
100
AcDbEntity
  8
GR1_01
  6
一点鎖線
 62
     7
370
    20
100
AcDbLine
 10
209.8682524394312
 20
76.23992089768416
 30
0.0
 11
284.1682524394298
 21
76.23990521854671
 31
0.0
  0
LINE
  5
B5
330
1F
100
AcDbEntity
  8
GR1_01
  6
一点鎖線
 62
     7
370
    20
100
AcDbLine
 10
267.6682524394313
 20
109.4739289878496
 30
0.0
 11
111.6682524394312
 21
109.4739289878496
 31
0.0
  0
LINE
  5
B6
330
1F
100
AcDbEntity
  8
GR1_01
  6
一点鎖線
 62
     7
370
    20
100
AcDbLine
 10
389.7359704514311
 20
137.051093454125
 30
0.0
 11
401.0496789504158
 21
148.3648019531098
 31
0.0
  0
LINE
  5
B7
330
1F
100
AcDbEntity
  8
GR1_01
  6
一点鎖線
 62
     7
370
    20
100
AcDbLine
 10
334.5816415188801
 20
81.89676452157403
 30
0.0
 11
323.2679330198954
 21
70.58305602258923
 31
0.0
  0
LINE
  5
B8
330
1F
100
AcDbEntity
  8
GR1_01
  6
一点鎖線
 62
     7
370
    20
100
AcDbLine
 10
389.7359704514311
 20
81.89676452157417
 30
0.0
 11
401.0496789504158
 21
70.5830560225894
 31
0.0
  0
ARC
  5
B9
330
1F
100
AcDbEntity
  8
GR1_01
  6
一点鎖線
 62
     7
370
    20
100
AcDbCircle
 10
362.1588059851557
 20
109.4739289878495
 30
0.0
 40
47.00000000000001
100
AcDbArc
 50
305.2357153350538
 51
324.7642846649463
  0
INSERT
  5
BD
330
1F
100
AcDbEntity
  8
GR1_01
 62
     3
100
AcDbBlockReference
  2
BLKF022
 10
0.0
 20
0.0
 30
0.0
  0
INSERT
  5
CA
330
1F
100
AcDbEntity
  8
GR1_01
 62
     3
100
AcDbBlockReference
  2
BLKF023
 10
0.0
 20
0.0
 30
0.0
  0
ARC
  5
EE
330
1F
100
AcDbEntity
  8
GR1_01
  6
一点鎖線
 62
     7
370
    20
100
AcDbCircle
 10
362.1588059851559
 20
109.4739289878494
 30
0.0
 40
47.00000000000001
100
AcDbArc
 50
35.23571533505409
 51
54.7642846649466
  0
ARC
  5
EF
330
1F
100
AcDbEntity
  8
GR1_01
  6
一点鎖線
 62
     7
370
    20
100
AcDbCircle
 10
362.1588059851558
 20
109.4739289878491
 30
0.0
 40
47.00000000000001
100
AcDbArc
 50
215.2357153350532
 51
234.7642846649458
  0
ARC
  5
F0
330
1F
100
AcDbEntity
  8
GR1_01
 62
     3
100
AcDbCircle
 10
396.1588059851557
 20
143.4739289878496
 30
0.0
 40
6.0
100
AcDbArc
 50
0.0
 51
90.0
  0
ARC
  5
F1
330
1F
100
AcDbEntity
  8
GR1_01
 62
     3
100
AcDbCircle
 10
328.1588059851557
 20
143.4739289878496
 30
0.0
 40
6.0
100
AcDbArc
 50
90.0
 51
180.0
  0
ARC
  5
F2
330
1F
100
AcDbEntity
  8
GR1_01
 62
     3
100
AcDbCircle
 10
328.1588059851557
 20
75.47392898784969
 30
0.0
 40
6.0
100
AcDbArc
 50
180.0
 51
270.0
  0
ARC
  5
F3
330
1F
100
AcDbEntity
  8
GR1_01
 62
     3
100
AcDbCircle
 10
396.1588059851557
 20
75.47392898784969
 30
0.0
 40
6.0
100
AcDbArc
 50
270.0
 51
0.0
  0
LINE
  5
F4
330
1F
100
AcDbEntity
  8
GR1_01
 62
     3
100
AcDbLine
 10
353.1588059851557
 20
73.33184825084714
 30
0.0
 11
353.1588059851557
 21
69.47392898784969
 31
0.0
  0
LINE
  5
F5
330
1F
100
AcDbEntity
  8
GR1_01
 62
     3
100
AcDbLine
 10
371.1588059851557
 20
73.33184825084714
 30
0.0
 11
371.1588059851557
 21
69.47392898784969
 31
0.0
  0
ARC
  5
F6
330
1F
100
AcDbEntity
  8
GR1_01
 62
     3
100
AcDbCircle
 10
362.1588059851557
 20
109.4739289878495
 30
0.0
 40
36.5
100
AcDbArc
 50
285.4660099534206
 51
15.04505060019204
  0
LINE
  5
F7
330
1F
100
AcDbEntity
  8
GR1_01
  6
一点鎖線
 62
     7
370
    20
100
AcDbLine
 10
369.1588059851556
 20
78.47392898784958
 30
0.0
 11
355.1588059851556
 21
78.47392898784958
 31
0.0
  0
CIRCLE
  5
F8
330
1F
100
AcDbEntity
  8
GR1_01
 62
     3
100
AcDbCircle
 10
362.1588059851556
 20
78.47392898784958
 30
0.0
 40
4.0
  0
INSERT
  5
FC
330
1F
100
AcDbEntity
  8
GR1_01
 62
     3
100
AcDbBlockReference
  2
BLKF024
 10
0.0
 20
0.0
 30
0.0
  0
LINE
  5
106
330
1F
100
AcDbEntity
  8
GR1_01
  6
一点鎖線
 62
     7
370
    20
100
AcDbLine
 10
385.5055935024732
 20
131.0361068143405
 30
0.0
 11
392.5055935024733
 21
118.9117511613584
 31
0.0
  0
CIRCLE
  5
107
330
1F
100
AcDbEntity
  8
GR1_01
 62
     3
100
AcDbCircle
 10
389.0055935024732
 20
124.9739289878495
 30
0.0
 40
4.0
  0
INSERT
  5
10B
330
1F
100
AcDbEntity
  8
GR1_01
 62
     3
100
AcDbBlockReference
  2
BLKF025
 10
0.0
 20
0.0
 30
0.0
  0
LINE
  5
115
330
1F
100
AcDbEntity
  8
GR1_01
  6
一点鎖線
 62
     7
370
    20
100
AcDbLine
 10
382.9434156759821
 20
121.4739289878495
 30
0.0
 11
395.0677713289643
 21
128.4739289878495
 31
0.0
  0
LINE
  5
116
330
1F
100
AcDbEntity
  8
GR1_01
  6
一点鎖線
 62
     7
370
    20
100
AcDbLine
 10
338.8120184678381
 20
131.0361068143405
 30
0.0
 11
331.812018467838
 21
118.9117511613584
 31
0.0
  0
CIRCLE
  5
117
330
1F
100
AcDbEntity
  8
GR1_01
 62
     3
100
AcDbCircle
 10
335.3120184678381
 20
124.9739289878495
 30
0.0
 40
4.0
  0
INSERT
  5
11B
330
1F
100
AcDbEntity
  8
GR1_01
 62
     3
100
AcDbBlockReference
  2
BLKF026
 10
0.0
 20
0.0
 30
0.0
  0
LINE
  5
125
330
1F
100
AcDbEntity
  8
GR1_01
  6
一点鎖線
 62
     7
370
    20
100
AcDbLine
 10
341.3741962943292
 20
121.4739289878495
 30
0.0
 11
329.249840641347
 21
128.4739289878495
 31
0.0
  0
ARC
  5
126
330
1F
100
AcDbEntity
  8
GR1_01
 62
     3
100
AcDbCircle
 10
335.3120184678381
 20
124.9739289878495
 30
0.0
 40
10.0
100
AcDbArc
 50
88.38799460902253
 51
211.6120053909777
  0
ARC
  5
127
330
1F
100
AcDbEntity
  8
GR1_01
 62
     3
100
AcDbCircle
 10
389.0055935024732
 20
124.9739289878495
 30
0.0
 40
10.0
100
AcDbArc
 50
328.3879946090228
 51
91.61200539097752
  0
ARC
  5
128
330
1F
100
AcDbEntity
  8
GR1_01
 62
     3
100
AcDbCircle
 10
362.1588059851557
 20
109.4739289878495
 30
0.0
 40
36.5
100
AcDbArc
 50
44.95494939980806
 51
135.045050600192
  0
ARC
  5
129
330
1F
100
AcDbEntity
  8
GR1_01
 62
     3
100
AcDbCircle
 10
362.1588059851557
 20
109.4739289878495
 30
0.0
 40
36.5
100
AcDbArc
 50
164.954949399808
 51
254.5339900465794
  0
ARC
  5
12A
330
1F
100
AcDbEntity
  8
GR1_01
 62
     3
100
AcDbCircle
 10
352.1588059851557
 20
73.33184825084714
 30
0.0
 40
1.0
100
AcDbArc
 50
0.0
 51
74.53399004658014
  0
ARC
  5
12B
330
1F
100
AcDbEntity
  8
GR1_01
 62
     3
100
AcDbCircle
 10
372.1588059851557
 20
73.33184825084714
 30
0.0
 40
1.0
100
AcDbArc
 50
105.4660099534194
 51
180.0
  0
ARC
  5
12C
330
1F
100
AcDbEntity
  8
GR1_01
 62
     3
100
AcDbCircle
 10
398.3733818531971
 20
119.2081210291988
 30
0.0
 40
1.0
100
AcDbArc
 50
148.3879946090232
 51
195.0450506001924
  0
ARC
  5
12D
330
1F
100
AcDbEntity
  8
GR1_01
 62
     3
100
AcDbCircle
 10
388.6961515123011
 20
135.9695756561778
 30
0.0
 40
1.0
100
AcDbArc
 50
224.9549493998071
 51
271.6120053909762
  0
ARC
  5
12E
330
1F
100
AcDbEntity
  8
GR1_01
 62
     3
100
AcDbCircle
 10
335.6214604580102
 20
135.9695756561778
 30
0.0
 40
1.0
100
AcDbArc
 50
268.3879946090206
 51
315.0450506001894
  0
ARC
  5
12F
330
1F
100
AcDbEntity
  8
GR1_01
 62
     3
100
AcDbCircle
 10
325.9442301171142
 20
119.2081210291987
 30
0.0
 40
1.0
100
AcDbArc
 50
344.9549493998099
 51
31.61200539097651
  0
CIRCLE
  5
130
330
1F
100
AcDbEntity
  8
GR1_01
 62
     3
100
AcDbCircle
 10
362.1588059851557
 20
124.4739289878497
 30
0.0
 40
15.0
  0
INSERT
  5
134
330
1F
100
AcDbEntity
  8
GR1_01
 62
     3
100
AcDbBlockReference
  2
BLKF027
 10
0.0
 20
0.0
 30
0.0
  0
CIRCLE
  5
143
330
1F
100
AcDbEntity
  8
GR1_01
 62
     3
100
AcDbCircle
 10
362.1588059851556
 20
124.4739289878497
 30
0.0
 40
5.0
  0
LINE
  5
144
330
1F
100
AcDbEntity
  8
GR1_01
 62
     3
100
AcDbLine
 10
359.6588059851555
 20
122.4739289878497
 30
0.0
 11
357.5762302901998
 21
122.4739289878497
 31
0.0
  0
LINE
  5
145
330
1F
100
AcDbEntity
  8
GR1_01
 62
     3
100
AcDbLine
 10
359.6588059851555
 20
126.4739289878497
 30
0.0
 11
357.5762302901998
 21
126.4739289878497
 31
0.0
  0
LINE
  5
146
330
1F
100
AcDbEntity
  8
GR1_01
 62
     3
100
AcDbLine
 10
359.6588059851555
 20
126.4739289878497
 30
0.0
 11
359.6588059851556
 21
122.4739289878497
 31
0.0
  0
INSERT
  5
14A
330
1F
100
AcDbEntity
  8
GR1_01
 62
     3
100
AcDbBlockReference
  2
BLKF029
 10
0.0
 20
0.0
 30
0.0
  0
INSERT
  5
15D
330
1F
100
AcDbEntity
  8
GR1_01
 62
     3
100
AcDbBlockReference
  2
BLKF030
 10
0.0
 20
0.0
 30
0.0
  0
INSERT
  5
170
330
1F
100
AcDbEntity
  8
GR1_01
 62
     3
100
AcDbBlockReference
  2
BLKF031
 10
0.0
 20
0.0
 30
0.0
  0
INSERT
  5
182
330
1F
100
AcDbEntity
  8
GR1_01
 62
     3
100
AcDbBlockReference
  2
BLKF032
 10
0.0
 20
0.0
 30
0.0
  0
INSERT
  5
194
330
1F
100
AcDbEntity
  8
GR1_01
 62
     3
100
AcDbBlockReference
  2
BLKF033
 10
0.0
 20
0.0
 30
0.0
  0
INSERT
  5
1A9
330
1F
100
AcDbEntity
  8
GR1_01
 62
     3
100
AcDbBlockReference
  2
BLKF034
 10
0.0
 20
0.0
 30
0.0
  0
INSERT
  5
1B5
330
1F
100
AcDbEntity
  8
GR1_01
 62
     3
100
AcDbBlockReference
  2
BLKF035
 10
0.0
 20
0.0
 30
0.0
  0
INSERT
  5
1C1
330
1F
100
AcDbEntity
  8
GR1_01
 62
     3
100
AcDbBlockReference
  2
BLKF036
 10
0.0
 20
0.0
 30
0.0
  0
INSERT
  5
1CD
330
1F
100
AcDbEntity
  8
GR1_01
 62
     3
100
AcDbBlockReference
  2
BLKF037
 10
0.0
 20
0.0
 30
0.0
  0
ARC
  5
1D6
330
1F
100
AcDbEntity
  8
GR1_01
 62
     7
370
    20
100
AcDbCircle
 10
328.9247872693879
 20
142.7079477036174
 30
0.0
 40
2.0
100
AcDbArc
 50
80.0
 51
349.9999999999999
  0
CIRCLE
  5
1D7
330
1F
100
AcDbEntity
  8
GR1_01
 62
     3
100
AcDbCircle
 10
328.9247872693879
 20
142.7079477036174
 30
0.0
 40
2.499999999999992
  0
ARC
  5
1D8
330
1F
100
AcDbEntity
  8
GR1_01
 62
     7
370
    20
100
AcDbCircle
 10
395.3928247009234
 20
142.7079477036174
 30
0.0
 40
2.0
100
AcDbArc
 50
80.0
 51
349.9999999999999
  0
CIRCLE
  5
1D9
330
1F
100
AcDbEntity
  8
GR1_01
 62
     3
100
AcDbCircle
 10
395.3928247009234
 20
142.7079477036174
 30
0.0
 40
2.499999999999992
  0
ARC
  5
1DA
330
1F
100
AcDbEntity
  8
GR1_01
 62
     7
370
    20
100
AcDbCircle
 10
328.9247872693878
 20
76.23991027208163
 30
0.0
 40
2.0
100
AcDbArc
 50
80.0
 51
349.9999999999999
  0
CIRCLE
  5
1DB
330
1F
100
AcDbEntity
  8
GR1_01
 62
     3
100
AcDbCircle
 10
328.9247872693878
 20
76.23991027208163
 30
0.0
 40
2.499999999999992
  0
ARC
  5
1DC
330
1F
100
AcDbEntity
  8
GR1_01
 62
     7
370
    20
100
AcDbCircle
 10
395.3928247009234
 20
76.2399102720818
 30
0.0
 40
2.0
100
AcDbArc
 50
80.0
 51
349.9999999999999
  0
CIRCLE
  5
1DD
330
1F
100
AcDbEntity
  8
GR1_01
 62
     3
100
AcDbCircle
 10
395.3928247009234
 20
76.2399102720818
 30
0.0
 40
2.499999999999992
  0
LINE
  5
1DE
330
1F
100
AcDbEntity
  8
GR1_01
  6
一点鎖線
 62
     7
370
    20
100
AcDbLine
 10
50.61200718444901
 20
152.4739289878497
 30
0.0
 11
50.6120276492308
 21
55.86594971581977
 31
0.0
  0
LINE
  5
1DF
330
1F
100
AcDbEntity
  8
GR1_01
  6
一点鎖線
 62
     7
370
    20
100
AcDbLine
 10
93.61201629327853
 20
109.4739289878496
 30
0.0
 11
7.612016293278543
 21
109.4739289878496
 31
0.0
  0
LINE
  5
1E0
330
1F
100
AcDbEntity
  8
GR1_01
 62
     3
100
AcDbLine
 10
52.81203973604447
 20
69.00180018845879
 30
0.0
 11
52.81201303309629
 21
79.55468947678779
 31
0.0
  0
LINE
  5
1E1
330
1F
100
AcDbEntity
  8
GR1_01
 62
     3
100
AcDbLine
 10
48.41204202486247
 20
69.00180018845879
 30
0.0
 11
48.41201532191643
 21
79.5546886352873
 31
0.0
  0
LINE
  5
1E2
330
1F
100
AcDbEntity
  8
GR1_01
 62
     3
100
AcDbLine
 10
50.61203515840747
 20
69.00180018845879
 30
0.0
 11
50.61201608484346
 21
79.5546937583596
 31
0.0
  0
ARC
  5
1E3
330
1F
100
AcDbEntity
  8
GR1_01
 62
     3
100
AcDbCircle
 10
66.37087762666947
 20
66.00178492966879
 30
0.0
 40
15.758815765381
100
AcDbArc
 50
179.99995036744
 51
207.4638678125
  0
ARC
  5
1E4
330
1F
100
AcDbEntity
  8
GR1_01
 62
     3
100
AcDbCircle
 10
66.37087762666947
 20
66.00178492966879
 30
0.0
 40
13.558834075928
100
AcDbArc
 50
179.9999776882
 51
207.4638678125
  0
ARC
  5
1E5
330
1F
100
AcDbEntity
  8
GR1_01
 62
     3
100
AcDbCircle
 10
51.16206109834847
 20
69.95442164841879
 30
0.0
 40
1.0999990701675
100
AcDbArc
 50
239.99987007483
 51
299.9998580841
  0
ARC
  5
1E6
330
1F
100
AcDbEntity
  8
GR1_01
 62
     3
100
AcDbCircle
 10
52.26205957246947
 20
69.95442164841879
 30
0.0
 40
1.0999990701675
100
AcDbArc
 50
239.99987007483
 51
299.9998580841
  0
ARC
  5
1E7
330
1F
100
AcDbEntity
  8
GR1_01
 62
     3
100
AcDbCircle
 10
52.26205194307548
 20
68.04917872849879
 30
0.0
 40
1.0999990701675
100
AcDbArc
 50
59.99985823568
 51
119.99985307514
  0
ARC
  5
1E8
330
1F
100
AcDbEntity
  8
GR1_01
 62
     3
100
AcDbCircle
 10
52.26204431368048
 20
65.04914821091879
 30
0.0
 40
1.0999990701675
100
AcDbArc
 50
59.99971480170699
 51
119.99971647136
  0
ARC
  5
1E9
330
1F
100
AcDbEntity
  8
GR1_01
 62
     3
100
AcDbCircle
 10
51.16204583955947
 20
65.04916346970879
 30
0.0
 40
1.0999990701675
100
AcDbArc
 50
59.99971480170699
 51
119.99971647136
  0
ARC
  5
1EA
330
1F
100
AcDbEntity
  8
GR1_01
 62
     3
100
AcDbCircle
 10
51.16205346895447
 20
66.95442164841879
 30
0.0
 40
1.0999990701675
100
AcDbArc
 50
239.99973347104
 51
299.99972148032
  0
LINE
  5
1EB
330
1F
100
AcDbEntity
  8
GR1_01
 62
     3
100
AcDbLine
 10
53.68248498750847
 20
59.40679896775879
 30
0.0
 11
55.29964959932548
 21
56.46874202195878
 31
0.0
  0
LINE
  5
1EC
330
1F
100
AcDbEntity
  8
GR1_01
 62
     3
100
AcDbLine
 10
53.19355523897347
 20
59.15267909470879
 30
0.0
 11
54.77034509493048
 21
56.14527858201879
 31
0.0
  0
LINE
  5
1ED
330
1F
100
AcDbEntity
  8
GR1_01
 62
     3
100
AcDbLine
 10
52.79541528536048
 20
58.94573939744879
 30
0.0
 11
54.19692743135647
 21
55.86592067185879
 31
0.0
  0
LINE
  5
1EE
330
1F
100
AcDbEntity
  8
GR1_01
 62
     3
100
AcDbLine
 10
54.34010064912947
 20
59.74861110154879
 30
0.0
 11
52.38805139375847
 21
58.73399318162879
 31
0.0
  0
ARC
  5
1EF
330
1F
100
AcDbEntity
  8
GR1_01
 62
     3
100
AcDbCircle
 10
34.85320031954046
 20
66.00176967087879
 30
0.0
 40
15.758815765381
100
AcDbArc
 50
332.536191837972
 51
0.0001092830267202
  0
ARC
  5
1F0
330
1F
100
AcDbEntity
  8
GR1_01
 62
     3
100
AcDbCircle
 10
34.85320031954046
 20
66.00176967087879
 30
0.0
 40
13.558834075928
100
AcDbArc
 50
332.536191837972
 51
0.0000819622700402
  0
ARC
  5
1F1
330
1F
100
AcDbEntity
  8
GR1_01
 62
     3
100
AcDbCircle
 10
48.96201837373947
 20
69.95442164841879
 30
0.0
 40
1.0999990701675
100
AcDbArc
 50
240.00019792391
 51
300.00018593318
  0
ARC
  5
1F2
330
1F
100
AcDbEntity
  8
GR1_01
 62
     3
100
AcDbCircle
 10
50.06201684786048
 20
69.95442164841879
 30
0.0
 40
1.0999990701675
100
AcDbArc
 50
240.00019792391
 51
300.00018593318
  0
ARC
  5
1F3
330
1F
100
AcDbEntity
  8
GR1_01
 62
     3
100
AcDbCircle
 10
50.06202447725447
 20
68.04917872849879
 30
0.0
 40
1.0999990701675
100
AcDbArc
 50
60.00018608476
 51
120.00018092422
  0
ARC
  5
1F4
330
1F
100
AcDbEntity
  8
GR1_01
 62
     3
100
AcDbCircle
 10
50.06203973604447
 20
65.04917872849879
 30
0.0
 40
1.0999990701675
100
AcDbArc
 50
60.0003500093
 51
120.00034484876
  0
ARC
  5
1F5
330
1F
100
AcDbEntity
  8
GR1_01
 62
     3
100
AcDbCircle
 10
48.96204126192248
 20
65.04916346970879
 30
0.0
 40
1.0999990701675
100
AcDbArc
 50
60.0003500093
 51
120.00034484876
  0
ARC
  5
1F6
330
1F
100
AcDbEntity
  8
GR1_01
 62
     3
100
AcDbCircle
 10
48.96202981783148
 20
66.95442164841879
 30
0.0
 40
1.0999990701675
100
AcDbArc
 50
240.00036184845
 51
300.00034985772
  0
LINE
  5
1F7
330
1F
100
AcDbEntity
  8
GR1_01
 62
     3
100
AcDbLine
 10
47.54160058809447
 20
59.40681422654879
 30
0.0
 11
45.92443979097547
 21
56.46874202195878
 31
0.0
  0
LINE
  5
1F8
330
1F
100
AcDbEntity
  8
GR1_01
 62
     3
100
AcDbLine
 10
48.03051889253848
 20
59.15267909470879
 30
0.0
 11
46.45373285127847
 21
56.14526332322879
 31
0.0
  0
LINE
  5
1F9
330
1F
100
AcDbEntity
  8
GR1_01
 62
     3
100
AcDbLine
 10
48.42866266084847
 20
58.94572413865879
 30
0.0
 11
47.02715814424747
 21
55.86592067185879
 31
0.0
  0
LINE
  5
1FA
330
1F
100
AcDbEntity
  8
GR1_01
 62
     3
100
AcDbLine
 10
46.88397348238146
 20
59.74861110154879
 30
0.0
 11
48.83602655245048
 21
58.73399318162879
 31
0.0
  0
CIRCLE
  5
1FB
330
1F
100
AcDbEntity
  8
GR1_01
 62
     3
100
AcDbCircle
 10
50.61200845544846
 20
109.4739137290696
 30
0.0
 40
30.0
  0
CIRCLE
  5
1FC
330
1F
100
AcDbEntity
  8
GR1_01
 62
     3
100
AcDbCircle
 10
50.61200082605447
 20
109.4739137290696
 30
0.0
 40
6.8181800842285
  0
CIRCLE
  5
1FD
330
1F
100
AcDbEntity
  8
GR1_01
 62
     3
100
AcDbCircle
 10
50.61200082605447
 20
109.4739137290696
 30
0.0
 40
7.9090890884399
  0
LINE
  5
1FE
330
1F
100
AcDbEntity
  8
GR1_01
 62
     3
100
AcDbLine
 10
43.79382074182547
 20
109.4739137290696
 30
0.0
 11
54.02108896081948
 21
106.0648255942996
 31
0.0
  0
LINE
  5
1FF
330
1F
100
AcDbEntity
  8
GR1_01
 62
     3
100
AcDbLine
 10
54.02108896081947
 20
106.0648255942996
 30
0.0
 11
54.06278360193346
 21
109.4739137290696
 31
0.0
  0
LINE
  5
200
330
1F
100
AcDbEntity
  8
GR1_01
 62
     3
100
AcDbLine
 10
54.06278360193346
 20
109.4739137290696
 30
0.0
 11
57.43018472498046
 21
109.4739137290696
 31
0.0
  0
LINE
  5
201
330
1F
100
AcDbEntity
  8
GR1_01
 62
     3
100
AcDbLine
 10
47.20291269128847
 20
112.8830018638296
 30
0.0
 11
47.22604883020446
 21
109.4739137290696
 31
0.0
  0
LINE
  5
202
330
1F
100
AcDbEntity
  8
GR1_01
 62
     3
100
AcDbLine
 10
47.22604883020446
 20
109.4739137290696
 30
0.0
 11
43.79382074182547
 21
109.4739137290696
 31
0.0
  0
TEXT
  5
203
330
1F
100
AcDbEntity
  8
GR1_01
 62
     3
100
AcDbText
 10
35.7791862487793
 20
107.5058441162109
 30
0.0
 40
3.409090042114258
  1
Ｓ
 50
281.9999999999999
 41
1.119999999999999
 51
3.0
  7
FX_VECTOR
 72
     5
 11
36.34621798862406
 21
104.8381695199073
 31
0.0
100
AcDbText
  0
TEXT
  5
204
330
1F
100
AcDbEntity
  8
GR1_01
 62
     3
100
AcDbText
 10
36.51250839233398
 20
104.4649505615234
 30
0.0
 40
3.409090042114258
  1
Ａ
 50
294.000030517578
 41
1.120000000000001
 51
3.0
  7
FX_VECTOR
 72
     5
 11
37.62179119111821
 21
101.9734641742284
 31
0.0
100
AcDbText
  0
TEXT
  5
205
330
1F
100
AcDbEntity
  8
GR1_01
 62
     3
100
AcDbText
 10
37.8620491027832
 20
101.6429595947266
 30
0.0
 40
3.409090042114258
  1
Ｗ
 50
306.0000305175781
 41
1.48960003524781
 51
3.0
  7
FX_VECTOR
 72
     5
 11
39.99410758917863
 21
98.70843612758267
 31
0.0
100
AcDbText
  0
TEXT
  5
206
330
1F
100
AcDbEntity
  8
GR1_01
 62
     3
100
AcDbText
 10
39.7688102722168
 20
99.16322326660156
 30
0.0
 40
3.409090042114258
  1
Ａ
 50
317.9999999999999
 41
1.120000000000001
 51
3.0
  7
FX_VECTOR
 72
     5
 11
41.79556837172377
 21
97.33832207699207
 31
0.0
100
AcDbText
  0
TEXT
  5
207
330
1F
100
AcDbEntity
  8
GR1_01
 62
     3
100
AcDbText
 10
42.14947128295898
 20
97.13412475585938
 30
0.0
 40
3.409090042114258
  1
Ｍ
 50
330.0
 41
1.119999999999999
 51
3.0
  7
FX_VECTOR
 72
     5
 11
44.51135814716659
 21
95.77048873901367
 31
0.0
100
AcDbText
  0
TEXT
  5
208
330
1F
100
AcDbEntity
  8
GR1_01
 62
     3
100
AcDbText
 10
44.89997482299805
 20
95.64433288574219
 30
0.0
 40
3.409090042114258
  1
Ｕ
 50
342.0000000000001
 41
1.12
 51
3.0
  7
FX_VECTOR
 72
     5
 11
47.4937646623498
 21
94.80155947904802
 31
0.0
100
AcDbText
  0
TEXT
  5
209
330
1F
100
AcDbEntity
  8
GR1_01
 62
     3
100
AcDbText
 10
47.90012741088867
 20
94.75895690917969
 30
0.0
 40
3.409090042114258
  1
Ｒ
 50
353.9999694824219
 41
1.119999999999999
 51
3.0
  7
FX_VECTOR
 72
     5
 11
50.61245901117846
 21
94.47387790990985
 31
0.0
100
AcDbText
  0
TEXT
  5
20A
330
1F
100
AcDbEntity
  8
GR1_01
 62
     3
100
AcDbText
 10
51.01881790161133
 20
94.51667785644531
 30
0.0
 40
3.409090042114258
  1
Ａ
 50
5.999999999999965
 41
1.119999999999999
 51
3.0
  7
FX_VECTOR
 72
     5
 11
53.73114965374299
 21
94.80175541103992
 31
0.0
100
AcDbText
  0
TEXT
  5
20B
330
1F
100
AcDbEntity
  8
GR1_01
 62
     3
100
AcDbText
 10
63.76873397827148
 20
102.34765625
 30
0.0
 40
3.409090042114258
  1
Ｋ
 50
66.00004577636732
 41
1.120000000000001
 51
3.0
  7
FX_VECTOR
 72
     5
 11
64.87801345943993
 21
104.8391441143923
 31
0.0
100
AcDbText
  0
TEXT
  5
20C
330
1F
100
AcDbEntity
  8
GR1_01
 62
     3
100
AcDbText
 10
64.96286010742188
 20
105.2388000488281
 30
0.0
 40
3.409090042114258
  1
Ｉ
 50
77.99999999999996
 41
0.7392000215403276
 51
3.0
  7
FX_VECTOR
 72
     5
 11
65.33710106662483
 21
106.9994653336944
 31
0.0
100
AcDbText
  0
TEXT
  5
20D
330
1F
100
AcDbEntity
  8
GR1_01
 62
     3
100
AcDbText
 10
57.06731796264648
 20
95.97528076171875
 30
0.0
 40
3.409090042114258
  1
Ｄ
 50
30.00003242492669
 41
1.119999999999999
 51
3.0
  7
FX_VECTOR
 72
     5
 11
59.42920405514246
 21
97.33891811520733
 31
0.0
100
AcDbText
  0
TEXT
  5
20E
330
1F
100
AcDbEntity
  8
GR1_01
 62
     3
100
AcDbText
 10
59.73276901245117
 20
97.61239624023438
 30
0.0
 40
3.409090042114258
  1
Ｅ
 50
41.99996185302721
 41
1.119999999999999
 51
3.0
  7
FX_VECTOR
 72
     5
 11
61.75952832695916
 21
99.43729608044762
 31
0.0
100
AcDbText
  0
TEXT
  5
20F
330
1F
100
AcDbEntity
  8
GR1_01
 62
     3
100
AcDbText
 10
61.99959182739258
 20
99.7679443359375
 30
0.0
 40
3.409090042114258
  1
Ｎ
 50
54.00006103515616
 41
1.12
 51
3.0
  7
FX_VECTOR
 72
     5
 11
63.60263975737569
 21
101.9743554671486
 31
0.0
100
AcDbText
  0
TEXT
  5
210
330
1F
100
AcDbEntity
  8
GR1_01
 62
     3
100
AcDbText
 10
35.69413375854492
 20
110.6326599121094
 30
0.0
 40
3.410000085830688
  1
＊
 50
270.0
 41
1.120000039153783
 51
3.0
  7
FX_VECTOR
 72
     5
 11
35.69413375854492
 21
107.9046597480774
 31
0.0
100
AcDbText
  0
TEXT
  5
211
330
1F
100
AcDbEntity
  8
GR1_01
 62
     3
100
AcDbText
 10
56.32403182983398
 20
123.3035125732422
 30
0.0
 40
3.409090042114258
  1
Ｕ
 50
162.0000000000001
 41
1.12
 51
3.0
  7
FX_VECTOR
 72
     5
 11
53.73024199048223
 21
124.1462859799364
 31
0.0
100
AcDbText
  0
TEXT
  5
212
330
1F
100
AcDbEntity
  8
GR1_01
 62
     3
100
AcDbText
 10
53.32387161254883
 20
124.1888885498047
 30
0.0
 40
3.409090042114258
  1
Ｒ
 50
173.9999847412109
 41
1.120000000000001
 51
3.0
  7
FX_VECTOR
 72
     5
 11
50.611539936338
 21
124.4739668267369
 31
0.0
100
AcDbText
  0
TEXT
  5
213
330
1F
100
AcDbEntity
  8
GR1_01
 62
     3
100
AcDbText
 10
50.2051887512207
 20
124.4311676025391
 30
0.0
 40
3.409090042114258
  1
Ａ
 50
186.0000152587891
 41
1.120000000000001
 51
3.0
  7
FX_VECTOR
 72
     5
 11
47.49285707500988
 21
124.1460893256068
 31
0.0
100
AcDbText
  0
TEXT
  5
214
330
1F
100
AcDbEntity
  8
GR1_01
 62
     3
100
AcDbText
 10
37.45527267456055
 20
116.6001892089844
 30
0.0
 40
3.409090042114258
  1
Ｋ
 50
246.0000610351562
 41
1.12
 51
3.0
  7
FX_VECTOR
 72
     5
 11
36.34599385691549
 21
114.1087010491732
 31
0.0
100
AcDbText
  0
TEXT
  5
215
330
1F
100
AcDbEntity
  8
GR1_01
 62
     3
100
AcDbText
 10
36.26115036010742
 20
113.7090454101562
 30
0.0
 40
3.409090042114258
  1
Ｉ
 50
257.9999999999999
 41
0.7392000215403276
 51
3.0
  7
FX_VECTOR
 72
     5
 11
35.88690940090447
 21
111.94838012529
 31
0.0
100
AcDbText
  0
TEXT
  5
216
330
1F
100
AcDbEntity
  8
GR1_01
 62
     3
100
AcDbText
 10
44.15668869018555
 20
122.9725646972656
 30
0.0
 40
3.409090042114258
  1
Ｄ
 50
210.0000457763672
 41
1.119999999999999
 51
3.0
  7
FX_VECTOR
 72
     5
 11
41.79480291545341
 21
121.6089267933948
 31
0.0
100
AcDbText
  0
TEXT
  5
217
330
1F
100
AcDbEntity
  8
GR1_01
 62
     3
100
AcDbText
 10
41.49124526977539
 20
121.33544921875
 30
0.0
 40
3.409090042114258
  1
Ｅ
 50
221.9999694824219
 41
1.120000000000002
 51
3.0
  7
FX_VECTOR
 72
     5
 11
39.46448619826753
 21
119.5105491086574
 31
0.0
100
AcDbText
  0
TEXT
  5
218
330
1F
100
AcDbEntity
  8
GR1_01
 62
     3
100
AcDbText
 10
39.22442245483398
 20
119.1799011230469
 30
0.0
 40
3.409090042114258
  1
Ｎ
 50
234.0000610351562
 41
1.12
 51
3.0
  7
FX_VECTOR
 72
     5
 11
37.62137452485087
 21
116.9734899918358
 31
0.0
100
AcDbText
  0
TEXT
  5
219
330
1F
100
AcDbEntity
  8
GR1_01
 62
     3
100
AcDbText
 10
65.44482421875
 20
111.4420013427734
 30
0.0
 40
3.409090042114258
  1
Ｓ
 50
101.9999999999999
 41
1.119999999999999
 51
3.0
  7
FX_VECTOR
 72
     5
 11
64.87779247890523
 21
114.1096759390771
 31
0.0
100
AcDbText
  0
TEXT
  5
21A
330
1F
100
AcDbEntity
  8
GR1_01
 62
     3
100
AcDbText
 10
64.71150207519531
 20
114.4828948974609
 30
0.0
 40
3.409090042114258
  1
Ａ
 50
114.0000457763672
 41
1.120000000000003
 51
3.0
  7
FX_VECTOR
 72
     5
 11
63.60221861288816
 21
116.9743809893361
 31
0.0
100
AcDbText
  0
TEXT
  5
21B
330
1F
100
AcDbEntity
  8
GR1_01
 62
     3
100
AcDbText
 10
63.36195755004883
 20
117.3048858642578
 30
0.0
 40
3.409090042114258
  1
Ｗ
 50
126.0000381469726
 41
1.48960003524781
 51
3.0
  7
FX_VECTOR
 72
     5
 11
61.22989867289799
 21
120.2394090475009
 31
0.0
100
AcDbText
  0
TEXT
  5
21C
330
1F
100
AcDbEntity
  8
GR1_01
 62
     3
100
AcDbText
 10
61.45519638061523
 20
119.7846221923828
 30
0.0
 40
3.409090042114258
  1
Ａ
 50
138.0000305175781
 41
1.120000000000002
 51
3.0
  7
FX_VECTOR
 72
     5
 11
59.42843730910737
 21
121.6095223024754
 31
0.0
100
AcDbText
  0
TEXT
  5
21D
330
1F
100
AcDbEntity
  8
GR1_01
 62
     3
100
AcDbText
 10
59.07453536987305
 20
121.813720703125
 30
0.0
 40
3.409090042114258
  1
Ｍ
 50
150.0000152587891
 41
1.12
 51
3.0
  7
FX_VECTOR
 72
     5
 11
56.71264814250728
 21
123.1773560909621
 31
0.0
100
AcDbText
  0
TEXT
  5
21E
330
1F
100
AcDbEntity
  8
GR1_01
 62
     3
100
AcDbText
 10
65.52987670898438
 20
108.315185546875
 30
0.0
 40
3.410000085830688
  1
＊
 50
90.0
 41
1.120000039153783
 51
3.0
  7
FX_VECTOR
 72
     5
 11
65.52987670898438
 21
111.043185710907
 31
0.0
100
AcDbText
  0
CIRCLE
  5
21F
330
1F
100
AcDbEntity
  8
GR1_01
 62
     3
100
AcDbCircle
 10
50.61200082605447
 20
109.4739137290696
 30
0.0
 40
16.0
  0
CIRCLE
  5
220
330
1F
100
AcDbEntity
  8
GR1_01
 62
     3
100
AcDbCircle
 10
50.61200082605447
 20
109.4739137290696
 30
0.0
 40
17.0
  0
LINE
  5
221
330
1F
100
AcDbEntity
  8
GR1_01
 62
     3
100
AcDbLine
 10
57.43017671410558
 20
109.4739163993593
 30
0.0
 11
47.20291269128847
 21
112.8830018638296
 31
0.0
  0
LINE
  5
222
330
1F
100
AcDbEntity
  8
GR1_01
 62
     3
100
AcDbLine
 10
47.22604872664913
 20
109.4739289878496
 30
0.0
 11
47.22604883020446
 21
109.4739137290696
 31
0.0
  0
LINE
  5
223
330
1F
100
AcDbEntity
  8
GR1_01
  6
一点鎖線
 62
     7
370
    20
100
AcDbLine
 10
22.68129843639424
 20
137.404646844734
 30
0.0
 11
12.07469671863343
 21
148.0112485624948
 31
0.0
  0
LINE
  5
224
330
1F
100
AcDbEntity
  8
GR1_01
 62
     3
100
AcDbLine
 10
84.61201629327854
 20
69.47392898784975
 30
0.0
 11
52.81203854137346
 21
69.47392898784976
 31
0.0
  0
LINE
  5
225
330
1F
100
AcDbEntity
  8
GR1_01
 62
     3
100
AcDbLine
 10
84.61201629327854
 20
149.4739289878497
 30
0.0
 11
16.61201629327854
 21
149.4739289878497
 31
0.0
  0
LINE
  5
226
330
1F
100
AcDbEntity
  8
GR1_01
 62
     3
100
AcDbLine
 10
90.61201629327854
 20
143.4739289878497
 30
0.0
 11
90.61201629327854
 21
75.47392898784975
 31
0.0
  0
LINE
  5
227
330
1F
100
AcDbEntity
  8
GR1_01
 62
     3
100
AcDbLine
 10
10.61201629327854
 20
143.4739289878497
 30
0.0
 11
10.61201629327854
 21
75.47392898784975
 31
0.0
  0
ARC
  5
228
330
1F
100
AcDbEntity
  8
GR1_01
  6
一点鎖線
 62
     7
370
    20
100
AcDbCircle
 10
50.61201629327854
 20
109.4739289878496
 30
0.0
 40
47.00000000000001
100
AcDbArc
 50
125.847352172472
 51
144.1526963761318
  0
LINE
  5
229
330
1F
100
AcDbEntity
  8
GR1_01
  6
一点鎖線
 62
     7
370
    20
100
AcDbLine
 10
78.54273415014718
 20
137.4046468447183
 30
0.0
 11
89.14933586794537
 21
148.0112485625165
 31
0.0
  0
LINE
  5
22A
330
1F
100
AcDbEntity
  8
GR1_01
  6
一点鎖線
 62
     7
370
    20
100
AcDbLine
 10
22.68129843639419
 20
81.54321113096528
 30
0.0
 11
12.0746967186334
 21
70.93660941320441
 31
0.0
  0
LINE
  5
22B
330
1F
100
AcDbEntity
  8
GR1_01
  6
一点鎖線
 62
     7
370
    20
100
AcDbLine
 10
78.54273415014723
 20
81.54321113098098
 30
0.0
 11
89.14933586794541
 21
70.93660941318274
 31
0.0
  0
ARC
  5
22C
330
1F
100
AcDbEntity
  8
GR1_01
  6
一点鎖線
 62
     7
370
    20
100
AcDbCircle
 10
50.61201629327854
 20
109.4739289878496
 30
0.0
 40
47.00000000000001
100
AcDbArc
 50
305.8473278981701
 51
324.15267210183
  0
ARC
  5
22D
330
1F
100
AcDbEntity
  8
GR1_01
  6
一点鎖線
 62
     7
370
    20
100
AcDbCircle
 10
50.61201629327866
 20
109.4739289878491
 30
0.0
 40
47.00000000000001
100
AcDbArc
 50
35.8473278981706
 51
54.15267210183033
  0
ARC
  5
22E
330
1F
100
AcDbEntity
  8
GR1_01
 62
     3
100
AcDbCircle
 10
84.61201629327854
 20
143.4739289878497
 30
0.0
 40
6.0
100
AcDbArc
 50
0.0
 51
90.0
  0
ARC
  5
22F
330
1F
100
AcDbEntity
  8
GR1_01
 62
     3
100
AcDbCircle
 10
16.61201629327854
 20
143.4739289878497
 30
0.0
 40
6.0
100
AcDbArc
 50
90.0
 51
180.0
  0
ARC
  5
230
330
1F
100
AcDbEntity
  8
GR1_01
 62
     3
100
AcDbCircle
 10
16.61201629327854
 20
75.47392898784975
 30
0.0
 40
6.0
100
AcDbArc
 50
180.0
 51
270.0
  0
ARC
  5
231
330
1F
100
AcDbEntity
  8
GR1_01
 62
     3
100
AcDbCircle
 10
84.61201629327854
 20
75.47392898784975
 30
0.0
 40
6.0
100
AcDbArc
 50
270.0
 51
0.0
  0
ARC
  5
232
330
1F
100
AcDbEntity
  8
GR1_01
  6
一点鎖線
 62
     7
370
    20
100
AcDbCircle
 10
50.61201629327866
 20
109.4739289878491
 30
0.0
 40
47.00000000000001
100
AcDbArc
 50
215.8473036238677
 51
234.1526478275275
  0
ARC
  5
233
330
1F
100
AcDbEntity
  8
GR1_01
 62
     3
100
AcDbCircle
 10
50.61201629327856
 20
109.4739289878496
 30
0.0
 40
31.0
100
AcDbArc
 50
270.0000032251355
 51
270.0000121371509
  0
INSERT
  5
237
330
1F
100
AcDbEntity
  8
GR1_01
 62
     3
100
AcDbBlockReference
  2
BLKF038
 10
0.0
 20
0.0
 30
0.0
  0
INSERT
  5
244
330
1F
100
AcDbEntity
  8
GR1_01
 62
     3
100
AcDbBlockReference
  2
BLKF039
 10
0.0
 20
0.0
 30
0.0
  0
INSERT
  5
251
330
1F
100
AcDbEntity
  8
GR1_01
 62
     3
100
AcDbBlockReference
  2
BLKF040
 10
0.0
 20
0.0
 30
0.0
  0
INSERT
  5
25E
330
1F
100
AcDbEntity
  8
GR1_01
 62
     3
100
AcDbBlockReference
  2
BLKF041
 10
0.0
 20
0.0
 30
0.0
  0
LINE
  5
268
330
1F
100
AcDbEntity
  8
GR1_01
 62
     3
100
AcDbLine
 10
48.41204083019146
 20
69.47392898784975
 30
0.0
 11
16.61201629327854
 21
69.47392898784975
 31
0.0
  0
LINE
  5
269
330
1F
100
AcDbEntity
  8
GR1_01
 62
     3
100
AcDbLine
 10
50.61203430507005
 20
69.47392898784975
 30
0.0
 11
50.61202476660839
 21
69.47392898784975
 31
0.0
  0
ARC
  5
26A
330
1F
100
AcDbEntity
  8
GR1_01
 62
     3
100
AcDbCircle
 10
50.61201629327856
 20
109.4739289878496
 30
0.0
 40
31.0
100
AcDbArc
 50
274.0695716550782
 51
265.9304299057929
  0
LINE
  5
26B
330
1F
100
AcDbEntity
  8
GR1_01
  6
一点鎖線
 62
     7
370
    20
100
AcDbLine
 10
209.8682524394312
 20
242.5144670243912
 30
0.0
 11
284.1682524394312
 21
242.5144670243911
 31
0.0
  0
LINE
  5
26C
330
1F
100
AcDbEntity
  8
GR1_01
  6
一点鎖線
 62
     7
370
    20
100
AcDbLine
 10
209.8682524394312
 20
176.0464382092933
 30
0.0
 11
284.1682524394298
 21
176.0464225301559
 31
0.0
  0
LINE
  5
26D
330
1F
100
AcDbEntity
  8
GR1_01
  6
一点鎖線
 62
     7
370
    20
100
AcDbLine
 10
299.6682533082598
 20
209.2804462994587
 30
0.0
 11
111.6682524394312
 21
209.2804462994588
 31
0.0
  0
INSERT
  5
271
330
1F
100
AcDbEntity
  8
GR1_01
 62
     3
100
AcDbBlockReference
  2
BLKF042
 10
0.0
 20
0.0
 30
0.0
  0
INSERT
  5
284
330
1F
100
AcDbEntity
  8
GR1_01
 62
     3
100
AcDbBlockReference
  2
BLKF043
 10
0.0
 20
0.0
 30
0.0
  0
INSERT
  5
297
330
1F
100
AcDbEntity
  8
GR1_01
 62
     3
100
AcDbBlockReference
  2
BLKF044
 10
0.0
 20
0.0
 30
0.0
  0
INSERT
  5
2A9
330
1F
100
AcDbEntity
  8
GR1_01
 62
     3
100
AcDbBlockReference
  2
BLKF045
 10
0.0
 20
0.0
 30
0.0
  0
LINE
  5
2B8
330
1F
100
AcDbEntity
  8
GR1_01
 62
     3
100
AcDbLine
 10
296.6682533082598
 20
204.2804430413539
 30
0.0
 11
270.6682524394313
 21
204.2804430413539
 31
0.0
  0
LINE
  5
2B9
330
1F
100
AcDbEntity
  8
GR1_01
 62
     3
100
AcDbLine
 10
296.6682533082598
 20
214.2804430413539
 30
0.0
 11
270.6682524394313
 21
214.2804430413539
 31
0.0
  0
LINE
  5
2BA
330
1F
100
AcDbEntity
  8
GR1_01
 62
     3
100
AcDbLine
 10
296.6682533082598
 20
204.2804430413538
 30
0.0
 11
296.6682533082598
 21
214.2804430413538
 31
0.0
  0
LINE
  5
2BB
330
1F
100
AcDbEntity
  8
GR1_01
 62
     3
100
AcDbLine
 10
222.6682524394313
 20
169.2804462994587
 30
0.0
 11
222.6682524394312
 21
249.2804462994587
 31
0.0
  0
LINE
  5
2BC
330
1F
100
AcDbEntity
  8
GR1_01
 62
     3
100
AcDbLine
 10
264.6682524394313
 20
170.2804462994587
 30
0.0
 11
264.6682524394312
 21
248.2804462994587
 31
0.0
  0
LINE
  5
2BD
330
1F
100
AcDbEntity
  8
GR1_01
 62
     3
100
AcDbLine
 10
263.6682524394313
 20
169.2804462994587
 30
0.0
 11
222.6682524394312
 21
169.2804462994587
 31
0.0
  0
LINE
  5
2BE
330
1F
100
AcDbEntity
  8
GR1_01
 62
     3
100
AcDbLine
 10
263.6682524394312
 20
249.2804462994587
 30
0.0
 11
222.6682524394313
 21
249.2804462994587
 31
0.0
  0
LINE
  5
2BF
330
1F
100
AcDbEntity
  8
GR1_01
 62
     3
100
AcDbLine
 10
270.6682524394313
 20
195.2804430413539
 30
0.0
 11
270.6682524394313
 21
223.2804430413539
 31
0.0
  0
LINE
  5
2C0
330
1F
100
AcDbEntity
  8
GR1_01
 62
     3
100
AcDbLine
 10
269.6682524394313
 20
194.2804430413539
 30
0.0
 11
264.6682524394313
 21
194.2804430413539
 31
0.0
  0
ARC
  5
2C1
330
1F
100
AcDbEntity
  8
GR1_01
 62
     3
100
AcDbCircle
 10
263.6682524394312
 20
248.2804462994587
 30
0.0
 40
1.0
100
AcDbArc
 50
0.0
 51
90.0
  0
ARC
  5
2C2
330
1F
100
AcDbEntity
  8
GR1_01
 62
     3
100
AcDbCircle
 10
263.6682524394313
 20
170.2804462994587
 30
0.0
 40
1.0
100
AcDbArc
 50
270.0
 51
0.0
  0
ARC
  5
2C3
330
1F
100
AcDbEntity
  8
GR1_01
 62
     3
100
AcDbCircle
 10
269.6682524394313
 20
195.2804430413539
 30
0.0
 40
1.0
100
AcDbArc
 50
270.0
 51
0.0
  0
ARC
  5
2C4
330
1F
100
AcDbEntity
  8
GR1_01
 62
     3
100
AcDbCircle
 10
269.6682524394313
 20
223.2804430413539
 30
0.0
 40
1.0
100
AcDbArc
 50
0.0
 51
90.00000000000162
  0
LINE
  5
2C5
330
1F
100
AcDbEntity
  8
GR1_01
 62
     3
100
AcDbLine
 10
212.6682524394312
 20
178.2804462994587
 30
0.0
 11
212.6682524394312
 21
240.2804462994587
 31
0.0
  0
LINE
  5
2C6
330
1F
100
AcDbEntity
  8
GR1_01
 62
     3
100
AcDbLine
 10
216.1682524394313
 20
170.2804462994587
 30
0.0
 11
216.1682524394312
 21
248.2804462994587
 31
0.0
  0
LINE
  5
2C7
330
1F
100
AcDbEntity
  8
GR1_01
 62
     3
100
AcDbLine
 10
212.6682524394313
 20
240.2804634662895
 30
0.0
 11
213.0780349648126
 21
240.2804634654866
 31
0.0
  0
LINE
  5
2C8
330
1F
100
AcDbEntity
  8
GR1_01
 62
     3
100
AcDbLine
 10
222.6682524394312
 20
169.2804462994587
 30
0.0
 11
222.6682524394312
 21
249.2804462994587
 31
0.0
  0
LINE
  5
2C9
330
1F
100
AcDbEntity
  8
GR1_01
 62
     3
100
AcDbLine
 10
213.0780364205552
 20
178.2804462994587
 30
0.0
 11
212.6682524394312
 21
178.2804462994587
 31
0.0
  0
LINE
  5
2CA
330
1F
100
AcDbEntity
  8
GR1_01
 62
     3
100
AcDbLine
 10
222.6682524394312
 20
169.2804462994587
 30
0.0
 11
217.1682524394313
 21
169.2804462994587
 31
0.0
  0
LINE
  5
2CB
330
1F
100
AcDbEntity
  8
GR1_01
 62
     3
100
AcDbLine
 10
222.6682524394312
 20
249.2804462994587
 30
0.0
 11
217.1682524394312
 21
249.2804462994587
 31
0.0
  0
ARC
  5
2CC
330
1F
100
AcDbEntity
  8
GR1_01
 62
     3
100
AcDbCircle
 10
217.1682524394312
 20
248.2804462994587
 30
0.0
 40
1.0
100
AcDbArc
 50
90.0
 51
180.0
  0
ARC
  5
2CD
330
1F
100
AcDbEntity
  8
GR1_01
 62
     3
100
AcDbCircle
 10
217.1682524394313
 20
170.2804462994587
 30
0.0
 40
1.0
100
AcDbArc
 50
180.0
 51
270.0
  0
LINE
  5
2CE
330
1F
100
AcDbEntity
  8
GR1_01
 62
     3
100
AcDbLine
 10
145.6682524394312
 20
240.2804462994587
 30
0.0
 11
145.6682524394312
 21
178.2804462994587
 31
0.0
  0
LINE
  5
2CF
330
1F
100
AcDbEntity
  8
GR1_01
 62
     3
100
AcDbLine
 10
212.6682524394312
 20
240.2804462994587
 30
0.0
 11
212.6682524394312
 21
178.2804462994587
 31
0.0
  0
LINE
  5
2D0
330
1F
100
AcDbEntity
  8
GR1_01
 62
     3
100
AcDbLine
 10
212.6682524394312
 20
178.2804462994587
 30
0.0
 11
145.6682524394312
 21
178.2804462994587
 31
0.0
  0
LINE
  5
2D1
330
1F
100
AcDbEntity
  8
GR1_01
 62
     3
100
AcDbLine
 10
212.6682524394312
 20
240.2804462994587
 30
0.0
 11
145.6682524394312
 21
240.2804462994587
 31
0.0
  0
LINE
  5
2D2
330
1F
100
AcDbEntity
  8
GR1_01
 62
     3
100
AcDbLine
 10
114.6682524394312
 20
180.7804462994587
 30
0.0
 11
114.6682524394312
 21
237.7804462994587
 31
0.0
  0
LINE
  5
2D3
330
1F
100
AcDbEntity
  8
GR1_01
 62
     3
100
AcDbLine
 10
115.6682524394312
 20
179.7643172672007
 30
0.0
 11
115.6682524394312
 21
238.7965753317168
 31
0.0
  0
LINE
  5
2D4
330
1F
100
AcDbEntity
  8
GR1_01
 62
     3
100
AcDbLine
 10
145.6682524394312
 20
179.2804462994587
 30
0.0
 11
145.6682524394312
 21
239.2804462994587
 31
0.0
  0
LINE
  5
2D5
330
1F
100
AcDbEntity
  8
GR1_01
 62
     3
100
AcDbLine
 10
145.6682524394313
 20
239.2804462994587
 30
0.0
 11
115.6681223919633
 21
238.796573234177
 31
0.0
  0
LINE
  5
2D6
330
1F
100
AcDbEntity
  8
GR1_01
 62
     3
100
AcDbLine
 10
145.6682524394312
 20
179.2804462994587
 30
0.0
 11
115.6681223919634
 21
179.7643193647405
 31
0.0
  0
LINE
  5
2D7
330
1F
100
AcDbEntity
  8
GR1_01
 62
     3
100
AcDbLine
 10
114.6682524394312
 20
237.7804462994587
 30
0.0
 11
115.6681223919633
 21
238.796573234177
 31
0.0
  0
LINE
  5
2D8
330
1F
100
AcDbEntity
  8
GR1_01
 62
     3
100
AcDbLine
 10
114.6682524394312
 20
180.7804462994587
 30
0.0
 11
115.6681223919634
 21
179.7643193647405
 31
0.0
  0
LINE
  5
2DA
330
1F
100
AcDbEntity
  8
作図レイヤ
 62
     7
370
    20
100
AcDbLine
 10
163.1682524394312
 20
183.3047803616194
 30
0.0
 11
163.1682524394312
 21
235.3047803616194
 31
0.0
  0
LINE
  5
2DB
330
1F
100
AcDbEntity
  8
作図レイヤ
 62
     7
370
    20
100
AcDbLine
 10
164.1682524394312
 20
236.3047803616194
 30
0.0
 11
194.1682676982212
 21
236.3047803616194
 31
0.0
  0
ARC
  5
2DC
330
1F
100
AcDbEntity
  8
作図レイヤ
 62
     7
370
    20
100
AcDbCircle
 10
164.1682524394312
 20
235.3047803616194
 30
0.0
 40
1.0
100
AcDbArc
 50
89.99997199600033
 51
179.9999813306696
  0
LINE
  5
2DD
330
1F
100
AcDbEntity
  8
作図レイヤ
 62
     7
370
    20
100
AcDbLine
 10
164.1682524394312
 20
182.3047803616194
 30
0.0
 11
194.1682676982212
 21
182.3047803616194
 31
0.0
  0
ARC
  5
2DE
330
1F
100
AcDbEntity
  8
作図レイヤ
 62
     7
370
    20
100
AcDbCircle
 10
164.1682524394312
 20
183.3047803616194
 30
0.0
 40
1.0
100
AcDbArc
 50
180.00001866933
 51
270.0000280039999
  0
TEXT
  5
2DF
330
1F
100
AcDbEntity
  8
作図レイヤ
 62
     7
370
    20
100
AcDbText
 10
177.1522216796875
 20
214.6423645019531
 30
0.0
 40
3.5
  1
ＮＰ
 50
270.0
 41
1.818181818181818
 51
10.0
  7
FX_VECTOR
 72
     5
 11
177.1522216796875
 21
204.6423645019531
 31
0.0
100
AcDbText
  0
LINE
  5
2E0
330
1F
100
AcDbEntity
  8
作図レイヤ
 62
     7
370
    20
100
AcDbLine
 10
195.1682524394312
 20
183.3047803616194
 30
0.0
 11
195.1682524394312
 21
235.3047803616194
 31
0.0
  0
ARC
  5
2E1
330
1F
100
AcDbEntity
  8
作図レイヤ
 62
     7
370
    20
100
AcDbCircle
 10
194.1682524394312
 20
235.3047803616194
 30
0.0
 40
1.0
100
AcDbArc
 50
0.0000186693303999
 51
90.00002800399967
  0
ARC
  5
2E2
330
1F
100
AcDbEntity
  8
作図レイヤ
 62
     7
370
    20
100
AcDbCircle
 10
194.1682524394312
 20
183.3047803616194
 30
0.0
 40
1.0
100
AcDbArc
 50
269.9999719960003
 51
359.9999813306696
  0
LINE
  5
2E3
330
1F
100
AcDbEntity
  8
GR1_01
 62
     3
100
AcDbLine
 10
269.6682524394313
 20
224.2804495575635
 30
0.0
 11
264.6682524394313
 21
224.2804495575636
 31
0.0
  0
ARC
  5
2E4
330
1F
100
AcDbEntity
  8
GR1_01
 62
     3
100
AcDbCircle
 10
269.6682524394313
 20
223.2804495575635
 30
0.0
 40
1.0
100
AcDbArc
 50
0.0
 51
90.0
  0
LINE
  5
2E6
330
1F
100
AcDbEntity
  8
GR1_01
  6
破線
 62
     7
370
    20
100
AcDbLine
 10
296.6682533082598
 20
206.7804430413539
 30
0.0
 11
271.6682533082624
 21
206.7804430413539
 31
0.0
  0
LINE
  5
2E7
330
1F
100
AcDbEntity
  8
GR1_01
  6
破線
 62
     7
370
    20
100
AcDbLine
 10
271.6682533082625
 20
206.7804430413539
 30
0.0
 11
271.6682533082624
 21
204.2804430413539
 31
0.0
  0
ENDSEC
  0
SECTION
  2
OBJECTS
  0
DICTIONARY
  5
C
330
0
100
AcDbDictionary
281
     1
  3
ACAD_GROUP
350
D
  3
ACAD_LAYOUT
350
1A
  3
ACAD_MATERIAL
350
3B
  3
ACAD_MLEADERSTYLE
350
2EA
  3
ACAD_MLINESTYLE
350
17
  3
ACAD_PLOTSETTINGS
350
19
  3
ACAD_PLOTSTYLENAME
350
E
  3
ACAD_VISUALSTYLE
350
2A
  3
AcDbVariableDictionary
350
2E8
  0
DICTIONARY
  5
D
102
{ACAD_REACTORS
330
C
102
}
330
C
100
AcDbDictionary
281
     1
  0
DICTIONARY
  5
1A
102
{ACAD_REACTORS
330
C
102
}
330
C
100
AcDbDictionary
281
     1
  3
Layout1
350
1E
  3
Layout2
350
26
  3
Model
350
22
  0
DICTIONARY
  5
3B
102
{ACAD_REACTORS
330
C
102
}
330
C
100
AcDbDictionary
281
     1
  3
ByBlock
350
3D
  3
ByLayer
350
3C
  3
Global
350
3E
  0
DICTIONARY
  5
2EA
102
{ACAD_REACTORS
330
C
102
}
330
C
100
AcDbDictionary
281
     1
  0
DICTIONARY
  5
17
102
{ACAD_REACTORS
330
C
102
}
330
C
100
AcDbDictionary
281
     1
  3
Standard
350
18
  0
DICTIONARY
  5
19
102
{ACAD_REACTORS
330
C
102
}
330
C
100
AcDbDictionary
281
     1
  0
ACDBDICTIONARYWDFLT
  5
E
102
{ACAD_REACTORS
330
C
102
}
330
C
100
AcDbDictionary
281
     1
  3
Normal
350
F
100
AcDbDictionaryWithDefault
340
F
  0
DICTIONARY
  5
2A
102
{ACAD_REACTORS
330
C
102
}
330
C
100
AcDbDictionary
281
     1
  3
2dWireframe
350
2F
  3
3D Hidden
350
31
  3
3dWireframe
350
30
  3
Basic
350
32
  3
Brighten
350
36
  3
ColorChange
350
3A
  3
Conceptual
350
34
  3
Dim
350
35
  3
Facepattern
350
39
  3
Flat
350
2B
  3
FlatWithEdges
350
2C
  3
Gouraud
350
2D
  3
GouraudWithEdges
350
2E
  3
Linepattern
350
38
  3
Realistic
350
33
  3
Thicken
350
37
  0
DICTIONARY
  5
2E8
102
{ACAD_REACTORS
330
C
102
}
330
C
100
AcDbDictionary
281
     1
  3
DIMASSOC
350
2ED
  3
HIDETEXT
350
2EE
  3
PSOLHEIGHT
350
2EC
  3
PSOLWIDTH
350
2EB
  0
LAYOUT
  5
1E
102
{ACAD_REACTORS
330
1A
102
}
330
1A
100
AcDbPlotSettings
  1

  2
none_device
  4

  6

 40
0.0
 41
0.0
 42
0.0
 43
0.0
 44
0.0
 45
0.0
 46
0.0
 47
0.0
 48
0.0
 49
0.0
140
0.0
141
0.0
142
1.0
143
1.0
 70
   688
 72
     0
 73
     0
 74
     5
  7

 75
    16
147
1.0
148
0.0
149
0.0
100
AcDbLayout
  1
Layout1
 70
     1
 71
     1
 10
0.0
 20
0.0
 11
420.0
 21
297.0
 12
0.0
 22
0.0
 32
0.0
 14
1.000000000000000E+20
 24
1.000000000000000E+20
 34
1.000000000000000E+20
 15
-1.000000000000000E+20
 25
-1.000000000000000E+20
 35
-1.000000000000000E+20
146
0.0
 13
0.0
 23
0.0
 33
0.0
 16
1.0
 26
0.0
 36
0.0
 17
0.0
 27
1.0
 37
0.0
 76
     0
330
1B
  0
LAYOUT
  5
26
102
{ACAD_REACTORS
330
1A
102
}
330
1A
100
AcDbPlotSettings
  1

  2
none_device
  4

  6

 40
0.0
 41
0.0
 42
0.0
 43
0.0
 44
0.0
 45
0.0
 46
0.0
 47
0.0
 48
0.0
 49
0.0
140
0.0
141
0.0
142
1.0
143
1.0
 70
   688
 72
     0
 73
     0
 74
     5
  7

 75
    16
147
1.0
148
0.0
149
0.0
100
AcDbLayout
  1
Layout2
 70
     1
 71
     2
 10
0.0
 20
0.0
 11
0.0
 21
0.0
 12
0.0
 22
0.0
 32
0.0
 14
0.0
 24
0.0
 34
0.0
 15
0.0
 25
0.0
 35
0.0
146
0.0
 13
0.0
 23
0.0
 33
0.0
 16
1.0
 26
0.0
 36
0.0
 17
0.0
 27
1.0
 37
0.0
 76
     0
330
23
  0
LAYOUT
  5
22
102
{ACAD_REACTORS
330
1A
102
}
330
1A
100
AcDbPlotSettings
  1

  2
none_device
  4

  6

 40
0.0
 41
0.0
 42
0.0
 43
0.0
 44
0.0
 45
0.0
 46
0.0
 47
0.0
 48
0.0
 49
0.0
140
0.0
141
0.0
142
1.0
143
1.0
 70
  1712
 72
     0
 73
     0
 74
     0
  7

 75
     0
147
1.0
148
0.0
149
0.0
100
AcDbLayout
  1
Model
 70
     1
 71
     0
 10
0.0
 20
0.0
 11
420.0
 21
297.0
 12
0.0
 22
0.0
 32
0.0
 14
0.0
 24
0.0
 34
0.0
 15
420.0
 25
297.0
 35
0.0
146
0.0
 13
0.0
 23
0.0
 33
0.0
 16
1.0
 26
0.0
 36
0.0
 17
0.0
 27
1.0
 37
0.0
 76
     0
330
1F
331
29
  0
MATERIAL
  5
3D
102
{ACAD_REACTORS
330
3B
102
}
102
{ACAD_XDICTIONARY
360
311
102
}
330
3B
100
AcDbMaterial
  1
ByBlock
  0
MATERIAL
  5
3C
102
{ACAD_REACTORS
330
3B
102
}
102
{ACAD_XDICTIONARY
360
30F
102
}
330
3B
100
AcDbMaterial
  1
ByLayer
  0
MATERIAL
  5
3E
102
{ACAD_REACTORS
330
3B
102
}
102
{ACAD_XDICTIONARY
360
313
102
}
330
3B
100
AcDbMaterial
  1
Global
  0
MLINESTYLE
  5
18
102
{ACAD_REACTORS
330
17
102
}
330
17
100
AcDbMlineStyle
  2
Standard
 70
     0
  3

 62
   256
 51
90.0
 52
90.0
 71
     2
 49
0.5
 62
   256
  6
BYLAYER
 49
-0.5
 62
   256
  6
BYLAYER
  0
ACDBPLACEHOLDER
  5
F
102
{ACAD_REACTORS
330
E
102
}
330
E
  0
VISUALSTYLE
  5
2F
102
{ACAD_REACTORS
330
2A
102
}
102
{ACAD_XDICTIONARY
360
2F7
102
}
330
2A
100
AcDbVisualStyle
  2
2dWireframe
 70
     4
 71
     0
 72
     2
 73
     0
 90
        0
 40
-0.6
 41
-30.0
 62
     5
 63
     7
 74
     1
 91
        4
 64
     7
 65
   257
 75
     1
175
     1
 42
1.0
 92
        0
 66
   257
 43
1.0
 76
     1
 77
     6
 78
     2
 67
     7
 79
     5
170
     0
171
     0
290
     0
174
     0
 93
        1
 44
0.0
173
     0
291
     0
 45
0.0
1001
ACAD
1000
AcDbSavedByObjectVersion
1070
     0
  0
VISUALSTYLE
  5
31
102
{ACAD_REACTORS
330
2A
102
}
102
{ACAD_XDICTIONARY
360
2FB
102
}
330
2A
100
AcDbVisualStyle
  2
3D Hidden
 70
     6
 71
     1
 72
     2
 73
     2
 90
        0
 40
-0.6
 41
-30.0
 62
     5
 63
     7
 74
     2
 91
        2
 64
     7
 65
   257
 75
     2
175
     1
 42
40.0
 92
        0
 66
   257
 43
1.0
 76
     1
 77
     6
 78
     2
 67
     7
 79
     3
170
     0
171
     0
290
     0
174
     0
 93
        1
 44
0.0
173
     0
291
     0
 45
0.0
1001
ACAD
1000
AcDbSavedByObjectVersion
1070
     0
  0
VISUALSTYLE
  5
30
102
{ACAD_REACTORS
330
2A
102
}
102
{ACAD_XDICTIONARY
360
2F9
102
}
330
2A
100
AcDbVisualStyle
  2
3dWireframe
 70
     5
 71
     0
 72
     2
 73
     0
 90
        0
 40
-0.6
 41
-30.0
 62
     5
 63
     7
 74
     1
 91
        4
 64
     7
 65
   257
 75
     1
175
     1
 42
1.0
 92
        0
 66
   257
 43
1.0
 76
     1
 77
     6
 78
     2
 67
     7
 79
     5
170
     0
171
     0
290
     0
174
     0
 93
        1
 44
0.0
173
     0
291
     0
 45
0.0
1001
ACAD
1000
AcDbSavedByObjectVersion
1070
     0
  0
VISUALSTYLE
  5
32
102
{ACAD_REACTORS
330
2A
102
}
102
{ACAD_XDICTIONARY
360
2FD
102
}
330
2A
100
AcDbVisualStyle
  2
Basic
 70
     7
 71
     1
 72
     0
 73
     1
 90
        0
 40
-0.6
 41
-30.0
 62
     5
 63
     7
 74
     0
 91
        4
 64
     7
 65
   257
 75
     1
175
     1
 42
1.0
 92
        8
 66
     7
 43
1.0
 76
     1
 77
     6
 78
     2
 67
     7
 79
     5
170
     0
171
     0
290
     0
174
     0
 93
        1
 44
0.0
173
     0
291
     1
 45
0.0
1001
ACAD
1000
AcDbSavedByObjectVersion
1070
     0
  0
VISUALSTYLE
  5
36
102
{ACAD_REACTORS
330
2A
102
}
102
{ACAD_XDICTIONARY
360
305
102
}
330
2A
100
AcDbVisualStyle
  2
Brighten
 70
    12
 71
     2
 72
     2
 73
     0
 90
        0
 40
-0.6
 41
-30.0
 62
     5
 63
     7
 74
     1
 91
        4
 64
     7
 65
   257
 75
     1
175
     1
 42
1.0
 92
        8
 66
     7
 43
1.0
 76
     1
 77
     6
 78
     2
 67
     7
 79
     5
170
     0
171
     0
290
     0
174
     0
 93
        1
 44
50.0
173
     0
291
     1
 45
0.0
1001
ACAD
1000
AcDbSavedByObjectVersion
1070
     0
  0
VISUALSTYLE
  5
3A
102
{ACAD_REACTORS
330
2A
102
}
102
{ACAD_XDICTIONARY
360
30D
102
}
330
2A
100
AcDbVisualStyle
  2
ColorChange
 70
    16
 71
     2
 72
     2
 73
     3
 90
        0
 40
-0.6
 41
-30.0
 62
     5
 63
     8
 74
     1
 91
        4
 64
     7
 65
   257
 75
     1
175
     1
 42
1.0
 92
        8
 66
     8
 43
1.0
 76
     1
 77
     6
 78
     2
 67
     7
 79
     5
170
     0
171
     0
290
     0
174
     0
 93
        1
 44
0.0
173
     0
291
     1
 45
0.0
1001
ACAD
1000
AcDbSavedByObjectVersion
1070
     0
  0
VISUALSTYLE
  5
34
102
{ACAD_REACTORS
330
2A
102
}
102
{ACAD_XDICTIONARY
360
301
102
}
330
2A
100
AcDbVisualStyle
  2
Conceptual
 70
     9
 71
     3
 72
     2
 73
     0
 90
        0
 40
-0.6
 41
-30.0
 62
     5
 63
     7
 74
     2
 91
        2
 64
     7
 65
   257
 75
     1
175
     1
 42
40.0
 92
        8
 66
     7
 43
1.0
 76
     1
 77
     6
 78
     2
 67
     7
 79
     3
170
     0
171
     0
290
     0
174
     0
 93
        1
 44
0.0
173
     0
291
     0
 45
0.0
1001
ACAD
1000
AcDbSavedByObjectVersion
1070
     0
  0
VISUALSTYLE
  5
35
102
{ACAD_REACTORS
330
2A
102
}
102
{ACAD_XDICTIONARY
360
303
102
}
330
2A
100
AcDbVisualStyle
  2
Dim
 70
    11
 71
     2
 72
     2
 73
     0
 90
        0
 40
-0.6
 41
-30.0
 62
     5
 63
     7
 74
     1
 91
        4
 64
     7
 65
   257
 75
     1
175
     1
 42
1.0
 92
        8
 66
     7
 43
1.0
 76
     1
 77
     6
 78
     2
 67
     7
 79
     5
170
     0
171
     0
290
     0
174
     0
 93
        1
 44
-50.0
173
     0
291
     1
 45
0.0
1001
ACAD
1000
AcDbSavedByObjectVersion
1070
     0
  0
VISUALSTYLE
  5
39
102
{ACAD_REACTORS
330
2A
102
}
102
{ACAD_XDICTIONARY
360
30B
102
}
330
2A
100
AcDbVisualStyle
  2
Facepattern
 70
    15
 71
     2
 72
     2
 73
     0
 90
        0
 40
-0.6
 41
-30.0
 62
     5
 63
     7
 74
     1
 91
        4
 64
     7
 65
   257
 75
     1
175
     1
 42
1.0
 92
        8
 66
     7
 43
1.0
 76
     1
 77
     6
 78
     2
 67
     7
 79
     5
170
     0
171
     0
290
     0
174
     0
 93
        1
 44
0.0
173
     0
291
     1
 45
0.0
1001
ACAD
1000
AcDbSavedByObjectVersion
1070
     0
  0
VISUALSTYLE
  5
2B
102
{ACAD_REACTORS
330
2A
102
}
102
{ACAD_XDICTIONARY
360
2EF
102
}
330
2A
100
AcDbVisualStyle
  2
Flat
 70
     0
 71
     2
 72
     1
 73
     1
 90
        2
 40
-0.6
 41
30.0
 62
     5
 63
     7
 74
     0
 91
        4
 64
     7
 65
   257
 75
     1
175
     1
 42
1.0
 92
        8
 66
     7
 43
1.0
 76
     1
 77
     6
 78
     2
 67
     7
 79
     5
170
     0
171
     0
290
     0
174
     0
 93
       13
 44
0.0
173
     0
291
     1
 45
0.0
1001
ACAD
1000
AcDbSavedByObjectVersion
1070
     0
  0
VISUALSTYLE
  5
2C
102
{ACAD_REACTORS
330
2A
102
}
102
{ACAD_XDICTIONARY
360
2F1
102
}
330
2A
100
AcDbVisualStyle
  2
FlatWithEdges
 70
     1
 71
     2
 72
     1
 73
     1
 90
        2
 40
-0.6
 41
30.0
 62
     5
 63
     7
 74
     1
 91
        4
 64
     7
 65
   257
 75
     1
175
     1
 42
1.0
 92
        0
 66
   257
 43
1.0
 76
     1
 77
     6
 78
     2
 67
     7
 79
     5
170
     0
171
     0
290
     0
174
     0
 93
       13
 44
0.0
173
     0
291
     1
 45
0.0
1001
ACAD
1000
AcDbSavedByObjectVersion
1070
     0
  0
VISUALSTYLE
  5
2D
102
{ACAD_REACTORS
330
2A
102
}
102
{ACAD_XDICTIONARY
360
2F3
102
}
330
2A
100
AcDbVisualStyle
  2
Gouraud
 70
     2
 71
     2
 72
     2
 73
     1
 90
        2
 40
-0.6
 41
30.0
 62
     5
 63
     7
 74
     0
 91
        4
 64
     7
 65
   257
 75
     1
175
     1
 42
1.0
 92
        0
 66
     7
 43
1.0
 76
     1
 77
     6
 78
     2
 67
     7
 79
     5
170
     0
171
     0
290
     0
174
     0
 93
       13
 44
0.0
173
     0
291
     1
 45
0.0
1001
ACAD
1000
AcDbSavedByObjectVersion
1070
     0
  0
VISUALSTYLE
  5
2E
102
{ACAD_REACTORS
330
2A
102
}
102
{ACAD_XDICTIONARY
360
2F5
102
}
330
2A
100
AcDbVisualStyle
  2
GouraudWithEdges
 70
     3
 71
     2
 72
     2
 73
     1
 90
        2
 40
-0.6
 41
30.0
 62
     5
 63
     7
 74
     1
 91
        4
 64
     7
 65
   257
 75
     1
175
     1
 42
1.0
 92
        0
 66
   257
 43
1.0
 76
     1
 77
     6
 78
     2
 67
     7
 79
     5
170
     0
171
     0
290
     0
174
     0
 93
       13
 44
0.0
173
     0
291
     1
 45
0.0
1001
ACAD
1000
AcDbSavedByObjectVersion
1070
     0
  0
VISUALSTYLE
  5
38
102
{ACAD_REACTORS
330
2A
102
}
102
{ACAD_XDICTIONARY
360
309
102
}
330
2A
100
AcDbVisualStyle
  2
Linepattern
 70
    14
 71
     2
 72
     2
 73
     0
 90
        0
 40
-0.6
 41
-30.0
 62
     5
 63
     7
 74
     1
 91
        4
 64
     7
 65
   257
 75
     7
175
     7
 42
1.0
 92
        8
 66
     7
 43
1.0
 76
     1
 77
     6
 78
     2
 67
     7
 79
     5
170
     0
171
     0
290
     0
174
     0
 93
        1
 44
0.0
173
     0
291
     1
 45
0.0
1001
ACAD
1000
AcDbSavedByObjectVersion
1070
     0
  0
VISUALSTYLE
  5
33
102
{ACAD_REACTORS
330
2A
102
}
102
{ACAD_XDICTIONARY
360
2FF
102
}
330
2A
100
AcDbVisualStyle
  2
Realistic
 70
     8
 71
     2
 72
     2
 73
     0
 90
        0
 40
-0.6
 41
-30.0
 62
     5
 63
     7
 74
     1
 91
        0
 64
     7
 65
   257
 75
     1
175
     1
 42
1.0
 92
        8
 66
     8
 43
1.0
 76
     1
 77
     6
 78
     2
 67
     7
 79
     5
170
     0
171
     0
290
     0
174
     0
 93
       13
 44
0.0
173
     0
291
     0
 45
0.0
1001
ACAD
1000
AcDbSavedByObjectVersion
1070
     0
  0
VISUALSTYLE
  5
37
102
{ACAD_REACTORS
330
2A
102
}
102
{ACAD_XDICTIONARY
360
307
102
}
330
2A
100
AcDbVisualStyle
  2
Thicken
 70
    13
 71
     2
 72
     2
 73
     0
 90
        0
 40
-0.6
 41
-30.0
 62
     5
 63
     7
 74
     1
 91
        4
 64
     7
 65
   257
 75
     1
175
     1
 42
1.0
 92
       12
 66
     7
 43
1.0
 76
     1
 77
     6
 78
     2
 67
     7
 79
     5
170
     0
171
     0
290
     0
174
     0
 93
        1
 44
0.0
173
     0
291
     1
 45
0.0
1001
ACAD
1000
AcDbSavedByObjectVersion
1070
     0
  0
DICTIONARYVAR
  5
2ED
102
{ACAD_REACTORS
330
2E8
102
}
330
2E8
100
DictionaryVariables
280
     0
  1
2
  0
DICTIONARYVAR
  5
2EE
102
{ACAD_REACTORS
330
2E8
102
}
330
2E8
100
DictionaryVariables
280
     0
  1
1
  0
DICTIONARYVAR
  5
2EC
102
{ACAD_REACTORS
330
2E8
102
}
330
2E8
100
DictionaryVariables
280
     0
  1
80.000000
  0
DICTIONARYVAR
  5
2EB
102
{ACAD_REACTORS
330
2E8
102
}
330
2E8
100
DictionaryVariables
280
     0
  1
5.000000
  0
DICTIONARY
  5
311
330
3D
100
AcDbDictionary
280
     1
281
     1
  3
ACAD_XREC_ROUNDTRIP
360
312
  0
DICTIONARY
  5
30F
330
3C
100
AcDbDictionary
280
     1
281
     1
  3
ACAD_XREC_ROUNDTRIP
360
310
  0
DICTIONARY
  5
313
330
3E
100
AcDbDictionary
280
     1
281
     1
  3
ACAD_XREC_ROUNDTRIP
360
314
  0
DICTIONARY
  5
2F7
330
2F
100
AcDbDictionary
280
     1
281
     1
  3
ACAD_XREC_ROUNDTRIP
360
2F8
  0
DICTIONARY
  5
2FB
330
31
100
AcDbDictionary
280
     1
281
     1
  3
ACAD_XREC_ROUNDTRIP
360
2FC
  0
DICTIONARY
  5
2F9
330
30
100
AcDbDictionary
280
     1
281
     1
  3
ACAD_XREC_ROUNDTRIP
360
2FA
  0
DICTIONARY
  5
2FD
330
32
100
AcDbDictionary
280
     1
281
     1
  3
ACAD_XREC_ROUNDTRIP
360
2FE
  0
DICTIONARY
  5
305
330
36
100
AcDbDictionary
280
     1
281
     1
  3
ACAD_XREC_ROUNDTRIP
360
306
  0
DICTIONARY
  5
30D
330
3A
100
AcDbDictionary
280
     1
281
     1
  3
ACAD_XREC_ROUNDTRIP
360
30E
  0
DICTIONARY
  5
301
330
34
100
AcDbDictionary
280
     1
281
     1
  3
ACAD_XREC_ROUNDTRIP
360
302
  0
DICTIONARY
  5
303
330
35
100
AcDbDictionary
280
     1
281
     1
  3
ACAD_XREC_ROUNDTRIP
360
304
  0
DICTIONARY
  5
30B
330
39
100
AcDbDictionary
280
     1
281
     1
  3
ACAD_XREC_ROUNDTRIP
360
30C
  0
DICTIONARY
  5
2EF
330
2B
100
AcDbDictionary
280
     1
281
     1
  3
ACAD_XREC_ROUNDTRIP
360
2F0
  0
DICTIONARY
  5
2F1
330
2C
100
AcDbDictionary
280
     1
281
     1
  3
ACAD_XREC_ROUNDTRIP
360
2F2
  0
DICTIONARY
  5
2F3
330
2D
100
AcDbDictionary
280
     1
281
     1
  3
ACAD_XREC_ROUNDTRIP
360
2F4
  0
DICTIONARY
  5
2F5
330
2E
100
AcDbDictionary
280
     1
281
     1
  3
ACAD_XREC_ROUNDTRIP
360
2F6
  0
DICTIONARY
  5
309
330
38
100
AcDbDictionary
280
     1
281
     1
  3
ACAD_XREC_ROUNDTRIP
360
30A
  0
DICTIONARY
  5
2FF
330
33
100
AcDbDictionary
280
     1
281
     1
  3
ACAD_XREC_ROUNDTRIP
360
300
  0
DICTIONARY
  5
307
330
37
100
AcDbDictionary
280
     1
281
     1
  3
ACAD_XREC_ROUNDTRIP
360
308
  0
XRECORD
  5
312
102
{ACAD_REACTORS
330
311
102
}
330
311
100
AcDbXrecord
280
     1
102
MATERIAL
148
0.0
149
0.0
149
0.0
 93
        0
 94
      127
282
     0
 72
     1
 77
     1
171
     1
175
     1
179
     1
273
     0
  0
XRECORD
  5
310
102
{ACAD_REACTORS
330
30F
102
}
330
30F
100
AcDbXrecord
280
     1
102
MATERIAL
148
0.0
149
0.0
149
0.0
 93
        0
 94
      127
282
     0
 72
     1
 77
     1
171
     1
175
     1
179
     1
273
     0
  0
XRECORD
  5
314
102
{ACAD_REACTORS
330
313
102
}
330
313
100
AcDbXrecord
280
     1
102
MATERIAL
148
0.0
149
0.0
149
0.0
 93
        0
 94
      127
282
     0
 72
     1
 77
     1
171
     1
175
     1
179
     1
273
     0
  0
XRECORD
  5
2F8
102
{ACAD_REACTORS
330
2F7
102
}
330
2F7
100
AcDbXrecord
280
     1
102
RTVSPropertyOp0
 70
     1
102
RTVSPropertyOp1
 70
     1
102
RTVSPropertyOp2
 70
     1
102
RTVSPropertyOp3
 70
     1
102
RTVSPropertyOp4
 70
     1
102
RTVSPropertyOp5
 70
     1
102
RTVSPropertyOp6
 70
     1
102
RTVSPropertyOp7
 70
     1
102
RTVSPropertyOp8
 70
     1
102
RTVSPropertyOp9
 70
     1
102
RTVSPropertyOp10
 70
     1
102
RTVSPropertyOp11
 70
     1
102
RTVSPropertyOp12
 70
     1
102
RTVSPropertyOp13
 70
     1
102
RTVSPropertyOp14
 70
     1
102
RTVSPropertyOp15
 70
     1
102
RTVSPropertyOp16
 70
     1
102
RTVSPropertyOp17
 70
     1
102
RTVSPropertyOp18
 70
     1
102
RTVSPropertyOp19
 70
     1
102
RTVSPropertyOp20
 70
     1
102
RTVSPropertyOp21
 70
     1
102
RTVSPropertyOp22
 70
     1
102
RTVSPropertyOp23
 70
     1
102
RTVSPropertyOp24
 70
     1
102
RTVSPropertyOp25
 70
     1
102
RTVSPropertyOp26
 70
     1
102
RTVSPropertyOp27
 70
     1
  0
XRECORD
  5
2FC
102
{ACAD_REACTORS
330
2FB
102
}
330
2FB
100
AcDbXrecord
280
     1
102
RTVSPropertyOp0
 70
     1
102
RTVSPropertyOp1
 70
     1
102
RTVSPropertyOp2
 70
     1
102
RTVSPropertyOp3
 70
     1
102
RTVSPropertyOp4
 70
     1
102
RTVSPropertyOp5
 70
     1
102
RTVSPropertyOp6
 70
     1
102
RTVSPropertyOp7
 70
     1
102
RTVSPropertyOp8
 70
     1
102
RTVSPropertyOp9
 70
     1
102
RTVSPropertyOp10
 70
     1
102
RTVSPropertyOp11
 70
     1
102
RTVSPropertyOp12
 70
     1
102
RTVSPropertyOp13
 70
     1
102
RTVSPropertyOp14
 70
     1
102
RTVSPropertyOp15
 70
     1
102
RTVSPropertyOp16
 70
     1
102
RTVSPropertyOp17
 70
     1
102
RTVSPropertyOp18
 70
     1
102
RTVSPropertyOp19
 70
     1
102
RTVSPropertyOp20
 70
     1
102
RTVSPropertyOp21
 70
     1
102
RTVSPropertyOp22
 70
     1
102
RTVSPropertyOp23
 70
     1
102
RTVSPropertyOp24
 70
     1
102
RTVSPropertyOp25
 70
     1
102
RTVSPropertyOp26
 70
     1
102
RTVSPropertyOp27
 70
     1
  0
XRECORD
  5
2FA
102
{ACAD_REACTORS
330
2F9
102
}
330
2F9
100
AcDbXrecord
280
     1
102
RTVSPropertyOp0
 70
     1
102
RTVSPropertyOp1
 70
     1
102
RTVSPropertyOp2
 70
     1
102
RTVSPropertyOp3
 70
     1
102
RTVSPropertyOp4
 70
     1
102
RTVSPropertyOp5
 70
     1
102
RTVSPropertyOp6
 70
     1
102
RTVSPropertyOp7
 70
     1
102
RTVSPropertyOp8
 70
     1
102
RTVSPropertyOp9
 70
     1
102
RTVSPropertyOp10
 70
     1
102
RTVSPropertyOp11
 70
     1
102
RTVSPropertyOp12
 70
     1
102
RTVSPropertyOp13
 70
     1
102
RTVSPropertyOp14
 70
     1
102
RTVSPropertyOp15
 70
     1
102
RTVSPropertyOp16
 70
     1
102
RTVSPropertyOp17
 70
     1
102
RTVSPropertyOp18
 70
     1
102
RTVSPropertyOp19
 70
     1
102
RTVSPropertyOp20
 70
     1
102
RTVSPropertyOp21
 70
     1
102
RTVSPropertyOp22
 70
     1
102
RTVSPropertyOp23
 70
     1
102
RTVSPropertyOp24
 70
     1
102
RTVSPropertyOp25
 70
     1
102
RTVSPropertyOp26
 70
     1
102
RTVSPropertyOp27
 70
     1
  0
XRECORD
  5
2FE
102
{ACAD_REACTORS
330
2FD
102
}
330
2FD
100
AcDbXrecord
280
     1
102
RTVSPropertyOp0
 70
     1
102
RTVSPropertyOp1
 70
     1
102
RTVSPropertyOp2
 70
     1
102
RTVSPropertyOp3
 70
     1
102
RTVSPropertyOp4
 70
     1
102
RTVSPropertyOp5
 70
     1
102
RTVSPropertyOp6
 70
     1
102
RTVSPropertyOp7
 70
     1
102
RTVSPropertyOp8
 70
     1
102
RTVSPropertyOp9
 70
     1
102
RTVSPropertyOp10
 70
     1
102
RTVSPropertyOp11
 70
     1
102
RTVSPropertyOp12
 70
     1
102
RTVSPropertyOp13
 70
     1
102
RTVSPropertyOp14
 70
     1
102
RTVSPropertyOp15
 70
     1
102
RTVSPropertyOp16
 70
     1
102
RTVSPropertyOp17
 70
     1
102
RTVSPropertyOp18
 70
     1
102
RTVSPropertyOp19
 70
     1
102
RTVSPropertyOp20
 70
     1
102
RTVSPropertyOp21
 70
     1
102
RTVSPropertyOp22
 70
     1
102
RTVSPropertyOp23
 70
     1
102
RTVSPropertyOp24
 70
     1
102
RTVSPropertyOp25
 70
     1
102
RTVSPropertyOp26
 70
     1
102
RTVSPropertyOp27
 70
     1
  0
XRECORD
  5
306
102
{ACAD_REACTORS
330
305
102
}
330
305
100
AcDbXrecord
280
     1
102
RTVSPropertyOp0
 70
     1
102
RTVSPropertyOp1
 70
     1
102
RTVSPropertyOp2
 70
     1
102
RTVSPropertyOp3
 70
     1
102
RTVSPropertyOp4
 70
     1
102
RTVSPropertyOp5
 70
     1
102
RTVSPropertyOp6
 70
     1
102
RTVSPropertyOp7
 70
     1
102
RTVSPropertyOp8
 70
     1
102
RTVSPropertyOp9
 70
     1
102
RTVSPropertyOp10
 70
     1
102
RTVSPropertyOp11
 70
     1
102
RTVSPropertyOp12
 70
     1
102
RTVSPropertyOp13
 70
     1
102
RTVSPropertyOp14
 70
     1
102
RTVSPropertyOp15
 70
     1
102
RTVSPropertyOp16
 70
     1
102
RTVSPropertyOp17
 70
     1
102
RTVSPropertyOp18
 70
     1
102
RTVSPropertyOp19
 70
     1
102
RTVSPropertyOp20
 70
     1
102
RTVSPropertyOp21
 70
     1
102
RTVSPropertyOp22
 70
     1
102
RTVSPropertyOp23
 70
     1
102
RTVSPropertyOp24
 70
     1
102
RTVSPropertyOp25
 70
     1
102
RTVSPropertyOp26
 70
     1
102
RTVSPropertyOp27
 70
     1
  0
XRECORD
  5
30E
102
{ACAD_REACTORS
330
30D
102
}
330
30D
100
AcDbXrecord
280
     1
102
RTVSPropertyOp0
 70
     1
102
RTVSPropertyOp1
 70
     1
102
RTVSPropertyOp2
 70
     1
102
RTVSPropertyOp3
 70
     1
102
RTVSPropertyOp4
 70
     1
102
RTVSPropertyOp5
 70
     1
102
RTVSPropertyOp6
 70
     1
102
RTVSPropertyOp7
 70
     1
102
RTVSPropertyOp8
 70
     1
102
RTVSPropertyOp9
 70
     1
102
RTVSPropertyOp10
 70
     1
102
RTVSPropertyOp11
 70
     1
102
RTVSPropertyOp12
 70
     1
102
RTVSPropertyOp13
 70
     1
102
RTVSPropertyOp14
 70
     1
102
RTVSPropertyOp15
 70
     1
102
RTVSPropertyOp16
 70
     1
102
RTVSPropertyOp17
 70
     1
102
RTVSPropertyOp18
 70
     1
102
RTVSPropertyOp19
 70
     1
102
RTVSPropertyOp20
 70
     1
102
RTVSPropertyOp21
 70
     1
102
RTVSPropertyOp22
 70
     1
102
RTVSPropertyOp23
 70
     1
102
RTVSPropertyOp24
 70
     1
102
RTVSPropertyOp25
 70
     1
102
RTVSPropertyOp26
 70
     1
102
RTVSPropertyOp27
 70
     1
  0
XRECORD
  5
302
102
{ACAD_REACTORS
330
301
102
}
330
301
100
AcDbXrecord
280
     1
102
RTVSPropertyOp0
 70
     1
102
RTVSPropertyOp1
 70
     1
102
RTVSPropertyOp2
 70
     1
102
RTVSPropertyOp3
 70
     1
102
RTVSPropertyOp4
 70
     1
102
RTVSPropertyOp5
 70
     1
102
RTVSPropertyOp6
 70
     1
102
RTVSPropertyOp7
 70
     1
102
RTVSPropertyOp8
 70
     1
102
RTVSPropertyOp9
 70
     1
102
RTVSPropertyOp10
 70
     1
102
RTVSPropertyOp11
 70
     1
102
RTVSPropertyOp12
 70
     1
102
RTVSPropertyOp13
 70
     1
102
RTVSPropertyOp14
 70
     1
102
RTVSPropertyOp15
 70
     1
102
RTVSPropertyOp16
 70
     1
102
RTVSPropertyOp17
 70
     1
102
RTVSPropertyOp18
 70
     1
102
RTVSPropertyOp19
 70
     1
102
RTVSPropertyOp20
 70
     1
102
RTVSPropertyOp21
 70
     1
102
RTVSPropertyOp22
 70
     1
102
RTVSPropertyOp23
 70
     1
102
RTVSPropertyOp24
 70
     1
102
RTVSPropertyOp25
 70
     1
102
RTVSPropertyOp26
 70
     1
102
RTVSPropertyOp27
 70
     1
  0
XRECORD
  5
304
102
{ACAD_REACTORS
330
303
102
}
330
303
100
AcDbXrecord
280
     1
102
RTVSPropertyOp0
 70
     1
102
RTVSPropertyOp1
 70
     1
102
RTVSPropertyOp2
 70
     1
102
RTVSPropertyOp3
 70
     1
102
RTVSPropertyOp4
 70
     1
102
RTVSPropertyOp5
 70
     1
102
RTVSPropertyOp6
 70
     1
102
RTVSPropertyOp7
 70
     1
102
RTVSPropertyOp8
 70
     1
102
RTVSPropertyOp9
 70
     1
102
RTVSPropertyOp10
 70
     1
102
RTVSPropertyOp11
 70
     1
102
RTVSPropertyOp12
 70
     1
102
RTVSPropertyOp13
 70
     1
102
RTVSPropertyOp14
 70
     1
102
RTVSPropertyOp15
 70
     1
102
RTVSPropertyOp16
 70
     1
102
RTVSPropertyOp17
 70
     1
102
RTVSPropertyOp18
 70
     1
102
RTVSPropertyOp19
 70
     1
102
RTVSPropertyOp20
 70
     1
102
RTVSPropertyOp21
 70
     1
102
RTVSPropertyOp22
 70
     1
102
RTVSPropertyOp23
 70
     1
102
RTVSPropertyOp24
 70
     1
102
RTVSPropertyOp25
 70
     1
102
RTVSPropertyOp26
 70
     1
102
RTVSPropertyOp27
 70
     1
  0
XRECORD
  5
30C
102
{ACAD_REACTORS
330
30B
102
}
330
30B
100
AcDbXrecord
280
     1
102
RTVSPropertyOp0
 70
     1
102
RTVSPropertyOp1
 70
     1
102
RTVSPropertyOp2
 70
     1
102
RTVSPropertyOp3
 70
     1
102
RTVSPropertyOp4
 70
     1
102
RTVSPropertyOp5
 70
     1
102
RTVSPropertyOp6
 70
     1
102
RTVSPropertyOp7
 70
     1
102
RTVSPropertyOp8
 70
     1
102
RTVSPropertyOp9
 70
     1
102
RTVSPropertyOp10
 70
     1
102
RTVSPropertyOp11
 70
     1
102
RTVSPropertyOp12
 70
     1
102
RTVSPropertyOp13
 70
     1
102
RTVSPropertyOp14
 70
     1
102
RTVSPropertyOp15
 70
     1
102
RTVSPropertyOp16
 70
     1
102
RTVSPropertyOp17
 70
     1
102
RTVSPropertyOp18
 70
     1
102
RTVSPropertyOp19
 70
     1
102
RTVSPropertyOp20
 70
     1
102
RTVSPropertyOp21
 70
     1
102
RTVSPropertyOp22
 70
     1
102
RTVSPropertyOp23
 70
     1
102
RTVSPropertyOp24
 70
     1
102
RTVSPropertyOp25
 70
     1
102
RTVSPropertyOp26
 70
     1
102
RTVSPropertyOp27
 70
     1
  0
XRECORD
  5
2F0
102
{ACAD_REACTORS
330
2EF
102
}
330
2EF
100
AcDbXrecord
280
     1
102
RTVSPropertyOp0
 70
     1
102
RTVSPropertyOp1
 70
     1
102
RTVSPropertyOp2
 70
     1
102
RTVSPropertyOp3
 70
     1
102
RTVSPropertyOp4
 70
     1
102
RTVSPropertyOp5
 70
     1
102
RTVSPropertyOp6
 70
     1
102
RTVSPropertyOp7
 70
     1
102
RTVSPropertyOp8
 70
     1
102
RTVSPropertyOp9
 70
     1
102
RTVSPropertyOp10
 70
     1
102
RTVSPropertyOp11
 70
     1
102
RTVSPropertyOp12
 70
     1
102
RTVSPropertyOp13
 70
     1
102
RTVSPropertyOp14
 70
     1
102
RTVSPropertyOp15
 70
     1
102
RTVSPropertyOp16
 70
     1
102
RTVSPropertyOp17
 70
     1
102
RTVSPropertyOp18
 70
     1
102
RTVSPropertyOp19
 70
     1
102
RTVSPropertyOp20
 70
     1
102
RTVSPropertyOp21
 70
     1
102
RTVSPropertyOp22
 70
     1
102
RTVSPropertyOp23
 70
     1
102
RTVSPropertyOp24
 70
     1
102
RTVSPropertyOp25
 70
     1
102
RTVSPropertyOp26
 70
     1
102
RTVSPropertyOp27
 70
     1
  0
XRECORD
  5
2F2
102
{ACAD_REACTORS
330
2F1
102
}
330
2F1
100
AcDbXrecord
280
     1
102
RTVSPropertyOp0
 70
     1
102
RTVSPropertyOp1
 70
     1
102
RTVSPropertyOp2
 70
     1
102
RTVSPropertyOp3
 70
     1
102
RTVSPropertyOp4
 70
     1
102
RTVSPropertyOp5
 70
     1
102
RTVSPropertyOp6
 70
     1
102
RTVSPropertyOp7
 70
     1
102
RTVSPropertyOp8
 70
     1
102
RTVSPropertyOp9
 70
     1
102
RTVSPropertyOp10
 70
     1
102
RTVSPropertyOp11
 70
     1
102
RTVSPropertyOp12
 70
     1
102
RTVSPropertyOp13
 70
     1
102
RTVSPropertyOp14
 70
     1
102
RTVSPropertyOp15
 70
     1
102
RTVSPropertyOp16
 70
     1
102
RTVSPropertyOp17
 70
     1
102
RTVSPropertyOp18
 70
     1
102
RTVSPropertyOp19
 70
     1
102
RTVSPropertyOp20
 70
     1
102
RTVSPropertyOp21
 70
     1
102
RTVSPropertyOp22
 70
     1
102
RTVSPropertyOp23
 70
     1
102
RTVSPropertyOp24
 70
     1
102
RTVSPropertyOp25
 70
     1
102
RTVSPropertyOp26
 70
     1
102
RTVSPropertyOp27
 70
     1
  0
XRECORD
  5
2F4
102
{ACAD_REACTORS
330
2F3
102
}
330
2F3
100
AcDbXrecord
280
     1
102
RTVSPropertyOp0
 70
     1
102
RTVSPropertyOp1
 70
     1
102
RTVSPropertyOp2
 70
     1
102
RTVSPropertyOp3
 70
     1
102
RTVSPropertyOp4
 70
     1
102
RTVSPropertyOp5
 70
     1
102
RTVSPropertyOp6
 70
     1
102
RTVSPropertyOp7
 70
     1
102
RTVSPropertyOp8
 70
     1
102
RTVSPropertyOp9
 70
     1
102
RTVSPropertyOp10
 70
     1
102
RTVSPropertyOp11
 70
     1
102
RTVSPropertyOp12
 70
     1
102
RTVSPropertyOp13
 70
     1
102
RTVSPropertyOp14
 70
     1
102
RTVSPropertyOp15
 70
     1
102
RTVSPropertyOp16
 70
     1
102
RTVSPropertyOp17
 70
     1
102
RTVSPropertyOp18
 70
     1
102
RTVSPropertyOp19
 70
     1
102
RTVSPropertyOp20
 70
     1
102
RTVSPropertyOp21
 70
     1
102
RTVSPropertyOp22
 70
     1
102
RTVSPropertyOp23
 70
     1
102
RTVSPropertyOp24
 70
     1
102
RTVSPropertyOp25
 70
     1
102
RTVSPropertyOp26
 70
     1
102
RTVSPropertyOp27
 70
     1
  0
XRECORD
  5
2F6
102
{ACAD_REACTORS
330
2F5
102
}
330
2F5
100
AcDbXrecord
280
     1
102
RTVSPropertyOp0
 70
     1
102
RTVSPropertyOp1
 70
     1
102
RTVSPropertyOp2
 70
     1
102
RTVSPropertyOp3
 70
     1
102
RTVSPropertyOp4
 70
     1
102
RTVSPropertyOp5
 70
     1
102
RTVSPropertyOp6
 70
     1
102
RTVSPropertyOp7
 70
     1
102
RTVSPropertyOp8
 70
     1
102
RTVSPropertyOp9
 70
     1
102
RTVSPropertyOp10
 70
     1
102
RTVSPropertyOp11
 70
     1
102
RTVSPropertyOp12
 70
     1
102
RTVSPropertyOp13
 70
     1
102
RTVSPropertyOp14
 70
     1
102
RTVSPropertyOp15
 70
     1
102
RTVSPropertyOp16
 70
     1
102
RTVSPropertyOp17
 70
     1
102
RTVSPropertyOp18
 70
     1
102
RTVSPropertyOp19
 70
     1
102
RTVSPropertyOp20
 70
     1
102
RTVSPropertyOp21
 70
     1
102
RTVSPropertyOp22
 70
     1
102
RTVSPropertyOp23
 70
     1
102
RTVSPropertyOp24
 70
     1
102
RTVSPropertyOp25
 70
     1
102
RTVSPropertyOp26
 70
     1
102
RTVSPropertyOp27
 70
     1
  0
XRECORD
  5
30A
102
{ACAD_REACTORS
330
309
102
}
330
309
100
AcDbXrecord
280
     1
102
RTVSPropertyOp0
 70
     1
102
RTVSPropertyOp1
 70
     1
102
RTVSPropertyOp2
 70
     1
102
RTVSPropertyOp3
 70
     1
102
RTVSPropertyOp4
 70
     1
102
RTVSPropertyOp5
 70
     1
102
RTVSPropertyOp6
 70
     1
102
RTVSPropertyOp7
 70
     1
102
RTVSPropertyOp8
 70
     1
102
RTVSPropertyOp9
 70
     1
102
RTVSPropertyOp10
 70
     1
102
RTVSPropertyOp11
 70
     1
102
RTVSPropertyOp12
 70
     1
102
RTVSPropertyOp13
 70
     1
102
RTVSPropertyOp14
 70
     1
102
RTVSPropertyOp15
 70
     1
102
RTVSPropertyOp16
 70
     1
102
RTVSPropertyOp17
 70
     1
102
RTVSPropertyOp18
 70
     1
102
RTVSPropertyOp19
 70
     1
102
RTVSPropertyOp20
 70
     1
102
RTVSPropertyOp21
 70
     1
102
RTVSPropertyOp22
 70
     1
102
RTVSPropertyOp23
 70
     1
102
RTVSPropertyOp24
 70
     1
102
RTVSPropertyOp25
 70
     1
102
RTVSPropertyOp26
 70
     1
102
RTVSPropertyOp27
 70
     1
  0
XRECORD
  5
300
102
{ACAD_REACTORS
330
2FF
102
}
330
2FF
100
AcDbXrecord
280
     1
102
RTVSPropertyOp0
 70
     1
102
RTVSPropertyOp1
 70
     1
102
RTVSPropertyOp2
 70
     1
102
RTVSPropertyOp3
 70
     1
102
RTVSPropertyOp4
 70
     1
102
RTVSPropertyOp5
 70
     1
102
RTVSPropertyOp6
 70
     1
102
RTVSPropertyOp7
 70
     1
102
RTVSPropertyOp8
 70
     1
102
RTVSPropertyOp9
 70
     1
102
RTVSPropertyOp10
 70
     1
102
RTVSPropertyOp11
 70
     1
102
RTVSPropertyOp12
 70
     1
102
RTVSPropertyOp13
 70
     1
102
RTVSPropertyOp14
 70
     1
102
RTVSPropertyOp15
 70
     1
102
RTVSPropertyOp16
 70
     1
102
RTVSPropertyOp17
 70
     1
102
RTVSPropertyOp18
 70
     1
102
RTVSPropertyOp19
 70
     1
102
RTVSPropertyOp20
 70
     1
102
RTVSPropertyOp21
 70
     1
102
RTVSPropertyOp22
 70
     1
102
RTVSPropertyOp23
 70
     1
102
RTVSPropertyOp24
 70
     1
102
RTVSPropertyOp25
 70
     1
102
RTVSPropertyOp26
 70
     1
102
RTVSPropertyOp27
 70
     1
  0
XRECORD
  5
308
102
{ACAD_REACTORS
330
307
102
}
330
307
100
AcDbXrecord
280
     1
102
RTVSPropertyOp0
 70
     1
102
RTVSPropertyOp1
 70
     1
102
RTVSPropertyOp2
 70
     1
102
RTVSPropertyOp3
 70
     1
102
RTVSPropertyOp4
 70
     1
102
RTVSPropertyOp5
 70
     1
102
RTVSPropertyOp6
 70
     1
102
RTVSPropertyOp7
 70
     1
102
RTVSPropertyOp8
 70
     1
102
RTVSPropertyOp9
 70
     1
102
RTVSPropertyOp10
 70
     1
102
RTVSPropertyOp11
 70
     1
102
RTVSPropertyOp12
 70
     1
102
RTVSPropertyOp13
 70
     1
102
RTVSPropertyOp14
 70
     1
102
RTVSPropertyOp15
 70
     1
102
RTVSPropertyOp16
 70
     1
102
RTVSPropertyOp17
 70
     1
102
RTVSPropertyOp18
 70
     1
102
RTVSPropertyOp19
 70
     1
102
RTVSPropertyOp20
 70
     1
102
RTVSPropertyOp21
 70
     1
102
RTVSPropertyOp22
 70
     1
102
RTVSPropertyOp23
 70
     1
102
RTVSPropertyOp24
 70
     1
102
RTVSPropertyOp25
 70
     1
102
RTVSPropertyOp26
 70
     1
102
RTVSPropertyOp27
 70
     1
  0
ENDSEC
  0
EOF
