  0
SECTION
  2
HEADER
  9
$ACADVER
  1
AC1015
  9
$ACADMAINTVER
 70
     6
  9
$DWGCODEPAGE
  3
ANSI_932
  9
$INSBASE
 10
0.0
 20
0.0
 30
0.0
  9
$EXTMIN
 10
0.0
 20
0.0
 30
0.0
  9
$EXTMAX
 10
420.0
 20
297.0
 30
0.0
  9
$LIMMIN
 10
0.0
 20
0.0
  9
$LIMMAX
 10
420.0
 20
297.0
  9
$ORTHOMODE
 70
     0
  9
$REGENMODE
 70
     1
  9
$FILLMODE
 70
     1
  9
$QTEXTMODE
 70
     0
  9
$MIRRTEXT
 70
     1
  9
$LTSCALE
 40
1.0
  9
$ATTMODE
 70
     1
  9
$TEXTSIZE
 40
0.2
  9
$TRACEWID
 40
1.0
  9
$TEXTSTYLE
  7
FX_VECTOR
  9
$CLAYER
  8
0
  9
$CELTYPE
  6
ByLayer
  9
$CECOLOR
 62
   256
  9
$CELTSCALE
 40
1.0
  9
$DISPSILH
 70
     0
  9
$DIMSCALE
 40
1.0
  9
$DIMASZ
 40
3.0
  9
$DIMEXO
 40
1.0
  9
$DIMDLI
 40
8.0
  9
$DIMRND
 40
0.0
  9
$DIMDLE
 40
5.0
  9
$DIMEXE
 40
1.0
  9
$DIMTP
 40
0.0
  9
$DIMTM
 40
0.0
  9
$DIMTXT
 40
3.5
  9
$DIMCEN
 40
2.5
  9
$DIMTSZ
 40
0.0
  9
$DIMTOL
 70
     0
  9
$DIMLIM
 70
     0
  9
$DIMTIH
 70
     0
  9
$DIMTOH
 70
     0
  9
$DIMSE1
 70
     0
  9
$DIMSE2
 70
     0
  9
$DIMTAD
 70
     1
  9
$DIMZIN
 70
     8
  9
$DIMBLK
  1

  9
$DIMASO
 70
     1
  9
$DIMSHO
 70
     1
  9
$DIMPOST
  1

  9
$DIMAPOST
  1

  9
$DIMALT
 70
     0
  9
$DIMALTD
 70
     3
  9
$DIMALTF
 40
0.03937
  9
$DIMLFAC
 40
1.0
  9
$DIMTOFL
 70
     1
  9
$DIMTVP
 40
0.0
  9
$DIMTIX
 70
     0
  9
$DIMSOXD
 70
     0
  9
$DIMSAH
 70
     1
  9
$DIMBLK1
  1
FXTIP_ARROW_S
  9
$DIMBLK2
  1
FXTIP_ARROW_E
  9
$DIMSTYLE
  2
FX_DIMINFO
  9
$DIMCLRD
 70
     7
  9
$DIMCLRE
 70
     7
  9
$DIMCLRT
 70
     7
  9
$DIMTFAC
 40
1.0
  9
$DIMGAP
 40
0.5
  9
$DIMJUST
 70
     0
  9
$DIMSD1
 70
     0
  9
$DIMSD2
 70
     0
  9
$DIMTOLJ
 70
     1
  9
$DIMTZIN
 70
     8
  9
$DIMALTZ
 70
     0
  9
$DIMALTTZ
 70
     0
  9
$DIMUPT
 70
     0
  9
$DIMDEC
 70
     4
  9
$DIMTDEC
 70
     2
  9
$DIMALTU
 70
     2
  9
$DIMALTTD
 70
     3
  9
$DIMTXSTY
  7
FX_VECTOR
  9
$DIMAUNIT
 70
     0
  9
$DIMADEC
 70
     4
  9
$DIMALTRND
 40
0.0
  9
$DIMAZIN
 70
     2
  9
$DIMDSEP
 70
    46
  9
$DIMATFIT
 70
     3
  9
$DIMFRAC
 70
     0
  9
$DIMLDRBLK
  1
FXTIP_ARROW_S
  9
$DIMLUNIT
 70
     2
  9
$DIMLWD
 70
    -2
  9
$DIMLWE
 70
    -2
  9
$DIMTMOVE
 70
     0
  9
$LUNITS
 70
     2
  9
$LUPREC
 70
     4
  9
$SKETCHINC
 40
1.0
  9
$FILLETRAD
 40
10.0
  9
$AUNITS
 70
     0
  9
$AUPREC
 70
     0
  9
$MENU
  1
.
  9
$ELEVATION
 40
0.0
  9
$PELEVATION
 40
0.0
  9
$THICKNESS
 40
0.0
  9
$LIMCHECK
 70
     0
  9
$CHAMFERA
 40
10.0
  9
$CHAMFERB
 40
10.0
  9
$CHAMFERC
 40
20.0
  9
$CHAMFERD
 40
0.0
  9
$SKPOLY
 70
     0
  9
$TDCREATE
 40
2456268.347000706
  9
$TDUCREATE
 40
2456267.972000706
  9
$TDUPDATE
 40
2456268.347009178
  9
$TDUUPDATE
 40
2456267.972009178
  9
$TDINDWG
 40
0.0000000116
  9
$TDUSRTIMER
 40
0.0000000116
  9
$USRTIMER
 70
     1
  9
$ANGBASE
 50
0.0
  9
$ANGDIR
 70
     0
  9
$PDMODE
 70
     0
  9
$PDSIZE
 40
0.0
  9
$PLINEWID
 40
0.0
  9
$SPLFRAME
 70
     0
  9
$SPLINETYPE
 70
     6
  9
$SPLINESEGS
 70
     8
  9
$HANDSEED
  5
3E3
  9
$SURFTAB1
 70
     6
  9
$SURFTAB2
 70
     6
  9
$SURFTYPE
 70
     6
  9
$SURFU
 70
     6
  9
$SURFV
 70
     6
  9
$UCSBASE
  2

  9
$UCSNAME
  2

  9
$UCSORG
 10
0.0
 20
0.0
 30
0.0
  9
$UCSXDIR
 10
1.0
 20
0.0
 30
0.0
  9
$UCSYDIR
 10
0.0
 20
1.0
 30
0.0
  9
$UCSORTHOREF
  2

  9
$UCSORTHOVIEW
 70
     0
  9
$UCSORGTOP
 10
0.0
 20
0.0
 30
0.0
  9
$UCSORGBOTTOM
 10
0.0
 20
0.0
 30
0.0
  9
$UCSORGLEFT
 10
0.0
 20
0.0
 30
0.0
  9
$UCSORGRIGHT
 10
0.0
 20
0.0
 30
0.0
  9
$UCSORGFRONT
 10
0.0
 20
0.0
 30
0.0
  9
$UCSORGBACK
 10
0.0
 20
0.0
 30
0.0
  9
$PUCSBASE
  2

  9
$PUCSNAME
  2

  9
$PUCSORG
 10
0.0
 20
0.0
 30
0.0
  9
$PUCSXDIR
 10
1.0
 20
0.0
 30
0.0
  9
$PUCSYDIR
 10
0.0
 20
1.0
 30
0.0
  9
$PUCSORTHOREF
  2

  9
$PUCSORTHOVIEW
 70
     0
  9
$PUCSORGTOP
 10
0.0
 20
0.0
 30
0.0
  9
$PUCSORGBOTTOM
 10
0.0
 20
0.0
 30
0.0
  9
$PUCSORGLEFT
 10
0.0
 20
0.0
 30
0.0
  9
$PUCSORGRIGHT
 10
0.0
 20
0.0
 30
0.0
  9
$PUCSORGFRONT
 10
0.0
 20
0.0
 30
0.0
  9
$PUCSORGBACK
 10
0.0
 20
0.0
 30
0.0
  9
$USERI1
 70
     0
  9
$USERI2
 70
     0
  9
$USERI3
 70
     0
  9
$USERI4
 70
     0
  9
$USERI5
 70
     0
  9
$USERR1
 40
0.0
  9
$USERR2
 40
0.0
  9
$USERR3
 40
0.0
  9
$USERR4
 40
0.0
  9
$USERR5
 40
0.0
  9
$WORLDVIEW
 70
     1
  9
$SHADEDGE
 70
     3
  9
$SHADEDIF
 70
    70
  9
$TILEMODE
 70
     1
  9
$MAXACTVP
 70
    64
  9
$PINSBASE
 10
0.0
 20
0.0
 30
0.0
  9
$PLIMCHECK
 70
     0
  9
$PEXTMIN
 10
1.000000000000000E+20
 20
1.000000000000000E+20
 30
1.000000000000000E+20
  9
$PEXTMAX
 10
-1.000000000000000E+20
 20
-1.000000000000000E+20
 30
-1.000000000000000E+20
  9
$PLIMMIN
 10
0.0
 20
0.0
  9
$PLIMMAX
 10
420.0
 20
297.0
  9
$UNITMODE
 70
     0
  9
$VISRETAIN
 70
     1
  9
$PLINEGEN
 70
     0
  9
$PSLTSCALE
 70
     1
  9
$TREEDEPTH
 70
  3020
  9
$CMLSTYLE
  2
Standard
  9
$CMLJUST
 70
     0
  9
$CMLSCALE
 40
20.0
  9
$PROXYGRAPHICS
 70
     1
  9
$MEASUREMENT
 70
     1
  9
$CELWEIGHT
370
    -1
  9
$ENDCAPS
280
     0
  9
$JOINSTYLE
280
     0
  9
$LWDISPLAY
290
     0
  9
$INSUNITS
 70
     4
  9
$HYPERLINKBASE
  1

  9
$STYLESHEET
  1

  9
$XEDIT
290
     1
  9
$CEPSNTYPE
380
     0
  9
$PSTYLEMODE
290
     1
  9
$FINGERPRINTGUID
  2
{7F361F41-9AF9-4D81-AB36-0A497766FF21}
  9
$VERSIONGUID
  2
{FAEB1C32-E019-11D5-929B-00C0DF256EC4}
  9
$EXTNAMES
290
     1
  9
$PSVPSCALE
 40
0.0
  9
$OLESTARTUP
290
     0
  0
ENDSEC
  0
SECTION
  2
CLASSES
  0
CLASS
  1
ACDBDICTIONARYWDFLT
  2
AcDbDictionaryWithDefault
  3
ObjectDBX Classes
 90
        0
280
     0
281
     0
  0
CLASS
  1
VISUALSTYLE
  2
AcDbVisualStyle
  3
ObjectDBX Classes
 90
     4095
280
     0
281
     0
  0
CLASS
  1
MATERIAL
  2
AcDbMaterial
  3
ObjectDBX Classes
 90
     1153
280
     0
281
     0
  0
CLASS
  1
SUN
  2
AcDbSun
  3
SCENEOE
 90
     1024
280
     0
281
     0
  0
CLASS
  1
DICTIONARYVAR
  2
AcDbDictionaryVar
  3
ObjectDBX Classes
 90
        0
280
     0
281
     0
  0
CLASS
  1
ACDBPLACEHOLDER
  2
AcDbPlaceHolder
  3
ObjectDBX Classes
 90
        0
280
     0
281
     0
  0
CLASS
  1
LAYOUT
  2
AcDbLayout
  3
ObjectDBX Classes
 90
        0
280
     0
281
     0
  0
ENDSEC
  0
SECTION
  2
TABLES
  0
TABLE
  2
VPORT
  5
8
330
0
100
AcDbSymbolTable
 70
     1
  0
VPORT
  5
29
330
8
100
AcDbSymbolTableRecord
100
AcDbViewportTableRecord
  2
*Active
 70
     0
 10
0.0
 20
0.0
 11
1.0
 21
1.0
 12
210.0
 22
148.5
 13
0.0
 23
0.0
 14
10.0
 24
10.0
 15
10.0
 25
10.0
 16
0.0
 26
0.0
 36
1.0
 17
0.0
 27
0.0
 37
0.0
 40
297.0
 41
1.414141414141414
 42
50.0
 43
0.0
 44
0.0
 50
0.0
 51
0.0
 71
     0
 72
   100
 73
     1
 74
     3
 75
     0
 76
     0
 77
     0
 78
     0
281
     0
 65
     1
110
0.0
120
0.0
130
0.0
111
1.0
121
0.0
131
0.0
112
0.0
122
1.0
132
0.0
 79
     0
146
0.0
  0
ENDTAB
  0
TABLE
  2
LTYPE
  5
5
330
0
100
AcDbSymbolTable
 70
     5
  0
LTYPE
  5
14
330
5
100
AcDbSymbolTableRecord
100
AcDbLinetypeTableRecord
  2
ByBlock
 70
     0
  3

 72
    65
 73
     0
 40
0.0
  0
LTYPE
  5
15
330
5
100
AcDbSymbolTableRecord
100
AcDbLinetypeTableRecord
  2
ByLayer
 70
     0
  3

 72
    65
 73
     0
 40
0.0
  0
LTYPE
  5
16
330
5
100
AcDbSymbolTableRecord
100
AcDbLinetypeTableRecord
  2
Continuous
 70
     0
  3
Continuous ___________________________________
 72
    65
 73
     0
 40
0.0
  0
LTYPE
  5
40
330
5
100
AcDbSymbolTableRecord
100
AcDbLinetypeTableRecord
  2
DASHDOT
 70
     0
  3
Dash dot __ . __ . __ . __ . __ . __ . __ . __
 72
    65
 73
     4
 40
13.0
 49
10.0
 74
     0
 49
-1.0
 74
     0
 49
1.0
 74
     0
 49
-1.0
 74
     0
  0
LTYPE
  5
43
330
5
100
AcDbSymbolTableRecord
100
AcDbLinetypeTableRecord
  2
DASHED
 70
     0
  3
Dashed __ __ __ __ __ __ __ __ __ __ __ __ __ _
 72
    65
 73
     2
 40
4.0
 49
3.0
 74
     0
 49
-1.0
 74
     0
  0
ENDTAB
  0
TABLE
  2
LAYER
  5
2
330
0
100
AcDbSymbolTable
 70
     8
  0
LAYER
  5
10
330
2
100
AcDbSymbolTableRecord
100
AcDbLayerTableRecord
  2
0
 70
     0
 62
     7
  6
Continuous
370
    -3
390
F
  0
LAYER
  5
B1
330
2
100
AcDbSymbolTableRecord
100
AcDbLayerTableRecord
  2
Defpoints
 70
     0
 62
     7
  6
Continuous
290
     0
370
    -3
390
F
  0
LAYER
  5
B3
330
2
100
AcDbSymbolTableRecord
100
AcDbLayerTableRecord
  2
基準ﾚｲﾔｸﾞﾙｰﾌﾟ_01
 70
     0
 62
     7
  6
Continuous
370
    -3
390
F
  0
LAYER
  5
189
330
2
100
AcDbSymbolTableRecord
100
AcDbLayerTableRecord
  2
GR1_01
 70
     0
 62
     7
  6
Continuous
370
    -3
390
F
  0
LAYER
  5
21E
330
2
100
AcDbSymbolTableRecord
100
AcDbLayerTableRecord
  2
Layer1
 70
     0
 62
     7
  6
Continuous
370
    -3
390
F
  0
LAYER
  5
29F
330
2
100
AcDbSymbolTableRecord
100
AcDbLayerTableRecord
  2
仕様
 70
     0
 62
     7
  6
Continuous
370
    -3
390
F
  0
ENDTAB
  0
TABLE
  2
STYLE
  5
3
330
0
100
AcDbSymbolTable
 70
     4
  0
STYLE
  5
11
330
3
100
AcDbSymbolTableRecord
100
AcDbTextStyleTableRecord
  2
Standard
 70
     0
 40
0.0
 41
1.0
 50
0.0
 71
     0
 42
2.5
  3
txt
  4

  0
STYLE
  5
46
330
3
100
AcDbSymbolTableRecord
100
AcDbTextStyleTableRecord
  2
FX_VECTOR
 70
     0
 40
0.0
 41
1.0
 50
0.0
 71
     0
 42
0.2
  3
MONOTXT.SHX
  4
BigFont.shx
1001
ACAD
1000

1071
    32770
  0
STYLE
  5
B2
330
3
100
AcDbSymbolTableRecord
100
AcDbTextStyleTableRecord
  2
DEFAULT
 70
     0
 40
0.0
 41
1.0
 50
0.0
 71
     0
 42
0.2
  3

  4

1001
ACAD
1000
ＭＳ ゴシック
1071
    32817
  0
STYLE
  5
164
330
3
100
AcDbSymbolTableRecord
100
AcDbTextStyleTableRecord
  2
ＭＳ ゴシック
 70
     0
 40
0.0
 41
1.0
 50
0.0
 71
     0
 42
0.2
  3

  4

1001
ACAD
1000
ＭＳ ゴシック
1071
    32817
  0
ENDTAB
  0
TABLE
  2
VIEW
  5
6
330
0
100
AcDbSymbolTable
 70
     0
  0
ENDTAB
  0
TABLE
  2
UCS
  5
7
330
0
100
AcDbSymbolTable
 70
     0
  0
ENDTAB
  0
TABLE
  2
APPID
  5
9
330
0
100
AcDbSymbolTable
 70
     1
  0
APPID
  5
12
330
9
100
AcDbSymbolTableRecord
100
AcDbRegAppTableRecord
  2
ACAD
 70
     0
  0
ENDTAB
  0
TABLE
  2
DIMSTYLE
  5
A
330
0
100
AcDbSymbolTable
 70
     2
100
AcDbDimStyleTable
  0
DIMSTYLE
105
27
330
A
100
AcDbSymbolTableRecord
100
AcDbDimStyleTableRecord
  2
ISO-25
 70
     0
 41
2.5
 42
0.625
 43
3.75
 44
1.25
 73
     0
 74
     0
 77
     1
 78
     8
140
2.5
141
2.5
143
0.03937007874016
147
0.625
171
     3
172
     1
178
     0
271
     2
272
     2
274
     3
278
    44
283
     0
284
     8
340
11
  0
DIMSTYLE
105
B0
330
A
100
AcDbSymbolTableRecord
100
AcDbDimStyleTableRecord
  2
FX_DIMINFO
 70
     0
 41
3.0
 42
1.0
 43
8.0
 44
1.0
 46
5.0
 73
     0
 74
     0
 77
     1
 78
     8
 79
     2
140
3.5
141
2.5
143
0.03937
147
0.5
171
     3
172
     1
173
     1
176
     7
177
     7
178
     7
179
     4
272
     2
274
     3
284
     8
340
46
341
4A
343
4A
344
50
  0
ENDTAB
  0
TABLE
  2
BLOCK_RECORD
  5
1
330
0
100
AcDbSymbolTable
 70
    46
  0
BLOCK_RECORD
  5
1F
330
1
100
AcDbSymbolTableRecord
100
AcDbBlockTableRecord
  2
*Model_Space
340
22
  0
BLOCK_RECORD
  5
1B
330
1
100
AcDbSymbolTableRecord
100
AcDbBlockTableRecord
  2
*Paper_Space
340
1E
  0
BLOCK_RECORD
  5
23
330
1
100
AcDbSymbolTableRecord
100
AcDbBlockTableRecord
  2
*Paper_Space0
340
26
  0
BLOCK_RECORD
  5
47
330
1
100
AcDbSymbolTableRecord
100
AcDbBlockTableRecord
  2
FXTIP_NONE
340
0
  0
BLOCK_RECORD
  5
4A
330
1
100
AcDbSymbolTableRecord
100
AcDbBlockTableRecord
  2
FXTIP_ARROW_S
340
0
102
{BLKREFS
331
1D3
331
21A
331
25C
331
261
331
269
331
270
331
276
331
27C
331
288
331
28B
331
291
331
298
331
29C
331
2C3
331
2CB
331
2CF
331
2D5
331
2DA
331
2E6
331
2E9
331
2F4
331
31C
102
}
  0
BLOCK_RECORD
  5
50
330
1
100
AcDbSymbolTableRecord
100
AcDbBlockTableRecord
  2
FXTIP_ARROW_E
340
0
102
{BLKREFS
331
1D4
331
21B
331
25D
331
262
331
26A
331
271
331
277
331
27D
331
286
331
28C
331
292
331
2C1
331
2C9
331
2D0
331
2D6
331
2DB
331
2E4
331
2EA
331
2F2
331
31D
102
}
  0
BLOCK_RECORD
  5
56
330
1
100
AcDbSymbolTableRecord
100
AcDbBlockTableRecord
  2
FXTIP_BLACKDOT_S
340
0
  0
BLOCK_RECORD
  5
5C
330
1
100
AcDbSymbolTableRecord
100
AcDbBlockTableRecord
  2
FXTIP_BLACKDOT_E
340
0
  0
BLOCK_RECORD
  5
62
330
1
100
AcDbSymbolTableRecord
100
AcDbBlockTableRecord
  2
FXTIP_TRIANGLE_S
340
0
  0
BLOCK_RECORD
  5
69
330
1
100
AcDbSymbolTableRecord
100
AcDbBlockTableRecord
  2
FXTIP_TRIANGLE_E
340
0
  0
BLOCK_RECORD
  5
70
330
1
100
AcDbSymbolTableRecord
100
AcDbBlockTableRecord
  2
FXTIP_ARCHITECT_S
340
0
  0
BLOCK_RECORD
  5
76
330
1
100
AcDbSymbolTableRecord
100
AcDbBlockTableRecord
  2
FXTIP_ARCHITECT_E
340
0
  0
BLOCK_RECORD
  5
7C
330
1
100
AcDbSymbolTableRecord
100
AcDbBlockTableRecord
  2
FXTIP_CIVIL_S
340
0
  0
BLOCK_RECORD
  5
82
330
1
100
AcDbSymbolTableRecord
100
AcDbBlockTableRecord
  2
FXTIP_CIVIL_E
340
0
  0
BLOCK_RECORD
  5
88
330
1
100
AcDbSymbolTableRecord
100
AcDbBlockTableRecord
  2
FXTIP_WHITEDOT_S
340
0
  0
BLOCK_RECORD
  5
8D
330
1
100
AcDbSymbolTableRecord
100
AcDbBlockTableRecord
  2
FXTIP_WHITEDOT_E
340
0
  0
BLOCK_RECORD
  5
92
330
1
100
AcDbSymbolTableRecord
100
AcDbBlockTableRecord
  2
FXTIP_UPARROW_S
340
0
  0
BLOCK_RECORD
  5
97
330
1
100
AcDbSymbolTableRecord
100
AcDbBlockTableRecord
  2
FXTIP_UPARROW_E
340
0
  0
BLOCK_RECORD
  5
9C
330
1
100
AcDbSymbolTableRecord
100
AcDbBlockTableRecord
  2
FXTIP_DOWNARROW_S
340
0
  0
BLOCK_RECORD
  5
A1
330
1
100
AcDbSymbolTableRecord
100
AcDbBlockTableRecord
  2
FXTIP_DOWNARROW_E
340
0
  0
BLOCK_RECORD
  5
A6
330
1
100
AcDbSymbolTableRecord
100
AcDbBlockTableRecord
  2
FXTIP_BLACKTRIANGLE_S
340
0
  0
BLOCK_RECORD
  5
AB
330
1
100
AcDbSymbolTableRecord
100
AcDbBlockTableRecord
  2
FXTIP_BLACKTRIANGLE_E
340
0
  0
BLOCK_RECORD
  5
B7
330
1
100
AcDbSymbolTableRecord
100
AcDbBlockTableRecord
  2
BLKF023
340
0
102
{BLKREFS
331
BA
102
}
  0
BLOCK_RECORD
  5
E5
330
1
100
AcDbSymbolTableRecord
100
AcDbBlockTableRecord
  2
BLKF024
340
0
102
{BLKREFS
331
E8
102
}
  0
BLOCK_RECORD
  5
104
330
1
100
AcDbSymbolTableRecord
100
AcDbBlockTableRecord
  2
BLKF025
340
0
102
{BLKREFS
331
107
102
}
  0
BLOCK_RECORD
  5
10C
330
1
100
AcDbSymbolTableRecord
100
AcDbBlockTableRecord
  2
BLKF026
340
0
102
{BLKREFS
331
10F
102
}
  0
BLOCK_RECORD
  5
114
330
1
100
AcDbSymbolTableRecord
100
AcDbBlockTableRecord
  2
BLKF027
340
0
102
{BLKREFS
331
117
102
}
  0
BLOCK_RECORD
  5
11C
330
1
100
AcDbSymbolTableRecord
100
AcDbBlockTableRecord
  2
BLKF028
340
0
102
{BLKREFS
331
11F
102
}
  0
BLOCK_RECORD
  5
124
330
1
100
AcDbSymbolTableRecord
100
AcDbBlockTableRecord
  2
BLKF029
340
0
102
{BLKREFS
331
127
102
}
  0
BLOCK_RECORD
  5
12C
330
1
100
AcDbSymbolTableRecord
100
AcDbBlockTableRecord
  2
BLKF030
340
0
102
{BLKREFS
331
12F
102
}
  0
BLOCK_RECORD
  5
138
330
1
100
AcDbSymbolTableRecord
100
AcDbBlockTableRecord
  2
BLKF031
340
0
102
{BLKREFS
331
13B
102
}
  0
BLOCK_RECORD
  5
142
330
1
100
AcDbSymbolTableRecord
100
AcDbBlockTableRecord
  2
BLKF032
340
0
102
{BLKREFS
331
145
102
}
  0
BLOCK_RECORD
  5
19C
330
1
100
AcDbSymbolTableRecord
100
AcDbBlockTableRecord
  2
BLKF033
340
0
102
{BLKREFS
331
19F
102
}
  0
BLOCK_RECORD
  5
1A9
330
1
100
AcDbSymbolTableRecord
100
AcDbBlockTableRecord
  2
BLKF034
340
0
102
{BLKREFS
331
1AC
102
}
  0
BLOCK_RECORD
  5
1E0
330
1
100
AcDbSymbolTableRecord
100
AcDbBlockTableRecord
  2
BLKF035
340
0
102
{BLKREFS
331
1E3
102
}
  0
BLOCK_RECORD
  5
1EF
330
1
100
AcDbSymbolTableRecord
100
AcDbBlockTableRecord
  2
BLKF036
340
0
102
{BLKREFS
331
1F2
102
}
  0
BLOCK_RECORD
  5
1FF
330
1
100
AcDbSymbolTableRecord
100
AcDbBlockTableRecord
  2
BLKF037
340
0
102
{BLKREFS
331
202
102
}
  0
BLOCK_RECORD
  5
2A6
330
1
100
AcDbSymbolTableRecord
100
AcDbBlockTableRecord
  2
BLKF038
340
0
102
{BLKREFS
331
2A9
102
}
  0
BLOCK_RECORD
  5
2AC
330
1
100
AcDbSymbolTableRecord
100
AcDbBlockTableRecord
  2
BLKF039
340
0
102
{BLKREFS
331
2AF
102
}
  0
BLOCK_RECORD
  5
31F
330
1
100
AcDbSymbolTableRecord
100
AcDbBlockTableRecord
  2
BLKF040
340
0
102
{BLKREFS
331
322
102
}
  0
BLOCK_RECORD
  5
332
330
1
100
AcDbSymbolTableRecord
100
AcDbBlockTableRecord
  2
BLKF041
340
0
102
{BLKREFS
331
335
102
}
  0
BLOCK_RECORD
  5
345
330
1
100
AcDbSymbolTableRecord
100
AcDbBlockTableRecord
  2
BLKF042
340
0
102
{BLKREFS
331
348
102
}
  0
BLOCK_RECORD
  5
357
330
1
100
AcDbSymbolTableRecord
100
AcDbBlockTableRecord
  2
BLKF043
340
0
102
{BLKREFS
331
35A
102
}
  0
BLOCK_RECORD
  5
369
330
1
100
AcDbSymbolTableRecord
100
AcDbBlockTableRecord
  2
BLKF044
340
0
102
{BLKREFS
331
36C
102
}
  0
BLOCK_RECORD
  5
37E
330
1
100
AcDbSymbolTableRecord
100
AcDbBlockTableRecord
  2
BLKF045
340
0
102
{BLKREFS
331
381
102
}
  0
BLOCK_RECORD
  5
38A
330
1
100
AcDbSymbolTableRecord
100
AcDbBlockTableRecord
  2
BLKF046
340
0
102
{BLKREFS
331
38D
102
}
  0
BLOCK_RECORD
  5
396
330
1
100
AcDbSymbolTableRecord
100
AcDbBlockTableRecord
  2
BLKF047
340
0
102
{BLKREFS
331
399
102
}
  0
BLOCK_RECORD
  5
3A2
330
1
100
AcDbSymbolTableRecord
100
AcDbBlockTableRecord
  2
BLKF048
340
0
102
{BLKREFS
331
3A5
102
}
  0
ENDTAB
  0
ENDSEC
  0
SECTION
  2
BLOCKS
  0
BLOCK
  5
20
330
1F
100
AcDbEntity
  8
0
100
AcDbBlockBegin
  2
*Model_Space
 70
     0
 10
0.0
 20
0.0
 30
0.0
  3
*Model_Space
  1

  0
ENDBLK
  5
21
330
1F
100
AcDbEntity
  8
0
100
AcDbBlockEnd
  0
BLOCK
  5
1C
330
1B
100
AcDbEntity
 67
     1
  8
0
100
AcDbBlockBegin
  2
*Paper_Space
 70
     0
 10
0.0
 20
0.0
 30
0.0
  3
*Paper_Space
  1

  0
ENDBLK
  5
1D
330
1B
100
AcDbEntity
 67
     1
  8
0
100
AcDbBlockEnd
  0
BLOCK
  5
24
330
23
100
AcDbEntity
  8
0
100
AcDbBlockBegin
  2
*Paper_Space0
 70
     0
 10
0.0
 20
0.0
 30
0.0
  3
*Paper_Space0
  1

  0
ENDBLK
  5
25
330
23
100
AcDbEntity
  8
0
100
AcDbBlockEnd
  0
BLOCK
  5
48
330
47
100
AcDbEntity
  8
0
100
AcDbBlockBegin
  2
FXTIP_NONE
 70
     0
 10
0.0
 20
0.0
 30
0.0
  3
FXTIP_NONE
  1

  0
ENDBLK
  5
49
330
47
100
AcDbEntity
  8
0
100
AcDbBlockEnd
  0
BLOCK
  5
4B
330
4A
100
AcDbEntity
  8
0
100
AcDbBlockBegin
  2
FXTIP_ARROW_S
 70
     0
 10
0.0
 20
0.0
 30
0.0
  3
FXTIP_ARROW_S
  1

  0
LINE
  5
4D
330
4A
100
AcDbEntity
  8
0
  6
Continuous
 62
     0
370
    -2
100
AcDbLine
 10
0.0
 20
0.0
 30
0.0
 11
-1.0
 21
0.0000000000000001
 31
0.0
  0
LINE
  5
4E
330
4A
100
AcDbEntity
  8
0
  6
Continuous
 62
     0
370
    -2
100
AcDbLine
 10
0.0
 20
0.0
 30
0.0
 11
-0.9914448613738104
 21
-0.1305261922200515
 31
0.0
  0
LINE
  5
4F
330
4A
100
AcDbEntity
  8
0
  6
Continuous
 62
     0
370
    -2
100
AcDbLine
 10
0.0
 20
0.0
 30
0.0
 11
-0.9914448613738104
 21
0.1305261922200517
 31
0.0
  0
ENDBLK
  5
4C
330
4A
100
AcDbEntity
  8
0
100
AcDbBlockEnd
  0
BLOCK
  5
51
330
50
100
AcDbEntity
  8
0
100
AcDbBlockBegin
  2
FXTIP_ARROW_E
 70
     0
 10
0.0
 20
0.0
 30
0.0
  3
FXTIP_ARROW_E
  1

  0
LINE
  5
53
330
50
100
AcDbEntity
  8
0
  6
Continuous
 62
     0
370
    -2
100
AcDbLine
 10
0.0
 20
0.0
 30
0.0
 11
-1.0
 21
0.0
 31
0.0
  0
LINE
  5
54
330
50
100
AcDbEntity
  8
0
  6
Continuous
 62
     0
370
    -2
100
AcDbLine
 10
0.0
 20
0.0
 30
0.0
 11
-0.9914448613738104
 21
0.1305261922200516
 31
0.0
  0
LINE
  5
55
330
50
100
AcDbEntity
  8
0
  6
Continuous
 62
     0
370
    -2
100
AcDbLine
 10
0.0
 20
0.0
 30
0.0
 11
-0.9914448613738104
 21
-0.1305261922200516
 31
0.0
  0
ENDBLK
  5
52
330
50
100
AcDbEntity
  8
0
100
AcDbBlockEnd
  0
BLOCK
  5
57
330
56
100
AcDbEntity
  8
0
100
AcDbBlockBegin
  2
FXTIP_BLACKDOT_S
 70
     0
 10
0.0
 20
0.0
 30
0.0
  3
FXTIP_BLACKDOT_S
  1

  0
LINE
  5
59
330
56
100
AcDbEntity
  8
0
  6
Continuous
 62
     0
370
    -2
100
AcDbLine
 10
0.0
 20
0.0
 30
0.0
 11
-1.0
 21
0.0000000000000001
 31
0.0
  0
LWPOLYLINE
  5
5A
330
56
100
AcDbEntity
  8
0
  6
Continuous
 62
     0
370
    -2
100
AcDbPolyline
 90
        2
 70
     1
 10
-0.0833333333333333
 20
0.0
 40
0.1666666666666667
 41
0.1666666666666667
 42
1.0
 10
0.0833333333333333
 20
0.0
 40
0.1666666666666667
 41
0.1666666666666667
 42
1.0
  0
CIRCLE
  5
5B
330
56
100
AcDbEntity
  8
0
  6
Continuous
 62
     0
370
    -2
100
AcDbCircle
 10
0.0
 20
0.0
 30
0.0
 40
0.1666666666666667
  0
ENDBLK
  5
58
330
56
100
AcDbEntity
  8
0
100
AcDbBlockEnd
  0
BLOCK
  5
5D
330
5C
100
AcDbEntity
  8
0
100
AcDbBlockBegin
  2
FXTIP_BLACKDOT_E
 70
     0
 10
0.0
 20
0.0
 30
0.0
  3
FXTIP_BLACKDOT_E
  1

  0
LINE
  5
5F
330
5C
100
AcDbEntity
  8
0
  6
Continuous
 62
     0
370
    -2
100
AcDbLine
 10
0.0
 20
0.0
 30
0.0
 11
-1.0
 21
0.0
 31
0.0
  0
LWPOLYLINE
  5
60
330
5C
100
AcDbEntity
  8
0
  6
Continuous
 62
     0
370
    -2
100
AcDbPolyline
 90
        2
 70
     1
 10
-0.0833333333333333
 20
0.0
 40
0.1666666666666667
 41
0.1666666666666667
 42
1.0
 10
0.0833333333333333
 20
0.0
 40
0.1666666666666667
 41
0.1666666666666667
 42
1.0
  0
CIRCLE
  5
61
330
5C
100
AcDbEntity
  8
0
  6
Continuous
 62
     0
370
    -2
100
AcDbCircle
 10
0.0
 20
0.0
 30
0.0
 40
0.1666666666666667
  0
ENDBLK
  5
5E
330
5C
100
AcDbEntity
  8
0
100
AcDbBlockEnd
  0
BLOCK
  5
63
330
62
100
AcDbEntity
  8
0
100
AcDbBlockBegin
  2
FXTIP_TRIANGLE_S
 70
     0
 10
0.0
 20
0.0
 30
0.0
  3
FXTIP_TRIANGLE_S
  1

  0
LINE
  5
65
330
62
100
AcDbEntity
  8
0
  6
Continuous
 62
     0
370
    -2
100
AcDbLine
 10
0.0
 20
0.0
 30
0.0
 11
-1.0
 21
0.0000000000000001
 31
0.0
  0
LINE
  5
66
330
62
100
AcDbEntity
  8
0
  6
Continuous
 62
     0
370
    -2
100
AcDbLine
 10
0.0
 20
0.0
 30
0.0
 11
-0.9914448613738104
 21
-0.1305261922200515
 31
0.0
  0
LINE
  5
67
330
62
100
AcDbEntity
  8
0
  6
Continuous
 62
     0
370
    -2
100
AcDbLine
 10
0.0
 20
0.0
 30
0.0
 11
-0.9914448613738104
 21
0.1305261922200517
 31
0.0
  0
LINE
  5
68
330
62
100
AcDbEntity
  8
0
  6
Continuous
 62
     0
370
    -2
100
AcDbLine
 10
-0.9914448613738104
 20
-0.1305261922200515
 30
0.0
 11
-0.9914448613738104
 21
0.1305261922200517
 31
0.0
  0
ENDBLK
  5
64
330
62
100
AcDbEntity
  8
0
100
AcDbBlockEnd
  0
BLOCK
  5
6A
330
69
100
AcDbEntity
  8
0
100
AcDbBlockBegin
  2
FXTIP_TRIANGLE_E
 70
     0
 10
0.0
 20
0.0
 30
0.0
  3
FXTIP_TRIANGLE_E
  1

  0
LINE
  5
6C
330
69
100
AcDbEntity
  8
0
  6
Continuous
 62
     0
370
    -2
100
AcDbLine
 10
0.0
 20
0.0
 30
0.0
 11
-1.0
 21
0.0
 31
0.0
  0
LINE
  5
6D
330
69
100
AcDbEntity
  8
0
  6
Continuous
 62
     0
370
    -2
100
AcDbLine
 10
0.0
 20
0.0
 30
0.0
 11
-0.9914448613738104
 21
0.1305261922200516
 31
0.0
  0
LINE
  5
6E
330
69
100
AcDbEntity
  8
0
  6
Continuous
 62
     0
370
    -2
100
AcDbLine
 10
0.0
 20
0.0
 30
0.0
 11
-0.9914448613738104
 21
-0.1305261922200516
 31
0.0
  0
LINE
  5
6F
330
69
100
AcDbEntity
  8
0
  6
Continuous
 62
     0
370
    -2
100
AcDbLine
 10
-0.9914448613738104
 20
0.1305261922200516
 30
0.0
 11
-0.9914448613738104
 21
-0.1305261922200516
 31
0.0
  0
ENDBLK
  5
6B
330
69
100
AcDbEntity
  8
0
100
AcDbBlockEnd
  0
BLOCK
  5
71
330
70
100
AcDbEntity
  8
0
100
AcDbBlockBegin
  2
FXTIP_ARCHITECT_S
 70
     0
 10
0.0
 20
0.0
 30
0.0
  3
FXTIP_ARCHITECT_S
  1

  0
LINE
  5
73
330
70
100
AcDbEntity
  8
0
  6
Continuous
 62
     0
370
    -2
100
AcDbLine
 10
0.0
 20
0.0
 30
0.0
 11
-1.0
 21
0.0000000000000001
 31
0.0
  0
LINE
  5
74
330
70
100
AcDbEntity
  8
0
  6
Continuous
 62
     0
370
    -2
100
AcDbLine
 10
0.0
 20
0.0
 30
0.0
 11
-0.7071067811865476
 21
-0.7071067811865474
 31
0.0
  0
LINE
  5
75
330
70
100
AcDbEntity
  8
0
  6
Continuous
 62
     0
370
    -2
100
AcDbLine
 10
0.0
 20
0.0
 30
0.0
 11
0.7071067811865476
 21
0.7071067811865474
 31
0.0
  0
ENDBLK
  5
72
330
70
100
AcDbEntity
  8
0
100
AcDbBlockEnd
  0
BLOCK
  5
77
330
76
100
AcDbEntity
  8
0
100
AcDbBlockBegin
  2
FXTIP_ARCHITECT_E
 70
     0
 10
0.0
 20
0.0
 30
0.0
  3
FXTIP_ARCHITECT_E
  1

  0
LINE
  5
79
330
76
100
AcDbEntity
  8
0
  6
Continuous
 62
     0
370
    -2
100
AcDbLine
 10
0.0
 20
0.0
 30
0.0
 11
-1.0
 21
0.0
 31
0.0
  0
LINE
  5
7A
330
76
100
AcDbEntity
  8
0
  6
Continuous
 62
     0
370
    -2
100
AcDbLine
 10
0.0
 20
0.0
 30
0.0
 11
0.7071067811865475
 21
0.7071067811865475
 31
0.0
  0
LINE
  5
7B
330
76
100
AcDbEntity
  8
0
  6
Continuous
 62
     0
370
    -2
100
AcDbLine
 10
0.0
 20
0.0
 30
0.0
 11
-0.7071067811865475
 21
-0.7071067811865475
 31
0.0
  0
ENDBLK
  5
78
330
76
100
AcDbEntity
  8
0
100
AcDbBlockEnd
  0
BLOCK
  5
7D
330
7C
100
AcDbEntity
  8
0
100
AcDbBlockBegin
  2
FXTIP_CIVIL_S
 70
     0
 10
0.0
 20
0.0
 30
0.0
  3
FXTIP_CIVIL_S
  1

  0
LINE
  5
7F
330
7C
100
AcDbEntity
  8
0
  6
Continuous
 62
     0
370
    -2
100
AcDbLine
 10
0.0
 20
0.0
 30
0.0
 11
-1.0
 21
0.0000000000000001
 31
0.0
  0
LINE
  5
80
330
7C
100
AcDbEntity
  8
0
  6
Continuous
 62
     0
370
    -2
100
AcDbLine
 10
0.0
 20
-0.0833333333333333
 30
0.0
 11
-1.0
 21
-0.0833333333333332
 31
0.0
  0
LINE
  5
81
330
7C
100
AcDbEntity
  8
0
  6
Continuous
 62
     0
370
    -2
100
AcDbLine
 10
0.0
 20
-0.1666666666666667
 30
0.0
 11
-1.0
 21
-0.1666666666666666
 31
0.0
  0
ENDBLK
  5
7E
330
7C
100
AcDbEntity
  8
0
100
AcDbBlockEnd
  0
BLOCK
  5
83
330
82
100
AcDbEntity
  8
0
100
AcDbBlockBegin
  2
FXTIP_CIVIL_E
 70
     0
 10
0.0
 20
0.0
 30
0.0
  3
FXTIP_CIVIL_E
  1

  0
LINE
  5
85
330
82
100
AcDbEntity
  8
0
  6
Continuous
 62
     0
370
    -2
100
AcDbLine
 10
0.0
 20
0.0
 30
0.0
 11
-1.0
 21
0.0
 31
0.0
  0
LINE
  5
86
330
82
100
AcDbEntity
  8
0
  6
Continuous
 62
     0
370
    -2
100
AcDbLine
 10
0.0
 20
0.0833333333333333
 30
0.0
 11
-1.0
 21
0.0833333333333333
 31
0.0
  0
LINE
  5
87
330
82
100
AcDbEntity
  8
0
  6
Continuous
 62
     0
370
    -2
100
AcDbLine
 10
0.0
 20
0.1666666666666667
 30
0.0
 11
-1.0
 21
0.1666666666666667
 31
0.0
  0
ENDBLK
  5
84
330
82
100
AcDbEntity
  8
0
100
AcDbBlockEnd
  0
BLOCK
  5
89
330
88
100
AcDbEntity
  8
0
100
AcDbBlockBegin
  2
FXTIP_WHITEDOT_S
 70
     0
 10
0.0
 20
0.0
 30
0.0
  3
FXTIP_WHITEDOT_S
  1

  0
LINE
  5
8B
330
88
100
AcDbEntity
  8
0
  6
Continuous
 62
     0
370
    -2
100
AcDbLine
 10
0.0
 20
0.0
 30
0.0
 11
-1.0
 21
0.0000000000000001
 31
0.0
  0
CIRCLE
  5
8C
330
88
100
AcDbEntity
  8
0
  6
Continuous
 62
     0
370
    -2
100
AcDbCircle
 10
0.0
 20
0.0
 30
0.0
 40
0.1666666666666667
  0
ENDBLK
  5
8A
330
88
100
AcDbEntity
  8
0
100
AcDbBlockEnd
  0
BLOCK
  5
8E
330
8D
100
AcDbEntity
  8
0
100
AcDbBlockBegin
  2
FXTIP_WHITEDOT_E
 70
     0
 10
0.0
 20
0.0
 30
0.0
  3
FXTIP_WHITEDOT_E
  1

  0
LINE
  5
90
330
8D
100
AcDbEntity
  8
0
  6
Continuous
 62
     0
370
    -2
100
AcDbLine
 10
0.0
 20
0.0
 30
0.0
 11
-1.0
 21
0.0
 31
0.0
  0
CIRCLE
  5
91
330
8D
100
AcDbEntity
  8
0
  6
Continuous
 62
     0
370
    -2
100
AcDbCircle
 10
0.0
 20
0.0
 30
0.0
 40
0.1666666666666667
  0
ENDBLK
  5
8F
330
8D
100
AcDbEntity
  8
0
100
AcDbBlockEnd
  0
BLOCK
  5
93
330
92
100
AcDbEntity
  8
0
100
AcDbBlockBegin
  2
FXTIP_UPARROW_S
 70
     0
 10
0.0
 20
0.0
 30
0.0
  3
FXTIP_UPARROW_S
  1

  0
LINE
  5
95
330
92
100
AcDbEntity
  8
0
  6
Continuous
 62
     0
370
    -2
100
AcDbLine
 10
0.0
 20
0.0
 30
0.0
 11
-1.0
 21
0.0000000000000001
 31
0.0
  0
LINE
  5
96
330
92
100
AcDbEntity
  8
0
  6
Continuous
 62
     0
370
    -2
100
AcDbLine
 10
0.0
 20
0.0
 30
0.0
 11
-0.9914448613738104
 21
-0.1305261922200515
 31
0.0
  0
ENDBLK
  5
94
330
92
100
AcDbEntity
  8
0
100
AcDbBlockEnd
  0
BLOCK
  5
98
330
97
100
AcDbEntity
  8
0
100
AcDbBlockBegin
  2
FXTIP_UPARROW_E
 70
     0
 10
0.0
 20
0.0
 30
0.0
  3
FXTIP_UPARROW_E
  1

  0
LINE
  5
9A
330
97
100
AcDbEntity
  8
0
  6
Continuous
 62
     0
370
    -2
100
AcDbLine
 10
0.0
 20
0.0
 30
0.0
 11
-1.0
 21
0.0
 31
0.0
  0
LINE
  5
9B
330
97
100
AcDbEntity
  8
0
  6
Continuous
 62
     0
370
    -2
100
AcDbLine
 10
0.0
 20
0.0
 30
0.0
 11
-0.9914448613738104
 21
0.1305261922200516
 31
0.0
  0
ENDBLK
  5
99
330
97
100
AcDbEntity
  8
0
100
AcDbBlockEnd
  0
BLOCK
  5
9D
330
9C
100
AcDbEntity
  8
0
100
AcDbBlockBegin
  2
FXTIP_DOWNARROW_S
 70
     0
 10
0.0
 20
0.0
 30
0.0
  3
FXTIP_DOWNARROW_S
  1

  0
LINE
  5
9F
330
9C
100
AcDbEntity
  8
0
  6
Continuous
 62
     0
370
    -2
100
AcDbLine
 10
0.0
 20
0.0
 30
0.0
 11
-1.0
 21
0.0000000000000001
 31
0.0
  0
LINE
  5
A0
330
9C
100
AcDbEntity
  8
0
  6
Continuous
 62
     0
370
    -2
100
AcDbLine
 10
0.0
 20
0.0
 30
0.0
 11
-0.9914448613738104
 21
0.1305261922200517
 31
0.0
  0
ENDBLK
  5
9E
330
9C
100
AcDbEntity
  8
0
100
AcDbBlockEnd
  0
BLOCK
  5
A2
330
A1
100
AcDbEntity
  8
0
100
AcDbBlockBegin
  2
FXTIP_DOWNARROW_E
 70
     0
 10
0.0
 20
0.0
 30
0.0
  3
FXTIP_DOWNARROW_E
  1

  0
LINE
  5
A4
330
A1
100
AcDbEntity
  8
0
  6
Continuous
 62
     0
370
    -2
100
AcDbLine
 10
0.0
 20
0.0
 30
0.0
 11
-1.0
 21
0.0
 31
0.0
  0
LINE
  5
A5
330
A1
100
AcDbEntity
  8
0
  6
Continuous
 62
     0
370
    -2
100
AcDbLine
 10
0.0
 20
0.0
 30
0.0
 11
-0.9914448613738104
 21
-0.1305261922200516
 31
0.0
  0
ENDBLK
  5
A3
330
A1
100
AcDbEntity
  8
0
100
AcDbBlockEnd
  0
BLOCK
  5
A7
330
A6
100
AcDbEntity
  8
0
100
AcDbBlockBegin
  2
FXTIP_BLACKTRIANGLE_S
 70
     0
 10
0.0
 20
0.0
 30
0.0
  3
FXTIP_BLACKTRIANGLE_S
  1

  0
LINE
  5
A9
330
A6
100
AcDbEntity
  8
0
  6
Continuous
 62
     0
370
    -2
100
AcDbLine
 10
0.0
 20
0.0
 30
0.0
 11
-1.0
 21
0.0000000000000001
 31
0.0
  0
SOLID
  5
AA
330
A6
100
AcDbEntity
  8
0
  6
Continuous
 62
     0
370
    -2
100
AcDbTrace
 10
0.0
 20
0.0
 30
0.0
 11
-0.9914448613738104
 21
-0.1305261922200515
 31
0.0
 12
-0.9914448613738104
 22
0.1305261922200517
 32
0.0
 13
-0.9914448613738104
 23
0.1305261922200517
 33
0.0
  0
ENDBLK
  5
A8
330
A6
100
AcDbEntity
  8
0
100
AcDbBlockEnd
  0
BLOCK
  5
AC
330
AB
100
AcDbEntity
  8
0
100
AcDbBlockBegin
  2
FXTIP_BLACKTRIANGLE_E
 70
     0
 10
0.0
 20
0.0
 30
0.0
  3
FXTIP_BLACKTRIANGLE_E
  1

  0
LINE
  5
AE
330
AB
100
AcDbEntity
  8
0
  6
Continuous
 62
     0
370
    -2
100
AcDbLine
 10
0.0
 20
0.0
 30
0.0
 11
-1.0
 21
0.0
 31
0.0
  0
SOLID
  5
AF
330
AB
100
AcDbEntity
  8
0
  6
Continuous
 62
     0
370
    -2
100
AcDbTrace
 10
0.0
 20
0.0
 30
0.0
 11
-0.9914448613738104
 21
0.1305261922200516
 31
0.0
 12
-0.9914448613738104
 22
-0.1305261922200516
 32
0.0
 13
-0.9914448613738104
 23
-0.1305261922200516
 33
0.0
  0
ENDBLK
  5
AD
330
AB
100
AcDbEntity
  8
0
100
AcDbBlockEnd
  0
BLOCK
  5
B8
330
B7
100
AcDbEntity
  8
0
100
AcDbBlockBegin
  2
BLKF023
 70
     0
 10
0.0
 20
0.0
 30
0.0
  3
BLKF023
  1

  0
LINE
  5
BB
330
B7
100
AcDbEntity
  8
基準ﾚｲﾔｸﾞﾙｰﾌﾟ_01
  6
Continuous
 62
     3
370
    35
100
AcDbLine
 10
20.9999999999999
 20
8.0
 30
0.0
 11
20.9999999999999
 21
291.0
 31
0.0
  0
LINE
  5
BC
330
B7
100
AcDbEntity
  8
基準ﾚｲﾔｸﾞﾙｰﾌﾟ_01
  6
Continuous
 62
     3
370
    35
100
AcDbLine
 10
413.0
 20
8.0
 30
0.0
 11
413.0
 21
291.0
 31
0.0
  0
LINE
  5
BD
330
B7
100
AcDbEntity
  8
基準ﾚｲﾔｸﾞﾙｰﾌﾟ_01
  6
Continuous
 62
     3
370
    35
100
AcDbLine
 10
20.9999999999999
 20
8.0
 30
0.0
 11
413.0
 21
8.0
 31
0.0
  0
LINE
  5
BE
330
B7
100
AcDbEntity
  8
基準ﾚｲﾔｸﾞﾙｰﾌﾟ_01
  6
Continuous
 62
     3
370
    35
100
AcDbLine
 10
20.9999999999999
 20
291.0
 30
0.0
 11
413.0
 21
291.0
 31
0.0
  0
LINE
  5
BF
330
B7
100
AcDbEntity
  8
基準ﾚｲﾔｸﾞﾙｰﾌﾟ_01
  6
Continuous
 62
     3
370
    35
100
AcDbLine
 10
0.0
 20
149.5
 30
0.0
 11
21.0
 21
149.5
 31
0.0
  0
LINE
  5
C0
330
B7
100
AcDbEntity
  8
基準ﾚｲﾔｸﾞﾙｰﾌﾟ_01
  6
Continuous
 62
     3
370
    35
100
AcDbLine
 10
230.0
 20
283.0
 30
0.0
 11
413.0
 21
283.0
 31
0.0
  0
LINE
  5
C1
330
B7
100
AcDbEntity
  8
基準ﾚｲﾔｸﾞﾙｰﾌﾟ_01
  6
Continuous
 62
     7
370
    13
100
AcDbLine
 10
373.0
 20
291.0
 30
0.0
 11
373.0
 21
283.0
 31
0.0
  0
LINE
  5
C2
330
B7
100
AcDbEntity
  8
基準ﾚｲﾔｸﾞﾙｰﾌﾟ_01
  6
Continuous
 62
     7
370
    13
100
AcDbLine
 10
377.0
 20
291.0
 30
0.0
 11
377.0
 21
283.0
 31
0.0
  0
TEXT
  5
C3
330
B7
100
AcDbEntity
  8
基準ﾚｲﾔｸﾞﾙｰﾌﾟ_01
  6
Continuous
 62
     7
370
    13
100
AcDbText
 10
373.7000122070312
 20
287.0
 30
0.0
 40
3.0
  1
記
 41
1.4
  7
FX_VECTOR
 72
     5
 11
376.7000122070312
 21
287.0
 31
0.0
100
AcDbText
  0
TEXT
  5
C4
330
B7
100
AcDbEntity
  8
基準ﾚｲﾔｸﾞﾙｰﾌﾟ_01
  6
Continuous
 62
     7
370
    13
100
AcDbText
 10
373.7000122070312
 20
283.7000122070312
 30
0.0
 40
3.0
  1
事
 41
1.4
  7
FX_VECTOR
 72
     5
 11
376.7000122070312
 21
283.7000122070312
 31
0.0
100
AcDbText
  0
LINE
  5
C5
330
B7
100
AcDbEntity
  8
基準ﾚｲﾔｸﾞﾙｰﾌﾟ_01
  6
Continuous
 62
     3
370
    35
100
AcDbLine
 10
413.0
 20
149.5
 30
0.0
 11
418.0
 21
149.5
 31
0.0
  0
LINE
  5
C6
330
B7
100
AcDbEntity
  8
基準ﾚｲﾔｸﾞﾙｰﾌﾟ_01
  6
Continuous
 62
     3
370
    35
100
AcDbLine
 10
210.0
 20
291.0
 30
0.0
 11
210.0
 21
296.0
 31
0.0
  0
LINE
  5
C7
330
B7
100
AcDbEntity
  8
基準ﾚｲﾔｸﾞﾙｰﾌﾟ_01
  6
Continuous
 62
     3
370
    35
100
AcDbLine
 10
210.0
 20
3.0
 30
0.0
 11
210.0
 21
8.0
 31
0.0
  0
LINE
  5
C8
330
B7
100
AcDbEntity
  8
基準ﾚｲﾔｸﾞﾙｰﾌﾟ_01
  6
Continuous
 62
     7
370
    13
100
AcDbLine
 10
239.9
 20
291.0
 30
0.0
 11
239.9
 21
283.0
 31
0.0
  0
LINE
  5
C9
330
B7
100
AcDbEntity
  8
基準ﾚｲﾔｸﾞﾙｰﾌﾟ_01
  6
Continuous
 62
     7
370
    13
100
AcDbLine
 10
256.95
 20
291.0
 30
0.0
 11
256.95
 21
283.0
 31
0.0
  0
LINE
  5
CA
330
B7
100
AcDbEntity
  8
基準ﾚｲﾔｸﾞﾙｰﾌﾟ_01
  6
Continuous
 62
     7
370
    13
100
AcDbLine
 10
282.8
 20
291.0
 30
0.0
 11
282.8
 21
283.0
 31
0.0
  0
LINE
  5
CB
330
B7
100
AcDbEntity
  8
基準ﾚｲﾔｸﾞﾙｰﾌﾟ_01
  6
Continuous
 62
     7
370
    13
100
AcDbLine
 10
290.5
 20
291.0
 30
0.0
 11
290.5
 21
283.0
 31
0.0
  0
LINE
  5
CC
330
B7
100
AcDbEntity
  8
基準ﾚｲﾔｸﾞﾙｰﾌﾟ_01
  6
Continuous
 62
     7
370
    13
100
AcDbLine
 10
309.2
 20
291.0
 30
0.0
 11
309.2
 21
283.0
 31
0.0
  0
LINE
  5
CD
330
B7
100
AcDbEntity
  8
基準ﾚｲﾔｸﾞﾙｰﾌﾟ_01
  6
Continuous
 62
     7
370
    13
100
AcDbLine
 10
316.9
 20
291.0
 30
0.0
 11
316.9
 21
283.0
 31
0.0
  0
LINE
  5
CE
330
B7
100
AcDbEntity
  8
基準ﾚｲﾔｸﾞﾙｰﾌﾟ_01
  6
Continuous
 62
     3
370
    35
100
AcDbLine
 10
344.3
 20
291.0
 30
0.0
 11
344.3
 21
283.0
 31
0.0
  0
LINE
  5
CF
330
B7
100
AcDbEntity
  8
基準ﾚｲﾔｸﾞﾙｰﾌﾟ_01
  6
Continuous
 62
     7
370
    13
100
AcDbLine
 10
239.9
 20
287.0
 30
0.0
 11
344.3
 21
287.0
 31
0.0
  0
LINE
  5
D0
330
B7
100
AcDbEntity
  8
基準ﾚｲﾔｸﾞﾙｰﾌﾟ_01
  6
Continuous
 62
     7
370
    13
100
AcDbLine
 10
265.2
 20
291.0
 30
0.0
 11
265.2
 21
283.0
 31
0.0
  0
TEXT
  5
D1
330
B7
100
AcDbEntity
  8
基準ﾚｲﾔｸﾞﾙｰﾌﾟ_01
  6
Continuous
 62
     7
370
    13
100
AcDbText
 10
231.5500030517578
 20
287.1000061035156
 30
0.0
 40
3.0
  1
普通
 41
1.272727272727273
  7
FX_VECTOR
 72
     5
 11
237.5500030517578
 21
287.1000061035156
 31
0.0
100
AcDbText
  0
TEXT
  5
D2
330
B7
100
AcDbEntity
  8
基準ﾚｲﾔｸﾞﾙｰﾌﾟ_01
  6
Continuous
 62
     7
370
    13
100
AcDbText
 10
231.5500030517578
 20
283.2999877929688
 30
0.0
 40
3.0
  1
公差
 41
1.272727272727273
  7
FX_VECTOR
 72
     5
 11
237.5500030517578
 21
283.2999877929688
 31
0.0
100
AcDbText
  0
TEXT
  5
D3
330
B7
100
AcDbEntity
  8
基準ﾚｲﾔｸﾞﾙｰﾌﾟ_01
  6
Continuous
 62
     7
370
    13
100
AcDbText
 10
257.5
 20
287.5
 30
0.0
 40
2.5
  1
±０．１
 41
0.7636363636363638
  7
FX_VECTOR
 72
     5
 11
264.5
 21
287.5
 31
0.0
100
AcDbText
  0
TEXT
  5
D4
330
B7
100
AcDbEntity
  8
基準ﾚｲﾔｸﾞﾙｰﾌﾟ_01
  6
Continuous
 62
     7
370
    13
100
AcDbText
 10
240.6699981689453
 20
283.5
 30
0.0
 40
2.5
  1
　　　　３以下
 41
0.99024388615678
  7
FX_VECTOR
 72
     5
 11
255.1699979305267
 21
283.5
 31
0.0
100
AcDbText
  0
TEXT
  5
D5
330
B7
100
AcDbEntity
  8
基準ﾚｲﾔｸﾞﾙｰﾌﾟ_01
  6
Continuous
 62
     7
370
    13
100
AcDbText
 10
265.2000122070312
 20
287.5
 30
0.0
 40
2.5
  1
　３をこえ６以下
 41
0.8578723176996759
  7
FX_VECTOR
 72
     5
 11
279.6000118255615
 21
287.5
 31
0.0
100
AcDbText
  0
TEXT
  5
D6
330
B7
100
AcDbEntity
  8
基準ﾚｲﾔｸﾞﾙｰﾌﾟ_01
  6
Continuous
 62
     7
370
    13
100
AcDbText
 10
265.2000122070312
 20
283.5
 30
0.0
 40
2.5
  1
　６をこえ３０以下
 41
0.8505660578889668
  7
FX_VECTOR
 72
     5
 11
281.300012588501
 21
283.5
 31
0.0
100
AcDbText
  0
TEXT
  5
D7
330
B7
100
AcDbEntity
  8
基準ﾚｲﾔｸﾞﾙｰﾌﾟ_01
  6
Continuous
 62
     7
370
    13
100
AcDbText
 10
257.5
 20
283.5
 30
0.0
 40
2.5
  1
±０．２
 41
0.7909090909090911
  7
FX_VECTOR
 72
     5
 11
264.75
 21
283.5
 31
0.0
100
AcDbText
  0
TEXT
  5
D8
330
B7
100
AcDbEntity
  8
基準ﾚｲﾔｸﾞﾙｰﾌﾟ_01
  6
Continuous
 62
     7
370
    13
100
AcDbText
 10
290.5
 20
283.5
 30
0.0
 40
2.5
  1
１２０をこえ４００以下
 41
0.7538461692516621
  7
FX_VECTOR
 72
     5
 11
308.0000003576279
 21
283.5
 31
0.0
100
AcDbText
  0
TEXT
  5
D9
330
B7
100
AcDbEntity
  8
基準ﾚｲﾔｸﾞﾙｰﾌﾟ_01
  6
Continuous
 62
     7
370
    13
100
AcDbText
 10
282.7999877929688
 20
283.5
 30
0.0
 40
2.5
  1
±０．５
 41
0.7909090909090911
  7
FX_VECTOR
 72
     5
 11
290.0499877929688
 21
283.5
 31
0.0
100
AcDbText
  0
TEXT
  5
DA
330
B7
100
AcDbEntity
  8
基準ﾚｲﾔｸﾞﾙｰﾌﾟ_01
  6
Continuous
 62
     7
370
    13
100
AcDbText
 10
291.6000061035156
 20
287.5
 30
0.0
 40
2.5
  1
３０をこえ１２０以下
 41
0.7593220452130852
  7
FX_VECTOR
 72
     5
 11
307.6000063419342
 21
287.5
 31
0.0
100
AcDbText
  0
TEXT
  5
DB
330
B7
100
AcDbEntity
  8
基準ﾚｲﾔｸﾞﾙｰﾌﾟ_01
  6
Continuous
 62
     7
370
    13
100
AcDbText
 10
282.7999877929688
 20
287.5
 30
0.0
 40
2.5
  1
±０．３
 41
0.7909090909090911
  7
FX_VECTOR
 72
     5
 11
290.0499877929688
 21
287.5
 31
0.0
100
AcDbText
  0
TEXT
  5
DC
330
B7
100
AcDbEntity
  8
基準ﾚｲﾔｸﾞﾙｰﾌﾟ_01
  6
Continuous
 62
     7
370
    13
100
AcDbText
 10
309.2000122070312
 20
283.5
 30
0.0
 40
2.5
  1
±１．２
 41
0.7909090909090911
  7
FX_VECTOR
 72
     5
 11
316.4500122070312
 21
283.5
 31
0.0
100
AcDbText
  0
TEXT
  5
DD
330
B7
100
AcDbEntity
  8
基準ﾚｲﾔｸﾞﾙｰﾌﾟ_01
  6
Continuous
 62
     7
370
    13
100
AcDbText
 10
309.2000122070312
 20
287.5
 30
0.0
 40
2.5
  1
±０．８
 41
0.7909090909090911
  7
FX_VECTOR
 72
     5
 11
316.4500122070312
 21
287.5
 31
0.0
100
AcDbText
  0
TEXT
  5
DE
330
B7
100
AcDbEntity
  8
基準ﾚｲﾔｸﾞﾙｰﾌﾟ_01
  6
Continuous
 62
     7
370
    13
100
AcDbText
 10
240.6699981689453
 20
287.5
 30
0.0
 40
2.5
  1
（０．５以下）
 41
0.9048780732038545
  7
FX_VECTOR
 72
     5
 11
253.9199985265732
 21
287.5
 31
0.0
100
AcDbText
  0
TEXT
  5
DF
330
B7
100
AcDbEntity
  8
基準ﾚｲﾔｸﾞﾙｰﾌﾟ_01
  6
Continuous
 62
     7
370
    13
100
AcDbText
 10
318.7000122070312
 20
287.5
 30
0.0
 40
2.5
  1
４００をこえる場合
 41
0.8505660578889668
  7
FX_VECTOR
 72
     5
 11
334.800012588501
 21
287.5
 31
0.0
100
AcDbText
  0
TEXT
  5
E0
330
B7
100
AcDbEntity
  8
基準ﾚｲﾔｸﾞﾙｰﾌﾟ_01
  6
Continuous
 62
     7
370
    13
100
AcDbText
 10
336.8250122070312
 20
287.5
 30
0.0
 40
2.5
  1
±２．０
 41
0.7909090909090911
  7
FX_VECTOR
 72
     5
 11
344.0750122070312
 21
287.5
 31
0.0
100
AcDbText
  0
TEXT
  5
E1
330
B7
100
AcDbEntity
  8
基準ﾚｲﾔｸﾞﾙｰﾌﾟ_01
  6
Continuous
 62
     7
370
    13
100
AcDbText
 10
317.1312255859375
 20
283.5472717285156
 30
0.0
 40
2.5
  1
鋳造部
 41
0.8666062831878663
  7
FX_VECTOR
 72
     5
 11
322.3927637338638
 21
283.5472717285156
 31
0.0
100
AcDbText
  0
LINE
  5
E2
330
B7
100
AcDbEntity
  8
基準ﾚｲﾔｸﾞﾙｰﾌﾟ_01
  6
Continuous
 62
     7
370
    13
100
AcDbLine
 10
336.6
 20
291.0
 30
0.0
 11
336.6
 21
287.0
 31
0.0
  0
LINE
  5
E3
330
B7
100
AcDbEntity
  8
基準ﾚｲﾔｸﾞﾙｰﾌﾟ_01
  6
Continuous
 62
     3
370
    35
100
AcDbLine
 10
230.0
 20
291.0
 30
0.0
 11
230.0
 21
283.0
 31
0.0
  0
TEXT
  5
E4
330
B7
100
AcDbEntity
  8
基準ﾚｲﾔｸﾞﾙｰﾌﾟ_01
  6
Continuous
 62
     7
370
    13
100
AcDbText
 10
323.1302795410156
 20
283.5322570800781
 30
0.0
 40
2.5
  1
ＪＩＳ　Ｂ　０４０３－ＣＴ１０
 41
0.6521726322977731
  7
FX_VECTOR
 72
     5
 11
343.8600524961948
 21
283.5322570800781
 31
0.0
100
AcDbText
  0
ENDBLK
  5
B9
330
B7
100
AcDbEntity
  8
0
100
AcDbBlockEnd
  0
BLOCK
  5
E6
330
E5
100
AcDbEntity
  8
0
100
AcDbBlockBegin
  2
BLKF024
 70
     0
 10
0.0
 20
0.0
 30
0.0
  3
BLKF024
  1

  0
LINE
  5
E9
330
E5
100
AcDbEntity
  8
基準ﾚｲﾔｸﾞﾙｰﾌﾟ_01
  6
Continuous
 62
     7
370
    13
100
AcDbLine
 10
20.9999999999999
 20
67.99999999999999
 30
0.0
 11
8.999999999999847
 21
67.99999999999999
 31
0.0
  0
LINE
  5
EA
330
E5
100
AcDbEntity
  8
基準ﾚｲﾔｸﾞﾙｰﾌﾟ_01
  6
Continuous
 62
     7
370
    13
100
AcDbLine
 10
8.999999999999847
 20
67.99999999999999
 30
0.0
 11
8.999999999999847
 21
8.0
 31
0.0
  0
LINE
  5
EB
330
E5
100
AcDbEntity
  8
基準ﾚｲﾔｸﾞﾙｰﾌﾟ_01
  6
Continuous
 62
     7
370
    13
100
AcDbLine
 10
8.999999999999847
 20
8.0
 30
0.0
 11
20.9999999999999
 21
8.0
 31
0.0
  0
LINE
  5
EC
330
E5
100
AcDbEntity
  8
基準ﾚｲﾔｸﾞﾙｰﾌﾟ_01
  6
Continuous
 62
     7
370
    13
100
AcDbLine
 10
8.999999999999847
 20
61.99999999999999
 30
0.0
 11
20.9999999999999
 21
61.99999999999999
 31
0.0
  0
LINE
  5
ED
330
E5
100
AcDbEntity
  8
基準ﾚｲﾔｸﾞﾙｰﾌﾟ_01
  6
Continuous
 62
     7
370
    13
100
AcDbLine
 10
14.9999999999998
 20
67.99999999999999
 30
0.0
 11
14.9999999999998
 21
7.999999999999999
 31
0.0
  0
LINE
  5
EE
330
E5
100
AcDbEntity
  8
基準ﾚｲﾔｸﾞﾙｰﾌﾟ_01
  6
Continuous
 62
     7
370
    13
100
AcDbLine
 10
8.999999999999847
 20
56.0
 30
0.0
 11
20.9999999999999
 21
56.0
 31
0.0
  0
LINE
  5
EF
330
E5
100
AcDbEntity
  8
基準ﾚｲﾔｸﾞﾙｰﾌﾟ_01
  6
Continuous
 62
     7
370
    13
100
AcDbLine
 10
8.999999999999847
 20
49.99999999999999
 30
0.0
 11
20.9999999999999
 21
49.99999999999999
 31
0.0
  0
LINE
  5
F0
330
E5
100
AcDbEntity
  8
基準ﾚｲﾔｸﾞﾙｰﾌﾟ_01
  6
Continuous
 62
     7
370
    13
100
AcDbLine
 10
8.999999999999847
 20
44.0
 30
0.0
 11
20.9999999999999
 21
44.0
 31
0.0
  0
LINE
  5
F1
330
E5
100
AcDbEntity
  8
基準ﾚｲﾔｸﾞﾙｰﾌﾟ_01
  6
Continuous
 62
     7
370
    13
100
AcDbLine
 10
8.999999999999847
 20
38.00000000000001
 30
0.0
 11
20.9999999999999
 21
38.00000000000001
 31
0.0
  0
LINE
  5
F2
330
E5
100
AcDbEntity
  8
基準ﾚｲﾔｸﾞﾙｰﾌﾟ_01
  6
Continuous
 62
     7
370
    13
100
AcDbLine
 10
8.999999999999847
 20
32.0
 30
0.0
 11
20.9999999999999
 21
32.0
 31
0.0
  0
LINE
  5
F3
330
E5
100
AcDbEntity
  8
基準ﾚｲﾔｸﾞﾙｰﾌﾟ_01
  6
Continuous
 62
     7
370
    13
100
AcDbLine
 10
8.999999999999847
 20
26.00000000000001
 30
0.0
 11
20.9999999999999
 21
26.00000000000001
 31
0.0
  0
LINE
  5
F4
330
E5
100
AcDbEntity
  8
基準ﾚｲﾔｸﾞﾙｰﾌﾟ_01
  6
Continuous
 62
     7
370
    13
100
AcDbLine
 10
8.999999999999847
 20
20.00000000000001
 30
0.0
 11
20.9999999999999
 21
20.00000000000001
 31
0.0
  0
LINE
  5
F5
330
E5
100
AcDbEntity
  8
基準ﾚｲﾔｸﾞﾙｰﾌﾟ_01
  6
Continuous
 62
     7
370
    13
100
AcDbLine
 10
8.999999999999847
 20
14.00000000000001
 30
0.0
 11
20.9999999999999
 21
14.00000000000001
 31
0.0
  0
TEXT
  5
F6
330
E5
100
AcDbEntity
  8
基準ﾚｲﾔｸﾞﾙｰﾌﾟ_01
  6
Continuous
 62
     7
370
    13
100
AcDbText
 10
10.25
 20
9.0
 30
0.0
 40
3.5
  1
計
 41
1.4
 51
10.0
  7
FX_VECTOR
 72
     5
 11
13.75
 21
9.0
 31
0.0
100
AcDbText
  0
TEXT
  5
F7
330
E5
100
AcDbEntity
  8
基準ﾚｲﾔｸﾞﾙｰﾌﾟ_01
  6
Continuous
 62
     7
370
    13
100
AcDbText
 10
10.25
 20
63.0
 30
0.0
 40
3.5
  1
配
 41
1.4
 51
10.0
  7
FX_VECTOR
 72
     5
 11
13.75
 21
63.0
 31
0.0
100
AcDbText
  0
TEXT
  5
F8
330
E5
100
AcDbEntity
  8
基準ﾚｲﾔｸﾞﾙｰﾌﾟ_01
  6
Continuous
 62
     7
370
    13
100
AcDbText
 10
16.25
 20
63.0
 30
0.0
 40
3.5
  1
枚
 41
1.4
 51
10.0
  7
FX_VECTOR
 72
     5
 11
19.75
 21
63.0
 31
0.0
100
AcDbText
  0
TEXT
  5
F9
330
E5
100
AcDbEntity
  8
基準ﾚｲﾔｸﾞﾙｰﾌﾟ_01
  6
Continuous
 62
     7
370
    13
100
AcDbText
 10
10.25
 20
57.0
 30
0.0
 40
3.5
  1
営
 41
1.4
 51
10.0
  7
FX_VECTOR
 72
     5
 11
13.75
 21
57.0
 31
0.0
100
AcDbText
  0
TEXT
  5
FA
330
E5
100
AcDbEntity
  8
基準ﾚｲﾔｸﾞﾙｰﾌﾟ_01
  6
Continuous
 62
     7
370
    13
100
AcDbText
 10
10.25
 20
51.0
 30
0.0
 40
3.5
  1
生
 41
1.4
 51
10.0
  7
FX_VECTOR
 72
     5
 11
13.75
 21
51.0
 31
0.0
100
AcDbText
  0
TEXT
  5
FB
330
E5
100
AcDbEntity
  8
基準ﾚｲﾔｸﾞﾙｰﾌﾟ_01
  6
Continuous
 62
     7
370
    13
100
AcDbText
 10
10.25
 20
45.0
 30
0.0
 40
3.5
  1
製
 41
1.4
 51
10.0
  7
FX_VECTOR
 72
     5
 11
13.75
 21
45.0
 31
0.0
100
AcDbText
  0
TEXT
  5
FC
330
E5
100
AcDbEntity
  8
基準ﾚｲﾔｸﾞﾙｰﾌﾟ_01
  6
Continuous
 62
     7
370
    13
100
AcDbText
 10
10.25
 20
39.0
 30
0.0
 40
3.5
  1
品
 41
1.4
 51
10.0
  7
FX_VECTOR
 72
     5
 11
13.75
 21
39.0
 31
0.0
100
AcDbText
  0
TEXT
  5
FD
330
E5
100
AcDbEntity
  8
基準ﾚｲﾔｸﾞﾙｰﾌﾟ_01
  6
Continuous
 62
     7
370
    13
100
AcDbText
 10
10.25
 20
33.0
 30
0.0
 40
3.5
  1
技
 41
1.4
 51
10.0
  7
FX_VECTOR
 72
     5
 11
13.75
 21
33.0
 31
0.0
100
AcDbText
  0
TEXT
  5
FE
330
E5
100
AcDbEntity
  8
基準ﾚｲﾔｸﾞﾙｰﾌﾟ_01
  6
Continuous
 62
     7
370
    13
100
AcDbText
 10
10.25
 20
27.0
 30
0.0
 40
3.5
  1
設
 41
1.4
 51
10.0
  7
FX_VECTOR
 72
     5
 11
13.75
 21
27.0
 31
0.0
100
AcDbText
  0
ENDBLK
  5
E7
330
E5
100
AcDbEntity
  8
0
100
AcDbBlockEnd
  0
BLOCK
  5
105
330
104
100
AcDbEntity
  8
0
100
AcDbBlockBegin
  2
BLKF025
 70
     0
 10
0.0
 20
0.0
 30
0.0
  3
BLKF025
  1

  0
LINE
  5
108
330
104
100
AcDbEntity
  8
基準ﾚｲﾔｸﾞﾙｰﾌﾟ_01
  6
Continuous
 62
     7
370
    13
100
AcDbLine
 10
212.9
 20
16.24855715851498
 30
0.0
 11
210.4
 21
12.35144284148501
 31
0.0
  0
LINE
  5
109
330
104
100
AcDbEntity
  8
基準ﾚｲﾔｸﾞﾙｰﾌﾟ_01
  6
Continuous
 62
     7
370
    13
100
AcDbLine
 10
210.4
 20
12.35144284148501
 30
0.0
 11
215.4
 21
12.35144284148501
 31
0.0
  0
LINE
  5
10A
330
104
100
AcDbEntity
  8
基準ﾚｲﾔｸﾞﾙｰﾌﾟ_01
  6
Continuous
 62
     7
370
    13
100
AcDbLine
 10
215.4
 20
12.35144284148501
 30
0.0
 11
212.9
 21
16.24855715851498
 31
0.0
  0
TEXT
  5
10B
330
104
100
AcDbEntity
  8
基準ﾚｲﾔｸﾞﾙｰﾌﾟ_01
  6
Continuous
 62
     7
370
    13
100
AcDbText
 10
211.6290588378906
 20
12.54898262023926
 30
0.0
 40
2.299999952316284
  1
１
 41
1.4
  7
FX_VECTOR
 72
     5
 11
213.9290587902069
 21
12.54898262023926
 31
0.0
100
AcDbText
  0
ENDBLK
  5
106
330
104
100
AcDbEntity
  8
0
100
AcDbBlockEnd
  0
BLOCK
  5
10D
330
10C
100
AcDbEntity
  8
0
100
AcDbBlockBegin
  2
BLKF026
 70
     0
 10
0.0
 20
0.0
 30
0.0
  3
BLKF026
  1

  0
LINE
  5
110
330
10C
100
AcDbEntity
  8
基準ﾚｲﾔｸﾞﾙｰﾌﾟ_01
  6
Continuous
 62
     7
370
    13
100
AcDbLine
 10
212.9
 20
20.84855715851498
 30
0.0
 11
210.4
 21
16.951442841485
 31
0.0
  0
LINE
  5
111
330
10C
100
AcDbEntity
  8
基準ﾚｲﾔｸﾞﾙｰﾌﾟ_01
  6
Continuous
 62
     7
370
    13
100
AcDbLine
 10
210.4
 20
16.951442841485
 30
0.0
 11
215.4
 21
16.951442841485
 31
0.0
  0
LINE
  5
112
330
10C
100
AcDbEntity
  8
基準ﾚｲﾔｸﾞﾙｰﾌﾟ_01
  6
Continuous
 62
     7
370
    13
100
AcDbLine
 10
215.4
 20
16.951442841485
 30
0.0
 11
212.9
 21
20.84855715851498
 31
0.0
  0
TEXT
  5
113
330
10C
100
AcDbEntity
  8
基準ﾚｲﾔｸﾞﾙｰﾌﾟ_01
  6
Continuous
 62
     7
370
    13
100
AcDbText
 10
211.6290588378906
 20
17.14898300170898
 30
0.0
 40
2.299999952316284
  1
２
 41
1.4
  7
FX_VECTOR
 72
     5
 11
213.9290587902069
 21
17.14898300170898
 31
0.0
100
AcDbText
  0
ENDBLK
  5
10E
330
10C
100
AcDbEntity
  8
0
100
AcDbBlockEnd
  0
BLOCK
  5
115
330
114
100
AcDbEntity
  8
0
100
AcDbBlockBegin
  2
BLKF027
 70
     0
 10
0.0
 20
0.0
 30
0.0
  3
BLKF027
  1

  0
LINE
  5
118
330
114
100
AcDbEntity
  8
基準ﾚｲﾔｸﾞﾙｰﾌﾟ_01
  6
Continuous
 62
     7
370
    13
100
AcDbLine
 10
212.9
 20
25.44855715851498
 30
0.0
 11
210.4
 21
21.551442841485
 31
0.0
  0
LINE
  5
119
330
114
100
AcDbEntity
  8
基準ﾚｲﾔｸﾞﾙｰﾌﾟ_01
  6
Continuous
 62
     7
370
    13
100
AcDbLine
 10
210.4
 20
21.551442841485
 30
0.0
 11
215.4
 21
21.551442841485
 31
0.0
  0
LINE
  5
11A
330
114
100
AcDbEntity
  8
基準ﾚｲﾔｸﾞﾙｰﾌﾟ_01
  6
Continuous
 62
     7
370
    13
100
AcDbLine
 10
215.4
 20
21.551442841485
 30
0.0
 11
212.9
 21
25.44855715851498
 31
0.0
  0
TEXT
  5
11B
330
114
100
AcDbEntity
  8
基準ﾚｲﾔｸﾞﾙｰﾌﾟ_01
  6
Continuous
 62
     7
370
    13
100
AcDbText
 10
211.6290588378906
 20
21.74898147583008
 30
0.0
 40
2.299999952316284
  1
３
 41
1.4
  7
FX_VECTOR
 72
     5
 11
213.9290587902069
 21
21.74898147583008
 31
0.0
100
AcDbText
  0
ENDBLK
  5
116
330
114
100
AcDbEntity
  8
0
100
AcDbBlockEnd
  0
BLOCK
  5
11D
330
11C
100
AcDbEntity
  8
0
100
AcDbBlockBegin
  2
BLKF028
 70
     0
 10
0.0
 20
0.0
 30
0.0
  3
BLKF028
  1

  0
LINE
  5
120
330
11C
100
AcDbEntity
  8
基準ﾚｲﾔｸﾞﾙｰﾌﾟ_01
  6
Continuous
 62
     7
370
    13
100
AcDbLine
 10
212.9
 20
30.04855715851498
 30
0.0
 11
210.4
 21
26.151442841485
 31
0.0
  0
LINE
  5
121
330
11C
100
AcDbEntity
  8
基準ﾚｲﾔｸﾞﾙｰﾌﾟ_01
  6
Continuous
 62
     7
370
    13
100
AcDbLine
 10
210.4
 20
26.151442841485
 30
0.0
 11
215.4
 21
26.151442841485
 31
0.0
  0
LINE
  5
122
330
11C
100
AcDbEntity
  8
基準ﾚｲﾔｸﾞﾙｰﾌﾟ_01
  6
Continuous
 62
     7
370
    13
100
AcDbLine
 10
215.4
 20
26.151442841485
 30
0.0
 11
212.9
 21
30.04855715851498
 31
0.0
  0
TEXT
  5
123
330
11C
100
AcDbEntity
  8
基準ﾚｲﾔｸﾞﾙｰﾌﾟ_01
  6
Continuous
 62
     7
370
    13
100
AcDbText
 10
211.6290588378906
 20
26.3489818572998
 30
0.0
 40
2.299999952316284
  1
４
 41
1.4
  7
FX_VECTOR
 72
     5
 11
213.9290587902069
 21
26.3489818572998
 31
0.0
100
AcDbText
  0
ENDBLK
  5
11E
330
11C
100
AcDbEntity
  8
0
100
AcDbBlockEnd
  0
BLOCK
  5
125
330
124
100
AcDbEntity
  8
0
100
AcDbBlockBegin
  2
BLKF029
 70
     0
 10
0.0
 20
0.0
 30
0.0
  3
BLKF029
  1

  0
LINE
  5
128
330
124
100
AcDbEntity
  8
基準ﾚｲﾔｸﾞﾙｰﾌﾟ_01
  6
Continuous
 62
     7
370
    13
100
AcDbLine
 10
212.9
 20
34.64855715851498
 30
0.0
 11
210.4
 21
30.751442841485
 31
0.0
  0
LINE
  5
129
330
124
100
AcDbEntity
  8
基準ﾚｲﾔｸﾞﾙｰﾌﾟ_01
  6
Continuous
 62
     7
370
    13
100
AcDbLine
 10
210.4
 20
30.751442841485
 30
0.0
 11
215.4
 21
30.751442841485
 31
0.0
  0
LINE
  5
12A
330
124
100
AcDbEntity
  8
基準ﾚｲﾔｸﾞﾙｰﾌﾟ_01
  6
Continuous
 62
     7
370
    13
100
AcDbLine
 10
215.4
 20
30.751442841485
 30
0.0
 11
212.9
 21
34.64855715851498
 31
0.0
  0
TEXT
  5
12B
330
124
100
AcDbEntity
  8
基準ﾚｲﾔｸﾞﾙｰﾌﾟ_01
  6
Continuous
 62
     7
370
    13
100
AcDbText
 10
211.6290588378906
 20
30.94898223876953
 30
0.0
 40
2.299999952316284
  1
５
 41
1.4
  7
FX_VECTOR
 72
     5
 11
213.9290587902069
 21
30.94898223876953
 31
0.0
100
AcDbText
  0
ENDBLK
  5
126
330
124
100
AcDbEntity
  8
0
100
AcDbBlockEnd
  0
BLOCK
  5
12D
330
12C
100
AcDbEntity
  8
0
100
AcDbBlockBegin
  2
BLKF030
 70
     0
 10
0.0
 20
0.0
 30
0.0
  3
BLKF030
  1

  0
LINE
  5
130
330
12C
100
AcDbEntity
  8
基準ﾚｲﾔｸﾞﾙｰﾌﾟ_01
  6
Continuous
 62
     7
370
    13
100
AcDbLine
 10
393.1731842231842
 20
41.36498917748917
 30
0.0
 11
396.1507275132275
 21
41.36498917748917
 31
0.0
  0
LINE
  5
131
330
12C
100
AcDbEntity
  8
基準ﾚｲﾔｸﾞﾙｰﾌﾟ_01
  6
Continuous
 62
     7
370
    13
100
AcDbLine
 10
396.9007275132275
 20
41.36498917748917
 30
0.0
 11
397.9007275132275
 21
41.36498917748917
 31
0.0
  0
LINE
  5
132
330
12C
100
AcDbEntity
  8
基準ﾚｲﾔｸﾞﾙｰﾌﾟ_01
  6
Continuous
 62
     7
370
    13
100
AcDbLine
 10
398.6507275132275
 20
41.36498917748917
 30
0.0
 11
403.9705240595155
 21
41.36498917748917
 31
0.0
  0
LINE
  5
133
330
12C
100
AcDbEntity
  8
基準ﾚｲﾔｸﾞﾙｰﾌﾟ_01
  6
Continuous
 62
     7
370
    13
100
AcDbLine
 10
404.7205240595155
 20
41.36498917748917
 30
0.0
 11
405.7205240595155
 21
41.36498917748917
 31
0.0
  0
LINE
  5
134
330
12C
100
AcDbEntity
  8
基準ﾚｲﾔｸﾞﾙｰﾌﾟ_01
  6
Continuous
 62
     7
370
    13
100
AcDbLine
 10
406.4705240595155
 20
41.36498917748917
 30
0.0
 11
409.6709568626509
 21
41.36498917748917
 31
0.0
  0
LINE
  5
135
330
12C
100
AcDbEntity
  8
基準ﾚｲﾔｸﾞﾙｰﾌﾟ_01
  6
Continuous
 62
     7
370
    13
100
AcDbLine
 10
397.4007275132275
 20
45.59190121142563
 30
0.0
 11
397.4007275132275
 21
42.61498917748917
 31
0.0
  0
LINE
  5
136
330
12C
100
AcDbEntity
  8
基準ﾚｲﾔｸﾞﾙｰﾌﾟ_01
  6
Continuous
 62
     7
370
    13
100
AcDbLine
 10
397.4007275132275
 20
41.86498917748917
 30
0.0
 11
397.4007275132275
 21
40.86498917748917
 31
0.0
  0
LINE
  5
137
330
12C
100
AcDbEntity
  8
基準ﾚｲﾔｸﾞﾙｰﾌﾟ_01
  6
Continuous
 62
     7
370
    13
100
AcDbLine
 10
397.4007275132275
 20
40.11498917748917
 30
0.0
 11
397.4007275132275
 21
37.29376533729637
 31
0.0
  0
INSERT
  5
13B
330
12C
100
AcDbEntity
  8
基準ﾚｲﾔｸﾞﾙｰﾌﾟ_01
  6
Continuous
 62
     3
370
    35
100
AcDbBlockReference
  2
BLKF031
 10
0.0
 20
0.0
 30
0.0
  0
ENDBLK
  5
12E
330
12C
100
AcDbEntity
  8
0
100
AcDbBlockEnd
  0
BLOCK
  5
139
330
138
100
AcDbEntity
  8
0
100
AcDbBlockBegin
  2
BLKF031
 70
     0
 10
0.0
 20
0.0
 30
0.0
  3
BLKF031
  1

  0
CIRCLE
  5
13C
330
138
100
AcDbEntity
  8
基準ﾚｲﾔｸﾞﾙｰﾌﾟ_01
  6
Continuous
 62
     3
370
    35
100
AcDbCircle
 10
397.4007275132275
 20
41.36498917748917
 30
0.0
 40
3.0
  0
CIRCLE
  5
13D
330
138
100
AcDbEntity
  8
基準ﾚｲﾔｸﾞﾙｰﾌﾟ_01
  6
Continuous
 62
     3
370
    35
100
AcDbCircle
 10
397.4007275132275
 20
41.36498917748917
 30
0.0
 40
1.8
  0
LINE
  5
13E
330
138
100
AcDbEntity
  8
基準ﾚｲﾔｸﾞﾙｰﾌﾟ_01
  6
Continuous
 62
     3
370
    35
100
AcDbLine
 10
402.2007275132275
 20
43.16498917748915
 30
0.0
 11
402.2007275132275
 21
39.56498917748916
 31
0.0
  0
LINE
  5
13F
330
138
100
AcDbEntity
  8
基準ﾚｲﾔｸﾞﾙｰﾌﾟ_01
  6
Continuous
 62
     3
370
    35
100
AcDbLine
 10
408.2007275132275
 20
44.36498917748917
 30
0.0
 11
408.2007275132275
 21
38.36498917748917
 31
0.0
  0
LINE
  5
140
330
138
100
AcDbEntity
  8
基準ﾚｲﾔｸﾞﾙｰﾌﾟ_01
  6
Continuous
 62
     3
370
    35
100
AcDbLine
 10
402.2007275132275
 20
43.16498917748915
 30
0.0
 11
408.2007275132275
 21
44.36498917748917
 31
0.0
  0
LINE
  5
141
330
138
100
AcDbEntity
  8
基準ﾚｲﾔｸﾞﾙｰﾌﾟ_01
  6
Continuous
 62
     3
370
    35
100
AcDbLine
 10
402.2007275132275
 20
39.56498917748916
 30
0.0
 11
408.2007275132275
 21
38.36498917748917
 31
0.0
  0
ENDBLK
  5
13A
330
138
100
AcDbEntity
  8
0
100
AcDbBlockEnd
  0
BLOCK
  5
143
330
142
100
AcDbEntity
  8
0
100
AcDbBlockBegin
  2
BLKF032
 70
     0
 10
0.0
 20
0.0
 30
0.0
  3
BLKF032
  1

  0
LINE
  5
146
330
142
100
AcDbEntity
  8
基準ﾚｲﾔｸﾞﾙｰﾌﾟ_01
  6
Continuous
 62
     3
370
    35
100
AcDbLine
 10
299.0
 20
12.0
 30
0.0
 11
210.0
 21
12.0
 31
0.0
  0
LINE
  5
147
330
142
100
AcDbEntity
  8
基準ﾚｲﾔｸﾞﾙｰﾌﾟ_01
  6
Continuous
 62
     7
370
    13
100
AcDbLine
 10
210.0
 20
30.39999999999999
 30
0.0
 11
299.0
 21
30.39999999999999
 31
0.0
  0
LINE
  5
148
330
142
100
AcDbEntity
  8
基準ﾚｲﾔｸﾞﾙｰﾌﾟ_01
  6
Continuous
 62
     7
370
    13
100
AcDbLine
 10
210.0
 20
25.8
 30
0.0
 11
299.0
 21
25.8
 31
0.0
  0
LINE
  5
149
330
142
100
AcDbEntity
  8
基準ﾚｲﾔｸﾞﾙｰﾌﾟ_01
  6
Continuous
 62
     7
370
    13
100
AcDbLine
 10
210.0
 20
21.2
 30
0.0
 11
299.0
 21
21.2
 31
0.0
  0
LINE
  5
14A
330
142
100
AcDbEntity
  8
基準ﾚｲﾔｸﾞﾙｰﾌﾟ_01
  6
Continuous
 62
     7
370
    13
100
AcDbLine
 10
210.0
 20
16.59999999999999
 30
0.0
 11
299.0
 21
16.59999999999999
 31
0.0
  0
LINE
  5
14B
330
142
100
AcDbEntity
  8
基準ﾚｲﾔｸﾞﾙｰﾌﾟ_01
  6
Continuous
 62
     7
370
    13
100
AcDbLine
 10
359.0
 20
16.0
 30
0.0
 11
413.0
 21
16.0
 31
0.0
  0
LINE
  5
14C
330
142
100
AcDbEntity
  8
基準ﾚｲﾔｸﾞﾙｰﾌﾟ_01
  6
Continuous
 62
     3
370
    35
100
AcDbLine
 10
210.0
 20
34.99999999999999
 30
0.0
 11
413.0
 21
34.99999999999999
 31
0.0
  0
LINE
  5
14D
330
142
100
AcDbEntity
  8
基準ﾚｲﾔｸﾞﾙｰﾌﾟ_01
  6
Continuous
 62
     7
370
    13
100
AcDbLine
 10
299.0
 20
35.0
 30
0.0
 11
299.0
 21
8.0
 31
0.0
  0
LINE
  5
14E
330
142
100
AcDbEntity
  8
基準ﾚｲﾔｸﾞﾙｰﾌﾟ_01
  6
Continuous
 62
     7
370
    13
100
AcDbLine
 10
216.0
 20
34.99999999999999
 30
0.0
 11
216.0
 21
8.0
 31
0.0
  0
LINE
  5
14F
330
142
100
AcDbEntity
  8
基準ﾚｲﾔｸﾞﾙｰﾌﾟ_01
  6
Continuous
 62
     7
370
    13
100
AcDbLine
 10
231.9999999999999
 20
34.99999999999999
 30
0.0
 11
231.9999999999999
 21
8.0
 31
0.0
  0
LINE
  5
150
330
142
100
AcDbEntity
  8
基準ﾚｲﾔｸﾞﾙｰﾌﾟ_01
  6
Continuous
 62
     7
370
    13
100
AcDbLine
 10
293.0
 20
34.99999999999999
 30
0.0
 11
293.0
 21
8.0
 31
0.0
  0
LINE
  5
151
330
142
100
AcDbEntity
  8
基準ﾚｲﾔｸﾞﾙｰﾌﾟ_01
  6
Continuous
 62
     7
370
    13
100
AcDbLine
 10
287.0
 20
34.99999999999999
 30
0.0
 11
287.0
 21
8.0
 31
0.0
  0
LINE
  5
152
330
142
100
AcDbEntity
  8
基準ﾚｲﾔｸﾞﾙｰﾌﾟ_01
  6
Continuous
 62
     7
370
    13
100
AcDbLine
 10
299.0
 20
26.99999999999999
 30
0.0
 11
413.0
 21
27.0
 31
0.0
  0
LINE
  5
153
330
142
100
AcDbEntity
  8
基準ﾚｲﾔｸﾞﾙｰﾌﾟ_01
  6
Continuous
 62
     7
370
    13
100
AcDbLine
 10
299.0
 20
22.99999999999999
 30
0.0
 11
359.0
 21
22.99999999999999
 31
0.0
  0
LINE
  5
154
330
142
100
AcDbEntity
  8
基準ﾚｲﾔｸﾞﾙｰﾌﾟ_01
  6
Continuous
 62
     7
370
    13
100
AcDbLine
 10
299.0
 20
18.99999999999999
 30
0.0
 11
359.0
 21
18.99999999999999
 31
0.0
  0
LINE
  5
155
330
142
100
AcDbEntity
  8
基準ﾚｲﾔｸﾞﾙｰﾌﾟ_01
  6
Continuous
 62
     7
370
    13
100
AcDbLine
 10
347.0
 20
34.99999999999999
 30
0.0
 11
347.0
 21
8.0
 31
0.0
  0
LINE
  5
156
330
142
100
AcDbEntity
  8
基準ﾚｲﾔｸﾞﾙｰﾌﾟ_01
  6
Continuous
 62
     7
370
    13
100
AcDbLine
 10
351.0
 20
34.99999999999998
 30
0.0
 11
351.0
 21
26.99999999999999
 31
0.0
  0
LINE
  5
157
330
142
100
AcDbEntity
  8
基準ﾚｲﾔｸﾞﾙｰﾌﾟ_01
  6
Continuous
 62
     7
370
    13
100
AcDbLine
 10
359.0
 20
26.99999999999999
 30
0.0
 11
359.0
 21
8.0
 31
0.0
  0
LINE
  5
158
330
142
100
AcDbEntity
  8
基準ﾚｲﾔｸﾞﾙｰﾌﾟ_01
  6
Continuous
 62
     7
370
    13
100
AcDbLine
 10
363.0
 20
26.99999999999999
 30
0.0
 11
363.0
 21
8.0
 31
0.0
  0
TEXT
  5
159
330
142
100
AcDbEntity
  8
基準ﾚｲﾔｸﾞﾙｰﾌﾟ_01
  6
Continuous
 62
     7
370
    13
100
AcDbText
 10
363.4789428710938
 20
9.89869213104248
 30
0.0
 40
4.0
  1
ＳＤＫ－
 41
0.8521738985310431
 51
10.0
  7
FX_VECTOR
 72
     5
 11
374.6789426803589
 21
9.89869213104248
 31
0.0
100
AcDbText
  0
TEXT
  5
15A
330
142
100
AcDbEntity
  8
基準ﾚｲﾔｸﾞﾙｰﾌﾟ_01
  6
Continuous
 62
     7
370
    13
100
AcDbText
 10
359.5
 20
12.0986499786377
 30
0.0
 40
3.0
  1
図
 41
1.4
  7
FX_VECTOR
 72
     5
 11
362.5
 21
12.0986499786377
 31
0.0
100
AcDbText
  0
TEXT
  5
15B
330
142
100
AcDbEntity
  8
基準ﾚｲﾔｸﾞﾙｰﾌﾟ_01
  6
Continuous
 62
     7
370
    13
100
AcDbText
 10
359.5
 20
8.42890739440918
 30
0.0
 40
3.0
  1
番
 41
1.4
  7
FX_VECTOR
 72
     5
 11
362.5
 21
8.42890739440918
 31
0.0
100
AcDbText
  0
TEXT
  5
15C
330
142
100
AcDbEntity
  8
基準ﾚｲﾔｸﾞﾙｰﾌﾟ_01
  6
Continuous
 62
     7
370
    13
100
AcDbText
 10
359.5
 20
21.82609748840332
 30
0.0
 40
3.0
  1
名
 41
1.4
  7
FX_VECTOR
 72
     5
 11
362.5
 21
21.82609748840332
 31
0.0
100
AcDbText
  0
TEXT
  5
15D
330
142
100
AcDbEntity
  8
基準ﾚｲﾔｸﾞﾙｰﾌﾟ_01
  6
Continuous
 62
     7
370
    13
100
AcDbText
 10
359.5
 20
17.10677909851074
 30
0.0
 40
3.0
  1
称
 41
1.4
  7
FX_VECTOR
 72
     5
 11
362.5
 21
17.10677909851074
 31
0.0
100
AcDbText
  0
TEXT
  5
15E
330
142
100
AcDbEntity
  8
基準ﾚｲﾔｸﾞﾙｰﾌﾟ_01
  6
Continuous
 62
     7
370
    13
100
AcDbText
 10
347.5
 20
31.14675331115723
 30
0.0
 40
3.0
  1
形
 41
1.4
  7
FX_VECTOR
 72
     5
 11
350.5
 21
31.14675331115723
 31
0.0
100
AcDbText
  0
TEXT
  5
15F
330
142
100
AcDbEntity
  8
基準ﾚｲﾔｸﾞﾙｰﾌﾟ_01
  6
Continuous
 62
     7
370
    13
100
AcDbText
 10
347.5
 20
27.41062545776367
 30
0.0
 40
3.0
  1
式
 41
1.4
  7
FX_VECTOR
 72
     5
 11
350.5
 21
27.41062545776367
 31
0.0
100
AcDbText
  0
LINE
  5
160
330
142
100
AcDbEntity
  8
基準ﾚｲﾔｸﾞﾙｰﾌﾟ_01
  6
Continuous
 62
     7
370
    13
100
AcDbLine
 10
349.3058362286313
 20
13.5
 30
0.0
 11
356.7812374938185
 21
13.5
 31
0.0
  0
LINE
  5
161
330
142
100
AcDbEntity
  8
基準ﾚｲﾔｸﾞﾙｰﾌﾟ_01
  6
Continuous
 62
     7
370
    13
100
AcDbLine
 10
335.0
 20
22.99999999999999
 30
0.0
 11
335.0
 21
8.0
 31
0.0
  0
LINE
  5
162
330
142
100
AcDbEntity
  8
基準ﾚｲﾔｸﾞﾙｰﾌﾟ_01
  6
Continuous
 62
     7
370
    13
100
AcDbLine
 10
323.0
 20
22.99999999999999
 30
0.0
 11
323.0
 21
8.0
 31
0.0
  0
LINE
  5
163
330
142
100
AcDbEntity
  8
基準ﾚｲﾔｸﾞﾙｰﾌﾟ_01
  6
Continuous
 62
     7
370
    13
100
AcDbLine
 10
311.0
 20
22.99999999999999
 30
0.0
 11
311.0
 21
8.0
 31
0.0
  0
TEXT
  5
165
330
142
100
AcDbEntity
  8
基準ﾚｲﾔｸﾞﾙｰﾌﾟ_01
  6
Continuous
 62
     3
370
    25
100
AcDbText
 10
307.1053161621094
 20
29.35627316561612
 30
0.0
 40
3.409090909090909
  1
澤村電気工業株式会社
 41
0.8574358866764948
  7
ＭＳ ゴシック
 11
307.1053161621094
 21
28.73352813720703
 31
0.0
100
AcDbText
 73
     1
  0
LINE
  5
166
330
142
100
AcDbEntity
  8
基準ﾚｲﾔｸﾞﾙｰﾌﾟ_01
  6
Continuous
 62
     7
370
    13
100
AcDbLine
 10
305.0
 20
30.99999999999996
 30
0.0
 11
304.0
 21
30.99999999999996
 31
0.0
  0
CIRCLE
  5
167
330
142
100
AcDbEntity
  8
基準ﾚｲﾔｸﾞﾙｰﾌﾟ_01
  6
Continuous
 62
     7
370
    13
100
AcDbCircle
 10
303.0
 20
30.99999999999996
 30
0.0
 40
2.0
  0
CIRCLE
  5
168
330
142
100
AcDbEntity
  8
基準ﾚｲﾔｸﾞﾙｰﾌﾟ_01
  6
Continuous
 62
     7
370
    13
100
AcDbCircle
 10
303.0
 20
30.99999999999996
 30
0.0
 40
2.32
  0
LINE
  5
169
330
142
100
AcDbEntity
  8
基準ﾚｲﾔｸﾞﾙｰﾌﾟ_01
  6
Continuous
 62
     7
370
    13
100
AcDbLine
 10
302.0
 20
30.99999999999996
 30
0.0
 11
302.0
 21
31.99999999999996
 31
0.0
  0
LINE
  5
16A
330
142
100
AcDbEntity
  8
基準ﾚｲﾔｸﾞﾙｰﾌﾟ_01
  6
Continuous
 62
     7
370
    13
100
AcDbLine
 10
304.0
 20
29.99999999999996
 30
0.0
 11
304.0
 21
30.99999999999996
 31
0.0
  0
LINE
  5
16B
330
142
100
AcDbEntity
  8
基準ﾚｲﾔｸﾞﾙｰﾌﾟ_01
  6
Continuous
 62
     7
370
    13
100
AcDbLine
 10
305.0
 20
30.99999999999996
 30
0.0
 11
302.0
 21
31.99999999999996
 31
0.0
  0
LINE
  5
16C
330
142
100
AcDbEntity
  8
基準ﾚｲﾔｸﾞﾙｰﾌﾟ_01
  6
Continuous
 62
     7
370
    13
100
AcDbLine
 10
301.0
 20
30.99999999999996
 30
0.0
 11
304.0
 21
29.99999999999996
 31
0.0
  0
LINE
  5
16D
330
142
100
AcDbEntity
  8
基準ﾚｲﾔｸﾞﾙｰﾌﾟ_01
  6
Continuous
 62
     7
370
    13
100
AcDbLine
 10
302.0
 20
30.99999999999996
 30
0.0
 11
301.0
 21
30.99999999999996
 31
0.0
  0
HATCH
  5
16E
330
142
100
AcDbEntity
  8
基準ﾚｲﾔｸﾞﾙｰﾌﾟ_01
  6
Continuous
 62
     7
370
    -3
100
AcDbHatch
 10
0.0
 20
0.0
 30
0.0
210
0.0
220
0.0
230
1.0
  2
SOLID
 70
     1
 71
     1
 91
        3
 92
        0
 93
        6
 72
     1
 10
304.0000000000001
 20
30.99999999999996
 11
305.0
 21
30.99999999999996
 72
     1
 10
305.0
 20
30.99999999999996
 11
302.0000000000001
 21
31.99999999999996
 72
     1
 10
302.0
 20
31.99999999999996
 11
302.0
 21
30.99999999999996
 72
     1
 10
302.0
 20
30.99999999999996
 11
301.0
 21
30.99999999999996
 72
     1
 10
301.0
 20
30.99999999999996
 11
304.0000000000001
 21
29.99999999999996
 72
     1
 10
304.0
 20
29.99999999999996
 11
304.0000000000001
 21
30.99999999999996
 97
        0
 92
        0
 93
        1
 72
     2
 10
303.0
 20
30.99999999999996
 40
2.32
 50
0.0
 51
360.0
 73
     1
 97
        0
 92
        0
 93
        1
 72
     2
 10
303.0
 20
30.99999999999996
 40
2.0
 50
0.0
 51
360.0
 73
     1
 97
        0
 75
     0
 76
     1
 98
        0
  0
TEXT
  5
16F
330
142
100
AcDbEntity
  8
基準ﾚｲﾔｸﾞﾙｰﾌﾟ_01
  6
Continuous
 62
     7
370
    13
100
AcDbText
 10
312.6295166015625
 20
23.37472915649414
 30
0.0
 40
3.0
  1
年　　月　　日
 41
1.195121951219512
  7
FX_VECTOR
 72
     5
 11
333.6295166015625
 21
23.37472915649414
 31
0.0
100
AcDbText
  0
TEXT
  5
170
330
142
100
AcDbEntity
  8
基準ﾚｲﾔｸﾞﾙｰﾌﾟ_01
  6
Continuous
 62
     7
370
    13
100
AcDbText
 10
336.9027709960938
 20
23.30051422119141
 30
0.0
 40
3.299999952316284
  1
作成
 41
1.272727272727273
  7
FX_VECTOR
 72
     5
 11
343.5027709007263
 21
23.30051422119141
 31
0.0
100
AcDbText
  0
TEXT
  5
171
330
142
100
AcDbEntity
  8
基準ﾚｲﾔｸﾞﾙｰﾌﾟ_01
  6
Continuous
 62
     7
370
    13
100
AcDbText
 10
349.5266723632812
 20
19.28826141357422
 30
0.0
 40
3.299999952316284
  1
尺度
 41
1.465564741078437
  7
FX_VECTOR
 72
     5
 11
357.1266722679138
 21
19.28826141357422
 31
0.0
100
AcDbText
  0
TEXT
  5
172
330
142
100
AcDbEntity
  8
基準ﾚｲﾔｸﾞﾙｰﾌﾟ_01
  6
Continuous
 62
     7
370
    13
100
AcDbText
 10
337.5266723632812
 20
19.28826141357422
 30
0.0
 40
3.299999952316284
  1
製図
 41
1.465564741078437
  7
FX_VECTOR
 72
     5
 11
345.1266722679138
 21
19.28826141357422
 31
0.0
100
AcDbText
  0
TEXT
  5
173
330
142
100
AcDbEntity
  8
基準ﾚｲﾔｸﾞﾙｰﾌﾟ_01
  6
Continuous
 62
     7
370
    13
100
AcDbText
 10
325.5266723632812
 20
19.28826141357422
 30
0.0
 40
3.299999952316284
  1
設計
 41
1.465564741078437
  7
FX_VECTOR
 72
     5
 11
333.1266722679138
 21
19.28826141357422
 31
0.0
100
AcDbText
  0
TEXT
  5
174
330
142
100
AcDbEntity
  8
基準ﾚｲﾔｸﾞﾙｰﾌﾟ_01
  6
Continuous
 62
     7
370
    13
100
AcDbText
 10
313.5266723632812
 20
19.28826141357422
 30
0.0
 40
3.299999952316284
  1
検図
 41
1.465564741078437
  7
FX_VECTOR
 72
     5
 11
321.1266722679138
 21
19.28826141357422
 31
0.0
100
AcDbText
  0
TEXT
  5
175
330
142
100
AcDbEntity
  8
基準ﾚｲﾔｸﾞﾙｰﾌﾟ_01
  6
Continuous
 62
     7
370
    13
100
AcDbText
 10
301.5266723632812
 20
19.28826141357422
 30
0.0
 40
3.299999952316284
  1
承認
 41
1.465564741078437
  7
FX_VECTOR
 72
     5
 11
309.1266722679138
 21
19.28826141357422
 31
0.0
100
AcDbText
  0
TEXT
  5
176
330
142
100
AcDbEntity
  8
基準ﾚｲﾔｸﾞﾙｰﾌﾟ_01
  6
Continuous
 62
     7
370
    13
100
AcDbText
 10
293.5
 20
8.857329368591309
 30
0.0
 40
2.5
  1
担当
 41
1.272727272727273
  7
FX_VECTOR
 72
     5
 11
298.5
 21
8.857329368591309
 31
0.0
100
AcDbText
  0
TEXT
  5
177
330
142
100
AcDbEntity
  8
基準ﾚｲﾔｸﾞﾙｰﾌﾟ_01
  6
Continuous
 62
     7
370
    13
100
AcDbText
 10
253.0
 20
8.857329368591309
 30
0.0
 40
2.5
  1
変更理由
 41
1.582608695652174
  7
FX_VECTOR
 72
     5
 11
266.0
 21
8.857329368591309
 31
0.0
100
AcDbText
  0
TEXT
  5
178
330
142
100
AcDbEntity
  8
基準ﾚｲﾔｸﾞﾙｰﾌﾟ_01
  6
Continuous
 62
     7
370
    13
100
AcDbText
 10
217.75
 20
8.857329368591309
 30
0.0
 40
2.5
  1
変更発行日
 41
1.206896551724138
  7
FX_VECTOR
 72
     5
 11
230.25
 21
8.857329368591309
 31
0.0
100
AcDbText
  0
TEXT
  5
179
330
142
100
AcDbEntity
  8
基準ﾚｲﾔｸﾞﾙｰﾌﾟ_01
  6
Continuous
 62
     7
370
    13
100
AcDbText
 10
210.5
 20
8.857329368591309
 30
0.0
 40
2.5
  1
番号
 41
1.272727272727273
  7
FX_VECTOR
 72
     5
 11
215.5
 21
8.857329368591309
 31
0.0
100
AcDbText
  0
TEXT
  5
17A
330
142
100
AcDbEntity
  8
基準ﾚｲﾔｸﾞﾙｰﾌﾟ_01
  6
Continuous
 62
     7
370
    13
100
AcDbText
 10
287.5
 20
8.857329368591309
 30
0.0
 40
2.5
  1
確認
 41
1.272727272727273
  7
FX_VECTOR
 72
     5
 11
292.5
 21
8.857329368591309
 31
0.0
100
AcDbText
  0
LINE
  5
17B
330
142
100
AcDbEntity
  8
基準ﾚｲﾔｸﾞﾙｰﾌﾟ_01
  6
Continuous
 62
     7
370
    13
100
AcDbLine
 10
299.0
 20
8.0
 30
0.0
 11
311.0
 21
18.99999999999999
 31
0.0
  0
CIRCLE
  5
17C
330
142
100
AcDbEntity
  8
基準ﾚｲﾔｸﾞﾙｰﾌﾟ_01
  6
Continuous
 62
     3
370
    35
100
AcDbCircle
 10
221.3666666666667
 20
32.30855715851497
 30
0.0
 40
0.15
  0
CIRCLE
  5
17D
330
142
100
AcDbEntity
  8
基準ﾚｲﾔｸﾞﾙｰﾌﾟ_01
  6
Continuous
 62
     3
370
    35
100
AcDbCircle
 10
226.7333333333333
 20
32.30855715851497
 30
0.0
 40
0.15
  0
CIRCLE
  5
17E
330
142
100
AcDbEntity
  8
基準ﾚｲﾔｸﾞﾙｰﾌﾟ_01
  6
Continuous
 62
     3
370
    35
100
AcDbCircle
 10
221.3666666666667
 20
27.70855715851498
 30
0.0
 40
0.15
  0
CIRCLE
  5
17F
330
142
100
AcDbEntity
  8
基準ﾚｲﾔｸﾞﾙｰﾌﾟ_01
  6
Continuous
 62
     3
370
    35
100
AcDbCircle
 10
226.7333333333333
 20
27.70855715851498
 30
0.0
 40
0.15
  0
CIRCLE
  5
180
330
142
100
AcDbEntity
  8
基準ﾚｲﾔｸﾞﾙｰﾌﾟ_01
  6
Continuous
 62
     3
370
    35
100
AcDbCircle
 10
221.3666666666667
 20
23.10855715851498
 30
0.0
 40
0.15
  0
CIRCLE
  5
181
330
142
100
AcDbEntity
  8
基準ﾚｲﾔｸﾞﾙｰﾌﾟ_01
  6
Continuous
 62
     3
370
    35
100
AcDbCircle
 10
226.7333333333333
 20
23.10855715851498
 30
0.0
 40
0.15
  0
CIRCLE
  5
182
330
142
100
AcDbEntity
  8
基準ﾚｲﾔｸﾞﾙｰﾌﾟ_01
  6
Continuous
 62
     3
370
    35
100
AcDbCircle
 10
221.3666666666667
 20
18.50855715851498
 30
0.0
 40
0.15
  0
CIRCLE
  5
183
330
142
100
AcDbEntity
  8
基準ﾚｲﾔｸﾞﾙｰﾌﾟ_01
  6
Continuous
 62
     3
370
    35
100
AcDbCircle
 10
226.7333333333333
 20
18.50855715851498
 30
0.0
 40
0.15
  0
CIRCLE
  5
184
330
142
100
AcDbEntity
  8
基準ﾚｲﾔｸﾞﾙｰﾌﾟ_01
  6
Continuous
 62
     3
370
    35
100
AcDbCircle
 10
221.3666666666667
 20
13.90855715851498
 30
0.0
 40
0.15
  0
CIRCLE
  5
185
330
142
100
AcDbEntity
  8
基準ﾚｲﾔｸﾞﾙｰﾌﾟ_01
  6
Continuous
 62
     3
370
    35
100
AcDbCircle
 10
226.7333333333333
 20
13.90855715851498
 30
0.0
 40
0.15
  0
LINE
  5
186
330
142
100
AcDbEntity
  8
基準ﾚｲﾔｸﾞﾙｰﾌﾟ_01
  6
Continuous
 62
     3
370
    35
100
AcDbLine
 10
210.0
 20
34.99999999999999
 30
0.0
 11
210.0
 21
8.0
 31
0.0
  0
ENDBLK
  5
144
330
142
100
AcDbEntity
  8
0
100
AcDbBlockEnd
  0
BLOCK
  5
19D
330
19C
100
AcDbEntity
  8
0
100
AcDbBlockBegin
  2
BLKF033
 70
     0
 10
0.0
 20
0.0
 30
0.0
  3
BLKF033
  1

  0
LINE
  5
1A0
330
19C
100
AcDbEntity
  8
GR1_01
  6
Continuous
 62
     3
370
    35
100
AcDbLine
 10
161.7122573600837
 20
164.3811659192823
 30
0.0
 11
161.7122573600837
 21
226.3811659192823
 31
0.0
  0
LINE
  5
1A1
330
19C
100
AcDbEntity
  8
GR1_01
  6
Continuous
 62
     3
370
    35
100
AcDbLine
 10
165.2122573600838
 20
156.3811659192823
 30
0.0
 11
165.2122573600837
 21
234.3811659192824
 31
0.0
  0
LINE
  5
1A2
330
19C
100
AcDbEntity
  8
GR1_01
  6
Continuous
 62
     3
370
    35
100
AcDbLine
 10
161.7122573600838
 20
226.3811830861131
 30
0.0
 11
162.1220398854651
 21
226.3811830853102
 31
0.0
  0
LINE
  5
1A3
330
19C
100
AcDbEntity
  8
GR1_01
  6
Continuous
 62
     3
370
    35
100
AcDbLine
 10
171.7122573600837
 20
155.3811659192823
 30
0.0
 11
171.7122573600837
 21
235.3811659192823
 31
0.0
  0
LINE
  5
1A4
330
19C
100
AcDbEntity
  8
GR1_01
  6
Continuous
 62
     3
370
    35
100
AcDbLine
 10
162.1220413412077
 20
164.3811659192823
 30
0.0
 11
161.7122573600837
 21
164.3811659192823
 31
0.0
  0
LINE
  5
1A5
330
19C
100
AcDbEntity
  8
GR1_01
  6
Continuous
 62
     3
370
    35
100
AcDbLine
 10
171.7122573600837
 20
155.3811659192823
 30
0.0
 11
166.2122573600838
 21
155.3811659192823
 31
0.0
  0
LINE
  5
1A6
330
19C
100
AcDbEntity
  8
GR1_01
  6
Continuous
 62
     3
370
    35
100
AcDbLine
 10
171.7122573600837
 20
235.3811659192823
 30
0.0
 11
166.2122573600837
 21
235.3811659192824
 31
0.0
  0
ARC
  5
1A7
330
19C
100
AcDbEntity
  8
GR1_01
  6
Continuous
 62
     3
370
    35
100
AcDbCircle
 10
166.2122573600837
 20
234.3811659192824
 30
0.0
 40
1.0
100
AcDbArc
 50
90.0
 51
180.0
  0
ARC
  5
1A8
330
19C
100
AcDbEntity
  8
GR1_01
  6
Continuous
 62
     3
370
    35
100
AcDbCircle
 10
166.2122573600838
 20
156.3811659192823
 30
0.0
 40
1.0
100
AcDbArc
 50
180.0
 51
270.0
  0
ENDBLK
  5
19E
330
19C
100
AcDbEntity
  8
0
100
AcDbBlockEnd
  0
BLOCK
  5
1AA
330
1A9
100
AcDbEntity
  8
0
100
AcDbBlockBegin
  2
BLKF034
 70
     0
 10
0.0
 20
0.0
 30
0.0
  3
BLKF034
  1

  0
LINE
  5
1AD
330
1A9
100
AcDbEntity
  8
GR1_01
  6
Continuous
 62
     3
370
    35
100
AcDbLine
 10
63.71225736008373
 20
166.8811659192823
 30
0.0
 11
63.71225736008371
 21
223.8811659192823
 31
0.0
  0
LINE
  5
1AE
330
1A9
100
AcDbEntity
  8
GR1_01
  6
Continuous
 62
     3
370
    35
100
AcDbLine
 10
64.71225736008371
 20
165.8650368870242
 30
0.0
 11
64.71225736008373
 21
224.8972949515404
 31
0.0
  0
LINE
  5
1AF
330
1A9
100
AcDbEntity
  8
GR1_01
  6
DASHDOT
 62
     7
370
    13
100
AcDbLine
 10
83.71225736008469
 20
208.3811836285737
 30
0.0
 11
83.71225736008469
 21
141.773229404155
 31
0.0
  0
CIRCLE
  5
1B0
330
1A9
100
AcDbEntity
  8
GR1_01
  6
Continuous
 62
     3
370
    35
100
AcDbCircle
 10
83.71225736008469
 20
195.3811836285738
 30
0.0
 40
8.0
  0
CIRCLE
  5
1B1
330
1A9
100
AcDbEntity
  8
GR1_01
  6
Continuous
 62
     3
370
    35
100
AcDbCircle
 10
83.71225736008469
 20
195.3811836285738
 30
0.0
 40
6.0
  0
CIRCLE
  5
1B2
330
1A9
100
AcDbEntity
  8
GR1_01
  6
Continuous
 62
     7
370
    13
100
AcDbCircle
 10
83.71225736008469
 20
195.3811836285738
 30
0.0
 40
5.5
  0
LINE
  5
1B3
330
1A9
100
AcDbEntity
  8
GR1_01
  6
Continuous
 62
     3
370
    35
100
AcDbLine
 10
86.46225736008469
 20
196.1811866803338
 30
0.0
 11
80.96225736008469
 21
196.1811866803338
 31
0.0
  0
LINE
  5
1B4
330
1A9
100
AcDbEntity
  8
GR1_01
  6
Continuous
 62
     3
370
    35
100
AcDbLine
 10
86.46225736008469
 20
194.5811805768137
 30
0.0
 11
80.96225736008469
 21
194.5811805768137
 31
0.0
  0
LINE
  5
1B5
330
1A9
100
AcDbEntity
  8
GR1_01
  6
Continuous
 62
     3
370
    35
100
AcDbLine
 10
80.96225736008469
 20
196.1811866803338
 30
0.0
 11
80.96225736008469
 21
194.5811805768137
 31
0.0
  0
LINE
  5
1B6
330
1A9
100
AcDbEntity
  8
GR1_01
  6
Continuous
 62
     3
370
    35
100
AcDbLine
 10
86.46225736008469
 20
196.1811866803338
 30
0.0
 11
86.46225736008469
 21
194.5811805768137
 31
0.0
  0
ARC
  5
1B7
330
1A9
100
AcDbEntity
  8
GR1_01
  6
Continuous
 62
     3
370
    35
100
AcDbCircle
 10
69.05340685058661
 20
151.9090936619649
 30
0.0
 40
15.758815765381
100
AcDbArc
 50
332.53620185589
 51
359.9426910704
  0
ARC
  5
1B8
330
1A9
100
AcDbEntity
  8
GR1_01
  6
Continuous
 62
     3
370
    35
100
AcDbCircle
 10
69.05340685058661
 20
151.9090936619649
 30
0.0
 40
13.558834075928
100
AcDbArc
 50
332.53620185589
 51
359.9426910704
  0
ARC
  5
1B9
330
1A9
100
AcDbEntity
  8
GR1_01
  6
Continuous
 62
     3
370
    35
100
AcDbCircle
 10
84.2622386376986
 20
150.9565027195849
 30
0.0
 40
1.0999990701675
100
AcDbArc
 50
60.0003500093
 51
120.00034484876
  0
ARC
  5
1BA
330
1A9
100
AcDbEntity
  8
GR1_01
  6
Continuous
 62
     3
370
    35
100
AcDbCircle
 10
83.16224016357859
 20
150.956487460795
 30
0.0
 40
1.0999990701675
100
AcDbArc
 50
60.0003500093
 51
120.00034484876
  0
ARC
  5
1BB
330
1A9
100
AcDbEntity
  8
GR1_01
  6
Continuous
 62
     3
370
    35
100
AcDbCircle
 10
83.1622325341786
 20
152.861745639505
 30
0.0
 40
1.0999990701675
100
AcDbArc
 50
240.00036184845
 51
300.00034985772
  0
LINE
  5
1BC
330
1A9
100
AcDbEntity
  8
GR1_01
  6
Continuous
 62
     3
370
    35
100
AcDbLine
 10
81.7418071191386
 20
145.314138217625
 30
0.0
 11
80.1246501367186
 21
142.3760660130349
 31
0.0
  0
LINE
  5
1BD
330
1A9
100
AcDbEntity
  8
GR1_01
  6
Continuous
 62
     3
370
    35
100
AcDbLine
 10
82.2307292382786
 20
145.060003085795
 30
0.0
 11
80.6539470117186
 21
142.052587314305
 31
0.0
  0
LINE
  5
1BE
330
1A9
100
AcDbEntity
  8
GR1_01
  6
Continuous
 62
     3
370
    35
100
AcDbLine
 10
82.6288615624986
 20
144.8530481297349
 30
0.0
 11
81.2273723046886
 21
141.773244662945
 31
0.0
  0
LINE
  5
1BF
330
1A9
100
AcDbEntity
  8
GR1_01
  6
Continuous
 62
     3
370
    35
100
AcDbLine
 10
81.0841838281286
 20
145.655935092625
 30
0.0
 11
83.0362407128886
 21
144.6413171727049
 31
0.0
  0
ARC
  5
1C0
330
1A9
100
AcDbEntity
  8
GR1_01
  6
Continuous
 62
     3
370
    35
100
AcDbCircle
 10
98.3710948388686
 20
151.9090936619649
 30
0.0
 40
15.758815765381
100
AcDbArc
 50
202.422068054
 51
207.4638678125
  0
ARC
  5
1C1
330
1A9
100
AcDbEntity
  8
GR1_01
  6
Continuous
 62
     3
370
    35
100
AcDbCircle
 10
98.3710948388686
 20
151.9090936619649
 30
0.0
 40
13.558834075928
100
AcDbArc
 50
179.9999776882
 51
207.4638678125
  0
LINE
  5
1C2
330
1A9
100
AcDbEntity
  8
GR1_01
  6
Continuous
 62
     3
370
    35
100
AcDbLine
 10
85.6826945703086
 20
145.3141077000449
 30
0.0
 11
87.2998668115286
 21
142.3760507542449
 31
0.0
  0
LINE
  5
1C3
330
1A9
100
AcDbEntity
  8
GR1_01
  6
Continuous
 62
     3
370
    35
100
AcDbLine
 10
85.1937724511686
 20
145.059987827005
 30
0.0
 11
86.7705546777386
 21
142.052587314305
 31
0.0
  0
LINE
  5
1C4
330
1A9
100
AcDbEntity
  8
GR1_01
  6
Continuous
 62
     3
370
    35
100
AcDbLine
 10
84.7956401269586
 20
144.8530481297349
 30
0.0
 11
86.1971446435586
 21
141.773229404155
 31
0.0
  0
LINE
  5
1C5
330
1A9
100
AcDbEntity
  8
GR1_01
  6
Continuous
 62
     3
370
    35
100
AcDbLine
 10
86.3403178613286
 20
145.655919833835
 30
0.0
 11
84.3882609765586
 21
144.641301913915
 31
0.0
  0
ARC
  5
1C6
330
1A9
100
AcDbEntity
  8
GR1_01
  6
Continuous
 62
     3
370
    35
100
AcDbCircle
 10
83.1622630517586
 20
155.7739618260249
 30
0.0
 40
1.1000061035156
100
AcDbArc
 50
240.00000667861
 51
299.99999468788
  0
ARC
  5
1C7
330
1A9
100
AcDbEntity
  8
GR1_01
  6
Continuous
 62
     3
370
    35
100
AcDbCircle
 10
84.2622691552786
 20
155.7739618260249
 30
0.0
 40
1.1000061035156
100
AcDbArc
 50
240.00000667861
 51
299.99999468788
  0
ARC
  5
1C8
330
1A9
100
AcDbEntity
  8
GR1_01
  6
Continuous
 62
     3
370
    35
100
AcDbCircle
 10
84.2622691552786
 20
153.8686883885249
 30
0.0
 40
1.1000061035156
100
AcDbArc
 50
60.00000166965199
 51
120.0000033393
  0
LINE
  5
1C9
330
1A9
100
AcDbEntity
  8
GR1_01
  6
Continuous
 62
     3
370
    35
100
AcDbLine
 10
84.81226345561419
 20
165.5408432403221
 30
0.0
 11
84.8122569482386
 21
154.8213251072749
 31
0.0
  0
LINE
  5
1CA
330
1A9
100
AcDbEntity
  8
GR1_01
  6
Continuous
 62
     3
370
    35
100
AcDbLine
 10
82.6122665056348
 20
165.576327062096
 30
0.0
 11
82.6122599999986
 21
154.8213251072749
 31
0.0
  0
LINE
  5
1CB
330
1A9
100
AcDbEntity
  8
GR1_01
  6
Continuous
 62
     3
370
    35
100
AcDbLine
 10
94.71225736008371
 20
165.3811659192823
 30
0.0
 11
94.71225736008374
 21
225.3811659192823
 31
0.0
  0
LINE
  5
1CC
330
1A9
100
AcDbEntity
  8
GR1_01
  6
Continuous
 62
     3
370
    35
100
AcDbLine
 10
94.71225736008375
 20
225.3811659192823
 30
0.0
 11
64.71212731261583
 21
224.8972928540006
 31
0.0
  0
LINE
  5
1CD
330
1A9
100
AcDbEntity
  8
GR1_01
  6
Continuous
 62
     3
370
    35
100
AcDbLine
 10
94.71225736008373
 20
165.3811659192823
 30
0.0
 11
64.71212731261585
 21
165.8650389845641
 31
0.0
  0
LINE
  5
1CE
330
1A9
100
AcDbEntity
  8
GR1_01
  6
Continuous
 62
     3
370
    35
100
AcDbLine
 10
63.71225736008371
 20
223.8811659192823
 30
0.0
 11
64.71212731261583
 21
224.8972928540006
 31
0.0
  0
LINE
  5
1CF
330
1A9
100
AcDbEntity
  8
GR1_01
  6
Continuous
 62
     3
370
    35
100
AcDbLine
 10
63.71225736008373
 20
166.8811659192823
 30
0.0
 11
64.71212731261585
 21
165.8650389845641
 31
0.0
  0
ENDBLK
  5
1AB
330
1A9
100
AcDbEntity
  8
0
100
AcDbBlockEnd
  0
BLOCK
  5
1E1
330
1E0
100
AcDbEntity
  8
0
100
AcDbBlockBegin
  2
BLKF035
 70
     0
 10
0.0
 20
0.0
 30
0.0
  3
BLKF035
  1

  0
CIRCLE
  5
1E4
330
1E0
100
AcDbEntity
  8
GR1_01
  6
Continuous
 62
     3
370
    35
100
AcDbCircle
 10
355.9645217001055
 20
164.3811659192823
 30
0.0
 40
3.5
  0
LINE
  5
1E5
330
1E0
100
AcDbEntity
  8
GR1_01
  6
Continuous
 62
     3
370
    35
100
AcDbLine
 10
355.4645217001055
 20
166.4811659192823
 30
0.0
 11
356.4645217001055
 21
166.4811659192823
 31
0.0
  0
LINE
  5
1E6
330
1E0
100
AcDbEntity
  8
GR1_01
  6
Continuous
 62
     3
370
    35
100
AcDbLine
 10
358.0645217001055
 20
164.8811659192823
 30
0.0
 11
358.0645217001055
 21
163.8811659192823
 31
0.0
  0
LINE
  5
1E7
330
1E0
100
AcDbEntity
  8
GR1_01
  6
Continuous
 62
     3
370
    35
100
AcDbLine
 10
355.4645217001055
 20
162.2811659192823
 30
0.0
 11
356.4645217001055
 21
162.2811659192823
 31
0.0
  0
LINE
  5
1E8
330
1E0
100
AcDbEntity
  8
GR1_01
  6
Continuous
 62
     3
370
    35
100
AcDbLine
 10
353.8645217001055
 20
164.8811659192823
 30
0.0
 11
353.8645217001055
 21
163.8811659192823
 31
0.0
  0
ARC
  5
1E9
330
1E0
100
AcDbEntity
  8
GR1_01
  6
Continuous
 62
     3
370
    35
100
AcDbCircle
 10
358.0645217001055
 20
166.4811659192823
 30
0.0
 40
1.600000000000023
100
AcDbArc
 50
180.0
 51
270.0
  0
ARC
  5
1EA
330
1E0
100
AcDbEntity
  8
GR1_01
  6
Continuous
 62
     3
370
    35
100
AcDbCircle
 10
353.8645217001055
 20
166.4811659192823
 30
0.0
 40
1.600000000000023
100
AcDbArc
 50
270.0
 51
0.0
  0
ARC
  5
1EB
330
1E0
100
AcDbEntity
  8
GR1_01
  6
Continuous
 62
     3
370
    35
100
AcDbCircle
 10
353.8645217001055
 20
162.2811659192823
 30
0.0
 40
1.600000000000023
100
AcDbArc
 50
0.0
 51
90.0
  0
ARC
  5
1EC
330
1E0
100
AcDbEntity
  8
GR1_01
  6
Continuous
 62
     3
370
    35
100
AcDbCircle
 10
358.0645217001055
 20
162.2811659192823
 30
0.0
 40
1.600000000000023
100
AcDbArc
 50
90.0
 51
180.0
  0
ENDBLK
  5
1E2
330
1E0
100
AcDbEntity
  8
0
100
AcDbBlockEnd
  0
BLOCK
  5
1F0
330
1EF
100
AcDbEntity
  8
0
100
AcDbBlockBegin
  2
BLKF036
 70
     0
 10
0.0
 20
0.0
 30
0.0
  3
BLKF036
  1

  0
CIRCLE
  5
1F3
330
1EF
100
AcDbEntity
  8
GR1_01
  6
Continuous
 62
     3
370
    35
100
AcDbCircle
 10
382.8113092174231
 20
210.8811659192822
 30
0.0
 40
3.5
  0
LINE
  5
1F4
330
1EF
100
AcDbEntity
  8
GR1_01
  6
Continuous
 62
     3
370
    35
100
AcDbLine
 10
381.2426558694758
 20
209.39815321739
 30
0.0
 11
380.7426558694759
 21
210.2641786211745
 31
0.0
  0
LINE
  5
1F5
330
1EF
100
AcDbEntity
  8
GR1_01
  6
Continuous
 62
     3
370
    35
100
AcDbLine
 10
381.328296515531
 20
212.4498192672296
 30
0.0
 11
382.1943219193154
 21
212.9498192672296
 31
0.0
  0
LINE
  5
1F6
330
1EF
100
AcDbEntity
  8
GR1_01
  6
Continuous
 62
     3
370
    35
100
AcDbLine
 10
384.8799625653704
 20
211.49815321739
 30
0.0
 11
384.3799625653705
 21
212.3641786211745
 31
0.0
  0
LINE
  5
1F7
330
1EF
100
AcDbEntity
  8
GR1_01
  6
Continuous
 62
     3
370
    35
100
AcDbLine
 10
383.4282965155309
 20
208.8125125713349
 30
0.0
 11
384.2943219193153
 21
209.3125125713349
 31
0.0
  0
ARC
  5
1F8
330
1EF
100
AcDbEntity
  8
GR1_01
  6
Continuous
 62
     3
370
    35
100
AcDbCircle
 10
379.9426558694759
 20
211.6498192672296
 30
0.0
 40
1.600000000000023
100
AcDbArc
 50
300.0
 51
30.00000000000002
  0
ARC
  5
1F9
330
1EF
100
AcDbEntity
  8
GR1_01
  6
Continuous
 62
     3
370
    35
100
AcDbCircle
 10
382.0426558694758
 20
208.0125125713349
 30
0.0
 40
1.600000000000023
100
AcDbArc
 50
30.0
 51
120.0
  0
ARC
  5
1FA
330
1EF
100
AcDbEntity
  8
GR1_01
  6
Continuous
 62
     3
370
    35
100
AcDbCircle
 10
385.6799625653704
 20
210.1125125713349
 30
0.0
 40
1.600000000000023
100
AcDbArc
 50
120.0
 51
210.0
  0
ARC
  5
1FB
330
1EF
100
AcDbEntity
  8
GR1_01
  6
Continuous
 62
     3
370
    35
100
AcDbCircle
 10
383.5799625653705
 20
213.7498192672296
 30
0.0
 40
1.600000000000023
100
AcDbArc
 50
210.0
 51
300.0
  0
ENDBLK
  5
1F1
330
1EF
100
AcDbEntity
  8
0
100
AcDbBlockEnd
  0
BLOCK
  5
200
330
1FF
100
AcDbEntity
  8
0
100
AcDbBlockBegin
  2
BLKF037
 70
     0
 10
0.0
 20
0.0
 30
0.0
  3
BLKF037
  1

  0
CIRCLE
  5
203
330
1FF
100
AcDbEntity
  8
GR1_01
  6
Continuous
 62
     3
370
    35
100
AcDbCircle
 10
329.117734182788
 20
210.8811659192822
 30
0.0
 40
3.5
  0
LINE
  5
204
330
1FF
100
AcDbEntity
  8
GR1_01
  6
Continuous
 62
     3
370
    35
100
AcDbLine
 10
330.6863875307353
 20
209.39815321739
 30
0.0
 11
331.1863875307352
 21
210.2641786211745
 31
0.0
  0
LINE
  5
205
330
1FF
100
AcDbEntity
  8
GR1_01
  6
Continuous
 62
     3
370
    35
100
AcDbLine
 10
330.6007468846801
 20
212.4498192672296
 30
0.0
 11
329.7347214808957
 21
212.9498192672296
 31
0.0
  0
LINE
  5
206
330
1FF
100
AcDbEntity
  8
GR1_01
  6
Continuous
 62
     3
370
    35
100
AcDbLine
 10
327.0490808348407
 20
211.49815321739
 30
0.0
 11
327.5490808348406
 21
212.3641786211745
 31
0.0
  0
LINE
  5
207
330
1FF
100
AcDbEntity
  8
GR1_01
  6
Continuous
 62
     3
370
    35
100
AcDbLine
 10
328.5007468846802
 20
208.8125125713349
 30
0.0
 11
327.6347214808957
 21
209.3125125713349
 31
0.0
  0
ARC
  5
208
330
1FF
100
AcDbEntity
  8
GR1_01
  6
Continuous
 62
     3
370
    35
100
AcDbCircle
 10
331.9863875307352
 20
211.6498192672296
 30
0.0
 40
1.600000000000023
100
AcDbArc
 50
149.9999999999995
 51
240.0
  0
ARC
  5
209
330
1FF
100
AcDbEntity
  8
GR1_01
  6
Continuous
 62
     3
370
    35
100
AcDbCircle
 10
329.8863875307352
 20
208.0125125713349
 30
0.0
 40
1.600000000000023
100
AcDbArc
 50
60.00000000000001
 51
149.9999999999995
  0
ARC
  5
20A
330
1FF
100
AcDbEntity
  8
GR1_01
  6
Continuous
 62
     3
370
    35
100
AcDbCircle
 10
326.2490808348406
 20
210.1125125713349
 30
0.0
 40
1.600000000000023
100
AcDbArc
 50
329.9999999999995
 51
59.99999999999999
  0
ARC
  5
20B
330
1FF
100
AcDbEntity
  8
GR1_01
  6
Continuous
 62
     3
370
    35
100
AcDbCircle
 10
328.3490808348406
 20
213.7498192672296
 30
0.0
 40
1.600000000000023
100
AcDbArc
 50
240.0
 51
329.9999999999995
  0
ENDBLK
  5
201
330
1FF
100
AcDbEntity
  8
0
100
AcDbBlockEnd
  0
BLOCK
  5
2A7
330
2A6
100
AcDbEntity
  8
0
100
AcDbBlockBegin
  2
BLKF038
 70
     0
 10
0.0
 20
0.0
 30
0.0
  3
BLKF038
  1

  0
LINE
  5
2AA
330
2A6
100
AcDbEntity
  8
GR1_01
  6
Continuous
 62
     3
370
    35
100
AcDbLine
 10
94.71225736008373
 20
226.3811659192823
 30
0.0
 11
94.71225736008374
 21
164.3811659192823
 31
0.0
  0
LINE
  5
2AB
330
2A6
100
AcDbEntity
  8
GR1_01
  6
Continuous
 62
     3
370
    35
100
AcDbLine
 10
161.7122573600837
 20
226.3811659192823
 30
0.0
 11
161.7122573600837
 21
164.3811659192823
 31
0.0
  0
INSERT
  5
2AF
330
2A6
100
AcDbEntity
  8
GR1_01
  6
Continuous
 62
     7
370
    13
100
AcDbBlockReference
  2
BLKF039
 10
0.0
 20
0.0
 30
0.0
  0
LINE
  5
2B6
330
2A6
100
AcDbEntity
  8
GR1_01
  6
Continuous
 62
     3
370
    35
100
AcDbLine
 10
161.7122573600837
 20
164.3811659192823
 30
0.0
 11
94.71225736008373
 21
164.3811659192823
 31
0.0
  0
LINE
  5
2B7
330
2A6
100
AcDbEntity
  8
GR1_01
  6
Continuous
 62
     3
370
    35
100
AcDbLine
 10
161.7122573600837
 20
226.3811659192823
 30
0.0
 11
94.71225736008374
 21
226.3811659192823
 31
0.0
  0
ENDBLK
  5
2A8
330
2A6
100
AcDbEntity
  8
0
100
AcDbBlockEnd
  0
BLOCK
  5
2AD
330
2AC
100
AcDbEntity
  8
0
100
AcDbBlockBegin
  2
BLKF039
 70
     0
 10
0.0
 20
0.0
 30
0.0
  3
BLKF039
  1

  0
LINE
  5
2B0
330
2AC
100
AcDbEntity
  8
GR1_01
  6
Continuous
 62
     7
370
    13
100
AcDbLine
 10
112.2122573600838
 20
226.3811659192824
 30
0.0
 11
112.2122573600838
 21
215.3811659192823
 31
0.0
  0
LINE
  5
2B1
330
2AC
100
AcDbEntity
  8
GR1_01
  6
Continuous
 62
     7
370
    13
100
AcDbLine
 10
113.2122573600838
 20
214.3811659192823
 30
0.0
 11
143.2122726188738
 21
214.3811659192823
 31
0.0
  0
LINE
  5
2B2
330
2AC
100
AcDbEntity
  8
GR1_01
  6
Continuous
 62
     7
370
    13
100
AcDbLine
 10
144.2122726188738
 20
215.3811659192823
 30
0.0
 11
144.212255956824
 21
226.3811659192824
 31
0.0
  0
ARC
  5
2B3
330
2AC
100
AcDbEntity
  8
GR1_01
  6
Continuous
 62
     7
370
    13
100
AcDbCircle
 10
113.2122573600838
 20
215.3811659192823
 30
0.0
 40
1.0
100
AcDbArc
 50
180.00001866933
 51
270.0000280039999
  0
ARC
  5
2B4
330
2AC
100
AcDbEntity
  8
GR1_01
  6
Continuous
 62
     7
370
    13
100
AcDbCircle
 10
143.2122726188738
 20
215.3811659192823
 30
0.0
 40
1.0
100
AcDbArc
 50
270.0000280039999
 51
359.9426910704
  0
TEXT
  5
2B5
330
2AC
100
AcDbEntity
  8
GR1_01
  6
Continuous
 62
     7
370
    13
100
AcDbText
 10
126.1962127685547
 20
224.1666259765625
 30
0.0
 40
3.5
  1
ＮＰ
 50
270.0000076293945
 41
1.272727272727274
 51
10.0
  7
FX_VECTOR
 72
     5
 11
126.1962137006611
 21
217.1666259765626
 31
0.0
100
AcDbText
  0
ENDBLK
  5
2AE
330
2AC
100
AcDbEntity
  8
0
100
AcDbBlockEnd
  0
BLOCK
  5
320
330
31F
100
AcDbEntity
  8
0
100
AcDbBlockBegin
  2
BLKF040
 70
     0
 10
0.0
 20
0.0
 30
0.0
  3
BLKF040
  1

  0
LINE
  5
323
330
31F
100
AcDbEntity
  8
GR1_01
  6
Continuous
 62
     3
370
    35
100
AcDbLine
 10
218.3549917701756
 20
233.2339887977317
 30
0.0
 11
218.7122573600838
 21
232.6151866442147
 31
0.0
  0
LINE
  5
324
330
31F
100
AcDbEntity
  8
GR1_01
  6
Continuous
 62
     3
370
    35
100
AcDbLine
 10
218.7122573600838
 20
232.6151866442147
 30
0.0
 11
218.7122573600838
 21
224.6151866442147
 31
0.0
  0
LINE
  5
325
330
31F
100
AcDbEntity
  8
GR1_01
  6
Continuous
 62
     3
370
    35
100
AcDbLine
 10
218.7122573600838
 20
224.6151866442147
 30
0.0
 11
218.3549917701756
 21
223.9963844906977
 31
0.0
  0
ARC
  5
326
330
31F
100
AcDbEntity
  8
GR1_01
  6
Continuous
 62
     3
370
    35
100
AcDbCircle
 10
216.6675991613453
 20
232.0792882593525
 30
0.0
 40
2.044658198738527
100
AcDbArc
 50
325.6157525319574
 51
34.3842474680419
  0
ARC
  5
327
330
31F
100
AcDbEntity
  8
GR1_01
  6
Continuous
 62
     3
370
    35
100
AcDbCircle
 10
211.0695229499921
 20
228.6151866442147
 30
0.0
 40
7.642734410091656
100
AcDbArc
 50
342.4120462260061
 51
17.58795377399429
  0
ARC
  5
328
330
31F
100
AcDbEntity
  8
GR1_01
  6
Continuous
 62
     3
370
    35
100
AcDbCircle
 10
216.6675991613453
 20
225.1510850290769
 30
0.0
 40
2.044658198738527
100
AcDbArc
 50
325.6157525319574
 51
34.3842474680419
  0
LINE
  5
329
330
31F
100
AcDbEntity
  8
GR1_01
  6
Continuous
 62
     3
370
    35
100
AcDbLine
 10
218.3549917701756
 20
223.9963844906977
 30
0.0
 11
214.7122573600838
 21
223.9963844906977
 31
0.0
  0
LINE
  5
32A
330
31F
100
AcDbEntity
  8
GR1_01
  6
Continuous
 62
     3
370
    35
100
AcDbLine
 10
214.7122573600838
 20
223.9963844906977
 30
0.0
 11
214.7122573600838
 21
233.2339887977317
 31
0.0
  0
LINE
  5
32B
330
31F
100
AcDbEntity
  8
GR1_01
  6
Continuous
 62
     3
370
    35
100
AcDbLine
 10
214.7122573600838
 20
233.2339887977317
 30
0.0
 11
218.3549917701756
 21
233.2339887977317
 31
0.0
  0
LINE
  5
32C
330
31F
100
AcDbEntity
  8
GR1_01
  6
Continuous
 62
     3
370
    35
100
AcDbLine
 10
218.3549917701756
 20
230.9245877209732
 30
0.0
 11
214.7122573600838
 21
230.9245877209732
 31
0.0
  0
LINE
  5
32D
330
31F
100
AcDbEntity
  8
GR1_01
  6
Continuous
 62
     3
370
    35
100
AcDbLine
 10
218.3549917701756
 20
226.3057855674562
 30
0.0
 11
214.7122573600838
 21
226.3057855674562
 31
0.0
  0
LINE
  5
32E
330
31F
100
AcDbEntity
  8
GR1_01
  6
Continuous
 62
     3
370
    35
100
AcDbLine
 10
214.7122573600838
 20
233.6151866442147
 30
0.0
 11
214.7122573600838
 21
223.6151866442147
 31
0.0
  0
LINE
  5
32F
330
31F
100
AcDbEntity
  8
GR1_01
  6
Continuous
 62
     3
370
    35
100
AcDbLine
 10
214.7122573600838
 20
223.6151866442147
 30
0.0
 11
213.7122573600838
 21
223.6151866442147
 31
0.0
  0
LINE
  5
330
330
31F
100
AcDbEntity
  8
GR1_01
  6
Continuous
 62
     3
370
    35
100
AcDbLine
 10
213.7122573600838
 20
223.6151866442147
 30
0.0
 11
213.7122573600838
 21
233.6151866442147
 31
0.0
  0
LINE
  5
331
330
31F
100
AcDbEntity
  8
GR1_01
  6
Continuous
 62
     3
370
    35
100
AcDbLine
 10
213.7122573600838
 20
233.6151866442147
 30
0.0
 11
214.7122573600838
 21
233.6151866442147
 31
0.0
  0
ENDBLK
  5
321
330
31F
100
AcDbEntity
  8
0
100
AcDbBlockEnd
  0
BLOCK
  5
333
330
332
100
AcDbEntity
  8
0
100
AcDbBlockBegin
  2
BLKF041
 70
     0
 10
0.0
 20
0.0
 30
0.0
  3
BLKF041
  1

  0
LINE
  5
336
330
332
100
AcDbEntity
  8
GR1_01
  6
Continuous
 62
     3
370
    35
100
AcDbLine
 10
218.3549927375353
 20
166.7659474461066
 30
0.0
 11
218.7122581978418
 21
166.1471452177641
 31
0.0
  0
LINE
  5
337
330
332
100
AcDbEntity
  8
GR1_01
  6
Continuous
 62
     3
370
    35
100
AcDbLine
 10
218.7122581978418
 20
166.1471452177641
 30
0.0
 11
218.7122565223257
 21
158.1471452177643
 31
0.0
  0
LINE
  5
338
330
332
100
AcDbEntity
  8
GR1_01
  6
Continuous
 62
     3
370
    35
100
AcDbLine
 10
218.7122565223257
 20
158.1471452177643
 30
0.0
 11
218.3549908028159
 21
157.5283431390728
 31
0.0
  0
ARC
  5
339
330
332
100
AcDbEntity
  8
GR1_01
  6
Continuous
 62
     3
370
    35
100
AcDbCircle
 10
216.667599886865
 20
165.6112472611341
 30
0.0
 40
2.044658198738504
100
AcDbArc
 50
325.6157405319569
 51
34.38423546804231
  0
ARC
  5
33A
330
332
100
AcDbEntity
  8
GR1_01
  6
Continuous
 62
     3
370
    35
100
AcDbCircle
 10
211.0695229499923
 20
162.1471468184548
 30
0.0
 40
7.642734410091656
100
AcDbArc
 50
342.4120342260061
 51
17.58794177399424
  0
ARC
  5
33B
330
332
100
AcDbEntity
  8
GR1_01
  6
Continuous
 62
     3
370
    35
100
AcDbCircle
 10
216.6675984358256
 20
158.6830440308588
 30
0.0
 40
2.044658198738504
100
AcDbArc
 50
325.6157405319569
 51
34.38423546804231
  0
LINE
  5
33C
330
332
100
AcDbEntity
  8
GR1_01
  6
Continuous
 62
     3
370
    35
100
AcDbLine
 10
218.3549908028159
 20
157.5283431390728
 30
0.0
 11
214.7122563927242
 21
157.5283439020053
 31
0.0
  0
LINE
  5
33D
330
332
100
AcDbEntity
  8
GR1_01
  6
Continuous
 62
     3
370
    35
100
AcDbLine
 10
214.7122563927242
 20
157.5283439020053
 30
0.0
 11
214.7122583274435
 21
166.7659482090392
 31
0.0
  0
LINE
  5
33E
330
332
100
AcDbEntity
  8
GR1_01
  6
Continuous
 62
     3
370
    35
100
AcDbLine
 10
214.7122583274435
 20
166.7659482090392
 30
0.0
 11
218.3549927375353
 21
166.7659474461066
 31
0.0
  0
LINE
  5
33F
330
332
100
AcDbEntity
  8
GR1_01
  6
Continuous
 62
     3
370
    35
100
AcDbLine
 10
218.3549922538554
 20
164.4565463693482
 30
0.0
 11
214.7122578437637
 21
164.4565471322807
 31
0.0
  0
LINE
  5
340
330
332
100
AcDbEntity
  8
GR1_01
  6
Continuous
 62
     3
370
    35
100
AcDbLine
 10
218.3549912864958
 20
159.8377442158313
 30
0.0
 11
214.712256876404
 21
159.8377449787638
 31
0.0
  0
LINE
  5
341
330
332
100
AcDbEntity
  8
GR1_01
  6
Continuous
 62
     3
370
    35
100
AcDbLine
 10
214.7122584072814
 20
167.1471460555221
 30
0.0
 11
214.7122563128863
 21
157.1471460555223
 31
0.0
  0
LINE
  5
342
330
332
100
AcDbEntity
  8
GR1_01
  6
Continuous
 62
     3
370
    35
100
AcDbLine
 10
214.7122563128863
 20
157.1471460555223
 30
0.0
 11
213.7122563128863
 21
157.1471462649619
 31
0.0
  0
LINE
  5
343
330
332
100
AcDbEntity
  8
GR1_01
  6
Continuous
 62
     3
370
    35
100
AcDbLine
 10
213.7122563128863
 20
157.1471462649619
 30
0.0
 11
213.7122584072814
 21
167.1471462649616
 31
0.0
  0
LINE
  5
344
330
332
100
AcDbEntity
  8
GR1_01
  6
Continuous
 62
     3
370
    35
100
AcDbLine
 10
213.7122584072814
 20
167.1471462649616
 30
0.0
 11
214.7122584072814
 21
167.1471460555221
 31
0.0
  0
ENDBLK
  5
334
330
332
100
AcDbEntity
  8
0
100
AcDbBlockEnd
  0
BLOCK
  5
346
330
345
100
AcDbEntity
  8
0
100
AcDbBlockBegin
  2
BLKF042
 70
     0
 10
0.0
 20
0.0
 30
0.0
  3
BLKF042
  1

  0
LINE
  5
349
330
345
100
AcDbEntity
  8
GR1_01
  6
Continuous
 62
     3
370
    35
100
AcDbLine
 10
165.2122573600838
 20
224.1151866442148
 30
0.0
 11
163.8207605662081
 21
224.1881119010613
 31
0.0
  0
LINE
  5
34A
330
345
100
AcDbEntity
  8
GR1_01
  6
Continuous
 62
     3
370
    35
100
AcDbLine
 10
165.2122573600838
 20
233.1151866442148
 30
0.0
 11
163.8207605662081
 21
233.0422613873683
 31
0.0
  0
LINE
  5
34B
330
345
100
AcDbEntity
  8
GR1_01
  6
Continuous
 62
     3
370
    35
100
AcDbLine
 10
165.2122573600838
 20
224.1151866442148
 30
0.0
 11
165.2122573600838
 21
233.1151866442148
 31
0.0
  0
ARC
  5
34C
330
345
100
AcDbEntity
  8
GR1_01
  6
Continuous
 62
     3
370
    35
100
AcDbCircle
 10
163.9044980961968
 20
225.7859191566686
 30
0.0
 40
1.6
100
AcDbArc
 50
195.7859896410124
 51
266.9999999999994
  0
ARC
  5
34D
330
345
100
AcDbEntity
  8
GR1_01
  6
Continuous
 62
     3
370
    35
100
AcDbCircle
 10
163.9044980961968
 20
231.4444541317609
 30
0.0
 40
1.6
100
AcDbArc
 50
93.00000000000053
 51
164.2140103589876
  0
ARC
  5
34E
330
345
100
AcDbEntity
  8
GR1_01
  6
Continuous
 62
     3
370
    35
100
AcDbCircle
 10
173.9122573600837
 20
228.6151866442148
 30
0.0
 40
12.0
100
AcDbArc
 50
164.2140103589876
 51
195.7859896410124
  0
LINE
  5
34F
330
345
100
AcDbEntity
  8
GR1_01
  6
Continuous
 62
     3
370
    35
100
AcDbLine
 10
218.7122573600838
 20
226.1151866442147
 30
0.0
 11
229.4122573600837
 21
226.1151866442148
 31
0.0
  0
LINE
  5
350
330
345
100
AcDbEntity
  8
GR1_01
  6
Continuous
 62
     3
370
    35
100
AcDbLine
 10
218.7122573600838
 20
231.1151866442147
 30
0.0
 11
229.4122573600837
 21
231.1151866442148
 31
0.0
  0
LINE
  5
351
330
345
100
AcDbEntity
  8
GR1_01
  6
Continuous
 62
     3
370
    35
100
AcDbLine
 10
230.2122573600838
 20
226.9151866442148
 30
0.0
 11
230.2122573600838
 21
230.3151866442147
 31
0.0
  0
LINE
  5
352
330
345
100
AcDbEntity
  8
GR1_01
  6
Continuous
 62
     7
370
    13
100
AcDbLine
 10
218.7122573600838
 20
226.6151866442148
 30
0.0
 11
229.9122573600837
 21
226.6151866442148
 31
0.0
  0
LINE
  5
353
330
345
100
AcDbEntity
  8
GR1_01
  6
Continuous
 62
     7
370
    13
100
AcDbLine
 10
218.7122573600838
 20
230.6151866442148
 30
0.0
 11
229.9122573600838
 21
230.6151866442148
 31
0.0
  0
LINE
  5
354
330
345
100
AcDbEntity
  8
GR1_01
  6
Continuous
 62
     3
370
    35
100
AcDbLine
 10
230.2122573600838
 20
230.3151866442147
 30
0.0
 11
229.4122573600837
 21
231.1151866442148
 31
0.0
  0
LINE
  5
355
330
345
100
AcDbEntity
  8
GR1_01
  6
Continuous
 62
     3
370
    35
100
AcDbLine
 10
229.4122573600837
 20
226.1151866442148
 30
0.0
 11
230.2122573600838
 21
226.9151866442148
 31
0.0
  0
LINE
  5
356
330
345
100
AcDbEntity
  8
GR1_01
  6
Continuous
 62
     3
370
    35
100
AcDbLine
 10
229.4122573600837
 20
226.1151866442148
 30
0.0
 11
229.4122573600837
 21
231.1151866442148
 31
0.0
  0
ENDBLK
  5
347
330
345
100
AcDbEntity
  8
0
100
AcDbBlockEnd
  0
BLOCK
  5
358
330
357
100
AcDbEntity
  8
0
100
AcDbBlockBegin
  2
BLKF043
 70
     0
 10
0.0
 20
0.0
 30
0.0
  3
BLKF043
  1

  0
LINE
  5
35B
330
357
100
AcDbEntity
  8
GR1_01
  6
Continuous
 62
     3
370
    35
100
AcDbLine
 10
165.212256417606
 20
157.6471564996612
 30
0.0
 11
163.8207596390039
 21
157.7200820479422
 31
0.0
  0
LINE
  5
35C
330
357
100
AcDbEntity
  8
GR1_01
  6
Continuous
 62
     3
370
    35
100
AcDbLine
 10
165.2122583025616
 20
166.6471564996611
 30
0.0
 11
163.8207614934126
 21
166.574231534249
 31
0.0
  0
LINE
  5
35D
330
357
100
AcDbEntity
  8
GR1_01
  6
Continuous
 62
     3
370
    35
100
AcDbLine
 10
165.212256417606
 20
157.6471564996612
 30
0.0
 11
165.2122583025616
 21
166.6471564996611
 31
0.0
  0
ARC
  5
35E
330
357
100
AcDbEntity
  8
GR1_01
  6
Continuous
 62
     3
370
    35
100
AcDbCircle
 10
163.9044975036365
 20
159.3178892860115
 30
0.0
 40
1.6
100
AcDbArc
 50
195.7859776410124
 51
266.9999879999995
  0
ARC
  5
35F
330
357
100
AcDbEntity
  8
GR1_01
  6
Continuous
 62
     3
370
    35
100
AcDbCircle
 10
163.9044986887573
 20
164.9764242611037
 30
0.0
 40
1.6
100
AcDbArc
 50
92.99998800000054
 51
164.2139983589876
  0
ARC
  5
360
330
357
100
AcDbEntity
  8
GR1_01
  6
Continuous
 62
     3
370
    35
100
AcDbCircle
 10
173.9122573600836
 20
162.1471546775374
 30
0.0
 40
12.0
100
AcDbArc
 50
164.2139983589876
 51
195.7859776410124
  0
LINE
  5
361
330
357
100
AcDbEntity
  8
GR1_01
  6
Continuous
 62
     3
370
    35
100
AcDbLine
 10
218.712256836485
 20
159.6471452946474
 30
0.0
 11
229.4122568364836
 21
159.6471430536446
 31
0.0
  0
LINE
  5
362
330
357
100
AcDbEntity
  8
GR1_01
  6
Continuous
 62
     3
370
    35
100
AcDbLine
 10
218.7122578836826
 20
164.6471452946473
 30
0.0
 11
229.4122578836812
 21
164.6471430536445
 31
0.0
  0
LINE
  5
363
330
357
100
AcDbEntity
  8
GR1_01
  6
Continuous
 62
     3
370
    35
100
AcDbLine
 10
230.2122570040352
 20
160.447142886093
 30
0.0
 11
230.2122577161296
 21
163.8471428860929
 31
0.0
  0
LINE
  5
364
330
357
100
AcDbEntity
  8
GR1_01
  6
Continuous
 62
     7
370
    13
100
AcDbLine
 10
218.7122569412047
 20
160.1471452946474
 30
0.0
 11
229.9122569412033
 21
160.1471429489249
 31
0.0
  0
LINE
  5
365
330
357
100
AcDbEntity
  8
GR1_01
  6
Continuous
 62
     7
370
    13
100
AcDbLine
 10
218.7122577789628
 20
164.1471452946473
 30
0.0
 11
229.9122577789614
 21
164.1471429489248
 31
0.0
  0
LINE
  5
366
330
357
100
AcDbEntity
  8
GR1_01
  6
Continuous
 62
     3
370
    35
100
AcDbLine
 10
230.2122577161296
 20
163.8471428860929
 30
0.0
 11
229.4122578836812
 21
164.6471430536445
 31
0.0
  0
LINE
  5
367
330
357
100
AcDbEntity
  8
GR1_01
  6
Continuous
 62
     3
370
    35
100
AcDbLine
 10
229.4122568364836
 20
159.6471430536446
 30
0.0
 11
230.2122570040352
 21
160.447142886093
 31
0.0
  0
LINE
  5
368
330
357
100
AcDbEntity
  8
GR1_01
  6
Continuous
 62
     3
370
    35
100
AcDbLine
 10
229.4122568364836
 20
159.6471430536446
 30
0.0
 11
229.4122578836812
 21
164.6471430536445
 31
0.0
  0
ENDBLK
  5
359
330
357
100
AcDbEntity
  8
0
100
AcDbBlockEnd
  0
BLOCK
  5
36A
330
369
100
AcDbEntity
  8
0
100
AcDbBlockBegin
  2
BLKF044
 70
     0
 10
0.0
 20
0.0
 30
0.0
  3
BLKF044
  1

  0
LINE
  5
36D
330
369
100
AcDbEntity
  8
GR1_01
  6
Continuous
 62
     3
370
    35
100
AcDbLine
 10
245.7122582289123
 20
205.3811626611775
 30
0.0
 11
219.7122573600838
 21
205.3811626611775
 31
0.0
  0
LINE
  5
36E
330
369
100
AcDbEntity
  8
GR1_01
  6
Continuous
 62
     3
370
    35
100
AcDbLine
 10
245.7122582289123
 20
215.3811626611775
 30
0.0
 11
219.7122573600838
 21
215.3811626611775
 31
0.0
  0
LINE
  5
36F
330
369
100
AcDbEntity
  8
GR1_01
  6
Continuous
 62
     3
370
    35
100
AcDbLine
 10
245.7122582289123
 20
208.3811626611775
 30
0.0
 11
222.7122582289123
 21
208.3811626611775
 31
0.0
  0
LINE
  5
370
330
369
100
AcDbEntity
  8
GR1_01
  6
Continuous
 62
     3
370
    35
100
AcDbLine
 10
245.7122582289123
 20
212.3811626611774
 30
0.0
 11
222.7122582289123
 21
212.3811626611775
 31
0.0
  0
ARC
  5
371
330
369
100
AcDbEntity
  8
GR1_01
  6
Continuous
 62
     3
370
    35
100
AcDbCircle
 10
222.7122582289123
 20
210.3811626611775
 30
0.0
 40
1.999999999999972
100
AcDbArc
 50
90.0
 51
270.0
  0
LINE
  5
372
330
369
100
AcDbEntity
  8
GR1_01
  6
DASHDOT
 62
     7
370
    13
100
AcDbLine
 10
248.7122582289123
 20
210.3811626611775
 30
0.0
 11
207.7122573600838
 21
210.3811626611775
 31
0.0
  0
LINE
  5
373
330
369
100
AcDbEntity
  8
GR1_01
  6
Continuous
 62
     3
370
    35
100
AcDbLine
 10
245.7122582289123
 20
205.3811626611774
 30
0.0
 11
245.7122582289123
 21
215.3811626611774
 31
0.0
  0
LINE
  5
374
330
369
100
AcDbEntity
  8
GR1_01
  6
Continuous
 62
     3
370
    35
100
AcDbLine
 10
171.7122573600838
 20
155.3811659192823
 30
0.0
 11
171.7122573600837
 21
235.3811659192823
 31
0.0
  0
LINE
  5
375
330
369
100
AcDbEntity
  8
GR1_01
  6
Continuous
 62
     3
370
    35
100
AcDbLine
 10
213.7122573600838
 20
156.3811659192823
 30
0.0
 11
213.7122573600837
 21
234.3811659192823
 31
0.0
  0
LINE
  5
376
330
369
100
AcDbEntity
  8
GR1_01
  6
Continuous
 62
     3
370
    35
100
AcDbLine
 10
212.7122573600838
 20
155.3811659192823
 30
0.0
 11
171.7122573600837
 21
155.3811659192823
 31
0.0
  0
LINE
  5
377
330
369
100
AcDbEntity
  8
GR1_01
  6
Continuous
 62
     3
370
    35
100
AcDbLine
 10
212.7122573600837
 20
235.3811659192823
 30
0.0
 11
171.7122573600838
 21
235.3811659192823
 31
0.0
  0
LINE
  5
378
330
369
100
AcDbEntity
  8
GR1_01
  6
Continuous
 62
     3
370
    35
100
AcDbLine
 10
219.7122573600838
 20
196.3811626611775
 30
0.0
 11
219.7122573600838
 21
224.3811626611775
 31
0.0
  0
LINE
  5
379
330
369
100
AcDbEntity
  8
GR1_01
  6
Continuous
 62
     3
370
    35
100
AcDbLine
 10
218.7122573600838
 20
195.3811626611775
 30
0.0
 11
213.7122573600838
 21
195.3811626611775
 31
0.0
  0
ARC
  5
37A
330
369
100
AcDbEntity
  8
GR1_01
  6
Continuous
 62
     3
370
    35
100
AcDbCircle
 10
212.7122573600837
 20
234.3811659192823
 30
0.0
 40
1.0
100
AcDbArc
 50
0.0
 51
90.0
  0
ARC
  5
37B
330
369
100
AcDbEntity
  8
GR1_01
  6
Continuous
 62
     3
370
    35
100
AcDbCircle
 10
212.7122573600838
 20
156.3811659192823
 30
0.0
 40
1.0
100
AcDbArc
 50
270.0
 51
0.0
  0
ARC
  5
37C
330
369
100
AcDbEntity
  8
GR1_01
  6
Continuous
 62
     3
370
    35
100
AcDbCircle
 10
218.7122573600838
 20
196.3811626611775
 30
0.0
 40
1.0
100
AcDbArc
 50
270.0
 51
0.0
  0
ARC
  5
37D
330
369
100
AcDbEntity
  8
GR1_01
  6
Continuous
 62
     3
370
    35
100
AcDbCircle
 10
218.7122573600838
 20
224.3811626611775
 30
0.0
 40
1.0
100
AcDbArc
 50
0.0
 51
90.00000000000162
  0
ENDBLK
  5
36B
330
369
100
AcDbEntity
  8
0
100
AcDbBlockEnd
  0
BLOCK
  5
37F
330
37E
100
AcDbEntity
  8
0
100
AcDbBlockBegin
  2
BLKF045
 70
     0
 10
0.0
 20
0.0
 30
0.0
  3
BLKF045
  1

  0
LINE
  5
382
330
37E
100
AcDbEntity
  8
GR1_01
  6
Continuous
 62
     3
370
    35
100
AcDbLine
 10
322.7305029843378
 20
223.9963824815331
 30
0.0
 11
326.7305029843378
 21
226.3057835582916
 31
0.0
  0
LINE
  5
383
330
37E
100
AcDbEntity
  8
GR1_01
  6
Continuous
 62
     3
370
    35
100
AcDbLine
 10
326.7305029843378
 20
226.3057835582916
 30
0.0
 11
326.7305029843378
 21
230.9245857118086
 31
0.0
  0
LINE
  5
384
330
37E
100
AcDbEntity
  8
GR1_01
  6
Continuous
 62
     3
370
    35
100
AcDbLine
 10
326.7305029843378
 20
230.9245857118086
 30
0.0
 11
322.7305029843378
 21
233.2339867885671
 31
0.0
  0
LINE
  5
385
330
37E
100
AcDbEntity
  8
GR1_01
  6
Continuous
 62
     3
370
    35
100
AcDbLine
 10
322.7305029843378
 20
233.2339867885671
 30
0.0
 11
318.7305029843378
 21
230.9245857118086
 31
0.0
  0
LINE
  5
386
330
37E
100
AcDbEntity
  8
GR1_01
  6
Continuous
 62
     3
370
    35
100
AcDbLine
 10
318.7305029843378
 20
230.9245857118086
 30
0.0
 11
318.7305029843378
 21
226.3057835582916
 31
0.0
  0
LINE
  5
387
330
37E
100
AcDbEntity
  8
GR1_01
  6
Continuous
 62
     3
370
    35
100
AcDbLine
 10
318.7305029843378
 20
226.3057835582916
 30
0.0
 11
322.7305029843378
 21
223.9963824815331
 31
0.0
  0
CIRCLE
  5
388
330
37E
100
AcDbEntity
  8
GR1_01
  6
Continuous
 62
     3
370
    35
100
AcDbCircle
 10
322.7305029843378
 20
228.6151846350501
 30
0.0
 40
3.9
  0
CIRCLE
  5
389
330
37E
100
AcDbEntity
  8
GR1_01
  6
Continuous
 62
     3
370
    35
100
AcDbCircle
 10
322.7305029843378
 20
228.6151846350501
 30
0.0
 40
5.0
  0
ENDBLK
  5
380
330
37E
100
AcDbEntity
  8
0
100
AcDbBlockEnd
  0
BLOCK
  5
38B
330
38A
100
AcDbEntity
  8
0
100
AcDbBlockBegin
  2
BLKF046
 70
     0
 10
0.0
 20
0.0
 30
0.0
  3
BLKF046
  1

  0
LINE
  5
38E
330
38A
100
AcDbEntity
  8
GR1_01
  6
Continuous
 62
     3
370
    35
100
AcDbLine
 10
389.1985404158733
 20
223.9963824815331
 30
0.0
 11
393.1985404158733
 21
226.3057835582916
 31
0.0
  0
LINE
  5
38F
330
38A
100
AcDbEntity
  8
GR1_01
  6
Continuous
 62
     3
370
    35
100
AcDbLine
 10
393.1985404158733
 20
226.3057835582916
 30
0.0
 11
393.1985404158733
 21
230.9245857118086
 31
0.0
  0
LINE
  5
390
330
38A
100
AcDbEntity
  8
GR1_01
  6
Continuous
 62
     3
370
    35
100
AcDbLine
 10
393.1985404158733
 20
230.9245857118086
 30
0.0
 11
389.1985404158733
 21
233.2339867885671
 31
0.0
  0
LINE
  5
391
330
38A
100
AcDbEntity
  8
GR1_01
  6
Continuous
 62
     3
370
    35
100
AcDbLine
 10
389.1985404158733
 20
233.2339867885671
 30
0.0
 11
385.1985404158733
 21
230.9245857118086
 31
0.0
  0
LINE
  5
392
330
38A
100
AcDbEntity
  8
GR1_01
  6
Continuous
 62
     3
370
    35
100
AcDbLine
 10
385.1985404158733
 20
230.9245857118086
 30
0.0
 11
385.1985404158733
 21
226.3057835582916
 31
0.0
  0
LINE
  5
393
330
38A
100
AcDbEntity
  8
GR1_01
  6
Continuous
 62
     3
370
    35
100
AcDbLine
 10
385.1985404158733
 20
226.3057835582916
 30
0.0
 11
389.1985404158733
 21
223.9963824815331
 31
0.0
  0
CIRCLE
  5
394
330
38A
100
AcDbEntity
  8
GR1_01
  6
Continuous
 62
     3
370
    35
100
AcDbCircle
 10
389.1985404158733
 20
228.6151846350501
 30
0.0
 40
3.9
  0
CIRCLE
  5
395
330
38A
100
AcDbEntity
  8
GR1_01
  6
Continuous
 62
     3
370
    35
100
AcDbCircle
 10
389.1985404158733
 20
228.6151846350501
 30
0.0
 40
5.0
  0
ENDBLK
  5
38C
330
38A
100
AcDbEntity
  8
0
100
AcDbBlockEnd
  0
BLOCK
  5
397
330
396
100
AcDbEntity
  8
0
100
AcDbBlockBegin
  2
BLKF047
 70
     0
 10
0.0
 20
0.0
 30
0.0
  3
BLKF047
  1

  0
LINE
  5
39A
330
396
100
AcDbEntity
  8
GR1_01
  6
Continuous
 62
     3
370
    35
100
AcDbLine
 10
322.7305029843376
 20
157.5283450499974
 30
0.0
 11
326.7305029843376
 21
159.8377461267559
 31
0.0
  0
LINE
  5
39B
330
396
100
AcDbEntity
  8
GR1_01
  6
Continuous
 62
     3
370
    35
100
AcDbLine
 10
326.7305029843376
 20
159.8377461267559
 30
0.0
 11
326.7305029843376
 21
164.4565482802729
 31
0.0
  0
LINE
  5
39C
330
396
100
AcDbEntity
  8
GR1_01
  6
Continuous
 62
     3
370
    35
100
AcDbLine
 10
326.7305029843376
 20
164.4565482802729
 30
0.0
 11
322.7305029843376
 21
166.7659493570314
 31
0.0
  0
LINE
  5
39D
330
396
100
AcDbEntity
  8
GR1_01
  6
Continuous
 62
     3
370
    35
100
AcDbLine
 10
322.7305029843376
 20
166.7659493570314
 30
0.0
 11
318.7305029843376
 21
164.4565482802729
 31
0.0
  0
LINE
  5
39E
330
396
100
AcDbEntity
  8
GR1_01
  6
Continuous
 62
     3
370
    35
100
AcDbLine
 10
318.7305029843376
 20
164.4565482802729
 30
0.0
 11
318.7305029843376
 21
159.8377461267559
 31
0.0
  0
LINE
  5
39F
330
396
100
AcDbEntity
  8
GR1_01
  6
Continuous
 62
     3
370
    35
100
AcDbLine
 10
318.7305029843376
 20
159.8377461267559
 30
0.0
 11
322.7305029843376
 21
157.5283450499974
 31
0.0
  0
CIRCLE
  5
3A0
330
396
100
AcDbEntity
  8
GR1_01
  6
Continuous
 62
     3
370
    35
100
AcDbCircle
 10
322.7305029843376
 20
162.1471472035144
 30
0.0
 40
3.9
  0
CIRCLE
  5
3A1
330
396
100
AcDbEntity
  8
GR1_01
  6
Continuous
 62
     3
370
    35
100
AcDbCircle
 10
322.7305029843376
 20
162.1471472035144
 30
0.0
 40
5.0
  0
ENDBLK
  5
398
330
396
100
AcDbEntity
  8
0
100
AcDbBlockEnd
  0
BLOCK
  5
3A3
330
3A2
100
AcDbEntity
  8
0
100
AcDbBlockBegin
  2
BLKF048
 70
     0
 10
0.0
 20
0.0
 30
0.0
  3
BLKF048
  1

  0
LINE
  5
3A6
330
3A2
100
AcDbEntity
  8
GR1_01
  6
Continuous
 62
     3
370
    35
100
AcDbLine
 10
389.1985404158733
 20
157.5283450499976
 30
0.0
 11
393.1985404158733
 21
159.8377461267561
 31
0.0
  0
LINE
  5
3A7
330
3A2
100
AcDbEntity
  8
GR1_01
  6
Continuous
 62
     3
370
    35
100
AcDbLine
 10
393.1985404158733
 20
159.8377461267561
 30
0.0
 11
393.1985404158733
 21
164.456548280273
 31
0.0
  0
LINE
  5
3A8
330
3A2
100
AcDbEntity
  8
GR1_01
  6
Continuous
 62
     3
370
    35
100
AcDbLine
 10
393.1985404158733
 20
164.456548280273
 30
0.0
 11
389.1985404158733
 21
166.7659493570315
 31
0.0
  0
LINE
  5
3A9
330
3A2
100
AcDbEntity
  8
GR1_01
  6
Continuous
 62
     3
370
    35
100
AcDbLine
 10
389.1985404158733
 20
166.7659493570315
 30
0.0
 11
385.1985404158733
 21
164.456548280273
 31
0.0
  0
LINE
  5
3AA
330
3A2
100
AcDbEntity
  8
GR1_01
  6
Continuous
 62
     3
370
    35
100
AcDbLine
 10
385.1985404158733
 20
164.456548280273
 30
0.0
 11
385.1985404158733
 21
159.8377461267561
 31
0.0
  0
LINE
  5
3AB
330
3A2
100
AcDbEntity
  8
GR1_01
  6
Continuous
 62
     3
370
    35
100
AcDbLine
 10
385.1985404158733
 20
159.8377461267561
 30
0.0
 11
389.1985404158733
 21
157.5283450499976
 31
0.0
  0
CIRCLE
  5
3AC
330
3A2
100
AcDbEntity
  8
GR1_01
  6
Continuous
 62
     3
370
    35
100
AcDbCircle
 10
389.1985404158733
 20
162.1471472035145
 30
0.0
 40
3.9
  0
CIRCLE
  5
3AD
330
3A2
100
AcDbEntity
  8
GR1_01
  6
Continuous
 62
     3
370
    35
100
AcDbCircle
 10
389.1985404158733
 20
162.1471472035145
 30
0.0
 40
5.0
  0
ENDBLK
  5
3A4
330
3A2
100
AcDbEntity
  8
0
100
AcDbBlockEnd
  0
ENDSEC
  0
SECTION
  2
ENTITIES
  0
TEXT
  5
B4
330
1F
100
AcDbEntity
  8
基準ﾚｲﾔｸﾞﾙｰﾌﾟ_01
  6
Continuous
 62
     7
370
    13
100
AcDbText
 10
326.5634155273438
 20
279.6773376464844
 30
0.0
 40
2.5
  1
メートル並目ねじ（ＪＩＳ　Ｂ　０２０９）めねじ：６Ｈ　おねじ：６ｇ（２級）
 41
1.078190022895778
  7
FX_VECTOR
 72
     5
 11
411.6634137630463
 21
279.6773376464844
 31
0.0
100
AcDbText
  0
TEXT
  5
B5
330
1F
100
AcDbEntity
  8
基準ﾚｲﾔｸﾞﾙｰﾌﾟ_01
  6
Continuous
 62
     7
370
    13
100
AcDbText
 10
232.5634155273438
 20
279.6773376464844
 30
0.0
 40
2.5
  1
公差表示方式　ＪＩＳ　Ｂ　００２４
 41
1.083960373566883
  7
FX_VECTOR
 72
     5
 11
271.6634147167206
 21
279.6773376464844
 31
0.0
100
AcDbText
  0
TEXT
  5
B6
330
1F
100
AcDbEntity
  8
基準ﾚｲﾔｸﾞﾙｰﾌﾟ_01
  6
Continuous
 62
     7
370
    13
100
AcDbText
 10
278.532958984375
 20
279.6773376464844
 30
0.0
 40
2.5
  1
普通公差　ＪＩＳ　Ｂ　０４１９－ｃＫ
 41
1.083364463520941
  7
FX_VECTOR
 72
     5
 11
319.9329581260681
 21
279.6773376464844
 31
0.0
100
AcDbText
  0
INSERT
  5
BA
330
1F
100
AcDbEntity
  8
基準ﾚｲﾔｸﾞﾙｰﾌﾟ_01
  6
Continuous
 62
     7
370
    13
100
AcDbBlockReference
  2
BLKF023
 10
0.0
 20
0.0
 30
0.0
  0
INSERT
  5
E8
330
1F
100
AcDbEntity
  8
基準ﾚｲﾔｸﾞﾙｰﾌﾟ_01
  6
Continuous
 62
     7
370
    13
100
AcDbBlockReference
  2
BLKF024
 10
0.0
 20
0.0
 30
0.0
  0
TEXT
  5
FF
330
1F
100
AcDbEntity
  8
基準ﾚｲﾔｸﾞﾙｰﾌﾟ_01
  6
Continuous
 62
     7
370
    13
100
AcDbText
 10
300.4739379882812
 20
23.40287208557129
 30
0.0
 40
3.0
  1
２０１１
 41
1.217391304347826
  7
FX_VECTOR
 72
     5
 11
312.4739379882812
 21
23.40287208557129
 31
0.0
100
AcDbText
  0
TEXT
  5
100
330
1F
100
AcDbEntity
  8
基準ﾚｲﾔｸﾞﾙｰﾌﾟ_01
  6
Continuous
 62
     7
370
    13
100
AcDbText
 10
315.7803039550781
 20
23.40287208557129
 30
0.0
 40
3.0
  1
１２
 41
1.272727272727273
  7
FX_VECTOR
 72
     5
 11
321.7803039550781
 21
23.40287208557129
 31
0.0
100
AcDbText
  0
TEXT
  5
101
330
1F
100
AcDbEntity
  8
基準ﾚｲﾔｸﾞﾙｰﾌﾟ_01
  6
Continuous
 62
     7
370
    13
100
AcDbText
 10
324.8333435058594
 20
23.36934280395508
 30
0.0
 40
3.0
  1
１９
 41
1.272727272727273
  7
FX_VECTOR
 72
     5
 11
330.8333435058594
 21
23.36934280395508
 31
0.0
100
AcDbText
  0
TEXT
  5
102
330
1F
100
AcDbEntity
  8
基準ﾚｲﾔｸﾞﾙｰﾌﾟ_01
  6
Continuous
 62
     7
370
    25
100
AcDbText
 10
350.9717712402344
 20
9.189493179321289
 30
0.0
 40
3.5
  1
１
 41
1.4
 51
10.0
  7
FX_VECTOR
 72
     5
 11
354.4717712402344
 21
9.189493179321289
 31
0.0
100
AcDbText
  0
TEXT
  5
103
330
1F
100
AcDbEntity
  8
基準ﾚｲﾔｸﾞﾙｰﾌﾟ_01
  6
Continuous
 62
     7
370
    25
100
AcDbText
 10
350.9717712402344
 20
14.19346523284912
 30
0.0
 40
3.5
  1
１
 41
1.4
 51
10.0
  7
FX_VECTOR
 72
     5
 11
354.4717712402344
 21
14.19346523284912
 31
0.0
100
AcDbText
  0
INSERT
  5
107
330
1F
100
AcDbEntity
  8
基準ﾚｲﾔｸﾞﾙｰﾌﾟ_01
  6
Continuous
 62
     7
370
    13
100
AcDbBlockReference
  2
BLKF025
 10
0.0
 20
0.0
 30
0.0
  0
INSERT
  5
10F
330
1F
100
AcDbEntity
  8
基準ﾚｲﾔｸﾞﾙｰﾌﾟ_01
  6
Continuous
 62
     7
370
    13
100
AcDbBlockReference
  2
BLKF026
 10
0.0
 20
0.0
 30
0.0
  0
INSERT
  5
117
330
1F
100
AcDbEntity
  8
基準ﾚｲﾔｸﾞﾙｰﾌﾟ_01
  6
Continuous
 62
     7
370
    13
100
AcDbBlockReference
  2
BLKF027
 10
0.0
 20
0.0
 30
0.0
  0
INSERT
  5
11F
330
1F
100
AcDbEntity
  8
基準ﾚｲﾔｸﾞﾙｰﾌﾟ_01
  6
Continuous
 62
     7
370
    13
100
AcDbBlockReference
  2
BLKF028
 10
0.0
 20
0.0
 30
0.0
  0
INSERT
  5
127
330
1F
100
AcDbEntity
  8
基準ﾚｲﾔｸﾞﾙｰﾌﾟ_01
  6
Continuous
 62
     7
370
    13
100
AcDbBlockReference
  2
BLKF029
 10
0.0
 20
0.0
 30
0.0
  0
INSERT
  5
12F
330
1F
100
AcDbEntity
  8
基準ﾚｲﾔｸﾞﾙｰﾌﾟ_01
  6
Continuous
 62
     7
370
    13
100
AcDbBlockReference
  2
BLKF030
 10
0.0
 20
0.0
 30
0.0
  0
INSERT
  5
145
330
1F
100
AcDbEntity
  8
基準ﾚｲﾔｸﾞﾙｰﾌﾟ_01
  6
Continuous
 62
     7
370
    13
100
AcDbBlockReference
  2
BLKF032
 10
0.0
 20
0.0
 30
0.0
  0
TEXT
  5
187
330
1F
100
AcDbEntity
  8
基準ﾚｲﾔｸﾞﾙｰﾌﾟ_01
  6
Continuous
 62
     7
370
    13
100
AcDbText
 10
353.2605285644531
 20
28.51483535766602
 30
0.0
 40
4.0
  1
ＳＳ４０Ｅ４－Ｈ３ＲＨ－
 41
1.183098591549296
 51
10.0
  7
FX_VECTOR
 72
     5
 11
401.2605285644531
 21
28.51483535766602
 31
0.0
100
AcDbText
  0
TEXT
  5
188
330
1F
100
AcDbEntity
  8
基準ﾚｲﾔｸﾞﾙｰﾌﾟ_01
  6
Continuous
 62
     7
370
    13
100
AcDbText
 10
369.2281188964844
 20
19.21405220031738
 30
0.0
 40
4.0
  1
ＤＣギヤードモータ
 41
1.188679245283019
 51
10.0
  7
FX_VECTOR
 72
     5
 11
405.2281188964844
 21
19.21405220031738
 31
0.0
100
AcDbText
  0
TEXT
  5
18A
330
1F
100
AcDbEntity
  8
GR1_01
  6
Continuous
 62
     7
370
    13
100
AcDbText
 10
260.7393493652344
 20
225.8811645507812
 30
0.0
 40
2.5
  1
　０
 50
90.0
 41
1.018181818181818
 51
10.0
  7
FX_VECTOR
 72
     5
 11
260.7393493652344
 21
229.8811645507812
 31
0.0
100
AcDbText
  0
TEXT
  5
18B
330
1F
100
AcDbEntity
  8
GR1_01
  6
Continuous
 62
     7
370
    13
100
AcDbText
 10
263.2393493652344
 20
225.8811645507812
 30
0.0
 40
2.5
  1
－０．０２２
 50
90.0
 41
0.96
 51
10.0
  7
FX_VECTOR
 72
     5
 11
263.2393493652344
 21
237.8811645507812
 31
0.0
100
AcDbText
  0
LINE
  5
18C
330
1F
100
AcDbEntity
  8
GR1_01
  6
DASHDOT
 62
     7
370
    13
100
AcDbLine
 10
398.9645217001055
 20
195.3811659192823
 30
0.0
 11
312.9645217001055
 21
195.3811659192823
 31
0.0
  0
LINE
  5
18D
330
1F
100
AcDbEntity
  8
GR1_01
  6
DASHDOT
 62
     7
370
    13
100
AcDbLine
 10
355.9645217001055
 20
238.3811659192824
 30
0.0
 11
355.9645217001055
 21
152.3811659192824
 31
0.0
  0
LINE
  5
18E
330
1F
100
AcDbEntity
  8
GR1_01
  6
DASHDOT
 62
     7
370
    13
100
AcDbLine
 10
328.3873572338302
 20
222.9583303855577
 30
0.0
 11
317.0736487348454
 21
234.2720388845425
 31
0.0
  0
LINE
  5
18F
330
1F
100
AcDbEntity
  8
GR1_01
  6
DASHDOT
 62
     7
370
    13
100
AcDbLine
 10
373.9645217001055
 20
210.3811659192824
 30
0.0
 11
337.9645217001055
 21
210.3811659192824
 31
0.0
  0
LINE
  5
190
330
1F
100
AcDbEntity
  8
GR1_01
  6
Continuous
 62
     3
370
    35
100
AcDbLine
 10
389.9645217001055
 20
155.3811659192824
 30
0.0
 11
321.9645217001055
 21
155.3811659192824
 31
0.0
  0
LINE
  5
191
330
1F
100
AcDbEntity
  8
GR1_01
  6
Continuous
 62
     3
370
    35
100
AcDbLine
 10
389.9645217001055
 20
235.3811659192824
 30
0.0
 11
321.9645217001055
 21
235.3811659192824
 31
0.0
  0
LINE
  5
192
330
1F
100
AcDbEntity
  8
GR1_01
  6
Continuous
 62
     3
370
    35
100
AcDbLine
 10
395.9645217001055
 20
229.3811659192824
 30
0.0
 11
395.9645217001055
 21
161.3811659192824
 31
0.0
  0
LINE
  5
193
330
1F
100
AcDbEntity
  8
GR1_01
  6
Continuous
 62
     3
370
    35
100
AcDbLine
 10
315.9645217001055
 20
229.3811659192824
 30
0.0
 11
315.9645217001055
 21
161.3811659192824
 31
0.0
  0
ARC
  5
194
330
1F
100
AcDbEntity
  8
GR1_01
  6
DASHDOT
 62
     7
370
    13
100
AcDbCircle
 10
355.9645217001055
 20
195.3811659192823
 30
0.0
 40
47.00000000000001
100
AcDbArc
 50
125.2357153350537
 51
144.7642846649462
  0
LINE
  5
195
330
1F
100
AcDbEntity
  8
GR1_01
  6
DASHDOT
 62
     7
370
    13
100
AcDbLine
 10
158.9122573600837
 20
228.6151866442148
 30
0.0
 11
233.2122573600838
 21
228.6151866442147
 31
0.0
  0
LINE
  5
196
330
1F
100
AcDbEntity
  8
GR1_01
  6
DASHDOT
 62
     7
370
    13
100
AcDbLine
 10
158.9122573600837
 20
162.1471578291169
 30
0.0
 11
233.2122573600823
 21
162.1471421499795
 31
0.0
  0
LINE
  5
197
330
1F
100
AcDbEntity
  8
GR1_01
  6
DASHDOT
 62
     7
370
    13
100
AcDbLine
 10
216.7122573600838
 20
195.3811659192823
 30
0.0
 11
60.71225736008371
 21
195.3811659192824
 31
0.0
  0
LINE
  5
198
330
1F
100
AcDbEntity
  8
GR1_01
  6
DASHDOT
 62
     7
370
    13
100
AcDbLine
 10
383.5416861663809
 20
222.9583303855577
 30
0.0
 11
394.8553946653657
 21
234.2720388845425
 31
0.0
  0
LINE
  5
199
330
1F
100
AcDbEntity
  8
GR1_01
  6
DASHDOT
 62
     7
370
    13
100
AcDbLine
 10
328.38735723383
 20
167.8040014530068
 30
0.0
 11
317.0736487348453
 21
156.490292954022
 31
0.0
  0
LINE
  5
19A
330
1F
100
AcDbEntity
  8
GR1_01
  6
DASHDOT
 62
     7
370
    13
100
AcDbLine
 10
383.5416861663809
 20
167.8040014530069
 30
0.0
 11
394.8553946653657
 21
156.4902929540222
 31
0.0
  0
ARC
  5
19B
330
1F
100
AcDbEntity
  8
GR1_01
  6
DASHDOT
 62
     7
370
    13
100
AcDbCircle
 10
355.9645217001055
 20
195.3811659192823
 30
0.0
 40
47.00000000000001
100
AcDbArc
 50
305.2357153350538
 51
324.7642846649463
  0
INSERT
  5
19F
330
1F
100
AcDbEntity
  8
GR1_01
  6
Continuous
 62
     3
370
    35
100
AcDbBlockReference
  2
BLKF033
 10
0.0
 20
0.0
 30
0.0
  0
INSERT
  5
1AC
330
1F
100
AcDbEntity
  8
GR1_01
  6
Continuous
 62
     3
370
    35
100
AcDbBlockReference
  2
BLKF034
 10
0.0
 20
0.0
 30
0.0
  0
ARC
  5
1D0
330
1F
100
AcDbEntity
  8
GR1_01
  6
DASHDOT
 62
     7
370
    13
100
AcDbCircle
 10
355.9645217001058
 20
195.3811659192822
 30
0.0
 40
47.00000000000001
100
AcDbArc
 50
18.78091786607882
 51
54.7642846649466
  0
TEXT
  5
1D1
330
1F
100
AcDbEntity
  8
GR1_01
  6
Continuous
 62
     7
370
    13
100
AcDbText
 10
328.2315531221712
 20
186.1389280335164
 30
0.0
 40
3.5
  1
９４
 50
20.00000000000001
 41
1.272727272727274
 51
10.0
  7
FX_VECTOR
 72
     5
 11
334.8094014676726
 21
188.5330690367961
 31
0.0
100
AcDbText
  0
LINE
  5
1D2
330
1F
100
AcDbEntity
  8
GR1_01
  6
Continuous
 62
     7
370
    13
100
AcDbLine
 10
311.7989685231681
 20
179.3062191829757
 30
0.0
 11
400.1300748770434
 21
211.4561126555886
 31
0.0
  0
INSERT
  5
1D3
330
1F
100
AcDbEntity
  8
GR1_01
  6
Continuous
 62
     7
370
    13
100
AcDbBlockReference
  2
FXTIP_ARROW_S
 10
311.7989685231681
 20
179.3062191829757
 30
0.0
 41
3.0
 42
3.0
 50
200.0000000000001
  0
INSERT
  5
1D4
330
1F
100
AcDbEntity
  8
GR1_01
  6
Continuous
 62
     7
370
    13
100
AcDbBlockReference
  2
FXTIP_ARROW_E
 10
400.1300748770434
 20
211.4561126555886
 30
0.0
 41
3.0
 42
3.0
 50
20.00000000000008
  0
TEXT
  5
1D5
330
1F
100
AcDbEntity
  8
GR1_01
  6
Continuous
 62
     7
370
    13
100
AcDbText
 10
324.9426350815934
 20
184.9418547638285
 30
0.0
 40
3.5
  1
φ
 50
19.9999999999999
 41
1.399999999999976
 51
10.0
  7
FX_VECTOR
 72
     5
 11
328.2315592543441
 21
186.1389252654683
 31
0.0
100
AcDbText
  0
ARC
  5
1D6
330
1F
100
AcDbEntity
  8
GR1_01
  6
DASHDOT
 62
     7
370
    13
100
AcDbCircle
 10
355.9645217001056
 20
195.3811659192818
 30
0.0
 40
47.00000000000001
100
AcDbArc
 50
198.7809178660782
 51
234.7642846649458
  0
ARC
  5
1D7
330
1F
100
AcDbEntity
  8
GR1_01
  6
Continuous
 62
     3
370
    35
100
AcDbCircle
 10
389.9645217001055
 20
229.3811659192824
 30
0.0
 40
6.0
100
AcDbArc
 50
0.0
 51
90.0
  0
ARC
  5
1D8
330
1F
100
AcDbEntity
  8
GR1_01
  6
Continuous
 62
     3
370
    35
100
AcDbCircle
 10
321.9645217001055
 20
229.3811659192824
 30
0.0
 40
6.0
100
AcDbArc
 50
90.0
 51
180.0
  0
ARC
  5
1D9
330
1F
100
AcDbEntity
  8
GR1_01
  6
Continuous
 62
     3
370
    35
100
AcDbCircle
 10
321.9645217001055
 20
161.3811659192824
 30
0.0
 40
6.0
100
AcDbArc
 50
180.0
 51
270.0
  0
ARC
  5
1DA
330
1F
100
AcDbEntity
  8
GR1_01
  6
Continuous
 62
     3
370
    35
100
AcDbCircle
 10
389.9645217001055
 20
161.3811659192824
 30
0.0
 40
6.0
100
AcDbArc
 50
270.0
 51
0.0
  0
LINE
  5
1DB
330
1F
100
AcDbEntity
  8
GR1_01
  6
Continuous
 62
     3
370
    35
100
AcDbLine
 10
346.9645217001055
 20
159.2390851822799
 30
0.0
 11
346.9645217001055
 21
155.3811659192824
 31
0.0
  0
LINE
  5
1DC
330
1F
100
AcDbEntity
  8
GR1_01
  6
Continuous
 62
     3
370
    35
100
AcDbLine
 10
364.9645217001055
 20
159.2390851822799
 30
0.0
 11
364.9645217001055
 21
155.3811659192824
 31
0.0
  0
ARC
  5
1DD
330
1F
100
AcDbEntity
  8
GR1_01
  6
Continuous
 62
     3
370
    35
100
AcDbCircle
 10
355.9645217001055
 20
195.3811659192823
 30
0.0
 40
36.5
100
AcDbArc
 50
285.4660099534206
 51
15.04505060019204
  0
LINE
  5
1DE
330
1F
100
AcDbEntity
  8
GR1_01
  6
DASHDOT
 62
     7
370
    13
100
AcDbLine
 10
362.9645217001055
 20
164.3811659192823
 30
0.0
 11
348.9645217001055
 21
164.3811659192823
 31
0.0
  0
CIRCLE
  5
1DF
330
1F
100
AcDbEntity
  8
GR1_01
  6
Continuous
 62
     3
370
    35
100
AcDbCircle
 10
355.9645217001055
 20
164.3811659192823
 30
0.0
 40
4.0
  0
INSERT
  5
1E3
330
1F
100
AcDbEntity
  8
GR1_01
  6
Continuous
 62
     3
370
    35
100
AcDbBlockReference
  2
BLKF035
 10
0.0
 20
0.0
 30
0.0
  0
LINE
  5
1ED
330
1F
100
AcDbEntity
  8
GR1_01
  6
DASHDOT
 62
     7
370
    13
100
AcDbLine
 10
379.3113092174231
 20
216.9433437457733
 30
0.0
 11
386.3113092174232
 21
204.8189880927912
 31
0.0
  0
CIRCLE
  5
1EE
330
1F
100
AcDbEntity
  8
GR1_01
  6
Continuous
 62
     3
370
    35
100
AcDbCircle
 10
382.8113092174231
 20
210.8811659192822
 30
0.0
 40
4.0
  0
INSERT
  5
1F2
330
1F
100
AcDbEntity
  8
GR1_01
  6
Continuous
 62
     3
370
    35
100
AcDbBlockReference
  2
BLKF036
 10
0.0
 20
0.0
 30
0.0
  0
LINE
  5
1FC
330
1F
100
AcDbEntity
  8
GR1_01
  6
DASHDOT
 62
     7
370
    13
100
AcDbLine
 10
376.749131390932
 20
207.3811659192823
 30
0.0
 11
388.8734870439142
 21
214.3811659192823
 31
0.0
  0
LINE
  5
1FD
330
1F
100
AcDbEntity
  8
GR1_01
  6
DASHDOT
 62
     7
370
    13
100
AcDbLine
 10
332.617734182788
 20
216.9433437457733
 30
0.0
 11
325.6177341827879
 21
204.8189880927912
 31
0.0
  0
CIRCLE
  5
1FE
330
1F
100
AcDbEntity
  8
GR1_01
  6
Continuous
 62
     3
370
    35
100
AcDbCircle
 10
329.117734182788
 20
210.8811659192822
 30
0.0
 40
4.0
  0
INSERT
  5
202
330
1F
100
AcDbEntity
  8
GR1_01
  6
Continuous
 62
     3
370
    35
100
AcDbBlockReference
  2
BLKF037
 10
0.0
 20
0.0
 30
0.0
  0
LINE
  5
20C
330
1F
100
AcDbEntity
  8
GR1_01
  6
DASHDOT
 62
     7
370
    13
100
AcDbLine
 10
335.1799120092791
 20
207.3811659192823
 30
0.0
 11
323.0555563562969
 21
214.3811659192823
 31
0.0
  0
ARC
  5
20D
330
1F
100
AcDbEntity
  8
GR1_01
  6
Continuous
 62
     3
370
    35
100
AcDbCircle
 10
329.117734182788
 20
210.8811659192823
 30
0.0
 40
10.0
100
AcDbArc
 50
88.38799460902253
 51
211.6120053909777
  0
ARC
  5
20E
330
1F
100
AcDbEntity
  8
GR1_01
  6
Continuous
 62
     3
370
    35
100
AcDbCircle
 10
382.8113092174231
 20
210.8811659192823
 30
0.0
 40
10.0
100
AcDbArc
 50
328.3879946090228
 51
91.61200539097752
  0
ARC
  5
20F
330
1F
100
AcDbEntity
  8
GR1_01
  6
Continuous
 62
     3
370
    35
100
AcDbCircle
 10
355.9645217001055
 20
195.3811659192823
 30
0.0
 40
36.5
100
AcDbArc
 50
44.95494939980806
 51
135.045050600192
  0
ARC
  5
210
330
1F
100
AcDbEntity
  8
GR1_01
  6
Continuous
 62
     3
370
    35
100
AcDbCircle
 10
355.9645217001055
 20
195.3811659192823
 30
0.0
 40
36.5
100
AcDbArc
 50
164.954949399808
 51
254.5339900465794
  0
ARC
  5
211
330
1F
100
AcDbEntity
  8
GR1_01
  6
Continuous
 62
     3
370
    35
100
AcDbCircle
 10
345.9645217001055
 20
159.2390851822799
 30
0.0
 40
1.0
100
AcDbArc
 50
0.0
 51
74.53399004658014
  0
ARC
  5
212
330
1F
100
AcDbEntity
  8
GR1_01
  6
Continuous
 62
     3
370
    35
100
AcDbCircle
 10
365.9645217001055
 20
159.2390851822799
 30
0.0
 40
1.0
100
AcDbArc
 50
105.4660099534194
 51
180.0
  0
ARC
  5
213
330
1F
100
AcDbEntity
  8
GR1_01
  6
Continuous
 62
     3
370
    35
100
AcDbCircle
 10
392.179097568147
 20
205.1153579606316
 30
0.0
 40
1.0
100
AcDbArc
 50
148.3879946090232
 51
195.0450506001924
  0
ARC
  5
214
330
1F
100
AcDbEntity
  8
GR1_01
  6
Continuous
 62
     3
370
    35
100
AcDbCircle
 10
382.501867227251
 20
221.8768125876105
 30
0.0
 40
1.0
100
AcDbArc
 50
224.9549493998071
 51
271.6120053909762
  0
ARC
  5
215
330
1F
100
AcDbEntity
  8
GR1_01
  6
Continuous
 62
     3
370
    35
100
AcDbCircle
 10
329.4271761729601
 20
221.8768125876105
 30
0.0
 40
1.0
100
AcDbArc
 50
268.3879946090206
 51
315.0450506001894
  0
ARC
  5
216
330
1F
100
AcDbEntity
  8
GR1_01
  6
Continuous
 62
     3
370
    35
100
AcDbCircle
 10
319.749945832064
 20
205.1153579606315
 30
0.0
 40
1.0
100
AcDbArc
 50
344.9549493998099
 51
31.61200539097651
  0
CIRCLE
  5
217
330
1F
100
AcDbEntity
  8
GR1_01
  6
Continuous
 62
     3
370
    35
100
AcDbCircle
 10
355.9645217001055
 20
210.3811659192824
 30
0.0
 40
15.0
  0
TEXT
  5
218
330
1F
100
AcDbEntity
  8
GR1_01
  6
Continuous
 62
     7
370
    13
100
AcDbText
 10
295.4645080566406
 20
191.8811645507812
 30
0.0
 40
3.5
  1
８０
 50
90.0
 41
1.272727272727273
 51
10.0
  7
FX_VECTOR
 72
     5
 11
295.4645080566406
 21
198.8811645507812
 31
0.0
100
AcDbText
  0
LINE
  5
219
330
1F
100
AcDbEntity
  8
GR1_01
  6
Continuous
 62
     7
370
    13
100
AcDbLine
 10
295.9645217001055
 20
155.3811659192824
 30
0.0
 11
295.9645217001055
 21
235.3811659192824
 31
0.0
  0
INSERT
  5
21A
330
1F
100
AcDbEntity
  8
GR1_01
  6
Continuous
 62
     7
370
    13
100
AcDbBlockReference
  2
FXTIP_ARROW_S
 10
295.9645217001055
 20
155.3811659192824
 30
0.0
 41
3.0
 42
3.0
 50
270.0
  0
INSERT
  5
21B
330
1F
100
AcDbEntity
  8
GR1_01
  6
Continuous
 62
     7
370
    13
100
AcDbBlockReference
  2
FXTIP_ARROW_E
 10
295.9645217001055
 20
235.3811659192824
 30
0.0
 41
3.0
 42
3.0
 50
90.0
  0
LINE
  5
21C
330
1F
100
AcDbEntity
  8
GR1_01
  6
Continuous
 62
     7
370
    13
100
AcDbLine
 10
320.9645217001055
 20
155.3811659192824
 30
0.0
 11
294.9645217001055
 21
155.3811659192824
 31
0.0
  0
LINE
  5
21D
330
1F
100
AcDbEntity
  8
GR1_01
  6
Continuous
 62
     7
370
    13
100
AcDbLine
 10
320.9645217001055
 20
235.3811659192824
 30
0.0
 11
294.9645217001055
 21
235.3811659192824
 31
0.0
  0
LINE
  5
21F
330
1F
100
AcDbEntity
  8
Layer1
  6
Continuous
 62
     7
370
    13
100
AcDbLine
 10
250.7576821426094
 20
117.981439657525
 30
0.0
 11
250.7576821426094
 21
63.98143965752504
 31
0.0
  0
LINE
  5
220
330
1F
100
AcDbEntity
  8
Layer1
  6
Continuous
 62
     7
370
    13
100
AcDbLine
 10
250.7576821426094
 20
117.981439657525
 30
0.0
 11
320.7576821426094
 21
117.981439657525
 31
0.0
  0
LINE
  5
221
330
1F
100
AcDbEntity
  8
Layer1
  6
Continuous
 62
     7
370
    13
100
AcDbLine
 10
250.7576821426094
 20
63.98143965752504
 30
0.0
 11
320.7576821426094
 21
63.98143965752504
 31
0.0
  0
LINE
  5
222
330
1F
100
AcDbEntity
  8
Layer1
  6
Continuous
 62
     7
370
    13
100
AcDbLine
 10
320.7576821426094
 20
117.981439657525
 30
0.0
 11
320.7576821426094
 21
63.98143965752504
 31
0.0
  0
LINE
  5
223
330
1F
100
AcDbEntity
  8
Layer1
  6
Continuous
 62
     7
370
    13
100
AcDbLine
 10
275.7576821426094
 20
117.981439657525
 30
0.0
 11
275.7576821426094
 21
63.98143965752504
 31
0.0
  0
LINE
  5
224
330
1F
100
AcDbEntity
  8
Layer1
  6
Continuous
 62
     7
370
    13
100
AcDbLine
 10
250.7576821426094
 20
111.981439657525
 30
0.0
 11
320.7576821426094
 21
111.981439657525
 31
0.0
  0
LINE
  5
225
330
1F
100
AcDbEntity
  8
Layer1
  6
Continuous
 62
     7
370
    13
100
AcDbLine
 10
250.7576821426094
 20
105.981439657525
 30
0.0
 11
320.7576821426094
 21
105.981439657525
 31
0.0
  0
LINE
  5
226
330
1F
100
AcDbEntity
  8
Layer1
  6
Continuous
 62
     7
370
    13
100
AcDbLine
 10
250.7576821426094
 20
99.98143965752503
 30
0.0
 11
320.7576821426094
 21
99.98143965752503
 31
0.0
  0
LINE
  5
227
330
1F
100
AcDbEntity
  8
Layer1
  6
Continuous
 62
     7
370
    13
100
AcDbLine
 10
275.7576821426094
 20
93.98143965752503
 30
0.0
 11
320.7576821426094
 21
93.98143965752503
 31
0.0
  0
LINE
  5
228
330
1F
100
AcDbEntity
  8
Layer1
  6
Continuous
 62
     7
370
    13
100
AcDbLine
 10
250.7576821426094
 20
87.98143965752503
 30
0.0
 11
320.7576821426094
 21
87.98143965752503
 31
0.0
  0
LINE
  5
229
330
1F
100
AcDbEntity
  8
Layer1
  6
Continuous
 62
     7
370
    13
100
AcDbLine
 10
250.7576821426094
 20
81.98143965752503
 30
0.0
 11
320.7576821426094
 21
81.98143965752503
 31
0.0
  0
LINE
  5
22A
330
1F
100
AcDbEntity
  8
Layer1
  6
Continuous
 62
     7
370
    13
100
AcDbLine
 10
250.7576821426094
 20
75.98143965752503
 30
0.0
 11
320.7576821426094
 21
75.98143965752503
 31
0.0
  0
TEXT
  5
22B
330
1F
100
AcDbEntity
  8
Layer1
  6
Continuous
 62
     7
370
    13
100
AcDbText
 10
250.7576751708984
 20
118.4814376831055
 30
0.0
 40
4.0
  1
ギヤードモータ仕様
 41
1.188679245283019
 51
10.0
  7
FX_VECTOR
 72
     5
 11
286.7576751708984
 21
118.4814376831055
 31
0.0
100
AcDbText
  0
TEXT
  5
22C
330
1F
100
AcDbEntity
  8
Layer1
  6
Continuous
 62
     7
370
    13
100
AcDbText
 10
252.2230834960938
 20
112.9814376831055
 30
0.0
 40
4.0
  1
電圧
 41
3.309090939435092
 51
10.0
  7
FX_VECTOR
 72
     5
 11
273.0230836868286
 21
112.9814376831055
 31
0.0
100
AcDbText
  0
TEXT
  5
22D
330
1F
100
AcDbEntity
  8
Layer1
  6
Continuous
 62
     7
370
    13
100
AcDbText
 10
252.3321990966797
 20
106.9814376831055
 30
0.0
 40
4.0
  1
電流
 41
3.309090939435092
 51
10.0
  7
FX_VECTOR
 72
     5
 11
273.1321992874146
 21
106.9814376831055
 31
0.0
100
AcDbText
  0
TEXT
  5
22E
330
1F
100
AcDbEntity
  8
Layer1
  6
Continuous
 62
     7
370
    13
100
AcDbText
 10
252.7576751708984
 20
100.9814376831055
 30
0.0
 40
4.0
  1
回転速度
 41
1.559782608695652
 51
10.0
  7
FX_VECTOR
 72
     5
 11
273.2576751708984
 21
100.9814376831055
 31
0.0
100
AcDbText
  0
TEXT
  5
22F
330
1F
100
AcDbEntity
  8
Layer1
  6
Continuous
 62
     7
370
    13
100
AcDbText
 10
251.8225555419922
 20
91.9814224243164
 30
0.0
 40
4.0
  1
トルク
 41
2.223529451033648
 51
10.0
  7
FX_VECTOR
 72
     5
 11
273.4225559234619
 21
91.9814224243164
 31
0.0
100
AcDbText
  0
TEXT
  5
230
330
1F
100
AcDbEntity
  8
Layer1
  6
Continuous
 62
     7
370
    13
100
AcDbText
 10
251.8375244140625
 20
76.9814224243164
 30
0.0
 40
4.0
  1
リード線
 41
1.605434793493022
 51
10.0
  7
FX_VECTOR
 72
     5
 11
272.9375245571136
 21
76.9814224243164
 31
0.0
100
AcDbText
  0
TEXT
  5
231
330
1F
100
AcDbEntity
  8
Layer1
  6
Continuous
 62
     7
370
    13
100
AcDbText
 10
252.3156127929688
 20
67.9814224243164
 30
0.0
 40
4.0
  1
外観
 41
3.309090939435092
 51
10.0
  7
FX_VECTOR
 72
     5
 11
273.1156129837036
 21
67.9814224243164
 31
0.0
100
AcDbText
  0
TEXT
  5
232
330
1F
100
AcDbEntity
  8
Layer1
  6
Continuous
 62
     7
370
    13
100
AcDbText
 10
278.7576599121094
 20
112.9814376831055
 30
0.0
 40
3.5
  1
ＤＣ
 41
1.272727272727273
 51
10.0
  7
FX_VECTOR
 72
     5
 11
285.7576599121094
 21
112.9814376831055
 31
0.0
100
AcDbText
  0
TEXT
  5
233
330
1F
100
AcDbEntity
  8
Layer1
  6
Continuous
 62
     7
370
    13
100
AcDbText
 10
302.7576599121094
 20
112.9814376831055
 30
0.0
 40
3.5
  1
Ｖ
 41
1.4
 51
10.0
  7
FX_VECTOR
 72
     5
 11
306.2576599121094
 21
112.9814376831055
 31
0.0
100
AcDbText
  0
TEXT
  5
234
330
1F
100
AcDbEntity
  8
Layer1
  6
Continuous
 62
     7
370
    13
100
AcDbText
 10
302.7576599121094
 20
106.9814376831055
 30
0.0
 40
3.5
  1
Ａ
 41
1.4
 51
10.0
  7
FX_VECTOR
 72
     5
 11
306.2576599121094
 21
106.9814376831055
 31
0.0
100
AcDbText
  0
TEXT
  5
235
330
1F
100
AcDbEntity
  8
Layer1
  6
Continuous
 62
     7
370
    13
100
AcDbText
 10
302.7576599121094
 20
100.9814376831055
 30
0.0
 40
3.5
  1
ｒｐｍ
 41
1.235294117647059
 51
10.0
  7
FX_VECTOR
 72
     5
 11
313.2576599121094
 21
100.9814376831055
 31
0.0
100
AcDbText
  0
TEXT
  5
236
330
1F
100
AcDbEntity
  8
Layer1
  6
Continuous
 62
     7
370
    13
100
AcDbText
 10
302.7576599121094
 20
94.98143768310547
 30
0.0
 40
3.5
  1
Ｎ・ｍ
 41
0.8823529411764706
 51
10.0
  7
FX_VECTOR
 72
     5
 11
310.2576599121094
 21
94.98143768310547
 31
0.0
100
AcDbText
  0
TEXT
  5
237
330
1F
100
AcDbEntity
  8
Layer1
  6
Continuous
 62
     7
370
    13
100
AcDbText
 10
302.7576599121094
 20
88.9814224243164
 30
0.0
 40
3.5
  1
ｋｇｆ・ｃｍ
 41
0.8571428571428571
 51
10.0
  7
FX_VECTOR
 72
     5
 11
317.7576599121094
 21
88.9814224243164
 31
0.0
100
AcDbText
  0
TEXT
  5
238
330
1F
100
AcDbEntity
  8
Layer1
  6
Continuous
 62
     7
370
    13
100
AcDbText
 10
282.1192321777344
 20
88.9814224243164
 30
0.0
 40
3.5
  1
（　　　　　　　　　）
 41
1.184615384615385
 51
10.0
  7
FX_VECTOR
 72
     5
 11
320.6192321777344
 21
88.9814224243164
 31
0.0
100
AcDbText
  0
TEXT
  5
239
330
1F
100
AcDbEntity
  8
Layer1
  6
Continuous
 62
     7
370
    13
100
AcDbText
 10
287.7576599121094
 20
76.9814224243164
 30
0.0
 40
3.5
  1
ｍｍ
 41
1.090909090909091
 51
10.0
  7
FX_VECTOR
 72
     5
 11
293.7576599121094
 21
76.9814224243164
 31
0.0
100
AcDbText
  0
TEXT
  5
23A
330
1F
100
AcDbEntity
  8
Layer1
  6
Continuous
 62
     7
370
    13
100
AcDbText
 10
293.7576599121094
 20
78.7314224243164
 30
0.0
 40
1.75
  1
２
 41
1.2
 51
10.0
  7
FX_VECTOR
 72
     5
 11
295.2576599121094
 21
78.7314224243164
 31
0.0
100
AcDbText
  0
TEXT
  5
23B
330
1F
100
AcDbEntity
  8
Layer1
  6
Continuous
 62
     7
370
    13
100
AcDbText
 10
297.7576599121094
 20
76.9814224243164
 30
0.0
 40
3.5
  1
３００ｍｍ以上
 41
1.024390243902439
 51
10.0
  7
FX_VECTOR
 72
     5
 11
318.7576599121094
 21
76.9814224243164
 31
0.0
100
AcDbText
  0
TEXT
  5
23C
330
1F
100
AcDbEntity
  8
Layer1
  6
Continuous
 62
     7
370
    13
100
AcDbText
 10
277.2576599121094
 20
70.9814224243164
 30
0.0
 40
3.5
  1
ギヤヘッド：黒色塗装
 41
0.8813558998754469
 51
10.0
  7
FX_VECTOR
 72
     5
 11
303.2576589584351
 21
70.9814224243164
 31
0.0
100
AcDbText
  0
TEXT
  5
23D
330
1F
100
AcDbEntity
  8
Layer1
  6
Continuous
 62
     7
370
    13
100
AcDbText
 10
277.2576599121094
 20
64.9814224243164
 30
0.0
 40
3.5
  1
モータ：生地（鉄ケース部メッキ）
 41
0.875789441560444
 51
10.0
  7
FX_VECTOR
 72
     5
 11
318.8576583862305
 21
64.9814224243164
 31
0.0
100
AcDbText
  0
LINE
  5
23E
330
1F
100
AcDbEntity
  8
Layer1
  6
DASHED
 62
     3
370
    35
100
AcDbLine
 10
350.185433313178
 20
116.981439657525
 30
0.0
 11
350.185433313178
 21
97.15881965752502
 31
0.0
  0
LINE
  5
23F
330
1F
100
AcDbEntity
  8
Layer1
  6
DASHED
 62
     3
370
    35
100
AcDbLine
 10
351.185433313178
 20
117.981439657525
 30
0.0
 11
373.185433313178
 21
117.981439657525
 31
0.0
  0
LINE
  5
240
330
1F
100
AcDbEntity
  8
Layer1
  6
DASHED
 62
     3
370
    35
100
AcDbLine
 10
374.185433313178
 20
116.9814396575251
 30
0.0
 11
374.185433313178
 21
97.1588196575251
 31
0.0
  0
LINE
  5
241
330
1F
100
AcDbEntity
  8
Layer1
  6
DASHED
 62
     3
370
    35
100
AcDbLine
 10
351.185433313178
 20
96.15881965752502
 30
0.0
 11
373.185433313178
 21
96.1588196575251
 31
0.0
  0
ARC
  5
242
330
1F
100
AcDbEntity
  8
Layer1
  6
DASHED
 62
     3
370
    35
100
AcDbCircle
 10
351.185433313178
 20
116.981439657525
 30
0.0
 40
1.0
100
AcDbArc
 50
90.0
 51
180.0
  0
ARC
  5
243
330
1F
100
AcDbEntity
  8
Layer1
  6
DASHED
 62
     3
370
    35
100
AcDbCircle
 10
373.185433313178
 20
116.9814396575251
 30
0.0
 40
1.0
100
AcDbArc
 50
0.0
 51
90.0
  0
ARC
  5
244
330
1F
100
AcDbEntity
  8
Layer1
  6
DASHED
 62
     3
370
    35
100
AcDbCircle
 10
373.185433313178
 20
97.1588196575251
 30
0.0
 40
1.0
100
AcDbArc
 50
270.0
 51
0.0
  0
ARC
  5
245
330
1F
100
AcDbEntity
  8
Layer1
  6
DASHED
 62
     3
370
    35
100
AcDbCircle
 10
351.185433313178
 20
97.15881965752502
 30
0.0
 40
1.0
100
AcDbArc
 50
180.0
 51
270.0
  0
LINE
  5
246
330
1F
100
AcDbEntity
  8
Layer1
  6
Continuous
 62
     3
370
    35
100
AcDbLine
 10
354.185433313178
 20
108.158819657525
 30
0.0
 11
357.3854333131779
 21
108.158819657525
 31
0.0
  0
CIRCLE
  5
247
330
1F
100
AcDbEntity
  8
Layer1
  6
Continuous
 62
     3
370
    35
100
AcDbCircle
 10
362.185433313178
 20
108.158819657525
 30
0.0
 40
4.0
  0
LINE
  5
248
330
1F
100
AcDbEntity
  8
Layer1
  6
Continuous
 62
     3
370
    35
100
AcDbLine
 10
357.3854333131779
 20
108.9588196575251
 30
0.0
 11
358.2662497247248
 21
108.9588196575251
 31
0.0
  0
LINE
  5
249
330
1F
100
AcDbEntity
  8
Layer1
  6
Continuous
 62
     3
370
    35
100
AcDbLine
 10
357.3854333131779
 20
107.358819657525
 30
0.0
 11
358.2662497247248
 21
107.358819657525
 31
0.0
  0
LINE
  5
24A
330
1F
100
AcDbEntity
  8
Layer1
  6
Continuous
 62
     3
370
    35
100
AcDbLine
 10
366.985433313178
 20
108.9588196575251
 30
0.0
 11
366.985433313178
 21
107.3588196575251
 31
0.0
  0
LINE
  5
24B
330
1F
100
AcDbEntity
  8
Layer1
  6
Continuous
 62
     3
370
    35
100
AcDbLine
 10
357.3854333131779
 20
108.958819657525
 30
0.0
 11
357.3854333131779
 21
107.358819657525
 31
0.0
  0
LINE
  5
24C
330
1F
100
AcDbEntity
  8
Layer1
  6
Continuous
 62
     3
370
    35
100
AcDbLine
 10
366.1046169016311
 20
108.9588196575251
 30
0.0
 11
366.985433313178
 21
108.9588196575251
 31
0.0
  0
LINE
  5
24D
330
1F
100
AcDbEntity
  8
Layer1
  6
Continuous
 62
     3
370
    35
100
AcDbLine
 10
366.1046169016311
 20
107.3588196575251
 30
0.0
 11
366.985433313178
 21
107.3588196575251
 31
0.0
  0
LINE
  5
24E
330
1F
100
AcDbEntity
  8
Layer1
  6
Continuous
 62
     3
370
    35
100
AcDbLine
 10
366.985433313178
 20
108.158819657525
 30
0.0
 11
370.185433313178
 21
108.1588196575251
 31
0.0
  0
LINE
  5
24F
330
1F
100
AcDbEntity
  8
Layer1
  6
Continuous
 62
     3
370
    35
100
AcDbLine
 10
354.1854333131779
 20
108.158819657525
 30
0.0
 11
354.1854333131779
 21
92.15881965752479
 31
0.0
  0
LINE
  5
250
330
1F
100
AcDbEntity
  8
Layer1
  6
Continuous
 62
     3
370
    35
100
AcDbLine
 10
370.185433313178
 20
108.1588196575251
 30
0.0
 11
370.1854333131771
 21
92.1588196575251
 31
0.0
  0
TEXT
  5
251
330
1F
100
AcDbEntity
  8
Layer1
  6
Continuous
 62
     3
370
    35
100
AcDbText
 10
352.7474060058594
 20
88.62954711914062
 30
0.0
 40
3.0
  1
－
 41
1.4
  7
FX_VECTOR
 72
     5
 11
355.7474060058594
 21
88.62954711914062
 31
0.0
100
AcDbText
  0
TEXT
  5
252
330
1F
100
AcDbEntity
  8
Layer1
  6
Continuous
 62
     3
370
    35
100
AcDbText
 10
368.7084655761719
 20
88.69619750976562
 30
0.0
 40
3.0
  1
＋
 41
1.4
  7
FX_VECTOR
 72
     5
 11
371.7084655761719
 21
88.69619750976562
 31
0.0
100
AcDbText
  0
TEXT
  5
253
330
1F
100
AcDbEntity
  8
Layer1
  6
Continuous
 62
     7
370
    13
100
AcDbText
 10
346.762939453125
 20
88.14141845703125
 30
0.0
 40
4.0
  1
青
 41
1.4
  7
FX_VECTOR
 72
     5
 11
350.762939453125
 21
88.14141845703125
 31
0.0
100
AcDbText
  0
TEXT
  5
254
330
1F
100
AcDbEntity
  8
Layer1
  6
Continuous
 62
     7
370
    13
100
AcDbText
 10
373.5418395996094
 20
88.00094604492188
 30
0.0
 40
4.0
  1
赤
 41
1.4
  7
FX_VECTOR
 72
     5
 11
377.5418395996094
 21
88.00094604492188
 31
0.0
100
AcDbText
  0
CIRCLE
  5
255
330
1F
100
AcDbEntity
  8
Layer1
  6
Continuous
 62
     3
370
    35
100
AcDbCircle
 10
354.1854333131779
 20
90.15881965752504
 30
0.0
 40
2.0
  0
CIRCLE
  5
256
330
1F
100
AcDbEntity
  8
Layer1
  6
Continuous
 62
     3
370
    35
100
AcDbCircle
 10
370.1854333131771
 20
90.1588196575251
 30
0.0
 40
2.0
  0
TEXT
  5
257
330
1F
100
AcDbEntity
  8
Layer1
  6
Continuous
 62
     7
370
    13
100
AcDbText
 10
252.7576751708984
 20
55.98143005371094
 30
0.0
 40
4.0
  1
質量
 41
3.181818181818183
 51
10.0
  7
FX_VECTOR
 72
     5
 11
272.7576751708984
 21
55.98143005371094
 31
0.0
100
AcDbText
  0
TEXT
  5
258
330
1F
100
AcDbEntity
  8
Layer1
  6
Continuous
 62
     7
370
    13
100
AcDbText
 10
302.7576904296875
 20
55.98143005371094
 30
0.0
 40
3.5
  1
ｋｇ
 41
1.272727272727273
 51
10.0
  7
FX_VECTOR
 72
     5
 11
309.7576904296875
 21
55.98143005371094
 31
0.0
100
AcDbText
  0
TEXT
  5
259
330
1F
100
AcDbEntity
  8
Layer1
  6
Continuous
 62
     7
370
    13
100
AcDbText
 10
286.7576904296875
 20
55.98143005371094
 30
0.0
 40
3.5
  1
　１．８
 41
1.217391304347826
 51
10.0
  7
FX_VECTOR
 72
     5
 11
300.7576904296875
 21
55.98143005371094
 31
0.0
100
AcDbText
  0
TEXT
  5
25A
330
1F
100
AcDbEntity
  8
GR1_01
  6
Continuous
 62
     7
370
    13
100
AcDbText
 10
226.2122497558594
 20
255.8811798089594
 30
0.0
 40
3.5
  1
３２
 41
1.272727272727273
 51
10.0
  7
FX_VECTOR
 72
     5
 11
233.2122497558594
 21
255.8811798101812
 31
0.0
100
AcDbText
  0
LINE
  5
25B
330
1F
100
AcDbEntity
  8
GR1_01
  6
Continuous
 62
     7
370
    13
100
AcDbLine
 10
213.7122573600838
 20
255.3811659192824
 30
0.0
 11
245.7122582289123
 21
255.3811659192824
 31
0.0
  0
INSERT
  5
25C
330
1F
100
AcDbEntity
  8
GR1_01
  6
Continuous
 62
     7
370
    13
100
AcDbBlockReference
  2
FXTIP_ARROW_S
 10
213.7122573600838
 20
255.3811659192824
 30
0.0
 41
3.0
 42
3.0
 50
180.0
  0
INSERT
  5
25D
330
1F
100
AcDbEntity
  8
GR1_01
  6
Continuous
 62
     7
370
    13
100
AcDbBlockReference
  2
FXTIP_ARROW_E
 10
245.7122582289123
 20
255.3811659192824
 30
0.0
 41
3.0
 42
3.0
 50
360.0
  0
LINE
  5
25E
330
1F
100
AcDbEntity
  8
GR1_01
  6
Continuous
 62
     7
370
    13
100
AcDbLine
 10
245.7122582289123
 20
216.3811626611775
 30
0.0
 11
245.7122582289123
 21
256.3811659192824
 31
0.0
  0
TEXT
  5
25F
330
1F
100
AcDbEntity
  8
GR1_01
  6
Continuous
 62
     7
370
    13
100
AcDbText
 10
133.4622497558594
 20
255.881164549865
 30
0.0
 40
3.5
  1
１５０
 41
1.235294117647059
 51
10.0
  7
FX_VECTOR
 72
     5
 11
143.9622497558594
 21
255.8811645516975
 31
0.0
100
AcDbText
  0
LINE
  5
260
330
1F
100
AcDbEntity
  8
GR1_01
  6
Continuous
 62
     7
370
    13
100
AcDbLine
 10
63.71225736008369
 20
255.3811659192824
 30
0.0
 11
213.7122573600837
 21
255.3811659192824
 31
0.0
  0
INSERT
  5
261
330
1F
100
AcDbEntity
  8
GR1_01
  6
Continuous
 62
     7
370
    13
100
AcDbBlockReference
  2
FXTIP_ARROW_S
 10
63.71225736008369
 20
255.3811659192824
 30
0.0
 41
3.0
 42
3.0
 50
180.0
  0
INSERT
  5
262
330
1F
100
AcDbEntity
  8
GR1_01
  6
Continuous
 62
     7
370
    13
100
AcDbBlockReference
  2
FXTIP_ARROW_E
 10
213.7122573600837
 20
255.3811659192824
 30
0.0
 41
3.0
 42
3.0
 50
360.0
  0
LINE
  5
263
330
1F
100
AcDbEntity
  8
GR1_01
  6
Continuous
 62
     7
370
    13
100
AcDbLine
 10
63.71225736008371
 20
224.8811659192823
 30
0.0
 11
63.71225736008369
 21
256.3811659192824
 31
0.0
  0
LINE
  5
264
330
1F
100
AcDbEntity
  8
GR1_01
  6
Continuous
 62
     7
370
    13
100
AcDbLine
 10
213.7122573600837
 20
235.3811659192823
 30
0.0
 11
213.7122573600837
 21
256.3811659192824
 31
0.0
  0
TEXT
  5
265
330
1F
100
AcDbEntity
  8
GR1_01
  6
Continuous
 62
     7
370
    13
100
AcDbText
 10
145.9622650146484
 20
263.8811645504758
 30
0.0
 40
3.5
  1
（
 41
1.4
 51
10.0
  7
FX_VECTOR
 72
     5
 11
149.4622650146484
 21
263.8811645510867
 31
0.0
100
AcDbText
  0
TEXT
  5
266
330
1F
100
AcDbEntity
  8
GR1_01
  6
Continuous
 62
     7
370
    13
100
AcDbText
 10
149.4622650146484
 20
263.8811645498649
 30
0.0
 40
3.5
  1
１８２
 41
1.235294117647059
 51
10.0
  7
FX_VECTOR
 72
     5
 11
159.9622650146484
 21
263.8811645516976
 31
0.0
100
AcDbText
  0
TEXT
  5
267
330
1F
100
AcDbEntity
  8
GR1_01
  6
Continuous
 62
     7
370
    13
100
AcDbText
 10
159.9622650146484
 20
263.8811645504758
 30
0.0
 40
3.5
  1
）
 41
1.4
 51
10.0
  7
FX_VECTOR
 72
     5
 11
163.4622650146484
 21
263.8811645510867
 31
0.0
100
AcDbText
  0
LINE
  5
268
330
1F
100
AcDbEntity
  8
GR1_01
  6
Continuous
 62
     7
370
    13
100
AcDbLine
 10
63.71225736008369
 20
263.3811659192824
 30
0.0
 11
245.7122582289122
 21
263.3811659192824
 31
0.0
  0
INSERT
  5
269
330
1F
100
AcDbEntity
  8
GR1_01
  6
Continuous
 62
     7
370
    13
100
AcDbBlockReference
  2
FXTIP_ARROW_S
 10
63.71225736008369
 20
263.3811659192824
 30
0.0
 41
3.0
 42
3.0
 50
180.0
  0
INSERT
  5
26A
330
1F
100
AcDbEntity
  8
GR1_01
  6
Continuous
 62
     7
370
    13
100
AcDbBlockReference
  2
FXTIP_ARROW_E
 10
245.7122582289122
 20
263.3811659192824
 30
0.0
 41
3.0
 42
3.0
 50
360.0
  0
LINE
  5
26B
330
1F
100
AcDbEntity
  8
GR1_01
  6
Continuous
 62
     7
370
    13
100
AcDbLine
 10
63.71225736008371
 20
224.8811659192823
 30
0.0
 11
63.71225736008369
 21
264.3811659192824
 31
0.0
  0
LINE
  5
26C
330
1F
100
AcDbEntity
  8
GR1_01
  6
Continuous
 62
     7
370
    13
100
AcDbLine
 10
245.7122582289123
 20
216.3811626611775
 30
0.0
 11
245.7122582289122
 21
264.3811659192824
 31
0.0
  0
TEXT
  5
26D
330
1F
100
AcDbEntity
  8
GR1_01
  6
Continuous
 62
     7
370
    13
100
AcDbText
 10
47.21225738525391
 20
190.1311645507812
 30
0.0
 40
3.5
  1
φ
 50
90.0
 41
1.4
 51
10.0
  7
FX_VECTOR
 72
     5
 11
47.21225738525391
 21
193.6311645507812
 31
0.0
100
AcDbText
  0
TEXT
  5
26E
330
1F
100
AcDbEntity
  8
GR1_01
  6
Continuous
 62
     7
370
    13
100
AcDbText
 10
47.21225738525391
 20
193.6311645507812
 30
0.0
 40
3.5
  1
６２
 50
90.0
 41
1.272727272727273
 51
10.0
  7
FX_VECTOR
 72
     5
 11
47.21225738525391
 21
200.6311645507812
 31
0.0
100
AcDbText
  0
LINE
  5
26F
330
1F
100
AcDbEntity
  8
GR1_01
  6
Continuous
 62
     7
370
    13
100
AcDbLine
 10
47.7122573600837
 20
164.3811659192823
 30
0.0
 11
47.7122573600837
 21
226.3811659192824
 31
0.0
  0
INSERT
  5
270
330
1F
100
AcDbEntity
  8
GR1_01
  6
Continuous
 62
     7
370
    13
100
AcDbBlockReference
  2
FXTIP_ARROW_S
 10
47.7122573600837
 20
164.3811659192823
 30
0.0
 41
3.0
 42
3.0
 50
270.0
  0
INSERT
  5
271
330
1F
100
AcDbEntity
  8
GR1_01
  6
Continuous
 62
     7
370
    13
100
AcDbBlockReference
  2
FXTIP_ARROW_E
 10
47.7122573600837
 20
226.3811659192824
 30
0.0
 41
3.0
 42
3.0
 50
90.0
  0
LINE
  5
272
330
1F
100
AcDbEntity
  8
GR1_01
  6
Continuous
 62
     7
370
    13
100
AcDbLine
 10
93.71225736008374
 20
164.3811659192823
 30
0.0
 11
46.7122573600837
 21
164.3811659192823
 31
0.0
  0
LINE
  5
273
330
1F
100
AcDbEntity
  8
GR1_01
  6
Continuous
 62
     7
370
    13
100
AcDbLine
 10
93.71225736008371
 20
226.3811659192823
 30
0.0
 11
46.7122573600837
 21
226.3811659192823
 31
0.0
  0
TEXT
  5
274
330
1F
100
AcDbEntity
  8
GR1_01
  6
Continuous
 62
     7
370
    13
100
AcDbText
 10
70.21226501464844
 20
247.8811645501704
 30
0.0
 40
3.5
  1
２０
 41
1.272727272727273
 51
10.0
  7
FX_VECTOR
 72
     5
 11
77.21226501464844
 21
247.8811645513921
 31
0.0
100
AcDbText
  0
LINE
  5
275
330
1F
100
AcDbEntity
  8
GR1_01
  6
Continuous
 62
     7
370
    13
100
AcDbLine
 10
63.71225736008368
 20
247.3811659192822
 30
0.0
 11
83.71225736008466
 21
247.3811659192822
 31
0.0
  0
INSERT
  5
276
330
1F
100
AcDbEntity
  8
GR1_01
  6
Continuous
 62
     7
370
    13
100
AcDbBlockReference
  2
FXTIP_ARROW_S
 10
63.71225736008368
 20
247.3811659192822
 30
0.0
 41
3.0
 42
3.0
 50
180.0
  0
INSERT
  5
277
330
1F
100
AcDbEntity
  8
GR1_01
  6
Continuous
 62
     7
370
    13
100
AcDbBlockReference
  2
FXTIP_ARROW_E
 10
83.71225736008466
 20
247.3811659192822
 30
0.0
 41
3.0
 42
3.0
 50
360.0
  0
LINE
  5
278
330
1F
100
AcDbEntity
  8
GR1_01
  6
Continuous
 62
     7
370
    13
100
AcDbLine
 10
63.71225736008373
 20
224.8811659192823
 30
0.0
 11
63.71225736008371
 21
248.3811659192822
 31
0.0
  0
LINE
  5
279
330
1F
100
AcDbEntity
  8
GR1_01
  6
Continuous
 62
     7
370
    13
100
AcDbLine
 10
83.71225736008469
 20
209.3811836285737
 30
0.0
 11
83.71225736008469
 21
248.3811659192822
 31
0.0
  0
TEXT
  5
27A
330
1F
100
AcDbEntity
  8
GR1_01
  6
Continuous
 62
     7
370
    13
100
AcDbText
 10
182.4622497558594
 20
247.8811645495595
 30
0.0
 40
3.5
  1
４８．５
 41
1.217391304347826
 51
10.0
  7
FX_VECTOR
 72
     5
 11
196.4622497558594
 21
247.881164552003
 31
0.0
100
AcDbText
  0
LINE
  5
27B
330
1F
100
AcDbEntity
  8
GR1_01
  6
Continuous
 62
     7
370
    13
100
AcDbLine
 10
165.2122573600837
 20
247.3811659192823
 30
0.0
 11
213.7122573600837
 21
247.3811659192823
 31
0.0
  0
INSERT
  5
27C
330
1F
100
AcDbEntity
  8
GR1_01
  6
Continuous
 62
     7
370
    13
100
AcDbBlockReference
  2
FXTIP_ARROW_S
 10
165.2122573600837
 20
247.3811659192823
 30
0.0
 41
3.0
 42
3.0
 50
180.0
  0
INSERT
  5
27D
330
1F
100
AcDbEntity
  8
GR1_01
  6
Continuous
 62
     7
370
    13
100
AcDbBlockReference
  2
FXTIP_ARROW_E
 10
213.7122573600837
 20
247.3811659192823
 30
0.0
 41
3.0
 42
3.0
 50
360.0
  0
LINE
  5
27E
330
1F
100
AcDbEntity
  8
GR1_01
  6
Continuous
 62
     7
370
    13
100
AcDbLine
 10
165.2122573600837
 20
235.3811659192824
 30
0.0
 11
165.2122573600837
 21
248.3811659192824
 31
0.0
  0
LINE
  5
27F
330
1F
100
AcDbEntity
  8
GR1_01
  6
Continuous
 62
     7
370
    13
100
AcDbLine
 10
213.7122573600837
 20
235.3811659192823
 30
0.0
 11
213.7122573600838
 21
248.3811659192823
 31
0.0
  0
TEXT
  5
280
330
1F
100
AcDbEntity
  8
GR1_01
  6
Continuous
 62
     7
370
    13
100
AcDbText
 10
263.2122497558594
 20
205.4586486816406
 30
0.0
 40
3.5
  1
φ
 50
90.0
 41
1.2
 51
10.0
  7
FX_VECTOR
 72
     5
 11
263.2122497558594
 21
208.4586486816406
 31
0.0
100
AcDbText
  0
TEXT
  5
281
330
1F
100
AcDbEntity
  8
GR1_01
  6
Continuous
 62
     7
370
    13
100
AcDbText
 10
263.2122497558594
 20
208.4586486816406
 30
0.0
 40
3.5
  1
１０
 50
90.0
 41
1.090909090909091
 51
10.0
  7
FX_VECTOR
 72
     5
 11
263.2122497558594
 21
214.4586486816406
 31
0.0
100
AcDbText
  0
LINE
  5
282
330
1F
100
AcDbEntity
  8
GR1_01
  6
Continuous
 62
     7
370
    13
100
AcDbLine
 10
263.7122582289123
 20
205.3811626611775
 30
0.0
 11
263.7122582289123
 21
215.3811626611774
 31
0.0
  0
LINE
  5
283
330
1F
100
AcDbEntity
  8
GR1_01
  6
Continuous
 62
     7
370
    13
100
AcDbLine
 10
246.7122582289122
 20
205.3811626611775
 30
0.0
 11
264.7122582289123
 21
205.3811626611775
 31
0.0
  0
LINE
  5
284
330
1F
100
AcDbEntity
  8
GR1_01
  6
Continuous
 62
     7
370
    13
100
AcDbLine
 10
246.7122582289123
 20
215.3811626611775
 30
0.0
 11
264.7122582289123
 21
215.3811626611775
 31
0.0
  0
LINE
  5
285
330
1F
100
AcDbEntity
  8
GR1_01
  6
Continuous
 62
     7
370
    13
100
AcDbLine
 10
263.7122582289123
 20
200.3811626611775
 30
0.0
 11
263.7122582289123
 21
205.3811626611775
 31
0.0
  0
INSERT
  5
286
330
1F
100
AcDbEntity
  8
GR1_01
  6
Continuous
 62
     7
370
    13
100
AcDbBlockReference
  2
FXTIP_ARROW_E
 10
263.7122582289123
 20
205.3811626611775
 30
0.0
 41
3.0
 42
3.0
 50
90.0
  0
LINE
  5
287
330
1F
100
AcDbEntity
  8
GR1_01
  6
Continuous
 62
     7
370
    13
100
AcDbLine
 10
263.7122582289123
 20
215.3811626611774
 30
0.0
 11
263.7122582289123
 21
238.3811626611774
 31
0.0
  0
INSERT
  5
288
330
1F
100
AcDbEntity
  8
GR1_01
  6
Continuous
 62
     7
370
    13
100
AcDbBlockReference
  2
FXTIP_ARROW_S
 10
263.7122582289123
 20
215.3811626611774
 30
0.0
 41
3.0
 42
3.0
 50
270.0
  0
TEXT
  5
289
330
1F
100
AcDbEntity
  8
GR1_01
  6
Continuous
 62
     7
370
    13
100
AcDbText
 10
352.4645385742188
 20
255.8811645501704
 30
0.0
 40
3.5
  1
８０
 41
1.272727272727273
 51
10.0
  7
FX_VECTOR
 72
     5
 11
359.4645385742188
 21
255.8811645513921
 31
0.0
100
AcDbText
  0
LINE
  5
28A
330
1F
100
AcDbEntity
  8
GR1_01
  6
Continuous
 62
     7
370
    13
100
AcDbLine
 10
315.9645217001055
 20
255.3811659192823
 30
0.0
 11
395.9645217001055
 21
255.3811659192823
 31
0.0
  0
INSERT
  5
28B
330
1F
100
AcDbEntity
  8
GR1_01
  6
Continuous
 62
     7
370
    13
100
AcDbBlockReference
  2
FXTIP_ARROW_S
 10
315.9645217001055
 20
255.3811659192823
 30
0.0
 41
3.0
 42
3.0
 50
180.0
  0
INSERT
  5
28C
330
1F
100
AcDbEntity
  8
GR1_01
  6
Continuous
 62
     7
370
    13
100
AcDbBlockReference
  2
FXTIP_ARROW_E
 10
395.9645217001055
 20
255.3811659192823
 30
0.0
 41
3.0
 42
3.0
 50
360.0
  0
LINE
  5
28D
330
1F
100
AcDbEntity
  8
GR1_01
  6
Continuous
 62
     7
370
    13
100
AcDbLine
 10
315.9645217001055
 20
230.3811659192824
 30
0.0
 11
315.9645217001055
 21
256.3811659192822
 31
0.0
  0
LINE
  5
28E
330
1F
100
AcDbEntity
  8
GR1_01
  6
Continuous
 62
     7
370
    13
100
AcDbLine
 10
395.9645217001055
 20
230.3811659192824
 30
0.0
 11
395.9645217001055
 21
256.3811659192822
 31
0.0
  0
TEXT
  5
28F
330
1F
100
AcDbEntity
  8
GR1_01
  6
Continuous
 62
     7
370
    13
100
AcDbText
 10
221.4622650146484
 20
173.1471405029297
 30
0.0
 40
3.5
  1
１１
 41
1.090909090909091
 51
10.0
  7
FX_VECTOR
 72
     5
 11
227.4622650146484
 21
173.1471405029297
 31
0.0
100
AcDbText
  0
LINE
  5
290
330
1F
100
AcDbEntity
  8
GR1_01
  6
Continuous
 62
     7
370
    13
100
AcDbLine
 10
218.7122581978419
 20
172.6471470488019
 30
0.0
 11
230.2122577161297
 21
172.6471470488019
 31
0.0
  0
INSERT
  5
291
330
1F
100
AcDbEntity
  8
GR1_01
  6
Continuous
 62
     7
370
    13
100
AcDbBlockReference
  2
FXTIP_ARROW_S
 10
218.7122581978419
 20
172.6471470488019
 30
0.0
 41
3.0
 42
3.0
 50
180.0
  0
INSERT
  5
292
330
1F
100
AcDbEntity
  8
GR1_01
  6
Continuous
 62
     7
370
    13
100
AcDbBlockReference
  2
FXTIP_ARROW_E
 10
230.2122577161297
 20
172.6471470488019
 30
0.0
 41
3.0
 42
3.0
 50
360.0
  0
LINE
  5
293
330
1F
100
AcDbEntity
  8
GR1_01
  6
Continuous
 62
     7
370
    13
100
AcDbLine
 10
218.7122581978418
 20
167.147145217764
 30
0.0
 11
218.7122581978419
 21
173.6471470488019
 31
0.0
  0
LINE
  5
294
330
1F
100
AcDbEntity
  8
GR1_01
  6
Continuous
 62
     7
370
    13
100
AcDbLine
 10
230.2122577161296
 20
164.8471428860929
 30
0.0
 11
230.2122577161297
 21
173.6471470488019
 31
0.0
  0
TEXT
  5
295
330
1F
100
AcDbEntity
  8
GR1_01
  6
Continuous
 62
     7
370
    13
100
AcDbText
 10
218.4622650146484
 20
173.1471405029297
 30
0.0
 40
3.5
  1
（
 41
1.2
 51
10.0
  7
FX_VECTOR
 72
     5
 11
221.4622650146484
 21
173.1471405029297
 31
0.0
100
AcDbText
  0
TEXT
  5
296
330
1F
100
AcDbEntity
  8
GR1_01
  6
Continuous
 62
     7
370
    13
100
AcDbText
 10
227.4622650146484
 20
173.1471405029297
 30
0.0
 40
3.5
  1
）
 41
1.2
 51
10.0
  7
FX_VECTOR
 72
     5
 11
230.4622650146484
 21
173.1471405029297
 31
0.0
100
AcDbText
  0
LINE
  5
297
330
1F
100
AcDbEntity
  8
GR1_01
  6
Continuous
 62
     7
370
    13
100
AcDbLine
 10
223.7122573600841
 20
159.6471473864426
 30
0.0
 11
229.6393245236448
 21
149.3811659192824
 31
0.0
  0
INSERT
  5
298
330
1F
100
AcDbEntity
  8
GR1_01
  6
Continuous
 62
     7
370
    13
100
AcDbBlockReference
  2
FXTIP_ARROW_S
 10
223.7122573600841
 20
159.6471473864426
 30
0.0
 41
3.0
 42
3.0
 50
120.0
  0
LINE
  5
299
330
1F
100
AcDbEntity
  8
GR1_01
  6
Continuous
 62
     7
370
    13
100
AcDbLine
 10
229.6393245236448
 20
149.3811659192824
 30
0.0
 11
256.1393245236447
 21
149.3811659192824
 31
0.0
  0
TEXT
  5
29A
330
1F
100
AcDbEntity
  8
GR1_01
  6
Continuous
 62
     7
370
    13
100
AcDbText
 10
230.6392974853516
 20
149.8811645507812
 30
0.0
 40
3.5
  1
４ＸＭ５－６５
 41
1.195121951219512
 51
10.0
  7
FX_VECTOR
 72
     5
 11
255.1392974853516
 21
149.8811645507812
 31
0.0
100
AcDbText
  0
LINE
  5
29B
330
1F
100
AcDbEntity
  8
GR1_01
  6
Continuous
 62
     7
370
    13
100
AcDbLine
 10
84.81226020192639
 20
160.1810841737985
 30
0.0
 11
91.04759591339727
 21
149.3811659192823
 31
0.0
  0
INSERT
  5
29C
330
1F
100
AcDbEntity
  8
GR1_01
  6
Continuous
 62
     7
370
    13
100
AcDbBlockReference
  2
FXTIP_ARROW_S
 10
84.81226020192639
 20
160.1810841737985
 30
0.0
 41
3.0
 42
3.0
 50
120.0
  0
LINE
  5
29D
330
1F
100
AcDbEntity
  8
GR1_01
  6
Continuous
 62
     7
370
    13
100
AcDbLine
 10
91.04759591339727
 20
149.3811659192823
 30
0.0
 11
117.5475959133973
 21
149.3811659192823
 31
0.0
  0
TEXT
  5
29E
330
1F
100
AcDbEntity
  8
GR1_01
  6
Continuous
 62
     7
370
    13
100
AcDbText
 10
92.04759979248047
 20
149.8811645507812
 30
0.0
 40
3.5
  1
モータリード線
 41
1.195121951219512
 51
10.0
  7
FX_VECTOR
 72
     5
 11
116.5475997924805
 21
149.8811645507812
 31
0.0
100
AcDbText
  0
TEXT
  5
2A0
330
1F
100
AcDbEntity
  8
仕様
  6
Continuous
 62
     7
370
    13
100
AcDbText
 10
286.7576904296875
 20
112.9814376831055
 30
0.0
 40
3.5
  1
　　２４
 41
1.217391304347826
 51
10.0
  7
FX_VECTOR
 72
     5
 11
300.7576904296875
 21
112.9814376831055
 31
0.0
100
AcDbText
  0
TEXT
  5
2A1
330
1F
100
AcDbEntity
  8
仕様
  6
Continuous
 62
     7
370
    13
100
AcDbText
 10
286.7576904296875
 20
106.9814376831055
 30
0.0
 40
3.5
  1
　２．０
 41
1.217391304347826
 51
10.0
  7
FX_VECTOR
 72
     5
 11
300.7576904296875
 21
106.9814376831055
 31
0.0
100
AcDbText
  0
TEXT
  5
2A2
330
1F
100
AcDbEntity
  8
仕様
  6
Continuous
 62
     7
370
    13
100
AcDbText
 10
286.7576904296875
 20
100.9814376831055
 30
0.0
 40
3.5
  1
　　５０
 41
1.217391304347826
 51
10.0
  7
FX_VECTOR
 72
     5
 11
300.7576904296875
 21
100.9814376831055
 31
0.0
100
AcDbText
  0
TEXT
  5
2A3
330
1F
100
AcDbEntity
  8
仕様
  6
Continuous
 62
     7
370
    13
100
AcDbText
 10
286.7576904296875
 20
94.98143768310547
 30
0.0
 40
3.5
  1
　４．９
 41
1.217391304347826
 51
10.0
  7
FX_VECTOR
 72
     5
 11
300.7576904296875
 21
94.98143768310547
 31
0.0
100
AcDbText
  0
TEXT
  5
2A4
330
1F
100
AcDbEntity
  8
仕様
  6
Continuous
 62
     7
370
    13
100
AcDbText
 10
286.7576904296875
 20
88.98143768310547
 30
0.0
 40
3.5
  1
　　５０
 41
1.217391304347826
 51
10.0
  7
FX_VECTOR
 72
     5
 11
300.7576904296875
 21
88.98143768310547
 31
0.0
100
AcDbText
  0
TEXT
  5
2A5
330
1F
100
AcDbEntity
  8
Layer1
  6
Continuous
 62
     7
370
    13
100
AcDbText
 10
275.7576904296875
 20
76.98143768310547
 30
0.0
 40
3.5
  1
０．７５
 41
1.043478260869565
 51
10.0
  7
FX_VECTOR
 72
     5
 11
287.7576904296875
 21
76.98143768310547
 31
0.0
100
AcDbText
  0
INSERT
  5
2A9
330
1F
100
AcDbEntity
  8
GR1_01
  6
Continuous
 62
     3
370
    35
100
AcDbBlockReference
  2
BLKF038
 10
0.0
 20
0.0
 30
0.0
  0
CIRCLE
  5
2B8
330
1F
100
AcDbEntity
  8
GR1_01
  6
Continuous
 62
     3
370
    35
100
AcDbCircle
 10
355.9645217001055
 20
210.3811659192824
 30
0.0
 40
5.0
  0
LINE
  5
2B9
330
1F
100
AcDbEntity
  8
GR1_01
  6
Continuous
 62
     3
370
    35
100
AcDbLine
 10
353.4645217001054
 20
208.3811659192824
 30
0.0
 11
351.3819460051496
 21
208.3811659192824
 31
0.0
  0
LINE
  5
2BA
330
1F
100
AcDbEntity
  8
GR1_01
  6
Continuous
 62
     3
370
    35
100
AcDbLine
 10
353.4645217001054
 20
212.3811659192824
 30
0.0
 11
351.3819460051496
 21
212.3811659192824
 31
0.0
  0
LINE
  5
2BB
330
1F
100
AcDbEntity
  8
GR1_01
  6
Continuous
 62
     3
370
    35
100
AcDbLine
 10
353.4645217001054
 20
212.3811659192824
 30
0.0
 11
353.4645217001055
 21
208.3811659192824
 31
0.0
  0
TEXT
  5
2BC
330
1F
100
AcDbEntity
  8
GR1_01
  6
Continuous
 62
     7
370
    13
100
AcDbText
 10
351.9645080566406
 20
248.381164549865
 30
0.0
 40
3.5
  1
７．５
 41
1.235294117647059
 51
10.0
  7
FX_VECTOR
 72
     5
 11
362.4645080566406
 21
248.3811645516975
 31
0.0
100
AcDbText
  0
LINE
  5
2BD
330
1F
100
AcDbEntity
  8
GR1_01
  6
Continuous
 62
     7
370
    13
100
AcDbLine
 10
353.4645217001054
 20
247.3811659192823
 30
0.0
 11
360.9645217001055
 21
247.3811659192823
 31
0.0
  0
LINE
  5
2BE
330
1F
100
AcDbEntity
  8
GR1_01
  6
Continuous
 62
     7
370
    13
100
AcDbLine
 10
353.4645217001054
 20
213.3811659192824
 30
0.0
 11
353.4645217001054
 21
248.3811659192823
 31
0.0
  0
LINE
  5
2BF
330
1F
100
AcDbEntity
  8
GR1_01
  6
Continuous
 62
     7
370
    13
100
AcDbLine
 10
360.9645217001055
 20
211.3811659192824
 30
0.0
 11
360.9645217001055
 21
248.3811659192823
 31
0.0
  0
LINE
  5
2C0
330
1F
100
AcDbEntity
  8
GR1_01
  6
Continuous
 62
     7
370
    13
100
AcDbLine
 10
348.4645217001054
 20
247.3811659192823
 30
0.0
 11
353.4645217001054
 21
247.3811659192823
 31
0.0
  0
INSERT
  5
2C1
330
1F
100
AcDbEntity
  8
GR1_01
  6
Continuous
 62
     7
370
    13
100
AcDbBlockReference
  2
FXTIP_ARROW_E
 10
353.4645217001054
 20
247.3811659192823
 30
0.0
 41
3.0
 42
3.0
 50
360.0
  0
LINE
  5
2C2
330
1F
100
AcDbEntity
  8
GR1_01
  6
Continuous
 62
     7
370
    13
100
AcDbLine
 10
360.9645217001055
 20
247.3811659192823
 30
0.0
 11
371.9645217001055
 21
247.3811659192823
 31
0.0
  0
INSERT
  5
2C3
330
1F
100
AcDbEntity
  8
GR1_01
  6
Continuous
 62
     7
370
    13
100
AcDbBlockReference
  2
FXTIP_ARROW_S
 10
360.9645217001055
 20
247.3811659192823
 30
0.0
 41
3.0
 42
3.0
 50
180.0
  0
TEXT
  5
2C4
330
1F
100
AcDbEntity
  8
GR1_01
  6
Continuous
 62
     7
370
    13
100
AcDbText
 10
303.4645080566406
 20
208.628173828125
 30
0.0
 40
3.5
  1
４
 50
90.0
 41
1.4
 51
10.0
  7
FX_VECTOR
 72
     5
 11
303.4645080566406
 21
212.128173828125
 31
0.0
100
AcDbText
  0
LINE
  5
2C5
330
1F
100
AcDbEntity
  8
GR1_01
  6
Continuous
 62
     7
370
    13
100
AcDbLine
 10
303.9645217001055
 20
208.3811659192824
 30
0.0
 11
303.9645217001055
 21
212.3811659192824
 31
0.0
  0
LINE
  5
2C6
330
1F
100
AcDbEntity
  8
GR1_01
  6
Continuous
 62
     7
370
    13
100
AcDbLine
 10
350.3819460051496
 20
208.3811659192824
 30
0.0
 11
302.9645217001055
 21
208.3811659192825
 31
0.0
  0
LINE
  5
2C7
330
1F
100
AcDbEntity
  8
GR1_01
  6
Continuous
 62
     7
370
    13
100
AcDbLine
 10
350.3819460051496
 20
212.3811659192824
 30
0.0
 11
302.9645217001055
 21
212.3811659192824
 31
0.0
  0
LINE
  5
2C8
330
1F
100
AcDbEntity
  8
GR1_01
  6
Continuous
 62
     7
370
    13
100
AcDbLine
 10
303.9645217001055
 20
203.3811659192824
 30
0.0
 11
303.9645217001055
 21
208.3811659192824
 31
0.0
  0
INSERT
  5
2C9
330
1F
100
AcDbEntity
  8
GR1_01
  6
Continuous
 62
     7
370
    13
100
AcDbBlockReference
  2
FXTIP_ARROW_E
 10
303.9645217001055
 20
208.3811659192824
 30
0.0
 41
3.0
 42
3.0
 50
90.0
  0
LINE
  5
2CA
330
1F
100
AcDbEntity
  8
GR1_01
  6
Continuous
 62
     7
370
    13
100
AcDbLine
 10
303.9645217001055
 20
212.3811659192824
 30
0.0
 11
303.9645217001055
 21
226.3811659192824
 31
0.0
  0
INSERT
  5
2CB
330
1F
100
AcDbEntity
  8
GR1_01
  6
Continuous
 62
     7
370
    13
100
AcDbBlockReference
  2
FXTIP_ARROW_S
 10
303.9645217001055
 20
212.3811659192824
 30
0.0
 41
3.0
 42
3.0
 50
270.0
  0
TEXT
  5
2CC
330
1F
100
AcDbEntity
  8
GR1_01
  6
Continuous
 62
     7
370
    13
100
AcDbText
 10
271.2122497558594
 20
205.1311645507812
 30
0.0
 40
3.5
  1
φ
 50
90.0
 41
1.4
 51
10.0
  7
FX_VECTOR
 72
     5
 11
271.2122497558594
 21
208.6311645507812
 31
0.0
100
AcDbText
  0
TEXT
  5
2CD
330
1F
100
AcDbEntity
  8
GR1_01
  6
Continuous
 62
     7
370
    13
100
AcDbText
 10
271.2122497558594
 20
208.6311645507812
 30
0.0
 40
3.5
  1
３０
 50
90.0
 41
1.272727272727273
 51
10.0
  7
FX_VECTOR
 72
     5
 11
271.2122497558594
 21
215.6311645507812
 31
0.0
100
AcDbText
  0
LINE
  5
2CE
330
1F
100
AcDbEntity
  8
GR1_01
  6
Continuous
 62
     7
370
    13
100
AcDbLine
 10
271.7122582289123
 20
195.3811626611775
 30
0.0
 11
271.7122582289123
 21
225.3811626611775
 31
0.0
  0
INSERT
  5
2CF
330
1F
100
AcDbEntity
  8
GR1_01
  6
Continuous
 62
     7
370
    13
100
AcDbBlockReference
  2
FXTIP_ARROW_S
 10
271.7122582289123
 20
195.3811626611775
 30
0.0
 41
3.0
 42
3.0
 50
270.0
  0
INSERT
  5
2D0
330
1F
100
AcDbEntity
  8
GR1_01
  6
Continuous
 62
     7
370
    13
100
AcDbBlockReference
  2
FXTIP_ARROW_E
 10
271.7122582289123
 20
225.3811626611775
 30
0.0
 41
3.0
 42
3.0
 50
90.0
  0
LINE
  5
2D1
330
1F
100
AcDbEntity
  8
GR1_01
  6
Continuous
 62
     7
370
    13
100
AcDbLine
 10
219.7122573600838
 20
195.3811626611775
 30
0.0
 11
272.7122582289123
 21
195.3811626611775
 31
0.0
  0
LINE
  5
2D2
330
1F
100
AcDbEntity
  8
GR1_01
  6
Continuous
 62
     7
370
    13
100
AcDbLine
 10
219.7122573600838
 20
225.3811626611775
 30
0.0
 11
272.7122582289123
 21
225.3811626611775
 31
0.0
  0
TEXT
  5
2D3
330
1F
100
AcDbEntity
  8
GR1_01
  6
Continuous
 62
     7
370
    13
100
AcDbText
 10
229.7122650146484
 20
239.8811645501704
 30
0.0
 40
3.5
  1
２５
 41
1.272727272727273
 51
10.0
  7
FX_VECTOR
 72
     5
 11
236.7122650146484
 21
239.8811645513921
 31
0.0
100
AcDbText
  0
LINE
  5
2D4
330
1F
100
AcDbEntity
  8
GR1_01
  6
Continuous
 62
     7
370
    13
100
AcDbLine
 10
220.7122582289123
 20
239.3811659192823
 30
0.0
 11
245.7122582289122
 21
239.3811659192823
 31
0.0
  0
INSERT
  5
2D5
330
1F
100
AcDbEntity
  8
GR1_01
  6
Continuous
 62
     7
370
    13
100
AcDbBlockReference
  2
FXTIP_ARROW_S
 10
220.7122582289123
 20
239.3811659192823
 30
0.0
 41
3.0
 42
3.0
 50
180.0
  0
INSERT
  5
2D6
330
1F
100
AcDbEntity
  8
GR1_01
  6
Continuous
 62
     7
370
    13
100
AcDbBlockReference
  2
FXTIP_ARROW_E
 10
245.7122582289122
 20
239.3811659192823
 30
0.0
 41
3.0
 42
3.0
 50
360.0
  0
LINE
  5
2D7
330
1F
100
AcDbEntity
  8
GR1_01
  6
Continuous
 62
     7
370
    13
100
AcDbLine
 10
220.7122582289123
 20
211.3811626611775
 30
0.0
 11
220.7122582289123
 21
240.3811659192823
 31
0.0
  0
TEXT
  5
2D8
330
1F
100
AcDbEntity
  8
GR1_01
  6
Continuous
 62
     7
370
    13
100
AcDbText
 10
229.2122650146484
 20
247.8811645501704
 30
0.0
 40
3.5
  1
２６
 41
1.272727272727273
 51
10.0
  7
FX_VECTOR
 72
     5
 11
236.2122650146484
 21
247.8811645513921
 31
0.0
100
AcDbText
  0
LINE
  5
2D9
330
1F
100
AcDbEntity
  8
GR1_01
  6
Continuous
 62
     7
370
    13
100
AcDbLine
 10
219.7122573600837
 20
247.3811659192823
 30
0.0
 11
245.7122582289122
 21
247.3811659192823
 31
0.0
  0
INSERT
  5
2DA
330
1F
100
AcDbEntity
  8
GR1_01
  6
Continuous
 62
     7
370
    13
100
AcDbBlockReference
  2
FXTIP_ARROW_S
 10
219.7122573600837
 20
247.3811659192823
 30
0.0
 41
3.0
 42
3.0
 50
180.0
  0
INSERT
  5
2DB
330
1F
100
AcDbEntity
  8
GR1_01
  6
Continuous
 62
     7
370
    13
100
AcDbBlockReference
  2
FXTIP_ARROW_E
 10
245.7122582289122
 20
247.3811659192823
 30
0.0
 41
3.0
 42
3.0
 50
360.0
  0
LINE
  5
2DC
330
1F
100
AcDbEntity
  8
GR1_01
  6
Continuous
 62
     7
370
    13
100
AcDbLine
 10
219.7122573600838
 20
225.3811626611774
 30
0.0
 11
219.7122573600838
 21
248.3811659192823
 31
0.0
  0
LINE
  5
2DD
330
1F
100
AcDbEntity
  8
GR1_01
  6
Continuous
 62
     7
370
    13
100
AcDbLine
 10
245.7122582289123
 20
216.3811626611775
 30
0.0
 11
245.7122582289123
 21
248.3811659192822
 31
0.0
  0
TEXT
  5
2DE
330
1F
100
AcDbEntity
  8
Layer1
  6
Continuous
 62
     7
370
    13
100
AcDbText
 10
143.5035095214844
 20
75.98143768310547
 30
0.0
 40
3.5
  1
片丸平行キーの寸法（付属品）
 41
1.180722891566265
 51
10.0
  7
FX_VECTOR
 72
     5
 11
192.5035095214844
 21
75.98143768310547
 31
0.0
100
AcDbText
  0
TEXT
  5
2DF
330
1F
100
AcDbEntity
  8
Layer1
  6
Continuous
 62
     7
370
    13
100
AcDbText
 10
203.2571563720703
 20
58.77157592773438
 30
0.0
 40
3.5
  1
４
 50
90.0
 41
1.4
 51
10.0
  7
FX_VECTOR
 72
     5
 11
203.2571563720703
 21
62.27157592773438
 31
0.0
100
AcDbText
  0
LINE
  5
2E0
330
1F
100
AcDbEntity
  8
Layer1
  6
Continuous
 62
     7
370
    13
100
AcDbLine
 10
203.757159723388
 20
58.52157343678927
 30
0.0
 11
203.757159723388
 21
62.52157343678927
 31
0.0
  0
LINE
  5
2E1
330
1F
100
AcDbEntity
  8
Layer1
  6
Continuous
 62
     7
370
    13
100
AcDbLine
 10
192.757159723388
 20
58.52157343678927
 30
0.0
 11
204.757159723388
 21
58.52157343678927
 31
0.0
  0
LINE
  5
2E2
330
1F
100
AcDbEntity
  8
Layer1
  6
Continuous
 62
     7
370
    13
100
AcDbLine
 10
192.757159723388
 20
62.52157343678927
 30
0.0
 11
204.757159723388
 21
62.52157343678927
 31
0.0
  0
LINE
  5
2E3
330
1F
100
AcDbEntity
  8
Layer1
  6
Continuous
 62
     7
370
    13
100
AcDbLine
 10
203.757159723388
 20
53.52157343678927
 30
0.0
 11
203.757159723388
 21
58.52157343678927
 31
0.0
  0
INSERT
  5
2E4
330
1F
100
AcDbEntity
  8
Layer1
  6
Continuous
 62
     7
370
    13
100
AcDbBlockReference
  2
FXTIP_ARROW_E
 10
203.757159723388
 20
58.52157343678927
 30
0.0
 41
3.0
 42
3.0
 50
90.0
  0
LINE
  5
2E5
330
1F
100
AcDbEntity
  8
Layer1
  6
Continuous
 62
     7
370
    13
100
AcDbLine
 10
203.757159723388
 20
62.52157343678927
 30
0.0
 11
203.757159723388
 21
76.52157343678927
 31
0.0
  0
INSERT
  5
2E6
330
1F
100
AcDbEntity
  8
Layer1
  6
Continuous
 62
     7
370
    13
100
AcDbBlockReference
  2
FXTIP_ARROW_S
 10
203.757159723388
 20
62.52157343678927
 30
0.0
 41
3.0
 42
3.0
 50
270.0
  0
TEXT
  5
2E7
330
1F
100
AcDbEntity
  8
Layer1
  6
Continuous
 62
     7
370
    13
100
AcDbText
 10
175.7571563720703
 20
49.4814376824946
 30
0.0
 40
3.5
  1
２５
 41
1.272727272727273
 51
10.0
  7
FX_VECTOR
 72
     5
 11
182.7571563720703
 21
49.48143768371634
 31
0.0
100
AcDbText
  0
LINE
  5
2E8
330
1F
100
AcDbEntity
  8
Layer1
  6
Continuous
 62
     7
370
    13
100
AcDbLine
 10
166.757159723388
 20
48.98143965752504
 30
0.0
 11
191.757159723388
 21
48.98143965752504
 31
0.0
  0
INSERT
  5
2E9
330
1F
100
AcDbEntity
  8
Layer1
  6
Continuous
 62
     7
370
    13
100
AcDbBlockReference
  2
FXTIP_ARROW_S
 10
166.757159723388
 20
48.98143965752504
 30
0.0
 41
3.0
 42
3.0
 50
180.0
  0
INSERT
  5
2EA
330
1F
100
AcDbEntity
  8
Layer1
  6
Continuous
 62
     7
370
    13
100
AcDbBlockReference
  2
FXTIP_ARROW_E
 10
191.757159723388
 20
48.98143965752504
 30
0.0
 41
3.0
 42
3.0
 50
360.0
  0
LINE
  5
2EB
330
1F
100
AcDbEntity
  8
Layer1
  6
Continuous
 62
     7
370
    13
100
AcDbLine
 10
166.757159723388
 20
59.52157343678927
 30
0.0
 11
166.757159723388
 21
47.98143965752504
 31
0.0
  0
LINE
  5
2EC
330
1F
100
AcDbEntity
  8
Layer1
  6
Continuous
 62
     7
370
    13
100
AcDbLine
 10
191.757159723388
 20
57.52157343678927
 30
0.0
 11
191.757159723388
 21
47.98143965752504
 31
0.0
  0
TEXT
  5
2ED
330
1F
100
AcDbEntity
  8
Layer1
  6
Continuous
 62
     7
370
    13
100
AcDbText
 10
144.5946197509766
 20
49.48143768280003
 30
0.0
 40
3.5
  1
４
 41
1.4
 51
10.0
  7
FX_VECTOR
 72
     5
 11
148.0946197509766
 21
49.4814376834109
 31
0.0
100
AcDbText
  0
LINE
  5
2EE
330
1F
100
AcDbEntity
  8
Layer1
  6
Continuous
 62
     7
370
    13
100
AcDbLine
 10
144.5163415640914
 20
48.98143965752503
 30
0.0
 11
148.5163415640914
 21
48.98143965752503
 31
0.0
  0
LINE
  5
2EF
330
1F
100
AcDbEntity
  8
Layer1
  6
Continuous
 62
     7
370
    13
100
AcDbLine
 10
144.5163415640914
 20
57.52157343678927
 30
0.0
 11
144.5163415640914
 21
47.98143965752503
 31
0.0
  0
LINE
  5
2F0
330
1F
100
AcDbEntity
  8
Layer1
  6
Continuous
 62
     7
370
    13
100
AcDbLine
 10
148.5163415640914
 20
57.52157343678927
 30
0.0
 11
148.5163415640914
 21
47.98143965752503
 31
0.0
  0
LINE
  5
2F1
330
1F
100
AcDbEntity
  8
Layer1
  6
Continuous
 62
     7
370
    13
100
AcDbLine
 10
139.5163415640914
 20
48.98143965752503
 30
0.0
 11
144.5163415640914
 21
48.98143965752503
 31
0.0
  0
INSERT
  5
2F2
330
1F
100
AcDbEntity
  8
Layer1
  6
Continuous
 62
     7
370
    13
100
AcDbBlockReference
  2
FXTIP_ARROW_E
 10
144.5163415640914
 20
48.98143965752503
 30
0.0
 41
3.0
 42
3.0
 50
360.0
  0
LINE
  5
2F3
330
1F
100
AcDbEntity
  8
Layer1
  6
Continuous
 62
     7
370
    13
100
AcDbLine
 10
148.5163415640914
 20
48.98143965752503
 30
0.0
 11
161.5163415640914
 21
48.98143965752503
 31
0.0
  0
INSERT
  5
2F4
330
1F
100
AcDbEntity
  8
Layer1
  6
Continuous
 62
     7
370
    13
100
AcDbBlockReference
  2
FXTIP_ARROW_S
 10
148.5163415640914
 20
48.98143965752503
 30
0.0
 41
3.0
 42
3.0
 50
180.0
  0
TEXT
  5
2F5
330
1F
100
AcDbEntity
  8
Layer1
  6
Continuous
 62
     7
370
    13
100
AcDbText
 10
200.7175598144531
 20
66.10115814208984
 30
0.0
 40
2.5
  1
　０
 50
90.0
 41
1.018181818181818
 51
10.0
  7
FX_VECTOR
 72
     5
 11
200.7175598144531
 21
70.10115814208984
 31
0.0
100
AcDbText
  0
TEXT
  5
2F6
330
1F
100
AcDbEntity
  8
Layer1
  6
Continuous
 62
     7
370
    13
100
AcDbText
 10
203.2175598144531
 20
66.10115814208984
 30
0.0
 40
2.5
  1
－０．０３
 50
90.0
 41
0.9655172413793103
 51
10.0
  7
FX_VECTOR
 72
     5
 11
203.2175598144531
 21
76.10115814208984
 31
0.0
100
AcDbText
  0
TEXT
  5
2F7
330
1F
100
AcDbEntity
  8
Layer1
  6
Continuous
 62
     7
370
    13
100
AcDbText
 10
151.2997283935547
 20
51.96054840087891
 30
0.0
 40
2.5
  1
　０
 41
1.018181818181818
 51
10.0
  7
FX_VECTOR
 72
     5
 11
155.2997283935547
 21
51.96054840087891
 31
0.0
100
AcDbText
  0
TEXT
  5
2F8
330
1F
100
AcDbEntity
  8
Layer1
  6
Continuous
 62
     7
370
    13
100
AcDbText
 10
151.2997283935547
 20
49.46054840087891
 30
0.0
 40
2.5
  1
－０．０３
 41
0.9655172413793103
 51
10.0
  7
FX_VECTOR
 72
     5
 11
161.2997283935547
 21
49.46054840087891
 31
0.0
100
AcDbText
  0
LINE
  5
2F9
330
1F
100
AcDbEntity
  8
Layer1
  6
Continuous
 62
     3
370
    35
100
AcDbLine
 10
144.5163415640914
 20
62.52157343678927
 30
0.0
 11
144.5163415640914
 21
58.52157343678927
 31
0.0
  0
LINE
  5
2FA
330
1F
100
AcDbEntity
  8
Layer1
  6
Continuous
 62
     3
370
    35
100
AcDbLine
 10
144.5163415640914
 20
62.52157343678927
 30
0.0
 11
148.5163415640914
 21
62.52157343678927
 31
0.0
  0
LINE
  5
2FB
330
1F
100
AcDbEntity
  8
Layer1
  6
Continuous
 62
     3
370
    35
100
AcDbLine
 10
168.757159723388
 20
62.52157343678927
 30
0.0
 11
191.757159723388
 21
62.52157343678927
 31
0.0
  0
LINE
  5
2FC
330
1F
100
AcDbEntity
  8
Layer1
  6
Continuous
 62
     3
370
    35
100
AcDbLine
 10
168.757159723388
 20
58.52157343678927
 30
0.0
 11
191.7571597233881
 21
58.52157343678927
 31
0.0
  0
LINE
  5
2FD
330
1F
100
AcDbEntity
  8
Layer1
  6
Continuous
 62
     3
370
    35
100
AcDbLine
 10
148.5163415640914
 20
62.52157343678927
 30
0.0
 11
148.5163415640914
 21
58.52157343678927
 31
0.0
  0
LINE
  5
2FE
330
1F
100
AcDbEntity
  8
Layer1
  6
Continuous
 62
     3
370
    35
100
AcDbLine
 10
144.5163415640914
 20
58.52157343678927
 30
0.0
 11
148.5163415640914
 21
58.52157343678927
 31
0.0
  0
LINE
  5
2FF
330
1F
100
AcDbEntity
  8
Layer1
  6
Continuous
 62
     3
370
    35
100
AcDbLine
 10
191.7571597233881
 20
58.52157343678927
 30
0.0
 11
191.757159723388
 21
62.52157343678927
 31
0.0
  0
ARC
  5
300
330
1F
100
AcDbEntity
  8
Layer1
  6
Continuous
 62
     3
370
    35
100
AcDbCircle
 10
168.757159723388
 20
60.52157343678927
 30
0.0
 40
2.0
100
AcDbArc
 50
90.0
 51
270.0
  0
TEXT
  5
301
330
1F
100
AcDbEntity
  8
基準ﾚｲﾔｸﾞﾙｰﾌﾟ_01
  6
Continuous
 62
     7
370
    13
100
AcDbText
 10
367.7243041992188
 20
-10.77224636077881
 30
0.0
 40
6.0
  1
レイヤに仕様あり
 41
1.191489361702128
 51
10.0
  7
FX_VECTOR
 72
     5
 11
415.7243041992188
 21
-10.77224636077881
 31
0.0
100
AcDbText
  0
LINE
  5
302
330
1F
100
AcDbEntity
  8
Layer1
  6
Continuous
 62
     7
370
    13
100
AcDbLine
 10
128.1515731664887
 20
117.981439657525
 30
0.0
 11
216.1515731664887
 21
117.981439657525
 31
0.0
  0
LINE
  5
303
330
1F
100
AcDbEntity
  8
Layer1
  6
Continuous
 62
     7
370
    13
100
AcDbLine
 10
128.1515731664887
 20
99.98143965752497
 30
0.0
 11
216.1515731664887
 21
99.98143965752499
 31
0.0
  0
LINE
  5
304
330
1F
100
AcDbEntity
  8
Layer1
  6
Continuous
 62
     7
370
    13
100
AcDbLine
 10
128.1515731664887
 20
111.981439657525
 30
0.0
 11
216.1515731664887
 21
111.981439657525
 31
0.0
  0
LINE
  5
305
330
1F
100
AcDbEntity
  8
Layer1
  6
Continuous
 62
     7
370
    13
100
AcDbLine
 10
128.1515731664887
 20
105.981439657525
 30
0.0
 11
216.1515731664887
 21
105.981439657525
 31
0.0
  0
LINE
  5
306
330
1F
100
AcDbEntity
  8
Layer1
  6
Continuous
 62
     7
370
    13
100
AcDbLine
 10
128.1515731664887
 20
117.981439657525
 30
0.0
 11
128.1515731664887
 21
99.98143965752497
 31
0.0
  0
TEXT
  5
307
330
1F
100
AcDbEntity
  8
Layer1
  6
Continuous
 62
     7
370
    13
100
AcDbText
 10
130.1515655517578
 20
112.9814453125
 30
0.0
 40
4.0
  1
回転方向
 41
1.582608701094337
 51
10.0
  7
FX_VECTOR
 72
     5
 11
150.9515656232834
 21
112.9814453125
 31
0.0
100
AcDbText
  0
TEXT
  5
308
330
1F
100
AcDbEntity
  8
Layer1
  6
Continuous
 62
     7
370
    13
100
AcDbText
 10
130.1515655517578
 20
106.9814453125
 30
0.0
 40
4.0
  1
時計方向
 41
1.582608701094337
 51
10.0
  7
FX_VECTOR
 72
     5
 11
150.9515656232834
 21
106.9814453125
 31
0.0
100
AcDbText
  0
TEXT
  5
309
330
1F
100
AcDbEntity
  8
Layer1
  6
Continuous
 62
     7
370
    13
100
AcDbText
 10
130.1515655517578
 20
100.9814453125
 30
0.0
 40
4.0
  1
反時計方向
 41
1.25517241451247
 51
10.0
  7
FX_VECTOR
 72
     5
 11
150.9515655636787
 21
100.9814453125
 31
0.0
100
AcDbText
  0
LINE
  5
30A
330
1F
100
AcDbEntity
  8
Layer1
  6
Continuous
 62
     7
370
    13
100
AcDbLine
 10
153.1515731664887
 20
117.981439657525
 30
0.0
 11
153.1515731664887
 21
99.98143965752497
 31
0.0
  0
TEXT
  5
30B
330
1F
100
AcDbEntity
  8
Layer1
  6
Continuous
 62
     7
370
    13
100
AcDbText
 10
172.1515655517578
 20
112.9814453125
 30
0.0
 40
4.0
  1
減速比
 41
2.470588235294118
 51
10.0
  7
FX_VECTOR
 72
     5
 11
196.1515655517578
 21
112.9814453125
 31
0.0
100
AcDbText
  0
TEXT
  5
30C
330
1F
100
AcDbEntity
  8
Layer1
  6
Continuous
 62
     7
370
    13
100
AcDbText
 10
155.1515655517578
 20
106.9814453125
 30
0.0
 40
3.5
  1
１／５，　１／５０，　１／１００，　１／１５０
 41
0.8394160583941606
 51
10.0
  7
FX_VECTOR
 72
     5
 11
212.6515655517578
 21
106.9814453125
 31
0.0
100
AcDbText
  0
TEXT
  5
30D
330
1F
100
AcDbEntity
  8
Layer1
  6
Continuous
 62
     7
370
    13
100
AcDbText
 10
155.1515655517578
 20
100.9814453125
 30
0.0
 40
3.5
  1
１／１２．５，　１／２５
 41
0.8450704225352113
 51
10.0
  7
FX_VECTOR
 72
     5
 11
185.1515655517578
 21
100.9814453125
 31
0.0
100
AcDbText
  0
TEXT
  5
30E
330
1F
100
AcDbEntity
  8
Layer1
  6
Continuous
 62
     7
370
    13
100
AcDbText
 10
128.1515655517578
 20
93.98143005371094
 30
0.0
 40
3.5
  1
出力軸の回転方向は、リード線、赤　　青　　に接続した場合です。
 41
1.172972972972973
 51
10.0
  7
FX_VECTOR
 72
     5
 11
236.6515655517578
 21
93.98143005371094
 31
0.0
100
AcDbText
  0
CIRCLE
  5
30F
330
1F
100
AcDbEntity
  8
Layer1
  6
Continuous
 62
     7
370
    13
100
AcDbCircle
 10
198.2037125440412
 20
95.75303715302863
 30
0.0
 40
1.75
  0
TEXT
  5
310
330
1F
100
AcDbEntity
  8
Layer1
  6
Continuous
 62
     7
370
    13
100
AcDbText
 10
196.5160980224609
 20
93.96269226074219
 30
0.0
 40
3.5
  1
－
 41
1.4
  7
FX_VECTOR
 72
     5
 11
200.0160980224609
 21
93.96269226074219
 31
0.0
100
AcDbText
  0
CIRCLE
  5
311
330
1F
100
AcDbEntity
  8
Layer1
  6
Continuous
 62
     7
370
    13
100
AcDbCircle
 10
187.1955314325794
 20
95.6956720124158
 30
0.0
 40
1.75
  0
TEXT
  5
312
330
1F
100
AcDbEntity
  8
Layer1
  6
Continuous
 62
     7
370
    13
100
AcDbText
 10
185.4661712646484
 20
93.97642517089844
 30
0.0
 40
3.5
  1
＋
 41
1.4
  7
FX_VECTOR
 72
     5
 11
188.9661712646484
 21
93.97642517089844
 31
0.0
100
AcDbText
  0
TEXT
  5
313
330
1F
100
AcDbEntity
  8
基準ﾚｲﾔｸﾞﾙｰﾌﾟ_01
  6
Continuous
 62
     7
370
    13
100
AcDbText
 10
375.8513488769531
 20
10.0
 30
0.0
 40
4.0
  1
６６５０００
 41
1.2
 51
10.0
  7
FX_VECTOR
 72
     5
 11
399.8513488769531
 21
10.0
 31
0.0
100
AcDbText
  0
LINE
  5
314
330
1F
100
AcDbEntity
  8
Layer1
  6
Continuous
 62
     7
370
    13
100
AcDbLine
 10
216.1515731664887
 20
117.9814396575249
 30
0.0
 11
216.1515731664887
 21
99.98143965752496
 31
0.0
  0
ELLIPSE
  5
315
330
1F
100
AcDbEntity
  8
仕様
  6
Continuous
 62
     3
370
    35
100
AcDbEllipse
 10
173.6096604002081
 20
108.8729253695698
 30
0.0
 11
6.870259540716461
 21
0.0
 31
0.0
210
0.0
220
0.0
230
1.0
 40
0.3882978723404239
 41
0.0
 42
6.283185307179586
  0
TEXT
  5
316
330
1F
100
AcDbEntity
  8
GR1_01
  6
Continuous
 62
     7
370
    13
100
AcDbText
 10
300.9664306640625
 20
215.6195373535156
 30
0.0
 40
2.5
  1
＋０．０５
 50
90.0
 41
0.9655172413793103
 51
10.0
  7
FX_VECTOR
 72
     5
 11
300.9664306640625
 21
225.6195373535156
 31
0.0
100
AcDbText
  0
TEXT
  5
317
330
1F
100
AcDbEntity
  8
GR1_01
  6
Continuous
 62
     7
370
    13
100
AcDbText
 10
303.4664306640625
 20
215.6195373535156
 30
0.0
 40
2.5
  1
　０
 50
90.0
 41
1.018181818181818
 51
10.0
  7
FX_VECTOR
 72
     5
 11
303.4664306640625
 21
219.6195373535156
 31
0.0
100
AcDbText
  0
TEXT
  5
318
330
1F
100
AcDbEntity
  8
GR1_01
  6
Continuous
 62
     7
370
    13
100
AcDbText
 10
363.982421875
 20
250.3160858154297
 30
0.0
 40
2.5
  1
　０
 41
1.018181818181818
 51
10.0
  7
FX_VECTOR
 72
     5
 11
367.982421875
 21
250.3160858154297
 31
0.0
100
AcDbText
  0
TEXT
  5
319
330
1F
100
AcDbEntity
  8
GR1_01
  6
Continuous
 62
     7
370
    13
100
AcDbText
 10
363.982421875
 20
247.8160858154297
 30
0.0
 40
2.5
  1
－０．１
 41
0.9739130434782608
 51
10.0
  7
FX_VECTOR
 72
     5
 11
371.982421875
 21
247.8160858154297
 31
0.0
100
AcDbText
  0
TEXT
  5
31A
330
1F
100
AcDbEntity
  8
GR1_01
  6
Continuous
 62
     7
370
    13
100
AcDbText
 10
335.9645080566406
 20
198.1367797851562
 30
0.0
 40
3.5
  1
１５
 50
90.0
 41
1.272727272727273
 51
10.0
  7
FX_VECTOR
 72
     5
 11
335.9645080566406
 21
205.1367797851562
 31
0.0
100
AcDbText
  0
LINE
  5
31B
330
1F
100
AcDbEntity
  8
GR1_01
  6
Continuous
 62
     7
370
    13
100
AcDbLine
 10
336.4645217001055
 20
195.3811659192823
 30
0.0
 11
336.4645217001055
 21
210.3811659192824
 31
0.0
  0
INSERT
  5
31C
330
1F
100
AcDbEntity
  8
GR1_01
  6
Continuous
 62
     7
370
    13
100
AcDbBlockReference
  2
FXTIP_ARROW_S
 10
336.4645217001055
 20
195.3811659192823
 30
0.0
 41
3.0
 42
3.0
 50
270.0
  0
INSERT
  5
31D
330
1F
100
AcDbEntity
  8
GR1_01
  6
Continuous
 62
     7
370
    13
100
AcDbBlockReference
  2
FXTIP_ARROW_E
 10
336.4645217001055
 20
210.3811659192824
 30
0.0
 41
3.0
 42
3.0
 50
90.0
  0
LINE
  5
31E
330
1F
100
AcDbEntity
  8
GR1_01
  6
Continuous
 62
     7
370
    13
100
AcDbLine
 10
336.9645217001055
 20
210.3811659192824
 30
0.0
 11
335.4645217001055
 21
210.3811659192822
 31
0.0
  0
INSERT
  5
322
330
1F
100
AcDbEntity
  8
GR1_01
  6
Continuous
 62
     3
370
    35
100
AcDbBlockReference
  2
BLKF040
 10
0.0
 20
0.0
 30
0.0
  0
INSERT
  5
335
330
1F
100
AcDbEntity
  8
GR1_01
  6
Continuous
 62
     3
370
    35
100
AcDbBlockReference
  2
BLKF041
 10
0.0
 20
0.0
 30
0.0
  0
INSERT
  5
348
330
1F
100
AcDbEntity
  8
GR1_01
  6
Continuous
 62
     3
370
    35
100
AcDbBlockReference
  2
BLKF042
 10
0.0
 20
0.0
 30
0.0
  0
INSERT
  5
35A
330
1F
100
AcDbEntity
  8
GR1_01
  6
Continuous
 62
     3
370
    35
100
AcDbBlockReference
  2
BLKF043
 10
0.0
 20
0.0
 30
0.0
  0
INSERT
  5
36C
330
1F
100
AcDbEntity
  8
GR1_01
  6
Continuous
 62
     3
370
    35
100
AcDbBlockReference
  2
BLKF044
 10
0.0
 20
0.0
 30
0.0
  0
INSERT
  5
381
330
1F
100
AcDbEntity
  8
GR1_01
  6
Continuous
 62
     3
370
    35
100
AcDbBlockReference
  2
BLKF045
 10
0.0
 20
0.0
 30
0.0
  0
INSERT
  5
38D
330
1F
100
AcDbEntity
  8
GR1_01
  6
Continuous
 62
     3
370
    35
100
AcDbBlockReference
  2
BLKF046
 10
0.0
 20
0.0
 30
0.0
  0
INSERT
  5
399
330
1F
100
AcDbEntity
  8
GR1_01
  6
Continuous
 62
     3
370
    35
100
AcDbBlockReference
  2
BLKF047
 10
0.0
 20
0.0
 30
0.0
  0
INSERT
  5
3A5
330
1F
100
AcDbEntity
  8
GR1_01
  6
Continuous
 62
     3
370
    35
100
AcDbBlockReference
  2
BLKF048
 10
0.0
 20
0.0
 30
0.0
  0
ARC
  5
3AE
330
1F
100
AcDbEntity
  8
GR1_01
  6
Continuous
 62
     7
370
    13
100
AcDbCircle
 10
322.7305029843378
 20
228.6151846350501
 30
0.0
 40
2.0
100
AcDbArc
 50
80.0
 51
349.9999999999999
  0
CIRCLE
  5
3AF
330
1F
100
AcDbEntity
  8
GR1_01
  6
Continuous
 62
     3
370
    35
100
AcDbCircle
 10
322.7305029843378
 20
228.6151846350501
 30
0.0
 40
2.499999999999992
  0
ARC
  5
3B0
330
1F
100
AcDbEntity
  8
GR1_01
  6
Continuous
 62
     7
370
    13
100
AcDbCircle
 10
389.1985404158733
 20
228.6151846350501
 30
0.0
 40
2.0
100
AcDbArc
 50
80.0
 51
349.9999999999999
  0
CIRCLE
  5
3B1
330
1F
100
AcDbEntity
  8
GR1_01
  6
Continuous
 62
     3
370
    35
100
AcDbCircle
 10
389.1985404158733
 20
228.6151846350501
 30
0.0
 40
2.499999999999992
  0
ARC
  5
3B2
330
1F
100
AcDbEntity
  8
GR1_01
  6
Continuous
 62
     7
370
    13
100
AcDbCircle
 10
322.7305029843376
 20
162.1471472035144
 30
0.0
 40
2.0
100
AcDbArc
 50
80.0
 51
349.9999999999999
  0
CIRCLE
  5
3B3
330
1F
100
AcDbEntity
  8
GR1_01
  6
Continuous
 62
     3
370
    35
100
AcDbCircle
 10
322.7305029843376
 20
162.1471472035144
 30
0.0
 40
2.499999999999992
  0
ARC
  5
3B4
330
1F
100
AcDbEntity
  8
GR1_01
  6
Continuous
 62
     7
370
    13
100
AcDbCircle
 10
389.1985404158733
 20
162.1471472035145
 30
0.0
 40
2.0
100
AcDbArc
 50
80.0
 51
349.9999999999999
  0
CIRCLE
  5
3B5
330
1F
100
AcDbEntity
  8
GR1_01
  6
Continuous
 62
     3
370
    35
100
AcDbCircle
 10
389.1985404158733
 20
162.1471472035145
 30
0.0
 40
2.499999999999992
  0
ENDSEC
  0
SECTION
  2
OBJECTS
  0
DICTIONARY
  5
C
330
0
100
AcDbDictionary
281
     1
  3
ACAD_GROUP
350
D
  3
ACAD_LAYOUT
350
1A
  3
ACAD_MATERIAL
350
3B
  3
ACAD_MLEADERSTYLE
350
3B8
  3
ACAD_MLINESTYLE
350
17
  3
ACAD_PLOTSETTINGS
350
19
  3
ACAD_PLOTSTYLENAME
350
E
  3
ACAD_VISUALSTYLE
350
2A
  3
AcDbVariableDictionary
350
3B6
  0
DICTIONARY
  5
D
102
{ACAD_REACTORS
330
C
102
}
330
C
100
AcDbDictionary
281
     1
  0
DICTIONARY
  5
1A
102
{ACAD_REACTORS
330
C
102
}
330
C
100
AcDbDictionary
281
     1
  3
Layout1
350
1E
  3
Layout2
350
26
  3
Model
350
22
  0
DICTIONARY
  5
3B
102
{ACAD_REACTORS
330
C
102
}
330
C
100
AcDbDictionary
281
     1
  3
ByBlock
350
3D
  3
ByLayer
350
3C
  3
Global
350
3E
  0
DICTIONARY
  5
3B8
102
{ACAD_REACTORS
330
C
102
}
330
C
100
AcDbDictionary
281
     1
  0
DICTIONARY
  5
17
102
{ACAD_REACTORS
330
C
102
}
330
C
100
AcDbDictionary
281
     1
  3
Standard
350
18
  0
DICTIONARY
  5
19
102
{ACAD_REACTORS
330
C
102
}
330
C
100
AcDbDictionary
281
     1
  0
ACDBDICTIONARYWDFLT
  5
E
102
{ACAD_REACTORS
330
C
102
}
330
C
100
AcDbDictionary
281
     1
  3
Normal
350
F
100
AcDbDictionaryWithDefault
340
F
  0
DICTIONARY
  5
2A
102
{ACAD_REACTORS
330
C
102
}
330
C
100
AcDbDictionary
281
     1
  3
2dWireframe
350
2F
  3
3D Hidden
350
31
  3
3dWireframe
350
30
  3
Basic
350
32
  3
Brighten
350
36
  3
ColorChange
350
3A
  3
Conceptual
350
34
  3
Dim
350
35
  3
Facepattern
350
39
  3
Flat
350
2B
  3
FlatWithEdges
350
2C
  3
Gouraud
350
2D
  3
GouraudWithEdges
350
2E
  3
Linepattern
350
38
  3
Realistic
350
33
  3
Thicken
350
37
  0
DICTIONARY
  5
3B6
102
{ACAD_REACTORS
330
C
102
}
330
C
100
AcDbDictionary
281
     1
  3
DIMASSOC
350
3BB
  3
HIDETEXT
350
3BC
  3
PSOLHEIGHT
350
3BA
  3
PSOLWIDTH
350
3B9
  0
LAYOUT
  5
1E
102
{ACAD_REACTORS
330
1A
102
}
330
1A
100
AcDbPlotSettings
  1

  2
none_device
  4

  6

 40
0.0
 41
0.0
 42
0.0
 43
0.0
 44
0.0
 45
0.0
 46
0.0
 47
0.0
 48
0.0
 49
0.0
140
0.0
141
0.0
142
1.0
143
1.0
 70
   688
 72
     0
 73
     0
 74
     5
  7

 75
    16
147
1.0
148
0.0
149
0.0
100
AcDbLayout
  1
Layout1
 70
     1
 71
     1
 10
0.0
 20
0.0
 11
420.0
 21
297.0
 12
0.0
 22
0.0
 32
0.0
 14
1.000000000000000E+20
 24
1.000000000000000E+20
 34
1.000000000000000E+20
 15
-1.000000000000000E+20
 25
-1.000000000000000E+20
 35
-1.000000000000000E+20
146
0.0
 13
0.0
 23
0.0
 33
0.0
 16
1.0
 26
0.0
 36
0.0
 17
0.0
 27
1.0
 37
0.0
 76
     0
330
1B
  0
LAYOUT
  5
26
102
{ACAD_REACTORS
330
1A
102
}
330
1A
100
AcDbPlotSettings
  1

  2
none_device
  4

  6

 40
0.0
 41
0.0
 42
0.0
 43
0.0
 44
0.0
 45
0.0
 46
0.0
 47
0.0
 48
0.0
 49
0.0
140
0.0
141
0.0
142
1.0
143
1.0
 70
   688
 72
     0
 73
     0
 74
     5
  7

 75
    16
147
1.0
148
0.0
149
0.0
100
AcDbLayout
  1
Layout2
 70
     1
 71
     2
 10
0.0
 20
0.0
 11
0.0
 21
0.0
 12
0.0
 22
0.0
 32
0.0
 14
0.0
 24
0.0
 34
0.0
 15
0.0
 25
0.0
 35
0.0
146
0.0
 13
0.0
 23
0.0
 33
0.0
 16
1.0
 26
0.0
 36
0.0
 17
0.0
 27
1.0
 37
0.0
 76
     0
330
23
  0
LAYOUT
  5
22
102
{ACAD_REACTORS
330
1A
102
}
330
1A
100
AcDbPlotSettings
  1

  2
none_device
  4

  6

 40
0.0
 41
0.0
 42
0.0
 43
0.0
 44
0.0
 45
0.0
 46
0.0
 47
0.0
 48
0.0
 49
0.0
140
0.0
141
0.0
142
1.0
143
1.0
 70
  1712
 72
     0
 73
     0
 74
     0
  7

 75
     0
147
1.0
148
0.0
149
0.0
100
AcDbLayout
  1
Model
 70
     1
 71
     0
 10
0.0
 20
0.0
 11
420.0
 21
297.0
 12
0.0
 22
0.0
 32
0.0
 14
0.0
 24
0.0
 34
0.0
 15
420.0
 25
297.0
 35
0.0
146
0.0
 13
0.0
 23
0.0
 33
0.0
 16
1.0
 26
0.0
 36
0.0
 17
0.0
 27
1.0
 37
0.0
 76
     0
330
1F
331
29
  0
MATERIAL
  5
3D
102
{ACAD_REACTORS
330
3B
102
}
102
{ACAD_XDICTIONARY
360
3DF
102
}
330
3B
100
AcDbMaterial
  1
ByBlock
  0
MATERIAL
  5
3C
102
{ACAD_REACTORS
330
3B
102
}
102
{ACAD_XDICTIONARY
360
3DD
102
}
330
3B
100
AcDbMaterial
  1
ByLayer
  0
MATERIAL
  5
3E
102
{ACAD_REACTORS
330
3B
102
}
102
{ACAD_XDICTIONARY
360
3E1
102
}
330
3B
100
AcDbMaterial
  1
Global
  0
MLINESTYLE
  5
18
102
{ACAD_REACTORS
330
17
102
}
330
17
100
AcDbMlineStyle
  2
Standard
 70
     0
  3

 62
   256
 51
90.0
 52
90.0
 71
     2
 49
0.5
 62
   256
  6
BYLAYER
 49
-0.5
 62
   256
  6
BYLAYER
  0
ACDBPLACEHOLDER
  5
F
102
{ACAD_REACTORS
330
E
102
}
330
E
  0
VISUALSTYLE
  5
2F
102
{ACAD_REACTORS
330
2A
102
}
102
{ACAD_XDICTIONARY
360
3C5
102
}
330
2A
100
AcDbVisualStyle
  2
2dWireframe
 70
     4
 71
     0
 72
     2
 73
     0
 90
        0
 40
-0.6
 41
-30.0
 62
     5
 63
     7
 74
     1
 91
        4
 64
     7
 65
   257
 75
     1
175
     1
 42
1.0
 92
        0
 66
   257
 43
1.0
 76
     1
 77
     6
 78
     2
 67
     7
 79
     5
170
     0
171
     0
290
     0
174
     0
 93
        1
 44
0.0
173
     0
291
     0
 45
0.0
1001
ACAD
1000
AcDbSavedByObjectVersion
1070
     0
  0
VISUALSTYLE
  5
31
102
{ACAD_REACTORS
330
2A
102
}
102
{ACAD_XDICTIONARY
360
3C9
102
}
330
2A
100
AcDbVisualStyle
  2
3D Hidden
 70
     6
 71
     1
 72
     2
 73
     2
 90
        0
 40
-0.6
 41
-30.0
 62
     5
 63
     7
 74
     2
 91
        2
 64
     7
 65
   257
 75
     2
175
     1
 42
40.0
 92
        0
 66
   257
 43
1.0
 76
     1
 77
     6
 78
     2
 67
     7
 79
     3
170
     0
171
     0
290
     0
174
     0
 93
        1
 44
0.0
173
     0
291
     0
 45
0.0
1001
ACAD
1000
AcDbSavedByObjectVersion
1070
     0
  0
VISUALSTYLE
  5
30
102
{ACAD_REACTORS
330
2A
102
}
102
{ACAD_XDICTIONARY
360
3C7
102
}
330
2A
100
AcDbVisualStyle
  2
3dWireframe
 70
     5
 71
     0
 72
     2
 73
     0
 90
        0
 40
-0.6
 41
-30.0
 62
     5
 63
     7
 74
     1
 91
        4
 64
     7
 65
   257
 75
     1
175
     1
 42
1.0
 92
        0
 66
   257
 43
1.0
 76
     1
 77
     6
 78
     2
 67
     7
 79
     5
170
     0
171
     0
290
     0
174
     0
 93
        1
 44
0.0
173
     0
291
     0
 45
0.0
1001
ACAD
1000
AcDbSavedByObjectVersion
1070
     0
  0
VISUALSTYLE
  5
32
102
{ACAD_REACTORS
330
2A
102
}
102
{ACAD_XDICTIONARY
360
3CB
102
}
330
2A
100
AcDbVisualStyle
  2
Basic
 70
     7
 71
     1
 72
     0
 73
     1
 90
        0
 40
-0.6
 41
-30.0
 62
     5
 63
     7
 74
     0
 91
        4
 64
     7
 65
   257
 75
     1
175
     1
 42
1.0
 92
        8
 66
     7
 43
1.0
 76
     1
 77
     6
 78
     2
 67
     7
 79
     5
170
     0
171
     0
290
     0
174
     0
 93
        1
 44
0.0
173
     0
291
     1
 45
0.0
1001
ACAD
1000
AcDbSavedByObjectVersion
1070
     0
  0
VISUALSTYLE
  5
36
102
{ACAD_REACTORS
330
2A
102
}
102
{ACAD_XDICTIONARY
360
3D3
102
}
330
2A
100
AcDbVisualStyle
  2
Brighten
 70
    12
 71
     2
 72
     2
 73
     0
 90
        0
 40
-0.6
 41
-30.0
 62
     5
 63
     7
 74
     1
 91
        4
 64
     7
 65
   257
 75
     1
175
     1
 42
1.0
 92
        8
 66
     7
 43
1.0
 76
     1
 77
     6
 78
     2
 67
     7
 79
     5
170
     0
171
     0
290
     0
174
     0
 93
        1
 44
50.0
173
     0
291
     1
 45
0.0
1001
ACAD
1000
AcDbSavedByObjectVersion
1070
     0
  0
VISUALSTYLE
  5
3A
102
{ACAD_REACTORS
330
2A
102
}
102
{ACAD_XDICTIONARY
360
3DB
102
}
330
2A
100
AcDbVisualStyle
  2
ColorChange
 70
    16
 71
     2
 72
     2
 73
     3
 90
        0
 40
-0.6
 41
-30.0
 62
     5
 63
     8
 74
     1
 91
        4
 64
     7
 65
   257
 75
     1
175
     1
 42
1.0
 92
        8
 66
     8
 43
1.0
 76
     1
 77
     6
 78
     2
 67
     7
 79
     5
170
     0
171
     0
290
     0
174
     0
 93
        1
 44
0.0
173
     0
291
     1
 45
0.0
1001
ACAD
1000
AcDbSavedByObjectVersion
1070
     0
  0
VISUALSTYLE
  5
34
102
{ACAD_REACTORS
330
2A
102
}
102
{ACAD_XDICTIONARY
360
3CF
102
}
330
2A
100
AcDbVisualStyle
  2
Conceptual
 70
     9
 71
     3
 72
     2
 73
     0
 90
        0
 40
-0.6
 41
-30.0
 62
     5
 63
     7
 74
     2
 91
        2
 64
     7
 65
   257
 75
     1
175
     1
 42
40.0
 92
        8
 66
     7
 43
1.0
 76
     1
 77
     6
 78
     2
 67
     7
 79
     3
170
     0
171
     0
290
     0
174
     0
 93
        1
 44
0.0
173
     0
291
     0
 45
0.0
1001
ACAD
1000
AcDbSavedByObjectVersion
1070
     0
  0
VISUALSTYLE
  5
35
102
{ACAD_REACTORS
330
2A
102
}
102
{ACAD_XDICTIONARY
360
3D1
102
}
330
2A
100
AcDbVisualStyle
  2
Dim
 70
    11
 71
     2
 72
     2
 73
     0
 90
        0
 40
-0.6
 41
-30.0
 62
     5
 63
     7
 74
     1
 91
        4
 64
     7
 65
   257
 75
     1
175
     1
 42
1.0
 92
        8
 66
     7
 43
1.0
 76
     1
 77
     6
 78
     2
 67
     7
 79
     5
170
     0
171
     0
290
     0
174
     0
 93
        1
 44
-50.0
173
     0
291
     1
 45
0.0
1001
ACAD
1000
AcDbSavedByObjectVersion
1070
     0
  0
VISUALSTYLE
  5
39
102
{ACAD_REACTORS
330
2A
102
}
102
{ACAD_XDICTIONARY
360
3D9
102
}
330
2A
100
AcDbVisualStyle
  2
Facepattern
 70
    15
 71
     2
 72
     2
 73
     0
 90
        0
 40
-0.6
 41
-30.0
 62
     5
 63
     7
 74
     1
 91
        4
 64
     7
 65
   257
 75
     1
175
     1
 42
1.0
 92
        8
 66
     7
 43
1.0
 76
     1
 77
     6
 78
     2
 67
     7
 79
     5
170
     0
171
     0
290
     0
174
     0
 93
        1
 44
0.0
173
     0
291
     1
 45
0.0
1001
ACAD
1000
AcDbSavedByObjectVersion
1070
     0
  0
VISUALSTYLE
  5
2B
102
{ACAD_REACTORS
330
2A
102
}
102
{ACAD_XDICTIONARY
360
3BD
102
}
330
2A
100
AcDbVisualStyle
  2
Flat
 70
     0
 71
     2
 72
     1
 73
     1
 90
        2
 40
-0.6
 41
30.0
 62
     5
 63
     7
 74
     0
 91
        4
 64
     7
 65
   257
 75
     1
175
     1
 42
1.0
 92
        8
 66
     7
 43
1.0
 76
     1
 77
     6
 78
     2
 67
     7
 79
     5
170
     0
171
     0
290
     0
174
     0
 93
       13
 44
0.0
173
     0
291
     1
 45
0.0
1001
ACAD
1000
AcDbSavedByObjectVersion
1070
     0
  0
VISUALSTYLE
  5
2C
102
{ACAD_REACTORS
330
2A
102
}
102
{ACAD_XDICTIONARY
360
3BF
102
}
330
2A
100
AcDbVisualStyle
  2
FlatWithEdges
 70
     1
 71
     2
 72
     1
 73
     1
 90
        2
 40
-0.6
 41
30.0
 62
     5
 63
     7
 74
     1
 91
        4
 64
     7
 65
   257
 75
     1
175
     1
 42
1.0
 92
        0
 66
   257
 43
1.0
 76
     1
 77
     6
 78
     2
 67
     7
 79
     5
170
     0
171
     0
290
     0
174
     0
 93
       13
 44
0.0
173
     0
291
     1
 45
0.0
1001
ACAD
1000
AcDbSavedByObjectVersion
1070
     0
  0
VISUALSTYLE
  5
2D
102
{ACAD_REACTORS
330
2A
102
}
102
{ACAD_XDICTIONARY
360
3C1
102
}
330
2A
100
AcDbVisualStyle
  2
Gouraud
 70
     2
 71
     2
 72
     2
 73
     1
 90
        2
 40
-0.6
 41
30.0
 62
     5
 63
     7
 74
     0
 91
        4
 64
     7
 65
   257
 75
     1
175
     1
 42
1.0
 92
        0
 66
     7
 43
1.0
 76
     1
 77
     6
 78
     2
 67
     7
 79
     5
170
     0
171
     0
290
     0
174
     0
 93
       13
 44
0.0
173
     0
291
     1
 45
0.0
1001
ACAD
1000
AcDbSavedByObjectVersion
1070
     0
  0
VISUALSTYLE
  5
2E
102
{ACAD_REACTORS
330
2A
102
}
102
{ACAD_XDICTIONARY
360
3C3
102
}
330
2A
100
AcDbVisualStyle
  2
GouraudWithEdges
 70
     3
 71
     2
 72
     2
 73
     1
 90
        2
 40
-0.6
 41
30.0
 62
     5
 63
     7
 74
     1
 91
        4
 64
     7
 65
   257
 75
     1
175
     1
 42
1.0
 92
        0
 66
   257
 43
1.0
 76
     1
 77
     6
 78
     2
 67
     7
 79
     5
170
     0
171
     0
290
     0
174
     0
 93
       13
 44
0.0
173
     0
291
     1
 45
0.0
1001
ACAD
1000
AcDbSavedByObjectVersion
1070
     0
  0
VISUALSTYLE
  5
38
102
{ACAD_REACTORS
330
2A
102
}
102
{ACAD_XDICTIONARY
360
3D7
102
}
330
2A
100
AcDbVisualStyle
  2
Linepattern
 70
    14
 71
     2
 72
     2
 73
     0
 90
        0
 40
-0.6
 41
-30.0
 62
     5
 63
     7
 74
     1
 91
        4
 64
     7
 65
   257
 75
     7
175
     7
 42
1.0
 92
        8
 66
     7
 43
1.0
 76
     1
 77
     6
 78
     2
 67
     7
 79
     5
170
     0
171
     0
290
     0
174
     0
 93
        1
 44
0.0
173
     0
291
     1
 45
0.0
1001
ACAD
1000
AcDbSavedByObjectVersion
1070
     0
  0
VISUALSTYLE
  5
33
102
{ACAD_REACTORS
330
2A
102
}
102
{ACAD_XDICTIONARY
360
3CD
102
}
330
2A
100
AcDbVisualStyle
  2
Realistic
 70
     8
 71
     2
 72
     2
 73
     0
 90
        0
 40
-0.6
 41
-30.0
 62
     5
 63
     7
 74
     1
 91
        0
 64
     7
 65
   257
 75
     1
175
     1
 42
1.0
 92
        8
 66
     8
 43
1.0
 76
     1
 77
     6
 78
     2
 67
     7
 79
     5
170
     0
171
     0
290
     0
174
     0
 93
       13
 44
0.0
173
     0
291
     0
 45
0.0
1001
ACAD
1000
AcDbSavedByObjectVersion
1070
     0
  0
VISUALSTYLE
  5
37
102
{ACAD_REACTORS
330
2A
102
}
102
{ACAD_XDICTIONARY
360
3D5
102
}
330
2A
100
AcDbVisualStyle
  2
Thicken
 70
    13
 71
     2
 72
     2
 73
     0
 90
        0
 40
-0.6
 41
-30.0
 62
     5
 63
     7
 74
     1
 91
        4
 64
     7
 65
   257
 75
     1
175
     1
 42
1.0
 92
       12
 66
     7
 43
1.0
 76
     1
 77
     6
 78
     2
 67
     7
 79
     5
170
     0
171
     0
290
     0
174
     0
 93
        1
 44
0.0
173
     0
291
     1
 45
0.0
1001
ACAD
1000
AcDbSavedByObjectVersion
1070
     0
  0
DICTIONARYVAR
  5
3BB
102
{ACAD_REACTORS
330
3B6
102
}
330
3B6
100
DictionaryVariables
280
     0
  1
2
  0
DICTIONARYVAR
  5
3BC
102
{ACAD_REACTORS
330
3B6
102
}
330
3B6
100
DictionaryVariables
280
     0
  1
1
  0
DICTIONARYVAR
  5
3BA
102
{ACAD_REACTORS
330
3B6
102
}
330
3B6
100
DictionaryVariables
280
     0
  1
80.000000
  0
DICTIONARYVAR
  5
3B9
102
{ACAD_REACTORS
330
3B6
102
}
330
3B6
100
DictionaryVariables
280
     0
  1
5.000000
  0
DICTIONARY
  5
3DF
330
3D
100
AcDbDictionary
280
     1
281
     1
  3
ACAD_XREC_ROUNDTRIP
360
3E0
  0
DICTIONARY
  5
3DD
330
3C
100
AcDbDictionary
280
     1
281
     1
  3
ACAD_XREC_ROUNDTRIP
360
3DE
  0
DICTIONARY
  5
3E1
330
3E
100
AcDbDictionary
280
     1
281
     1
  3
ACAD_XREC_ROUNDTRIP
360
3E2
  0
DICTIONARY
  5
3C5
330
2F
100
AcDbDictionary
280
     1
281
     1
  3
ACAD_XREC_ROUNDTRIP
360
3C6
  0
DICTIONARY
  5
3C9
330
31
100
AcDbDictionary
280
     1
281
     1
  3
ACAD_XREC_ROUNDTRIP
360
3CA
  0
DICTIONARY
  5
3C7
330
30
100
AcDbDictionary
280
     1
281
     1
  3
ACAD_XREC_ROUNDTRIP
360
3C8
  0
DICTIONARY
  5
3CB
330
32
100
AcDbDictionary
280
     1
281
     1
  3
ACAD_XREC_ROUNDTRIP
360
3CC
  0
DICTIONARY
  5
3D3
330
36
100
AcDbDictionary
280
     1
281
     1
  3
ACAD_XREC_ROUNDTRIP
360
3D4
  0
DICTIONARY
  5
3DB
330
3A
100
AcDbDictionary
280
     1
281
     1
  3
ACAD_XREC_ROUNDTRIP
360
3DC
  0
DICTIONARY
  5
3CF
330
34
100
AcDbDictionary
280
     1
281
     1
  3
ACAD_XREC_ROUNDTRIP
360
3D0
  0
DICTIONARY
  5
3D1
330
35
100
AcDbDictionary
280
     1
281
     1
  3
ACAD_XREC_ROUNDTRIP
360
3D2
  0
DICTIONARY
  5
3D9
330
39
100
AcDbDictionary
280
     1
281
     1
  3
ACAD_XREC_ROUNDTRIP
360
3DA
  0
DICTIONARY
  5
3BD
330
2B
100
AcDbDictionary
280
     1
281
     1
  3
ACAD_XREC_ROUNDTRIP
360
3BE
  0
DICTIONARY
  5
3BF
330
2C
100
AcDbDictionary
280
     1
281
     1
  3
ACAD_XREC_ROUNDTRIP
360
3C0
  0
DICTIONARY
  5
3C1
330
2D
100
AcDbDictionary
280
     1
281
     1
  3
ACAD_XREC_ROUNDTRIP
360
3C2
  0
DICTIONARY
  5
3C3
330
2E
100
AcDbDictionary
280
     1
281
     1
  3
ACAD_XREC_ROUNDTRIP
360
3C4
  0
DICTIONARY
  5
3D7
330
38
100
AcDbDictionary
280
     1
281
     1
  3
ACAD_XREC_ROUNDTRIP
360
3D8
  0
DICTIONARY
  5
3CD
330
33
100
AcDbDictionary
280
     1
281
     1
  3
ACAD_XREC_ROUNDTRIP
360
3CE
  0
DICTIONARY
  5
3D5
330
37
100
AcDbDictionary
280
     1
281
     1
  3
ACAD_XREC_ROUNDTRIP
360
3D6
  0
XRECORD
  5
3E0
102
{ACAD_REACTORS
330
3DF
102
}
330
3DF
100
AcDbXrecord
280
     1
102
MATERIAL
148
0.0
149
0.0
149
0.0
 93
        0
 94
      127
282
     0
 72
     1
 77
     1
171
     1
175
     1
179
     1
273
     0
  0
XRECORD
  5
3DE
102
{ACAD_REACTORS
330
3DD
102
}
330
3DD
100
AcDbXrecord
280
     1
102
MATERIAL
148
0.0
149
0.0
149
0.0
 93
        0
 94
      127
282
     0
 72
     1
 77
     1
171
     1
175
     1
179
     1
273
     0
  0
XRECORD
  5
3E2
102
{ACAD_REACTORS
330
3E1
102
}
330
3E1
100
AcDbXrecord
280
     1
102
MATERIAL
148
0.0
149
0.0
149
0.0
 93
        0
 94
      127
282
     0
 72
     1
 77
     1
171
     1
175
     1
179
     1
273
     0
  0
XRECORD
  5
3C6
102
{ACAD_REACTORS
330
3C5
102
}
330
3C5
100
AcDbXrecord
280
     1
102
RTVSPropertyOp0
 70
     1
102
RTVSPropertyOp1
 70
     1
102
RTVSPropertyOp2
 70
     1
102
RTVSPropertyOp3
 70
     1
102
RTVSPropertyOp4
 70
     1
102
RTVSPropertyOp5
 70
     1
102
RTVSPropertyOp6
 70
     1
102
RTVSPropertyOp7
 70
     1
102
RTVSPropertyOp8
 70
     1
102
RTVSPropertyOp9
 70
     1
102
RTVSPropertyOp10
 70
     1
102
RTVSPropertyOp11
 70
     1
102
RTVSPropertyOp12
 70
     1
102
RTVSPropertyOp13
 70
     1
102
RTVSPropertyOp14
 70
     1
102
RTVSPropertyOp15
 70
     1
102
RTVSPropertyOp16
 70
     1
102
RTVSPropertyOp17
 70
     1
102
RTVSPropertyOp18
 70
     1
102
RTVSPropertyOp19
 70
     1
102
RTVSPropertyOp20
 70
     1
102
RTVSPropertyOp21
 70
     1
102
RTVSPropertyOp22
 70
     1
102
RTVSPropertyOp23
 70
     1
102
RTVSPropertyOp24
 70
     1
102
RTVSPropertyOp25
 70
     1
102
RTVSPropertyOp26
 70
     1
102
RTVSPropertyOp27
 70
     1
102
RTVSPropertyOp28
 70
     1
102
RTVSPropertyOp29
 70
     1
102
RTVSPropertyOp30
 70
     1
102
RTVSPropertyOp31
 70
     1
102
RTVSPropertyOp32
 70
     1
  0
XRECORD
  5
3CA
102
{ACAD_REACTORS
330
3C9
102
}
330
3C9
100
AcDbXrecord
280
     1
102
RTVSPropertyOp0
 70
     1
102
RTVSPropertyOp1
 70
     1
102
RTVSPropertyOp2
 70
     1
102
RTVSPropertyOp3
 70
     1
102
RTVSPropertyOp4
 70
     1
102
RTVSPropertyOp5
 70
     1
102
RTVSPropertyOp6
 70
     1
102
RTVSPropertyOp7
 70
     1
102
RTVSPropertyOp8
 70
     1
102
RTVSPropertyOp9
 70
     1
102
RTVSPropertyOp10
 70
     1
102
RTVSPropertyOp11
 70
     1
102
RTVSPropertyOp12
 70
     1
102
RTVSPropertyOp13
 70
     1
102
RTVSPropertyOp14
 70
     1
102
RTVSPropertyOp15
 70
     1
102
RTVSPropertyOp16
 70
     1
102
RTVSPropertyOp17
 70
     1
102
RTVSPropertyOp18
 70
     1
102
RTVSPropertyOp19
 70
     1
102
RTVSPropertyOp20
 70
     1
102
RTVSPropertyOp21
 70
     1
102
RTVSPropertyOp22
 70
     1
102
RTVSPropertyOp23
 70
     1
102
RTVSPropertyOp24
 70
     1
102
RTVSPropertyOp25
 70
     1
102
RTVSPropertyOp26
 70
     1
102
RTVSPropertyOp27
 70
     1
102
RTVSPropertyOp28
 70
     1
102
RTVSPropertyOp29
 70
     1
102
RTVSPropertyOp30
 70
     1
102
RTVSPropertyOp31
 70
     1
102
RTVSPropertyOp32
 70
     1
  0
XRECORD
  5
3C8
102
{ACAD_REACTORS
330
3C7
102
}
330
3C7
100
AcDbXrecord
280
     1
102
RTVSPropertyOp0
 70
     1
102
RTVSPropertyOp1
 70
     1
102
RTVSPropertyOp2
 70
     1
102
RTVSPropertyOp3
 70
     1
102
RTVSPropertyOp4
 70
     1
102
RTVSPropertyOp5
 70
     1
102
RTVSPropertyOp6
 70
     1
102
RTVSPropertyOp7
 70
     1
102
RTVSPropertyOp8
 70
     1
102
RTVSPropertyOp9
 70
     1
102
RTVSPropertyOp10
 70
     1
102
RTVSPropertyOp11
 70
     1
102
RTVSPropertyOp12
 70
     1
102
RTVSPropertyOp13
 70
     1
102
RTVSPropertyOp14
 70
     1
102
RTVSPropertyOp15
 70
     1
102
RTVSPropertyOp16
 70
     1
102
RTVSPropertyOp17
 70
     1
102
RTVSPropertyOp18
 70
     1
102
RTVSPropertyOp19
 70
     1
102
RTVSPropertyOp20
 70
     1
102
RTVSPropertyOp21
 70
     1
102
RTVSPropertyOp22
 70
     1
102
RTVSPropertyOp23
 70
     1
102
RTVSPropertyOp24
 70
     1
102
RTVSPropertyOp25
 70
     1
102
RTVSPropertyOp26
 70
     1
102
RTVSPropertyOp27
 70
     1
102
RTVSPropertyOp28
 70
     1
102
RTVSPropertyOp29
 70
     1
102
RTVSPropertyOp30
 70
     1
102
RTVSPropertyOp31
 70
     1
102
RTVSPropertyOp32
 70
     1
  0
XRECORD
  5
3CC
102
{ACAD_REACTORS
330
3CB
102
}
330
3CB
100
AcDbXrecord
280
     1
102
RTVSPropertyOp0
 70
     1
102
RTVSPropertyOp1
 70
     1
102
RTVSPropertyOp2
 70
     1
102
RTVSPropertyOp3
 70
     1
102
RTVSPropertyOp4
 70
     1
102
RTVSPropertyOp5
 70
     1
102
RTVSPropertyOp6
 70
     1
102
RTVSPropertyOp7
 70
     1
102
RTVSPropertyOp8
 70
     1
102
RTVSPropertyOp9
 70
     1
102
RTVSPropertyOp10
 70
     1
102
RTVSPropertyOp11
 70
     1
102
RTVSPropertyOp12
 70
     1
102
RTVSPropertyOp13
 70
     1
102
RTVSPropertyOp14
 70
     1
102
RTVSPropertyOp15
 70
     1
102
RTVSPropertyOp16
 70
     1
102
RTVSPropertyOp17
 70
     1
102
RTVSPropertyOp18
 70
     1
102
RTVSPropertyOp19
 70
     1
102
RTVSPropertyOp20
 70
     1
102
RTVSPropertyOp21
 70
     1
102
RTVSPropertyOp22
 70
     1
102
RTVSPropertyOp23
 70
     1
102
RTVSPropertyOp24
 70
     1
102
RTVSPropertyOp25
 70
     1
102
RTVSPropertyOp26
 70
     1
102
RTVSPropertyOp27
 70
     1
102
RTVSPropertyOp28
 70
     1
102
RTVSPropertyOp29
 70
     1
102
RTVSPropertyOp30
 70
     1
102
RTVSPropertyOp31
 70
     1
102
RTVSPropertyOp32
 70
     1
  0
XRECORD
  5
3D4
102
{ACAD_REACTORS
330
3D3
102
}
330
3D3
100
AcDbXrecord
280
     1
102
RTVSPropertyOp0
 70
     1
102
RTVSPropertyOp1
 70
     1
102
RTVSPropertyOp2
 70
     1
102
RTVSPropertyOp3
 70
     1
102
RTVSPropertyOp4
 70
     1
102
RTVSPropertyOp5
 70
     1
102
RTVSPropertyOp6
 70
     1
102
RTVSPropertyOp7
 70
     1
102
RTVSPropertyOp8
 70
     1
102
RTVSPropertyOp9
 70
     1
102
RTVSPropertyOp10
 70
     1
102
RTVSPropertyOp11
 70
     1
102
RTVSPropertyOp12
 70
     1
102
RTVSPropertyOp13
 70
     1
102
RTVSPropertyOp14
 70
     1
102
RTVSPropertyOp15
 70
     1
102
RTVSPropertyOp16
 70
     1
102
RTVSPropertyOp17
 70
     1
102
RTVSPropertyOp18
 70
     1
102
RTVSPropertyOp19
 70
     1
102
RTVSPropertyOp20
 70
     1
102
RTVSPropertyOp21
 70
     1
102
RTVSPropertyOp22
 70
     1
102
RTVSPropertyOp23
 70
     1
102
RTVSPropertyOp24
 70
     1
102
RTVSPropertyOp25
 70
     1
102
RTVSPropertyOp26
 70
     1
102
RTVSPropertyOp27
 70
     1
102
RTVSPropertyOp28
 70
     1
102
RTVSPropertyOp29
 70
     1
102
RTVSPropertyOp30
 70
     1
102
RTVSPropertyOp31
 70
     1
102
RTVSPropertyOp32
 70
     1
  0
XRECORD
  5
3DC
102
{ACAD_REACTORS
330
3DB
102
}
330
3DB
100
AcDbXrecord
280
     1
102
RTVSPropertyOp0
 70
     1
102
RTVSPropertyOp1
 70
     1
102
RTVSPropertyOp2
 70
     1
102
RTVSPropertyOp3
 70
     1
102
RTVSPropertyOp4
 70
     1
102
RTVSPropertyOp5
 70
     1
102
RTVSPropertyOp6
 70
     1
102
RTVSPropertyOp7
 70
     1
102
RTVSPropertyOp8
 70
     1
102
RTVSPropertyOp9
 70
     1
102
RTVSPropertyOp10
 70
     1
102
RTVSPropertyOp11
 70
     1
102
RTVSPropertyOp12
 70
     1
102
RTVSPropertyOp13
 70
     1
102
RTVSPropertyOp14
 70
     1
102
RTVSPropertyOp15
 70
     1
102
RTVSPropertyOp16
 70
     1
102
RTVSPropertyOp17
 70
     1
102
RTVSPropertyOp18
 70
     1
102
RTVSPropertyOp19
 70
     1
102
RTVSPropertyOp20
 70
     1
102
RTVSPropertyOp21
 70
     1
102
RTVSPropertyOp22
 70
     1
102
RTVSPropertyOp23
 70
     1
102
RTVSPropertyOp24
 70
     1
102
RTVSPropertyOp25
 70
     1
102
RTVSPropertyOp26
 70
     1
102
RTVSPropertyOp27
 70
     1
102
RTVSPropertyOp28
 70
     1
102
RTVSPropertyOp29
 70
     1
102
RTVSPropertyOp30
 70
     1
102
RTVSPropertyOp31
 70
     1
102
RTVSPropertyOp32
 70
     1
  0
XRECORD
  5
3D0
102
{ACAD_REACTORS
330
3CF
102
}
330
3CF
100
AcDbXrecord
280
     1
102
RTVSPropertyOp0
 70
     1
102
RTVSPropertyOp1
 70
     1
102
RTVSPropertyOp2
 70
     1
102
RTVSPropertyOp3
 70
     1
102
RTVSPropertyOp4
 70
     1
102
RTVSPropertyOp5
 70
     1
102
RTVSPropertyOp6
 70
     1
102
RTVSPropertyOp7
 70
     1
102
RTVSPropertyOp8
 70
     1
102
RTVSPropertyOp9
 70
     1
102
RTVSPropertyOp10
 70
     1
102
RTVSPropertyOp11
 70
     1
102
RTVSPropertyOp12
 70
     1
102
RTVSPropertyOp13
 70
     1
102
RTVSPropertyOp14
 70
     1
102
RTVSPropertyOp15
 70
     1
102
RTVSPropertyOp16
 70
     1
102
RTVSPropertyOp17
 70
     1
102
RTVSPropertyOp18
 70
     1
102
RTVSPropertyOp19
 70
     1
102
RTVSPropertyOp20
 70
     1
102
RTVSPropertyOp21
 70
     1
102
RTVSPropertyOp22
 70
     1
102
RTVSPropertyOp23
 70
     1
102
RTVSPropertyOp24
 70
     1
102
RTVSPropertyOp25
 70
     1
102
RTVSPropertyOp26
 70
     1
102
RTVSPropertyOp27
 70
     1
102
RTVSPropertyOp28
 70
     1
102
RTVSPropertyOp29
 70
     1
102
RTVSPropertyOp30
 70
     1
102
RTVSPropertyOp31
 70
     1
102
RTVSPropertyOp32
 70
     1
  0
XRECORD
  5
3D2
102
{ACAD_REACTORS
330
3D1
102
}
330
3D1
100
AcDbXrecord
280
     1
102
RTVSPropertyOp0
 70
     1
102
RTVSPropertyOp1
 70
     1
102
RTVSPropertyOp2
 70
     1
102
RTVSPropertyOp3
 70
     1
102
RTVSPropertyOp4
 70
     1
102
RTVSPropertyOp5
 70
     1
102
RTVSPropertyOp6
 70
     1
102
RTVSPropertyOp7
 70
     1
102
RTVSPropertyOp8
 70
     1
102
RTVSPropertyOp9
 70
     1
102
RTVSPropertyOp10
 70
     1
102
RTVSPropertyOp11
 70
     1
102
RTVSPropertyOp12
 70
     1
102
RTVSPropertyOp13
 70
     1
102
RTVSPropertyOp14
 70
     1
102
RTVSPropertyOp15
 70
     1
102
RTVSPropertyOp16
 70
     1
102
RTVSPropertyOp17
 70
     1
102
RTVSPropertyOp18
 70
     1
102
RTVSPropertyOp19
 70
     1
102
RTVSPropertyOp20
 70
     1
102
RTVSPropertyOp21
 70
     1
102
RTVSPropertyOp22
 70
     1
102
RTVSPropertyOp23
 70
     1
102
RTVSPropertyOp24
 70
     1
102
RTVSPropertyOp25
 70
     1
102
RTVSPropertyOp26
 70
     1
102
RTVSPropertyOp27
 70
     1
102
RTVSPropertyOp28
 70
     1
102
RTVSPropertyOp29
 70
     1
102
RTVSPropertyOp30
 70
     1
102
RTVSPropertyOp31
 70
     1
102
RTVSPropertyOp32
 70
     1
  0
XRECORD
  5
3DA
102
{ACAD_REACTORS
330
3D9
102
}
330
3D9
100
AcDbXrecord
280
     1
102
RTVSPropertyOp0
 70
     1
102
RTVSPropertyOp1
 70
     1
102
RTVSPropertyOp2
 70
     1
102
RTVSPropertyOp3
 70
     1
102
RTVSPropertyOp4
 70
     1
102
RTVSPropertyOp5
 70
     1
102
RTVSPropertyOp6
 70
     1
102
RTVSPropertyOp7
 70
     1
102
RTVSPropertyOp8
 70
     1
102
RTVSPropertyOp9
 70
     1
102
RTVSPropertyOp10
 70
     1
102
RTVSPropertyOp11
 70
     1
102
RTVSPropertyOp12
 70
     1
102
RTVSPropertyOp13
 70
     1
102
RTVSPropertyOp14
 70
     1
102
RTVSPropertyOp15
 70
     1
102
RTVSPropertyOp16
 70
     1
102
RTVSPropertyOp17
 70
     1
102
RTVSPropertyOp18
 70
     1
102
RTVSPropertyOp19
 70
     1
102
RTVSPropertyOp20
 70
     1
102
RTVSPropertyOp21
 70
     1
102
RTVSPropertyOp22
 70
     1
102
RTVSPropertyOp23
 70
     1
102
RTVSPropertyOp24
 70
     1
102
RTVSPropertyOp25
 70
     1
102
RTVSPropertyOp26
 70
     1
102
RTVSPropertyOp27
 70
     1
102
RTVSPropertyOp28
 70
     1
102
RTVSPropertyOp29
 70
     1
102
RTVSPropertyOp30
 70
     1
102
RTVSPropertyOp31
 70
     1
102
RTVSPropertyOp32
 70
     1
  0
XRECORD
  5
3BE
102
{ACAD_REACTORS
330
3BD
102
}
330
3BD
100
AcDbXrecord
280
     1
102
RTVSPropertyOp0
 70
     1
102
RTVSPropertyOp1
 70
     1
102
RTVSPropertyOp2
 70
     1
102
RTVSPropertyOp3
 70
     1
102
RTVSPropertyOp4
 70
     1
102
RTVSPropertyOp5
 70
     1
102
RTVSPropertyOp6
 70
     1
102
RTVSPropertyOp7
 70
     1
102
RTVSPropertyOp8
 70
     1
102
RTVSPropertyOp9
 70
     1
102
RTVSPropertyOp10
 70
     1
102
RTVSPropertyOp11
 70
     1
102
RTVSPropertyOp12
 70
     1
102
RTVSPropertyOp13
 70
     1
102
RTVSPropertyOp14
 70
     1
102
RTVSPropertyOp15
 70
     1
102
RTVSPropertyOp16
 70
     1
102
RTVSPropertyOp17
 70
     1
102
RTVSPropertyOp18
 70
     1
102
RTVSPropertyOp19
 70
     1
102
RTVSPropertyOp20
 70
     1
102
RTVSPropertyOp21
 70
     1
102
RTVSPropertyOp22
 70
     1
102
RTVSPropertyOp23
 70
     1
102
RTVSPropertyOp24
 70
     1
102
RTVSPropertyOp25
 70
     1
102
RTVSPropertyOp26
 70
     1
102
RTVSPropertyOp27
 70
     1
102
RTVSPropertyOp28
 70
     1
102
RTVSPropertyOp29
 70
     1
102
RTVSPropertyOp30
 70
     1
102
RTVSPropertyOp31
 70
     1
102
RTVSPropertyOp32
 70
     1
  0
XRECORD
  5
3C0
102
{ACAD_REACTORS
330
3BF
102
}
330
3BF
100
AcDbXrecord
280
     1
102
RTVSPropertyOp0
 70
     1
102
RTVSPropertyOp1
 70
     1
102
RTVSPropertyOp2
 70
     1
102
RTVSPropertyOp3
 70
     1
102
RTVSPropertyOp4
 70
     1
102
RTVSPropertyOp5
 70
     1
102
RTVSPropertyOp6
 70
     1
102
RTVSPropertyOp7
 70
     1
102
RTVSPropertyOp8
 70
     1
102
RTVSPropertyOp9
 70
     1
102
RTVSPropertyOp10
 70
     1
102
RTVSPropertyOp11
 70
     1
102
RTVSPropertyOp12
 70
     1
102
RTVSPropertyOp13
 70
     1
102
RTVSPropertyOp14
 70
     1
102
RTVSPropertyOp15
 70
     1
102
RTVSPropertyOp16
 70
     1
102
RTVSPropertyOp17
 70
     1
102
RTVSPropertyOp18
 70
     1
102
RTVSPropertyOp19
 70
     1
102
RTVSPropertyOp20
 70
     1
102
RTVSPropertyOp21
 70
     1
102
RTVSPropertyOp22
 70
     1
102
RTVSPropertyOp23
 70
     1
102
RTVSPropertyOp24
 70
     1
102
RTVSPropertyOp25
 70
     1
102
RTVSPropertyOp26
 70
     1
102
RTVSPropertyOp27
 70
     1
102
RTVSPropertyOp28
 70
     1
102
RTVSPropertyOp29
 70
     1
102
RTVSPropertyOp30
 70
     1
102
RTVSPropertyOp31
 70
     1
102
RTVSPropertyOp32
 70
     1
  0
XRECORD
  5
3C2
102
{ACAD_REACTORS
330
3C1
102
}
330
3C1
100
AcDbXrecord
280
     1
102
RTVSPropertyOp0
 70
     1
102
RTVSPropertyOp1
 70
     1
102
RTVSPropertyOp2
 70
     1
102
RTVSPropertyOp3
 70
     1
102
RTVSPropertyOp4
 70
     1
102
RTVSPropertyOp5
 70
     1
102
RTVSPropertyOp6
 70
     1
102
RTVSPropertyOp7
 70
     1
102
RTVSPropertyOp8
 70
     1
102
RTVSPropertyOp9
 70
     1
102
RTVSPropertyOp10
 70
     1
102
RTVSPropertyOp11
 70
     1
102
RTVSPropertyOp12
 70
     1
102
RTVSPropertyOp13
 70
     1
102
RTVSPropertyOp14
 70
     1
102
RTVSPropertyOp15
 70
     1
102
RTVSPropertyOp16
 70
     1
102
RTVSPropertyOp17
 70
     1
102
RTVSPropertyOp18
 70
     1
102
RTVSPropertyOp19
 70
     1
102
RTVSPropertyOp20
 70
     1
102
RTVSPropertyOp21
 70
     1
102
RTVSPropertyOp22
 70
     1
102
RTVSPropertyOp23
 70
     1
102
RTVSPropertyOp24
 70
     1
102
RTVSPropertyOp25
 70
     1
102
RTVSPropertyOp26
 70
     1
102
RTVSPropertyOp27
 70
     1
102
RTVSPropertyOp28
 70
     1
102
RTVSPropertyOp29
 70
     1
102
RTVSPropertyOp30
 70
     1
102
RTVSPropertyOp31
 70
     1
102
RTVSPropertyOp32
 70
     1
  0
XRECORD
  5
3C4
102
{ACAD_REACTORS
330
3C3
102
}
330
3C3
100
AcDbXrecord
280
     1
102
RTVSPropertyOp0
 70
     1
102
RTVSPropertyOp1
 70
     1
102
RTVSPropertyOp2
 70
     1
102
RTVSPropertyOp3
 70
     1
102
RTVSPropertyOp4
 70
     1
102
RTVSPropertyOp5
 70
     1
102
RTVSPropertyOp6
 70
     1
102
RTVSPropertyOp7
 70
     1
102
RTVSPropertyOp8
 70
     1
102
RTVSPropertyOp9
 70
     1
102
RTVSPropertyOp10
 70
     1
102
RTVSPropertyOp11
 70
     1
102
RTVSPropertyOp12
 70
     1
102
RTVSPropertyOp13
 70
     1
102
RTVSPropertyOp14
 70
     1
102
RTVSPropertyOp15
 70
     1
102
RTVSPropertyOp16
 70
     1
102
RTVSPropertyOp17
 70
     1
102
RTVSPropertyOp18
 70
     1
102
RTVSPropertyOp19
 70
     1
102
RTVSPropertyOp20
 70
     1
102
RTVSPropertyOp21
 70
     1
102
RTVSPropertyOp22
 70
     1
102
RTVSPropertyOp23
 70
     1
102
RTVSPropertyOp24
 70
     1
102
RTVSPropertyOp25
 70
     1
102
RTVSPropertyOp26
 70
     1
102
RTVSPropertyOp27
 70
     1
102
RTVSPropertyOp28
 70
     1
102
RTVSPropertyOp29
 70
     1
102
RTVSPropertyOp30
 70
     1
102
RTVSPropertyOp31
 70
     1
102
RTVSPropertyOp32
 70
     1
  0
XRECORD
  5
3D8
102
{ACAD_REACTORS
330
3D7
102
}
330
3D7
100
AcDbXrecord
280
     1
102
RTVSPropertyOp0
 70
     1
102
RTVSPropertyOp1
 70
     1
102
RTVSPropertyOp2
 70
     1
102
RTVSPropertyOp3
 70
     1
102
RTVSPropertyOp4
 70
     1
102
RTVSPropertyOp5
 70
     1
102
RTVSPropertyOp6
 70
     1
102
RTVSPropertyOp7
 70
     1
102
RTVSPropertyOp8
 70
     1
102
RTVSPropertyOp9
 70
     1
102
RTVSPropertyOp10
 70
     1
102
RTVSPropertyOp11
 70
     1
102
RTVSPropertyOp12
 70
     1
102
RTVSPropertyOp13
 70
     1
102
RTVSPropertyOp14
 70
     1
102
RTVSPropertyOp15
 70
     1
102
RTVSPropertyOp16
 70
     1
102
RTVSPropertyOp17
 70
     1
102
RTVSPropertyOp18
 70
     1
102
RTVSPropertyOp19
 70
     1
102
RTVSPropertyOp20
 70
     1
102
RTVSPropertyOp21
 70
     1
102
RTVSPropertyOp22
 70
     1
102
RTVSPropertyOp23
 70
     1
102
RTVSPropertyOp24
 70
     1
102
RTVSPropertyOp25
 70
     1
102
RTVSPropertyOp26
 70
     1
102
RTVSPropertyOp27
 70
     1
102
RTVSPropertyOp28
 70
     1
102
RTVSPropertyOp29
 70
     1
102
RTVSPropertyOp30
 70
     1
102
RTVSPropertyOp31
 70
     1
102
RTVSPropertyOp32
 70
     1
  0
XRECORD
  5
3CE
102
{ACAD_REACTORS
330
3CD
102
}
330
3CD
100
AcDbXrecord
280
     1
102
RTVSPropertyOp0
 70
     1
102
RTVSPropertyOp1
 70
     1
102
RTVSPropertyOp2
 70
     1
102
RTVSPropertyOp3
 70
     1
102
RTVSPropertyOp4
 70
     1
102
RTVSPropertyOp5
 70
     1
102
RTVSPropertyOp6
 70
     1
102
RTVSPropertyOp7
 70
     1
102
RTVSPropertyOp8
 70
     1
102
RTVSPropertyOp9
 70
     1
102
RTVSPropertyOp10
 70
     1
102
RTVSPropertyOp11
 70
     1
102
RTVSPropertyOp12
 70
     1
102
RTVSPropertyOp13
 70
     1
102
RTVSPropertyOp14
 70
     1
102
RTVSPropertyOp15
 70
     1
102
RTVSPropertyOp16
 70
     1
102
RTVSPropertyOp17
 70
     1
102
RTVSPropertyOp18
 70
     1
102
RTVSPropertyOp19
 70
     1
102
RTVSPropertyOp20
 70
     1
102
RTVSPropertyOp21
 70
     1
102
RTVSPropertyOp22
 70
     1
102
RTVSPropertyOp23
 70
     1
102
RTVSPropertyOp24
 70
     1
102
RTVSPropertyOp25
 70
     1
102
RTVSPropertyOp26
 70
     1
102
RTVSPropertyOp27
 70
     1
102
RTVSPropertyOp28
 70
     1
102
RTVSPropertyOp29
 70
     1
102
RTVSPropertyOp30
 70
     1
102
RTVSPropertyOp31
 70
     1
102
RTVSPropertyOp32
 70
     1
  0
XRECORD
  5
3D6
102
{ACAD_REACTORS
330
3D5
102
}
330
3D5
100
AcDbXrecord
280
     1
102
RTVSPropertyOp0
 70
     1
102
RTVSPropertyOp1
 70
     1
102
RTVSPropertyOp2
 70
     1
102
RTVSPropertyOp3
 70
     1
102
RTVSPropertyOp4
 70
     1
102
RTVSPropertyOp5
 70
     1
102
RTVSPropertyOp6
 70
     1
102
RTVSPropertyOp7
 70
     1
102
RTVSPropertyOp8
 70
     1
102
RTVSPropertyOp9
 70
     1
102
RTVSPropertyOp10
 70
     1
102
RTVSPropertyOp11
 70
     1
102
RTVSPropertyOp12
 70
     1
102
RTVSPropertyOp13
 70
     1
102
RTVSPropertyOp14
 70
     1
102
RTVSPropertyOp15
 70
     1
102
RTVSPropertyOp16
 70
     1
102
RTVSPropertyOp17
 70
     1
102
RTVSPropertyOp18
 70
     1
102
RTVSPropertyOp19
 70
     1
102
RTVSPropertyOp20
 70
     1
102
RTVSPropertyOp21
 70
     1
102
RTVSPropertyOp22
 70
     1
102
RTVSPropertyOp23
 70
     1
102
RTVSPropertyOp24
 70
     1
102
RTVSPropertyOp25
 70
     1
102
RTVSPropertyOp26
 70
     1
102
RTVSPropertyOp27
 70
     1
102
RTVSPropertyOp28
 70
     1
102
RTVSPropertyOp29
 70
     1
102
RTVSPropertyOp30
 70
     1
102
RTVSPropertyOp31
 70
     1
102
RTVSPropertyOp32
 70
     1
  0
ENDSEC
  0
EOF
