  0
SECTION
  2
HEADER
  9
$ACADVER
  1
AC1006
  9
$INSBASE
 10
0.000000
 20
0.000000
 30
0.0
  9
$EXTMIN
 10
0.000000
 20
0.000000
  9
$EXTMAX
 10
594.000000
 20
420.000000
  9
$LIMMIN
 10
0.000000
 20
0.000000
  9
$LIMMAX
 10
594.000000
 20
420.000000
  9
$VIEWCTR
 10
297.000000
 20
210.000000
  9
$VIEWSIZE
 40
420.000000
  9
$SNAPMODE
 70
     0
  9
$SNAPUNIT
 10
1.0
 20
1.0
  9
$SNAPBASE
 10
0.0
 20
0.0
  9
$SNAPANG
 50
0.0
  9
$SNAPSTYLE
 70
     0
  9
$SNAPISOPAIR
 70
     0
  9
$GRIDMODE
 70
     0
  9
$GRIDUNIT
 10
0.0
 20
0.0
  9
$ORTHOMODE
 70
     0
  9
$REGENMODE
 70
     1
  9
$FILLMODE
 70
     1
  9
$QTEXTMODE
 70
     0
  9
$DRAGMODE
 70
     2
  9
$LTSCALE
 40
15.000000
  9
$OSMODE
 70
     0
  9
$ATTMODE
 70
     1
  9
$TEXTSIZE
 40
0.2
  9
$TRACEWID
 40
0.05
  9
$TEXTSTYLE
  7
STANDARD
  9
$CLAYER
  8
CSLAYER1
  9
$CELTYPE
  6
BYLAYER
  9
$CECOLOR
 62
   256
  9
$DIMSCALE
 40
1.0
  9
$DIMASZ
 40
0.18
  9
$DIMEXO
 40
0.0625
  9
$DIMDLI
 40
0.38
  9
$DIMRND
 40
0.0
  9
$DIMDLE
 40
0.0
  9
$DIMEXE
 40
0.18
  9
$DIMTP
 40
0.0
  9
$DIMTM
 40
0.0
  9
$DIMTXT
 40
0.18
  9
$DIMCEN
 40
0.09
  9
$DIMTSZ
 40
0.0
  9
$DIMTOL
 70
     0
  9
$DIMLIM
 70
     0
  9
$DIMTIH
 70
     1
  9
$DIMTOH
 70
     1
  9
$DIMSE1
 70
     0
  9
$DIMSE2
 70
     0
  9
$DIMTAD
 70
     0
  9
$DIMZIN
 70
     0
  9
$DIMBLK
  1

  9
$LUNITS
 70
     2
  9
$LUPREC
 70
     4
  9
$AXISMODE
 70
     0
  9
$AXISUNIT
 10
0.0
 20
0.0
  9
$SKETCHINC
 40
0.1
  9
$FILLETRAD
 40
0.0
  9
$AUNITS
 70
     0
  9
$AUPREC
 70
     0
  9
$MENU
  1
ACAD
  9
$ELEVATION
 40
0.0
  9
$THICKNESS
 40
0.0
  9
$VIEWDIR
 10
0.0
 20
0.0
 30
1.0
  9
$LIMCHECK
 70
     0
  9
$BLIPMODE
 70
     1
  9
$CHAMFERA
 40
0.0
  9
$CHAMFERB
 40
0.0
  9
$FASTZOOM
 70
     1
  9
$SKPOLY
 70
     0
  9
$TDCREATE
 40
0.000000
  9
$TDUPDATE
 40
0.000000
  9
$TDINDWG
 40
0.0
  9
$TDUSRTIMER
 40
0.0
  9
$USRTIMER
 70
     1
  9
$ANGBASE
 50
0.0
  9
$ANGDIR
 70
     0
  9
$PDMODE
 70
     0
  9
$PDSIZE
 40
0.0
  9
$PLINEWID
 40
0.0
  9
$COORDS
 70
     0
  9
$USERI1
 70
     0
  9
$USERI2
 70
     0
  9
$USERI3
 70
     0
  9
$USERI4
 70
     0
  9
$USERI5
 70
     0
  9
$USERR1
 40
0.0
  9
$USERR2
 40
0.0
  9
$USERR3
 40
0.0
  9
$USERR4
 40
0.0
  9
$USERR5
 40
0.0
  0
ENDSEC
  0
SECTION
  2
TABLES
  0
TABLE
  2
LTYPE
 70
     9
  0
LTYPE
  2
CONTINUOUS
 70
    64
  3
Solid line
 72
    65
 73
     0
 40
0.0
  0
LTYPE
  2
DASHED
 70
    64
  3
__ __ __ __ __ __ __ __ __ __ __ __ __ __ __
 72
    65
 73
     2
 40
0.75
 49
0.5
 49
-0.25
  0
LTYPE
  2
HIDDEN
 70
    64
  3
_ _ _ _ _ _ _ _ _ _ _ _ _ _ _ _ _ _ _ _ _ _ _
 72
    65
 73
     2
 40
0.375
 49
0.25
 49
-0.125
  0
LTYPE
  2
DOT
 70
    64
  3
...............................................
 72
    65
 73
     2
 40
0.25
 49
0.0
 49
-0.25
  0
LTYPE
  2
DASHDOT
 70
    64
  3
__ . __ . __ . __ . __ . __ . __ . __ . __ . __
 72
    65
 73
     4
 40
1.0
 49
0.5
 49
-0.25
 49
0.0
 49
-0.25
  0
LTYPE
  2
DIVIDE
 70
    64
  3
__ . . __ . . __ . . __ . . __ . . __ . . __
 72
    65
 73
     6
 40
1.25
 49
0.5
 49
-0.25
 49
0.0
 49
-0.25
 49
0.0
 49
-0.25
  0
LTYPE
  2
CENTER
 70
    64
  3
____ _ ____ _ ____ _ ____ _ ____ _ ____ _ ____ 
 72
    65
 73
     4
 40
2.0
 49
1.25
 49
-0.25
 49
0.25
 49
-0.25
  0
LTYPE
  2
PHANTOM
 70
    64
  3
______  __  __  ______  __  __  ______  __  __ 
 72
    65
 73
     6
 40
2.5
 49
1.25
 49
-0.25
 49
0.25
 49
-0.25
 49
0.25
 49
-0.25
  0
LTYPE
  2
BORDER
 70
    64
  3
__ __ . __ __ . __ __ . __ __ . __ __ . __ __ .
 72
    65
 73
     6
 40
1.75
 49
0.5
 49
-0.25
 49
0.5
 49
-0.25
 49
0.0
 49
-0.25
  0
ENDTAB
  0
TABLE
  2
LAYER
 70
    16
  0
LAYER
  2
CSLAYER1
 70
    64
 62
     7
  6
CONTINUOUS
  0
LAYER
  2
CSLAYER2
 70
    64
 62
     7
  6
CONTINUOUS
  0
LAYER
  2
CSLAYER3
 70
    64
 62
     7
  6
CONTINUOUS
  0
LAYER
  2
CSLAYER4
 70
    64
 62
     7
  6
CONTINUOUS
  0
LAYER
  2
CSLAYER5
 70
    64
 62
     7
  6
CONTINUOUS
  0
LAYER
  2
CSLAYER6
 70
    64
 62
     7
  6
CONTINUOUS
  0
LAYER
  2
CSLAYER7
 70
    64
 62
     7
  6
CONTINUOUS
  0
LAYER
  2
CSLAYER8
 70
    64
 62
     7
  6
CONTINUOUS
  0
LAYER
  2
CSLAYER9
 70
    64
 62
     7
  6
CONTINUOUS
  0
LAYER
  2
CSLAYER10
 70
    64
 62
     7
  6
CONTINUOUS
  0
LAYER
  2
CSLAYER11
 70
    64
 62
     7
  6
CONTINUOUS
  0
LAYER
  2
CSLAYER12
 70
    64
 62
     7
  6
CONTINUOUS
  0
LAYER
  2
CSLAYER13
 70
    64
 62
     7
  6
CONTINUOUS
  0
LAYER
  2
CSLAYER14
 70
    64
 62
     7
  6
CONTINUOUS
  0
LAYER
  2
CSLAYER15
 70
    64
 62
     7
  6
CONTINUOUS
  0
LAYER
  2
CSLAYER16
 70
    64
 62
     7
  6
CONTINUOUS
  0
ENDTAB
  0
TABLE
  2
STYLE
 70
     1
  0
STYLE
  2
JX_FONT
 70
     0
 40
1.0
 41
1.0
 50
0.0
 71
     0
 42
1.0
  3
monotxt
  4
bigfont
  0
ENDTAB
  0
TABLE
  2
VIEW
 70
     0
  0
ENDTAB
  0
ENDSEC
  0
SECTION
  2
BLOCKS
  0
ENDSEC
  0
SECTION
  2
ENTITIES
  0
LINE
  8
CSLAYER1
  6
CONTINUOUS
 62
     6
 10
333.322931
 20
244.931437
 11
338.822916
 21
244.931437
  0
LINE
  8
CSLAYER1
  6
CONTINUOUS
 62
     6
 10
333.322916
 20
253.663492
 11
333.322916
 21
178.413279
  0
LINE
  8
CSLAYER1
  6
CONTINUOUS
 62
     6
 10
332.322916
 20
180.013285
 11
332.322916
 21
205.013269
  0
LINE
  8
CSLAYER1
  6
CONTINUOUS
 62
     6
 10
265.322916
 20
160.013285
 11
365.322931
 21
160.013285
  0
LINE
  8
CSLAYER1
  6
CONTINUOUS
 62
     6
 10
365.322916
 20
160.013285
 11
365.322916
 21
166.013285
  0
LINE
  8
CSLAYER1
  6
CONTINUOUS
 62
     6
 10
363.322931
 20
168.013285
 11
267.322916
 21
168.013285
  0
LINE
  8
CSLAYER1
  6
CONTINUOUS
 62
     6
 10
265.322916
 20
166.013285
 11
265.322916
 21
160.013285
  0
LINE
  8
CSLAYER1
  6
CONTINUOUS
 62
     6
 10
339.529169
 20
168.483286
 11
332.322916
 21
180.013285
  0
LINE
  8
CSLAYER1
  6
CONTINUOUS
 62
     6
 10
293.123155
 20
168.401301
 11
325.113786
 21
209.743053
  0
LINE
  8
CSLAYER1
  6
CONTINUOUS
 62
     6
 10
327.322916
 20
253.931437
 11
332.322916
 21
253.931437
  0
LINE
  8
CSLAYER1
  6
CONTINUOUS
 62
     6
 10
325.322916
 20
210.355036
 11
325.322916
 21
251.931437
  0
LINE
  8
CSLAYER1
  6
CONTINUOUS
 62
     6
 10
335.447931
 20
174.931437
 11
338.822916
 21
174.931437
  0
LINE
  8
CSLAYER1
  6
CONTINUOUS
 62
     6
 10
338.822916
 20
174.931437
 11
339.322916
 21
175.431437
  0
LINE
  8
CSLAYER1
  6
CENTER
 62
     3
 10
324.067606
 20
240.931437
 11
343.997069
 21
240.931437
  0
LINE
  8
CSLAYER1
  6
CENTER
 62
     3
 10
324.067606
 20
178.931437
 11
343.997069
 21
178.931437
  0
ARC
  8
CSLAYER1
  6
CONTINUOUS
 62
     6
 10
327.322916
 20
251.931437
 40
2.000000
 50
90.000003
 51
180.000005
  0
ARC
  8
CSLAYER1
  6
CONTINUOUS
 62
     6
 10
340.377176
 20
169.013285
 40
1.000000
 50
212.005411
 51
270.000001
  0
ARC
  8
CSLAYER1
  6
CONTINUOUS
 62
     6
 10
324.322916
 20
210.355036
 40
1.000000
 50
322.266958
 51
359.942691
  0
ARC
  8
CSLAYER1
  6
CONTINUOUS
 62
     6
 10
267.322916
 20
166.013285
 40
2.000000
 50
90.000003
 51
180.000005
  0
ARC
  8
CSLAYER1
  6
CONTINUOUS
 62
     6
 10
363.322916
 20
166.013285
 40
2.000000
 50
0.000000
 51
90.000003
  0
ARC
  8
CSLAYER1
  6
CONTINUOUS
 62
     6
 10
332.322916
 20
251.931437
 40
2.000000
 50
60.000070
 51
90.000003
  0
LINE
  8
CSLAYER1
  6
CENTER
 62
     3
 10
347.822916
 20
157.519770
 11
347.822916
 21
170.139414
  0
LINE
  8
CSLAYER1
  6
CENTER
 62
     3
 10
282.822916
 20
157.589502
 11
282.822916
 21
170.976084
  0
LINE
  8
CSLAYER1
  6
DASHED
 62
     6
 10
351.322916
 20
160.013300
 11
351.322916
 21
168.013300
  0
LINE
  8
CSLAYER1
  6
DASHED
 62
     6
 10
286.322916
 20
160.013285
 11
286.322916
 21
168.013285
  0
LINE
  8
CSLAYER1
  6
DASHED
 62
     6
 10
344.322916
 20
160.013300
 11
344.322916
 21
168.013300
  0
LINE
  8
CSLAYER1
  6
DASHED
 62
     6
 10
279.322916
 20
160.013285
 11
279.322916
 21
168.013285
  0
ARC
  8
CSLAYER1
  6
CONTINUOUS
 62
     6
 10
381.822916
 20
209.931437
 40
1.500000
 50
90.000003
 51
270.000001
  0
LINE
  8
CSLAYER1
  6
CONTINUOUS
 62
     6
 10
394.822916
 20
214.931437
 11
377.322916
 21
214.931452
  0
LINE
  8
CSLAYER1
  6
CONTINUOUS
 62
     6
 10
377.322916
 20
203.931452
 11
377.322916
 21
215.931429
  0
LINE
  8
CSLAYER1
  6
CONTINUOUS
 62
     6
 10
377.322916
 20
215.931429
 11
376.322931
 21
215.931429
  0
LINE
  8
CSLAYER1
  6
CONTINUOUS
 62
     6
 10
375.322916
 20
193.931437
 11
375.322916
 21
225.931437
  0
LINE
  8
CSLAYER1
  6
CONTINUOUS
 62
     6
 10
355.322916
 20
186.431437
 11
355.322916
 21
233.431437
  0
LINE
  8
CSLAYER1
  6
CONTINUOUS
 62
     6
 10
394.822916
 20
204.931452
 11
377.322916
 21
204.931437
  0
LINE
  8
CSLAYER1
  6
CONTINUOUS
 62
     6
 10
377.322916
 20
203.931452
 11
376.322931
 21
203.931452
  0
LINE
  8
CSLAYER1
  6
CONTINUOUS
 62
     6
 10
395.322916
 20
214.431437
 11
395.322916
 21
205.431452
  0
LINE
  8
CSLAYER1
  6
CONTINUOUS
 62
     6
 10
381.822916
 20
211.431437
 11
395.322916
 21
211.431437
  0
LINE
  8
CSLAYER1
  6
CONTINUOUS
 62
     6
 10
381.822916
 20
208.431437
 11
395.322931
 21
208.431437
  0
LINE
  8
CSLAYER1
  6
CONTINUOUS
 62
     6
 10
394.822916
 20
214.931437
 11
395.322916
 21
214.431437
  0
LINE
  8
CSLAYER1
  6
CONTINUOUS
 62
     6
 10
394.822916
 20
204.931452
 11
395.322916
 21
205.431452
  0
LINE
  8
CSLAYER1
  6
CONTINUOUS
 62
     6
 10
309.322916
 20
189.982508
 11
309.322916
 21
240.931391
  0
CIRCLE
  8
CSLAYER1
  6
CONTINUOUS
 62
     6
 10
473.322916
 20
209.931437
 40
44.000000
  0
LINE
  8
CSLAYER1
  6
CONTINUOUS
 62
     6
 10
426.322916
 20
159.931421
 11
426.322916
 21
165.931421
  0
LINE
  8
CSLAYER1
  6
DASHED
 62
     6
 10
443.322916
 20
167.931437
 11
443.322916
 21
159.931421
  0
LINE
  8
CSLAYER1
  6
DASHED
 62
     6
 10
430.322916
 20
159.931421
 11
430.322916
 21
167.931421
  0
LINE
  8
CSLAYER1
  6
CONTINUOUS
 62
     6
 10
453.322916
 20
159.931421
 11
426.322916
 21
159.931421
  0
LINE
  8
CSLAYER1
  6
CONTINUOUS
 62
     6
 10
451.322916
 20
167.931421
 11
428.322916
 21
167.931421
  0
LINE
  8
CSLAYER1
  6
CONTINUOUS
 62
     6
 10
429.322916
 20
209.931437
 11
429.322916
 21
168.931421
  0
LINE
  8
CSLAYER1
  6
CONTINUOUS
 62
     6
 10
435.322916
 20
169.931421
 11
435.322916
 21
179.931437
  0
ARC
  8
CSLAYER1
  6
CONTINUOUS
 62
     6
 10
428.322916
 20
165.931421
 40
2.000000
 50
90.000003
 51
180.000005
  0
ARC
  8
CSLAYER1
  6
CONTINUOUS
 62
     6
 10
451.322916
 20
165.931421
 40
2.000000
 50
0.000000
 51
90.000003
  0
ARC
  8
CSLAYER1
  6
CONTINUOUS
 62
     6
 10
437.322916
 20
169.931421
 40
2.000000
 50
180.000005
 51
270.000001
  0
ARC
  8
CSLAYER1
  6
CONTINUOUS
 62
     6
 10
428.322916
 20
168.931421
 40
1.000000
 50
270.000001
 51
359.942691
  0
LINE
  8
CSLAYER1
  6
CONTINUOUS
 62
     6
 10
520.322916
 20
159.931421
 11
520.322916
 21
165.931421
  0
LINE
  8
CSLAYER1
  6
DASHED
 62
     6
 10
503.322916
 20
167.931437
 11
503.322916
 21
159.931421
  0
LINE
  8
CSLAYER1
  6
DASHED
 62
     6
 10
516.322916
 20
159.931421
 11
516.322916
 21
167.931421
  0
LINE
  8
CSLAYER1
  6
CONTINUOUS
 62
     6
 10
493.322916
 20
159.931421
 11
520.322916
 21
159.931421
  0
LINE
  8
CSLAYER1
  6
CONTINUOUS
 62
     6
 10
495.322916
 20
167.931421
 11
518.322916
 21
167.931421
  0
ARC
  8
CSLAYER1
  6
CONTINUOUS
 62
     6
 10
518.322916
 20
165.931421
 40
2.000000
 50
0.000010
 51
90.000016
  0
ARC
  8
CSLAYER1
  6
CONTINUOUS
 62
     6
 10
495.322916
 20
165.931421
 40
2.000000
 50
90.000016
 51
179.942686
  0
LINE
  8
CSLAYER1
  6
CONTINUOUS
 62
     6
 10
511.322916
 20
169.931421
 11
511.322916
 21
179.931437
  0
ARC
  8
CSLAYER1
  6
CONTINUOUS
 62
     6
 10
509.322916
 20
169.931421
 40
2.000000
 50
270.000001
 51
359.942691
  0
ARC
  8
CSLAYER1
  6
CONTINUOUS
 62
     6
 10
518.322916
 20
168.931421
 40
1.000000
 50
180.000019
 51
270.000001
  0
LINE
  8
CSLAYER1
  6
CONTINUOUS
 62
     6
 10
517.322916
 20
209.931437
 11
517.322916
 21
168.931421
  0
LINE
  8
CSLAYER1
  6
CENTER
 62
     3
 10
436.822885
 20
170.053644
 11
436.822885
 21
157.669001
  0
LINE
  8
CSLAYER1
  6
CENTER
 62
     3
 10
509.822885
 20
170.053644
 11
509.822885
 21
157.669001
  0
LINE
  8
CSLAYER1
  6
CENTER
 62
     3
 10
426.322916
 20
209.931437
 11
520.322916
 21
209.931437
  0
LINE
  8
CSLAYER1
  6
CENTER
 62
     3
 10
473.322885
 20
257.899118
 11
473.322885
 21
160.696100
  0
CIRCLE
  8
CSLAYER1
  6
CONTINUOUS
 62
     6
 10
473.322885
 20
209.931437
 40
5.000000
  0
CIRCLE
  8
CSLAYER1
  6
CONTINUOUS
 62
     6
 10
473.322885
 20
209.931437
 40
6.000000
  0
CIRCLE
  8
CSLAYER1
  6
CONTINUOUS
 62
     6
 10
473.322885
 20
209.931437
 40
26.500000
  0
CIRCLE
  8
CSLAYER1
  6
CONTINUOUS
 62
     6
 10
473.322885
 20
209.931437
 40
35.000000
  0
LINE
  8
CSLAYER1
  6
CONTINUOUS
 62
     6
 10
470.322885
 20
211.431437
 11
468.553232
 21
211.431437
  0
LINE
  8
CSLAYER1
  6
CONTINUOUS
 62
     6
 10
470.322885
 20
208.431437
 11
468.553232
 21
208.431437
  0
LINE
  8
CSLAYER1
  6
CONTINUOUS
 62
     6
 10
470.322885
 20
211.431437
 11
470.322885
 21
208.431437
  0
ARC
  8
CSLAYER1
  6
CENTER
 62
     3
 10
473.322916
 20
209.931437
 40
31.000000
 50
76.676031
 51
103.575140
  0
ARC
  8
CSLAYER1
  6
CENTER
 62
     3
 10
473.322916
 20
209.931437
 40
31.000000
 50
167.254093
 51
192.081954
  0
ARC
  8
CSLAYER1
  6
CENTER
 62
     3
 10
473.322916
 20
209.931437
 40
31.000000
 50
255.812496
 51
284.622425
  0
ARC
  8
CSLAYER1
  6
CENTER
 62
     3
 10
473.322916
 20
209.931437
 40
31.000000
 50
-11.591176
 51
11.933826
  0
CIRCLE
  8
CSLAYER1
  6
CONTINUOUS
 62
     6
 10
473.322885
 20
240.931437
 40
3.499925
  0
ARC
  8
CSLAYER1
  6
CONTINUOUS
 62
     6
 10
473.322885
 20
240.931437
 40
2.049047
 50
73.398422
 51
106.601583
  0
ARC
  8
CSLAYER1
  6
CONTINUOUS
 62
     6
 10
473.322885
 20
240.931437
 40
2.049047
 50
163.398424
 51
196.601586
  0
ARC
  8
CSLAYER1
  6
CONTINUOUS
 62
     6
 10
473.322885
 20
240.931437
 40
2.049047
 50
253.398434
 51
286.601568
  0
ARC
  8
CSLAYER1
  6
CONTINUOUS
 62
     6
 10
473.322885
 20
240.931437
 40
2.049047
 50
-16.601584
 51
16.601604
  0
LINE
  8
CSLAYER1
  6
CONTINUOUS
 62
     6
 10
472.737436
 20
239.760553
 11
472.737436
 21
238.967798
  0
LINE
  8
CSLAYER1
  6
CONTINUOUS
 62
     6
 10
472.737436
 20
242.102320
 11
472.737436
 21
242.895075
  0
LINE
  8
CSLAYER1
  6
CONTINUOUS
 62
     6
 10
473.908334
 20
239.760553
 11
473.908334
 21
238.967798
  0
LINE
  8
CSLAYER1
  6
CONTINUOUS
 62
     6
 10
473.908334
 20
242.102320
 11
473.908334
 21
242.895075
  0
LINE
  8
CSLAYER1
  6
CONTINUOUS
 62
     6
 10
472.151987
 20
241.516886
 11
471.359262
 21
241.516886
  0
LINE
  8
CSLAYER1
  6
CONTINUOUS
 62
     6
 10
474.493784
 20
241.516886
 11
475.286508
 21
241.516886
  0
LINE
  8
CSLAYER1
  6
CONTINUOUS
 62
     6
 10
472.151987
 20
240.345987
 11
471.359262
 21
240.345987
  0
LINE
  8
CSLAYER1
  6
CONTINUOUS
 62
     6
 10
474.493784
 20
240.345987
 11
475.286508
 21
240.345987
  0
ARC
  8
CSLAYER1
  6
CONTINUOUS
 62
     6
 10
472.151987
 20
239.760553
 40
0.585442
 50
0.000000
 51
90.000003
  0
ARC
  8
CSLAYER1
  6
CONTINUOUS
 62
     6
 10
474.493784
 20
239.760553
 40
0.585442
 50
90.000003
 51
180.000005
  0
ARC
  8
CSLAYER1
  6
CONTINUOUS
 62
     6
 10
474.493784
 20
242.102320
 40
0.585442
 50
180.000005
 51
270.000001
  0
ARC
  8
CSLAYER1
  6
CONTINUOUS
 62
     6
 10
472.151987
 20
242.102320
 40
0.585442
 50
270.000001
 51
359.942691
  0
CIRCLE
  8
CSLAYER1
  6
CONTINUOUS
 62
     6
 10
442.322916
 20
209.931437
 40
3.499925
  0
ARC
  8
CSLAYER1
  6
CONTINUOUS
 62
     6
 10
442.322916
 20
209.931437
 40
2.049047
 50
73.398422
 51
106.601583
  0
ARC
  8
CSLAYER1
  6
CONTINUOUS
 62
     6
 10
442.322916
 20
209.931437
 40
2.049047
 50
163.398424
 51
196.601586
  0
ARC
  8
CSLAYER1
  6
CONTINUOUS
 62
     6
 10
442.322916
 20
209.931437
 40
2.049047
 50
253.398434
 51
286.601568
  0
ARC
  8
CSLAYER1
  6
CONTINUOUS
 62
     6
 10
442.322916
 20
209.931437
 40
2.049047
 50
-16.601584
 51
16.601604
  0
LINE
  8
CSLAYER1
  6
CONTINUOUS
 62
     6
 10
441.737467
 20
208.760553
 11
441.737467
 21
207.967798
  0
LINE
  8
CSLAYER1
  6
CONTINUOUS
 62
     6
 10
441.737467
 20
211.102320
 11
441.737467
 21
211.895075
  0
LINE
  8
CSLAYER1
  6
CONTINUOUS
 62
     6
 10
442.908365
 20
208.760553
 11
442.908365
 21
207.967798
  0
LINE
  8
CSLAYER1
  6
CONTINUOUS
 62
     6
 10
442.908365
 20
211.102320
 11
442.908365
 21
211.895075
  0
LINE
  8
CSLAYER1
  6
CONTINUOUS
 62
     6
 10
441.152048
 20
210.516886
 11
440.359262
 21
210.516886
  0
LINE
  8
CSLAYER1
  6
CONTINUOUS
 62
     6
 10
443.493784
 20
210.516886
 11
444.286569
 21
210.516886
  0
LINE
  8
CSLAYER1
  6
CONTINUOUS
 62
     6
 10
441.152048
 20
209.345987
 11
440.359262
 21
209.345987
  0
LINE
  8
CSLAYER1
  6
CONTINUOUS
 62
     6
 10
443.493784
 20
209.345987
 11
444.286569
 21
209.345987
  0
ARC
  8
CSLAYER1
  6
CONTINUOUS
 62
     6
 10
441.152048
 20
208.760553
 40
0.585442
 50
0.000000
 51
90.000003
  0
ARC
  8
CSLAYER1
  6
CONTINUOUS
 62
     6
 10
443.493784
 20
208.760553
 40
0.585442
 50
90.000003
 51
180.000005
  0
ARC
  8
CSLAYER1
  6
CONTINUOUS
 62
     6
 10
443.493784
 20
211.102320
 40
0.585442
 50
180.000005
 51
270.000001
  0
ARC
  8
CSLAYER1
  6
CONTINUOUS
 62
     6
 10
441.152048
 20
211.102320
 40
0.585442
 50
270.000001
 51
359.942691
  0
CIRCLE
  8
CSLAYER1
  6
CONTINUOUS
 62
     6
 10
473.322885
 20
178.931437
 40
3.499925
  0
ARC
  8
CSLAYER1
  6
CONTINUOUS
 62
     6
 10
473.322885
 20
178.931437
 40
2.049047
 50
73.398422
 51
106.601583
  0
ARC
  8
CSLAYER1
  6
CONTINUOUS
 62
     6
 10
473.322885
 20
178.931437
 40
2.049047
 50
163.398424
 51
196.601586
  0
ARC
  8
CSLAYER1
  6
CONTINUOUS
 62
     6
 10
473.322885
 20
178.931437
 40
2.049047
 50
253.398434
 51
286.601568
  0
ARC
  8
CSLAYER1
  6
CONTINUOUS
 62
     6
 10
473.322885
 20
178.931437
 40
2.049047
 50
-16.601584
 51
16.601604
  0
LINE
  8
CSLAYER1
  6
CONTINUOUS
 62
     6
 10
472.737436
 20
177.760553
 11
472.737436
 21
176.967798
  0
LINE
  8
CSLAYER1
  6
CONTINUOUS
 62
     6
 10
472.737436
 20
180.102320
 11
472.737436
 21
180.895075
  0
LINE
  8
CSLAYER1
  6
CONTINUOUS
 62
     6
 10
473.908334
 20
177.760553
 11
473.908334
 21
176.967798
  0
LINE
  8
CSLAYER1
  6
CONTINUOUS
 62
     6
 10
473.908334
 20
180.102320
 11
473.908334
 21
180.895075
  0
LINE
  8
CSLAYER1
  6
CONTINUOUS
 62
     6
 10
472.151987
 20
179.516886
 11
471.359262
 21
179.516886
  0
LINE
  8
CSLAYER1
  6
CONTINUOUS
 62
     6
 10
474.493784
 20
179.516886
 11
475.286508
 21
179.516886
  0
LINE
  8
CSLAYER1
  6
CONTINUOUS
 62
     6
 10
472.151987
 20
178.345987
 11
471.359262
 21
178.345987
  0
LINE
  8
CSLAYER1
  6
CONTINUOUS
 62
     6
 10
474.493784
 20
178.345987
 11
475.286508
 21
178.345987
  0
ARC
  8
CSLAYER1
  6
CONTINUOUS
 62
     6
 10
472.151987
 20
177.760553
 40
0.585442
 50
0.000000
 51
90.000003
  0
ARC
  8
CSLAYER1
  6
CONTINUOUS
 62
     6
 10
474.493784
 20
177.760553
 40
0.585442
 50
90.000003
 51
180.000005
  0
ARC
  8
CSLAYER1
  6
CONTINUOUS
 62
     6
 10
474.493784
 20
180.102320
 40
0.585442
 50
180.000005
 51
270.000001
  0
ARC
  8
CSLAYER1
  6
CONTINUOUS
 62
     6
 10
472.151987
 20
180.102320
 40
0.585442
 50
270.000001
 51
359.942691
  0
CIRCLE
  8
CSLAYER1
  6
CONTINUOUS
 62
     6
 10
504.322916
 20
209.931437
 40
3.499925
  0
ARC
  8
CSLAYER1
  6
CONTINUOUS
 62
     6
 10
504.322916
 20
209.931437
 40
2.049047
 50
73.398422
 51
106.601583
  0
ARC
  8
CSLAYER1
  6
CONTINUOUS
 62
     6
 10
504.322916
 20
209.931437
 40
2.049047
 50
163.398424
 51
196.601586
  0
ARC
  8
CSLAYER1
  6
CONTINUOUS
 62
     6
 10
504.322916
 20
209.931437
 40
2.049047
 50
253.398434
 51
286.601568
  0
ARC
  8
CSLAYER1
  6
CONTINUOUS
 62
     6
 10
504.322916
 20
209.931437
 40
2.049047
 50
-16.601584
 51
16.601604
  0
LINE
  8
CSLAYER1
  6
CONTINUOUS
 62
     6
 10
503.737467
 20
208.760553
 11
503.737467
 21
207.967798
  0
LINE
  8
CSLAYER1
  6
CONTINUOUS
 62
     6
 10
503.737467
 20
211.102320
 11
503.737467
 21
211.895075
  0
LINE
  8
CSLAYER1
  6
CONTINUOUS
 62
     6
 10
504.908365
 20
208.760553
 11
504.908365
 21
207.967798
  0
LINE
  8
CSLAYER1
  6
CONTINUOUS
 62
     6
 10
504.908365
 20
211.102320
 11
504.908365
 21
211.895075
  0
LINE
  8
CSLAYER1
  6
CONTINUOUS
 62
     6
 10
503.152048
 20
210.516886
 11
502.359262
 21
210.516886
  0
LINE
  8
CSLAYER1
  6
CONTINUOUS
 62
     6
 10
505.493784
 20
210.516886
 11
506.286569
 21
210.516886
  0
LINE
  8
CSLAYER1
  6
CONTINUOUS
 62
     6
 10
503.152048
 20
209.345987
 11
502.359262
 21
209.345987
  0
LINE
  8
CSLAYER1
  6
CONTINUOUS
 62
     6
 10
505.493784
 20
209.345987
 11
506.286569
 21
209.345987
  0
ARC
  8
CSLAYER1
  6
CONTINUOUS
 62
     6
 10
503.152048
 20
208.760553
 40
0.585442
 50
0.000000
 51
90.000003
  0
ARC
  8
CSLAYER1
  6
CONTINUOUS
 62
     6
 10
505.493784
 20
208.760553
 40
0.585442
 50
90.000003
 51
180.000005
  0
ARC
  8
CSLAYER1
  6
CONTINUOUS
 62
     6
 10
505.493784
 20
211.102320
 40
0.585442
 50
180.000005
 51
270.000001
  0
ARC
  8
CSLAYER1
  6
CONTINUOUS
 62
     6
 10
503.152048
 20
211.102320
 40
0.585442
 50
270.000001
 51
359.942691
  0
LINE
  8
CSLAYER1
  6
CONTINUOUS
 62
     6
 10
492.322916
 20
164.931437
 11
454.322916
 21
164.931421
  0
ARC
  8
CSLAYER1
  6
CONTINUOUS
 62
     6
 10
454.322916
 20
163.931421
 40
1.000000
 50
90.000023
 51
180.000005
  0
ARC
  8
CSLAYER1
  6
CONTINUOUS
 62
     6
 10
492.322916
 20
163.931421
 40
1.000000
 50
0.000010
 51
90.000016
  0
LINE
  8
CSLAYER1
  6
CONTINUOUS
 62
     6
 10
453.322916
 20
165.931421
 11
453.322916
 21
159.931421
  0
LINE
  8
CSLAYER1
  6
CONTINUOUS
 62
     6
 10
493.322916
 20
165.933420
 11
493.322916
 21
159.931421
  0
LINE
  8
CSLAYER1
  6
CONTINUOUS
 62
     6
 10
339.322916
 20
244.431437
 11
339.322916
 21
175.431436
  0
LINE
  8
CSLAYER1
  6
CONTINUOUS
 62
     6
 10
242.322916
 20
240.931437
 11
242.322916
 21
178.931437
  0
LINE
  8
CSLAYER1
  6
CONTINUOUS
 62
     6
 10
211.322916
 20
181.455103
 11
211.322916
 21
238.407770
  0
LINE
  8
CSLAYER1
  6
CONTINUOUS
 62
     6
 10
212.322916
 20
239.407770
 11
242.322931
 21
239.931421
  0
LINE
  8
CSLAYER1
  6
CONTINUOUS
 62
     6
 10
212.322916
 20
239.407770
 11
211.322916
 21
238.407770
  0
LINE
  8
CSLAYER1
  6
CONTINUOUS
 62
     6
 10
212.322916
 20
180.455103
 11
242.322931
 21
179.931452
  0
LINE
  8
CSLAYER1
  6
CONTINUOUS
 62
     6
 10
212.322916
 20
180.455103
 11
211.322916
 21
181.455103
  0
LINE
  8
CSLAYER1
  6
CENTER
 62
     3
 10
208.322916
 20
209.931437
 11
398.322900
 21
209.931437
  0
LINE
  8
CSLAYER1
  6
CONTINUOUS
 62
     6
 10
309.322916
 20
240.931437
 11
242.322916
 21
240.931437
  0
LINE
  8
CSLAYER1
  6
CONTINUOUS
 62
     6
 10
301.271486
 20
178.931437
 11
242.322916
 21
178.931437
  0
LINE
  8
CSLAYER1
  6
CONTINUOUS
 62
     3
 10
257.322931
 20
240.931437
 11
257.322931
 21
226.431406
  0
LINE
  8
CSLAYER1
  6
CONTINUOUS
 62
     3
 10
258.322931
 20
225.431406
 11
294.322931
 21
225.431406
  0
LINE
  8
CSLAYER1
  6
CONTINUOUS
 62
     3
 10
295.322931
 20
226.431406
 11
295.322916
 21
240.931437
  0
ARC
  8
CSLAYER1
  6
CONTINUOUS
 62
     3
 10
258.322931
 20
226.431406
 40
1.000000
 50
180.000019
 51
270.000028
  0
ARC
  8
CSLAYER1
  6
CONTINUOUS
 62
     3
 10
294.322931
 20
226.431406
 40
1.000000
 50
270.000028
 51
359.942691
  0
TEXT
  8
CSLAYER1
 62
     3
 10
275.098145
 20
238.862991
 40
3.500000
 41
1.125000
  1
N P
 50
-89.999992
 51
10.000000
  7
JX_FONT
 72
     5
 11
275.098146
 21
228.362991
  0
LINE
  8
CSLAYER1
  6
CENTER
 62
     3
 10
231.322916
 20
222.931437
 11
231.322874
 21
165.205161
  0
CIRCLE
  8
CSLAYER1
  6
CONTINUOUS
 62
     6
 10
473.322885
 20
209.931437
 40
19.000000
  0
LINE
  8
CSLAYER1
  6
CONTINUOUS
 62
     6
 10
338.822916
 20
244.931437
 11
339.322916
 21
244.431437
  0
LINE
  8
CSLAYER1
  6
CONTINUOUS
 62
     6
 10
309.322916
 20
240.931360
 11
320.322931
 21
240.931360
  0
ARC
  8
CSLAYER1
  6
CONTINUOUS
 62
     6
 10
320.322916
 20
245.931360
 40
5.000000
 50
-89.999999
 51
0.000010
  0
CIRCLE
  8
CSLAYER1
  6
CONTINUOUS
 62
     6
 10
231.322916
 20
209.931437
 40
8.000000
  0
CIRCLE
  8
CSLAYER1
  6
CONTINUOUS
 62
     6
 10
231.322916
 20
209.931437
 40
6.000000
  0
CIRCLE
  8
CSLAYER1
  6
CONTINUOUS
 62
     3
 10
231.322916
 20
209.931437
 40
5.500000
  0
LINE
  8
CSLAYER1
  6
CONTINUOUS
 62
     6
 10
234.072916
 20
210.731440
 11
228.572916
 21
210.731440
  0
LINE
  8
CSLAYER1
  6
CONTINUOUS
 62
     6
 10
234.072916
 20
209.131433
 11
228.572916
 21
209.131433
  0
LINE
  8
CSLAYER1
  6
CONTINUOUS
 62
     6
 10
228.572916
 20
210.731440
 11
228.572916
 21
209.131433
  0
LINE
  8
CSLAYER1
  6
CONTINUOUS
 62
     6
 10
234.072916
 20
210.731440
 11
234.072916
 21
209.131433
  0
ARC
  8
CSLAYER1
  6
CONTINUOUS
 62
     6
 10
216.664030
 20
166.459327
 40
15.758816
 50
332.536202
 51
359.942691
  0
ARC
  8
CSLAYER1
  6
CONTINUOUS
 62
     6
 10
216.664030
 20
166.459327
 40
13.558834
 50
332.536202
 51
359.942691
  0
ARC
  8
CSLAYER1
  6
CONTINUOUS
 62
     6
 10
231.872862
 20
165.506736
 40
1.099999
 50
60.000350
 51
120.000345
  0
ARC
  8
CSLAYER1
  6
CONTINUOUS
 62
     6
 10
230.772863
 20
165.506720
 40
1.099999
 50
60.000350
 51
120.000345
  0
ARC
  8
CSLAYER1
  6
CONTINUOUS
 62
     6
 10
230.772856
 20
167.411979
 40
1.099999
 50
240.000362
 51
300.000350
  0
LINE
  8
CSLAYER1
  6
CONTINUOUS
 62
     6
 10
228.694807
 20
160.206168
 11
230.646864
 21
159.191550
  0
ARC
  8
CSLAYER1
  6
CONTINUOUS
 62
     6
 10
245.981718
 20
166.459327
 40
15.758816
 50
201.534034
 51
207.463868
  0
ARC
  8
CSLAYER1
  6
CONTINUOUS
 62
     6
 10
245.981718
 20
166.459327
 40
13.558834
 50
179.999978
 51
207.463868
  0
LINE
  8
CSLAYER1
  6
CONTINUOUS
 62
     6
 10
233.950941
 20
160.206153
 11
231.998884
 21
159.191535
  0
ARC
  8
CSLAYER1
  6
CONTINUOUS
 62
     6
 10
230.772886
 20
170.324195
 40
1.100006
 50
240.000007
 51
299.999995
  0
ARC
  8
CSLAYER1
  6
CONTINUOUS
 62
     6
 10
231.872892
 20
170.324195
 40
1.100006
 50
240.000007
 51
299.999995
  0
ARC
  8
CSLAYER1
  6
CONTINUOUS
 62
     6
 10
231.872892
 20
168.418921
 40
1.100006
 50
60.000002
 51
120.000003
  0
LINE
  8
CSLAYER1
  6
CONTINUOUS
 62
     6
 10
233.489042
 20
159.966071
 11
235.106214
 21
157.028022
  0
LINE
  8
CSLAYER1
  6
CONTINUOUS
 62
     6
 10
233.000120
 20
159.711951
 11
234.576902
 21
156.704551
  0
LINE
  8
CSLAYER1
  6
CONTINUOUS
 62
     6
 10
232.601988
 20
159.505011
 11
234.003492
 21
156.425193
  0
LINE
  8
CSLAYER1
  6
CONTINUOUS
 62
     6
 10
229.159025
 20
159.964881
 11
227.541868
 21
157.026801
  0
LINE
  8
CSLAYER1
  6
CONTINUOUS
 62
     6
 10
229.647947
 20
159.710746
 11
228.071165
 21
156.703330
  0
LINE
  8
CSLAYER1
  6
CONTINUOUS
 62
     6
 10
230.046079
 20
159.503791
 11
228.644590
 21
156.423987
  0
LINE
  8
CSLAYER1
  6
CONTINUOUS
 62
     6
 10
232.422922
 20
180.103128
 11
232.422880
 21
169.371558
  0
LINE
  8
CSLAYER1
  6
CONTINUOUS
 62
     6
 10
230.222925
 20
180.144754
 11
230.222883
 21
169.371558
  0
LINE
  8
CSLAYER1
  6
CONTINUOUS
 62
     6
 10
212.322916
 20
180.455103
 11
212.322916
 21
239.407770
  0
LINE
  8
CSLAYER1
  6
CONTINUOUS
 62
     6
 10
333.322916
 20
106.931421
 11
333.322916
 21
66.931421
  0
LINE
  8
CSLAYER1
  6
CONTINUOUS
 62
     6
 10
309.322916
 20
103.931421
 11
309.322916
 21
69.931421
  0
LINE
  8
CSLAYER1
  6
CONTINUOUS
 62
     6
 10
339.322916
 20
106.931421
 11
339.322916
 21
66.931421
  0
LINE
  8
CSLAYER1
  6
CONTINUOUS
 62
     6
 10
242.322916
 20
117.931421
 11
242.322916
 21
55.931421
  0
LINE
  8
CSLAYER1
  6
CENTER
 62
     3
 10
208.322916
 20
86.931421
 11
398.322900
 21
86.931421
  0
LINE
  8
CSLAYER1
  6
CONTINUOUS
 62
     6
 10
265.322931
 20
117.931421
 11
242.322916
 21
117.931421
  0
LINE
  8
CSLAYER1
  6
CONTINUOUS
 62
     6
 10
265.322916
 20
55.931421
 11
242.322916
 21
55.931421
  0
LINE
  8
CSLAYER1
  6
CONTINUOUS
 62
     6
 10
275.322931
 20
133.931421
 11
355.322916
 21
133.931421
  0
LINE
  8
CSLAYER1
  6
CONTINUOUS
 62
     6
 10
365.322916
 20
123.931421
 11
365.322916
 21
116.931421
  0
LINE
  8
CSLAYER1
  6
CONTINUOUS
 62
     6
 10
355.322916
 20
106.931421
 11
275.322931
 21
106.931421
  0
LINE
  8
CSLAYER1
  6
CONTINUOUS
 62
     6
 10
265.322916
 20
116.931421
 11
265.322916
 21
123.931421
  0
ARC
  8
CSLAYER1
  6
CONTINUOUS
 62
     6
 10
355.322916
 20
123.931421
 40
10.000000
 50
0.000000
 51
90.000000
  0
ARC
  8
CSLAYER1
  6
CONTINUOUS
 62
     6
 10
355.322916
 20
116.931421
 40
10.000000
 50
270.000000
 51
360.000000
  0
ARC
  8
CSLAYER1
  6
CONTINUOUS
 62
     6
 10
275.322916
 20
123.931421
 40
10.000000
 50
90.000000
 51
180.000000
  0
ARC
  8
CSLAYER1
  6
CONTINUOUS
 62
     6
 10
275.322916
 20
116.931421
 40
10.000000
 50
180.000000
 51
270.000000
  0
ARC
  8
CSLAYER1
  6
CONTINUOUS
 62
     6
 10
347.822916
 20
126.431421
 40
3.500000
 50
0.000000
 51
180.000000
  0
ARC
  8
CSLAYER1
  6
CONTINUOUS
 62
     6
 10
347.822916
 20
120.431421
 40
3.500000
 50
180.000000
 51
360.000000
  0
LINE
  8
CSLAYER1
  6
CONTINUOUS
 62
     6
 10
344.322916
 20
126.431421
 11
344.322916
 21
120.431421
  0
LINE
  8
CSLAYER1
  6
CONTINUOUS
 62
     6
 10
351.322916
 20
126.431421
 11
351.322916
 21
120.431421
  0
ARC
  8
CSLAYER1
  6
CONTINUOUS
 62
     6
 10
282.822916
 20
126.431421
 40
3.500000
 50
0.000000
 51
180.000000
  0
ARC
  8
CSLAYER1
  6
CONTINUOUS
 62
     6
 10
282.822916
 20
120.431421
 40
3.500000
 50
180.000000
 51
360.000000
  0
LINE
  8
CSLAYER1
  6
CONTINUOUS
 62
     6
 10
279.322916
 20
126.431421
 11
279.322916
 21
120.431421
  0
LINE
  8
CSLAYER1
  6
CONTINUOUS
 62
     6
 10
286.322916
 20
126.431421
 11
286.322916
 21
120.431421
  0
ARC
  8
CSLAYER1
  6
CONTINUOUS
 62
     6
 10
306.322916
 20
103.931421
 40
3.000000
 50
0.000000
 51
90.000000
  0
ARC
  8
CSLAYER1
  6
CONTINUOUS
 62
     6
 10
306.322916
 20
69.931421
 40
3.000000
 50
270.000000
 51
360.000000
  0
LINE
  8
CSLAYER1
  6
CENTER
 62
     3
 10
347.822916
 20
131.931421
 11
347.822916
 21
114.931421
  0
LINE
  8
CSLAYER1
  6
CENTER
 62
     3
 10
342.322916
 20
126.431421
 11
353.322916
 21
126.431421
  0
LINE
  8
CSLAYER1
  6
CENTER
 62
     3
 10
342.322916
 20
120.431421
 11
353.322916
 21
120.431421
  0
LINE
  8
CSLAYER1
  6
CENTER
 62
     3
 10
282.822916
 20
131.931421
 11
282.822916
 21
114.931421
  0
LINE
  8
CSLAYER1
  6
CENTER
 62
     3
 10
277.322916
 20
126.431421
 11
288.322916
 21
126.431421
  0
LINE
  8
CSLAYER1
  6
CENTER
 62
     3
 10
277.322916
 20
120.431421
 11
288.322916
 21
120.431421
  0
LINE
  8
CSLAYER1
  6
CONTINUOUS
 62
     6
 10
280.373426
 20
117.931421
 11
285.272405
 21
117.931421
  0
LINE
  8
CSLAYER1
  6
CONTINUOUS
 62
     6
 10
339.322916
 20
236.431437
 11
352.322916
 21
236.431437
  0
LINE
  8
CSLAYER1
  6
CONTINUOUS
 62
     6
 10
339.322912
 20
183.431437
 11
352.322916
 21
183.431437
  0
ARC
  8
CSLAYER1
  6
CONTINUOUS
 62
     6
 10
352.322916
 20
233.431437
 40
3.000000
 50
0.000000
 51
90.000000
  0
ARC
  8
CSLAYER1
  6
CONTINUOUS
 62
     6
 10
352.322916
 20
186.431437
 40
3.000000
 50
270.000000
 51
360.000000
  0
LINE
  8
CSLAYER1
  6
CONTINUOUS
 62
     6
 10
339.322916
 20
292.931452
 11
339.322916
 21
362.931452
  0
LINE
  8
CSLAYER1
  6
CONTINUOUS
 62
     6
 10
242.322916
 20
296.931452
 11
242.322916
 21
358.931452
  0
LINE
  8
CSLAYER1
  6
CONTINUOUS
 62
     6
 10
212.322916
 20
298.455118
 11
242.322931
 21
297.931467
  0
LINE
  8
CSLAYER1
  6
CONTINUOUS
 62
     6
 10
212.322916
 20
298.455118
 11
211.322916
 21
299.455118
  0
LINE
  8
CSLAYER1
  6
CONTINUOUS
 62
     6
 10
212.322916
 20
357.407785
 11
242.322931
 21
357.931437
  0
LINE
  8
CSLAYER1
  6
CONTINUOUS
 62
     6
 10
212.322916
 20
357.407785
 11
211.322916
 21
356.407785
  0
LINE
  8
CSLAYER1
  6
CENTER
 62
     3
 10
208.322916
 20
327.931452
 11
398.322900
 21
327.931452
  0
LINE
  8
CSLAYER1
  6
CONTINUOUS
 62
     6
 10
322.322931
 20
296.931452
 11
242.322916
 21
296.931452
  0
LINE
  8
CSLAYER1
  6
CONTINUOUS
 62
     6
 10
322.322931
 20
358.931452
 11
242.322916
 21
358.931452
  0
LINE
  8
CSLAYER1
  6
CONTINUOUS
 62
     6
 10
211.322916
 20
356.407785
 11
211.322916
 21
299.455118
  0
LINE
  8
CSLAYER1
  6
CONTINUOUS
 62
     6
 10
212.322916
 20
357.407785
 11
212.322916
 21
298.455118
  0
LINE
  8
CSLAYER1
  6
CONTINUOUS
 62
     6
 10
275.322916
 20
280.931452
 11
355.322916
 21
280.931452
  0
LINE
  8
CSLAYER1
  6
CONTINUOUS
 62
     6
 10
365.322916
 20
290.931452
 11
365.322916
 21
297.931452
  0
LINE
  8
CSLAYER1
  6
CONTINUOUS
 62
     6
 10
265.322916
 20
296.931452
 11
265.322916
 21
290.931452
  0
ARC
  8
CSLAYER1
  6
CONTINUOUS
 62
     6
 10
355.322916
 20
290.931452
 40
10.000000
 50
270.000000
 51
360.000000
  0
ARC
  8
CSLAYER1
  6
CONTINUOUS
 62
     6
 10
355.322916
 20
297.931452
 40
10.000000
 50
0.000000
 51
85.757725
  0
ARC
  8
CSLAYER1
  6
CONTINUOUS
 62
     6
 10
275.322916
 20
290.931452
 40
10.000000
 50
180.000000
 51
270.000000
  0
ARC
  8
CSLAYER1
  6
CONTINUOUS
 62
     6
 10
347.822916
 20
288.431452
 40
3.500000
 50
180.000000
 51
360.000000
  0
ARC
  8
CSLAYER1
  6
CONTINUOUS
 62
     6
 10
347.822916
 20
294.431452
 40
3.500000
 50
-0.000000
 51
180.000000
  0
LINE
  8
CSLAYER1
  6
CONTINUOUS
 62
     6
 10
344.322916
 20
288.431452
 11
344.322916
 21
294.431452
  0
LINE
  8
CSLAYER1
  6
CONTINUOUS
 62
     6
 10
351.322916
 20
288.431452
 11
351.322916
 21
294.431452
  0
ARC
  8
CSLAYER1
  6
CONTINUOUS
 62
     6
 10
282.822916
 20
288.431452
 40
3.500000
 50
180.000000
 51
360.000000
  0
ARC
  8
CSLAYER1
  6
CONTINUOUS
 62
     6
 10
282.822916
 20
294.431452
 40
3.500000
 50
-0.000000
 51
45.584691
  0
LINE
  8
CSLAYER1
  6
CONTINUOUS
 62
     6
 10
279.322916
 20
288.431452
 11
279.322916
 21
294.431452
  0
LINE
  8
CSLAYER1
  6
CONTINUOUS
 62
     6
 10
286.322916
 20
288.431452
 11
286.322916
 21
294.431452
  0
LINE
  8
CSLAYER1
  6
CENTER
 62
     3
 10
347.822916
 20
282.931452
 11
347.822916
 21
299.931452
  0
LINE
  8
CSLAYER1
  6
CENTER
 62
     3
 10
342.322916
 20
288.431452
 11
353.322916
 21
288.431452
  0
LINE
  8
CSLAYER1
  6
CENTER
 62
     3
 10
342.322916
 20
294.431452
 11
353.322916
 21
294.431452
  0
LINE
  8
CSLAYER1
  6
CENTER
 62
     3
 10
282.822916
 20
282.931452
 11
282.822916
 21
299.931452
  0
LINE
  8
CSLAYER1
  6
CENTER
 62
     3
 10
277.322916
 20
288.431452
 11
288.322916
 21
288.431452
  0
LINE
  8
CSLAYER1
  6
CENTER
 62
     3
 10
277.322916
 20
294.431452
 11
288.322916
 21
294.431452
  0
ARC
  8
CSLAYER1
  6
CONTINUOUS
 62
     6
 10
282.822916
 20
294.431452
 40
3.500000
 50
134.415309
 51
180.000000
  0
LINE
  8
CSLAYER1
  6
CONTINUOUS
 62
     6
 10
309.322916
 20
358.931452
 11
309.322916
 21
296.931452
  0
LINE
  8
CSLAYER1
  6
CONTINUOUS
 62
     6
 10
325.322931
 20
285.931452
 11
325.322931
 21
369.931452
  0
LINE
  8
CSLAYER1
  6
CONTINUOUS
 62
     6
 10
333.322916
 20
283.931452
 11
333.322916
 21
371.931452
  0
LINE
  8
CSLAYER1
  6
CONTINUOUS
 62
     6
 10
333.322931
 20
362.931452
 11
339.322916
 21
362.931452
  0
LINE
  8
CSLAYER1
  6
CONTINUOUS
 62
     6
 10
333.322931
 20
292.931452
 11
339.322916
 21
292.931452
  0
LINE
  8
CSLAYER1
  6
CONTINUOUS
 62
     6
 10
292.822946
 20
371.931452
 11
339.822931
 21
371.931452
  0
LINE
  8
CSLAYER1
  6
CONTINUOUS
 62
     6
 10
292.822946
 20
283.931452
 11
339.822931
 21
283.931452
  0
LINE
  8
CSLAYER1
  6
CONTINUOUS
 62
     6
 10
292.822946
 20
289.931452
 11
325.322931
 21
289.931452
  0
LINE
  8
CSLAYER1
  6
CONTINUOUS
 62
     6
 10
292.822946
 20
365.931452
 11
325.322931
 21
365.931452
  0
LINE
  8
CSLAYER1
  6
CONTINUOUS
 62
     6
 10
333.322931
 20
289.931452
 11
339.822931
 21
289.931452
  0
LINE
  8
CSLAYER1
  6
CONTINUOUS
 62
     6
 10
333.322931
 20
365.931452
 11
339.822931
 21
365.931452
  0
ARC
  8
CSLAYER1
  6
CONTINUOUS
 62
     6
 10
322.322931
 20
361.931452
 40
3.000000
 50
270.000000
 51
360.000000
  0
ARC
  8
CSLAYER1
  6
CONTINUOUS
 62
     6
 10
322.322931
 20
293.931452
 40
3.000000
 50
0.000000
 51
90.000000
  0
LINE
  8
CSLAYER1
  6
CONTINUOUS
 62
     6
 10
292.822946
 20
371.931452
 11
292.822946
 21
365.931452
  0
LINE
  8
CSLAYER1
  6
CONTINUOUS
 62
     6
 10
339.822931
 20
371.931452
 11
339.822931
 21
365.931452
  0
LINE
  8
CSLAYER1
  6
CONTINUOUS
 62
     6
 10
339.822931
 20
289.931452
 11
339.822931
 21
283.931452
  0
LINE
  8
CSLAYER1
  6
CONTINUOUS
 62
     6
 10
292.822946
 20
289.931452
 11
292.822946
 21
283.931452
  0
CIRCLE
  8
CSLAYER1
  6
CONTINUOUS
 62
     6
 10
473.322885
 20
240.931437
 40
4.000000
  0
CIRCLE
  8
CSLAYER1
  6
CONTINUOUS
 62
     6
 10
442.322885
 20
209.931437
 40
4.000000
  0
CIRCLE
  8
CSLAYER1
  6
CONTINUOUS
 62
     6
 10
473.322885
 20
178.931437
 40
4.000000
  0
CIRCLE
  8
CSLAYER1
  6
CONTINUOUS
 62
     6
 10
504.322885
 20
209.931437
 40
4.000000
  0
LINE
  8
CSLAYER1
  6
CONTINUOUS
 62
     6
 10
358.322916
 20
228.931437
 11
372.322916
 21
228.931437
  0
LINE
  8
CSLAYER1
  6
CONTINUOUS
 62
     6
 10
358.322916
 20
190.931437
 11
372.322916
 21
190.931437
  0
ARC
  8
CSLAYER1
  6
CONTINUOUS
 62
     6
 10
372.322916
 20
193.931437
 40
3.000000
 50
270.000000
 51
360.000000
  0
ARC
  8
CSLAYER1
  6
CONTINUOUS
 62
     6
 10
358.322916
 20
187.931437
 40
3.000000
 50
90.000000
 51
180.000000
  0
ARC
  8
CSLAYER1
  6
CONTINUOUS
 62
     6
 10
372.322916
 20
225.931437
 40
3.000000
 50
0.000000
 51
90.000000
  0
ARC
  8
CSLAYER1
  6
CONTINUOUS
 62
     6
 10
358.322916
 20
231.931437
 40
3.000000
 50
180.000000
 51
270.000000
  0
CIRCLE
  8
CSLAYER1
  6
CONTINUOUS
 62
     6
 10
473.322885
 20
209.931437
 40
13.000000
  0
LINE
  8
CSLAYER1
  6
CONTINUOUS
 62
     6
 10
375.322916
 20
70.931421
 11
375.322916
 21
102.931421
  0
LINE
  8
CSLAYER1
  6
CONTINUOUS
 62
     6
 10
355.322916
 20
66.931421
 11
355.322916
 21
106.931421
  0
LINE
  8
CSLAYER1
  6
CONTINUOUS
 62
     6
 10
358.322931
 20
105.931421
 11
372.322916
 21
105.931421
  0
LINE
  8
CSLAYER1
  6
CONTINUOUS
 62
     6
 10
358.322931
 20
67.931421
 11
372.322916
 21
67.931421
  0
ARC
  8
CSLAYER1
  6
CONTINUOUS
 62
     6
 10
372.322916
 20
70.931421
 40
3.000000
 50
270.000000
 51
360.000000
  0
ARC
  8
CSLAYER1
  6
CONTINUOUS
 62
     6
 10
358.322931
 20
64.931421
 40
3.000000
 50
90.000000
 51
138.887937
  0
ARC
  8
CSLAYER1
  6
CONTINUOUS
 62
     6
 10
372.322916
 20
102.931421
 40
3.000000
 50
0.000000
 51
90.000000
  0
ARC
  8
CSLAYER1
  6
CONTINUOUS
 62
     6
 10
358.322931
 20
108.931421
 40
3.000000
 50
221.112063
 51
270.000000
  0
LINE
  8
CSLAYER1
  6
CONTINUOUS
 62
     6
 10
375.322916
 20
311.931452
 11
375.322916
 21
343.931452
  0
LINE
  8
CSLAYER1
  6
CONTINUOUS
 62
     6
 10
355.322916
 20
304.431452
 11
355.322916
 21
351.431452
  0
LINE
  8
CSLAYER1
  6
CONTINUOUS
 62
     6
 10
339.322916
 20
354.431452
 11
352.322916
 21
354.431452
  0
LINE
  8
CSLAYER1
  6
CONTINUOUS
 62
     6
 10
339.322912
 20
301.431452
 11
352.322916
 21
301.431452
  0
ARC
  8
CSLAYER1
  6
CONTINUOUS
 62
     6
 10
352.322916
 20
351.431452
 40
3.000000
 50
0.000000
 51
90.000000
  0
ARC
  8
CSLAYER1
  6
CONTINUOUS
 62
     6
 10
352.322916
 20
304.431452
 40
3.000000
 50
270.000000
 51
360.000000
  0
LINE
  8
CSLAYER1
  6
CONTINUOUS
 62
     6
 10
358.322931
 20
346.931452
 11
372.322916
 21
346.931452
  0
LINE
  8
CSLAYER1
  6
CONTINUOUS
 62
     6
 10
358.322931
 20
308.931452
 11
372.322916
 21
308.931452
  0
ARC
  8
CSLAYER1
  6
CONTINUOUS
 62
     6
 10
372.322916
 20
311.931452
 40
3.000000
 50
270.000000
 51
360.000000
  0
ARC
  8
CSLAYER1
  6
CONTINUOUS
 62
     6
 10
358.322931
 20
305.931452
 40
3.000000
 50
90.000000
 51
180.000000
  0
ARC
  8
CSLAYER1
  6
CONTINUOUS
 62
     6
 10
372.322916
 20
343.931452
 40
3.000000
 50
0.000000
 51
90.000000
  0
ARC
  8
CSLAYER1
  6
CONTINUOUS
 62
     6
 10
358.322931
 20
349.931452
 40
3.000000
 50
180.000000
 51
270.000000
  0
LINE
  8
CSLAYER1
  6
CONTINUOUS
 62
     3
 10
257.822916
 20
301.084671
 11
293.822916
 21
301.084671
  0
ARC
  8
CSLAYER1
  6
CONTINUOUS
 62
     3
 10
257.822916
 20
302.084671
 40
1.000000
 50
180.000005
 51
270.000001
  0
ARC
  8
CSLAYER1
  6
CONTINUOUS
 62
     3
 10
293.822916
 20
302.084671
 40
1.000000
 50
270.000001
 51
359.942691
  0
LINE
  8
CSLAYER1
  6
CONTINUOUS
 62
     3
 10
256.822916
 20
353.778239
 11
256.822916
 21
302.084671
  0
LINE
  8
CSLAYER1
  6
CONTINUOUS
 62
     3
 10
294.822916
 20
353.778239
 11
294.822916
 21
302.084671
  0
TEXT
  8
CSLAYER1
 62
     3
 10
274.601837
 20
333.429840
 40
3.500000
 41
1.125000
  1
N P
 50
-90.000000
 51
10.000000
  7
JX_FONT
 72
     5
 11
274.601837
 21
322.929840
  0
LINE
  8
CSLAYER1
  6
CONTINUOUS
 62
     3
 10
257.822916
 20
354.778239
 11
293.822916
 21
354.778239
  0
ARC
  8
CSLAYER1
  6
CONTINUOUS
 62
     3
 10
257.822916
 20
353.778239
 40
1.000000
 50
90.000009
 51
180.000005
  0
ARC
  8
CSLAYER1
  6
CONTINUOUS
 62
     3
 10
293.822916
 20
353.778239
 40
1.000000
 50
0.057319
 51
90.000009
  0
CIRCLE
  8
CSLAYER1
  6
CONTINUOUS
 62
     6
 10
133.322923
 20
209.931416
 40
30.000000
  0
ARC
  8
CSLAYER1
  6
CONTINUOUS
 62
     6
 10
133.322923
 20
209.931416
 40
31.000000
 50
-85.930420
 51
265.930438
  0
LINE
  8
CSLAYER1
  6
CONTINUOUS
 62
     6
 10
135.522920
 20
169.371551
 11
135.522928
 21
180.012196
  0
LINE
  8
CSLAYER1
  6
CONTINUOUS
 62
     6
 10
131.122922
 20
169.371551
 11
131.122930
 21
180.012196
  0
LINE
  8
CSLAYER1
  6
CONTINUOUS
 62
     6
 10
133.322916
 20
169.371551
 11
133.322931
 21
180.012196
  0
ARC
  8
CSLAYER1
  6
CONTINUOUS
 62
     6
 10
149.081945
 20
166.459403
 40
15.759004
 50
180.000235
 51
207.463987
  0
ARC
  8
CSLAYER1
  6
CONTINUOUS
 62
     6
 10
149.081945
 20
166.459403
 40
13.559023
 50
180.000308
 51
207.464006
  0
ARC
  8
CSLAYER1
  6
CONTINUOUS
 62
     6
 10
133.872941
 20
170.324172
 40
1.099999
 50
239.999870
 51
299.999858
  0
ARC
  8
CSLAYER1
  6
CONTINUOUS
 62
     6
 10
134.972940
 20
170.324172
 40
1.099999
 50
239.999870
 51
299.999858
  0
ARC
  8
CSLAYER1
  6
CONTINUOUS
 62
     6
 10
134.972932
 20
168.418929
 40
1.099999
 50
59.999858
 51
119.999853
  0
ARC
  8
CSLAYER1
  6
CONTINUOUS
 62
     6
 10
134.972923
 20
165.506688
 40
1.099999
 50
59.999715
 51
119.999716
  0
ARC
  8
CSLAYER1
  6
CONTINUOUS
 62
     6
 10
133.872924
 20
165.506704
 40
1.099999
 50
59.999715
 51
119.999716
  0
ARC
  8
CSLAYER1
  6
CONTINUOUS
 62
     6
 10
133.872932
 20
167.411962
 40
1.099999
 50
239.999733
 51
299.999721
  0
LINE
  8
CSLAYER1
  6
CONTINUOUS
 62
     6
 10
136.563003
 20
159.952459
 11
138.339848
 21
156.931460
  0
LINE
  8
CSLAYER1
  6
CONTINUOUS
 62
     6
 10
136.074987
 20
159.698811
 11
137.689165
 21
156.593254
  0
LINE
  8
CSLAYER1
  6
CONTINUOUS
 62
     6
 10
135.586975
 20
159.445158
 11
137.038482
 21
156.255048
  0
LINE
  8
CSLAYER1
  6
CONTINUOUS
 62
     6
 10
137.051016
 20
160.206113
 11
135.098966
 21
159.191495
  0
ARC
  8
CSLAYER1
  6
CONTINUOUS
 62
     6
 10
117.563962
 20
166.459231
 40
15.758933
 50
-27.463461
 51
0.000397
  0
ARC
  8
CSLAYER1
  6
CONTINUOUS
 62
     6
 10
117.563962
 20
166.459231
 40
13.558951
 50
-27.463363
 51
0.000417
  0
ARC
  8
CSLAYER1
  6
CONTINUOUS
 62
     6
 10
131.672899
 20
170.324172
 40
1.099999
 50
240.000198
 51
300.000186
  0
ARC
  8
CSLAYER1
  6
CONTINUOUS
 62
     6
 10
132.772897
 20
170.324172
 40
1.099999
 50
240.000198
 51
300.000186
  0
ARC
  8
CSLAYER1
  6
CONTINUOUS
 62
     6
 10
132.772905
 20
168.418929
 40
1.099999
 50
60.000186
 51
120.000181
  0
ARC
  8
CSLAYER1
  6
CONTINUOUS
 62
     6
 10
132.772918
 20
165.506719
 40
1.099999
 50
60.000350
 51
120.000345
  0
ARC
  8
CSLAYER1
  6
CONTINUOUS
 62
     6
 10
131.672920
 20
165.506704
 40
1.099999
 50
60.000350
 51
120.000345
  0
ARC
  8
CSLAYER1
  6
CONTINUOUS
 62
     6
 10
131.672908
 20
167.411962
 40
1.099999
 50
240.000362
 51
300.000350
  0
CIRCLE
  8
CSLAYER1
  6
CONTINUOUS
 62
     6
 10
133.322916
 20
209.931416
 40
6.818180
  0
CIRCLE
  8
CSLAYER1
  6
CONTINUOUS
 62
     6
 10
133.322916
 20
209.931416
 40
7.909089
  0
LINE
  8
CSLAYER1
  6
CONTINUOUS
 62
     6
 10
126.504736
 20
209.931416
 11
136.732004
 21
206.522328
  0
LINE
  8
CSLAYER1
  6
CONTINUOUS
 62
     6
 10
136.732004
 20
206.522328
 11
136.773699
 21
209.931416
  0
LINE
  8
CSLAYER1
  6
CONTINUOUS
 62
     6
 10
136.773699
 20
209.931416
 11
140.141100
 21
209.931416
  0
LINE
  8
CSLAYER1
  6
CONTINUOUS
 62
     6
 10
129.913828
 20
213.340504
 11
129.936964
 21
209.931416
  0
LINE
  8
CSLAYER1
  6
CONTINUOUS
 62
     6
 10
129.936964
 20
209.931416
 11
126.504736
 21
209.931416
  0
TEXT
  8
CSLAYER1
 62
     6
 10
118.490097
 20
207.963333
 40
3.409090
 41
1.200000
  1
S
 50
282.000000
 51
3.000000
  7
JX_FONT
 72
     5
 11
119.057129
 21
205.295659
  0
TEXT
  8
CSLAYER1
 62
     6
 10
119.223419
 20
204.922440
 40
3.409090
 41
1.200000
  1
A
 50
294.000031
 51
3.000000
  7
JX_FONT
 72
     5
 11
120.332702
 21
202.430953
  0
TEXT
  8
CSLAYER1
 62
     6
 10
120.572960
 20
202.100449
 40
3.409090
 41
1.596000
  1
W
 50
306.000031
 51
3.000000
  7
JX_FONT
 72
     5
 11
122.705018
 21
199.165925
  0
TEXT
  8
CSLAYER1
 62
     6
 10
122.479721
 20
199.620712
 40
3.409090
 41
1.200000
  1
A
 50
318.000000
 51
3.000000
  7
JX_FONT
 72
     5
 11
124.506479
 21
197.795811
  0
TEXT
  8
CSLAYER1
 62
     6
 10
124.860382
 20
197.591614
 40
3.409090
 41
1.200000
  1
M
 50
330.000000
 51
3.000000
  7
JX_FONT
 72
     5
 11
127.222269
 21
196.227978
  0
TEXT
  8
CSLAYER1
 62
     6
 10
127.610886
 20
196.101822
 40
3.409090
 41
1.200000
  1
U
 50
342.000000
 51
3.000000
  7
JX_FONT
 72
     5
 11
130.204675
 21
195.259048
  0
TEXT
  8
CSLAYER1
 62
     6
 10
130.611038
 20
195.216446
 40
3.409090
 41
1.200000
  1
R
 50
353.999969
 51
3.000000
  7
JX_FONT
 72
     5
 11
133.323370
 21
194.931367
  0
TEXT
  8
CSLAYER1
 62
     6
 10
133.729736
 20
194.974167
 40
3.409090
 41
1.200000
  1
A
 50
6.000000
 51
3.000000
  7
JX_FONT
 72
     5
 11
136.442068
 21
195.259244
  0
TEXT
  8
CSLAYER1
 62
     6
 10
146.479645
 20
202.805145
 40
3.409090
 41
1.200000
  1
K
 50
66.000046
 51
3.000000
  7
JX_FONT
 72
     5
 11
147.588924
 21
205.296633
  0
TEXT
  8
CSLAYER1
 62
     6
 10
147.673767
 20
205.696289
 40
3.409090
 41
0.792000
  1
I
 50
78.000000
 51
3.000000
  7
JX_FONT
 72
     5
 11
148.048008
 21
207.456954
  0
TEXT
  8
CSLAYER1
 62
     6
 10
139.778229
 20
196.432770
 40
3.409090
 41
1.200000
  1
D
 50
30.000032
 51
3.000000
  7
JX_FONT
 72
     5
 11
142.140115
 21
197.796407
  0
TEXT
  8
CSLAYER1
 62
     6
 10
142.443680
 20
198.069885
 40
3.409090
 41
1.200000
  1
E
 50
41.999962
 51
3.000000
  7
JX_FONT
 72
     5
 11
144.470439
 21
199.894785
  0
TEXT
  8
CSLAYER1
 62
     6
 10
144.710510
 20
200.225433
 40
3.409090
 41
1.200000
  1
N
 50
54.000061
 51
3.000000
  7
JX_FONT
 72
     5
 11
146.313558
 21
202.431844
  0
TEXT
  8
CSLAYER1
 62
     6
 10
118.405045
 20
211.090149
 40
3.410000
 41
1.200000
  1
*
 50
-90.000000
 51
3.000000
  7
JX_FONT
 72
     5
 11
118.405045
 21
208.362149
  0
TEXT
  8
CSLAYER1
 62
     6
 10
139.034943
 20
223.761002
 40
3.409090
 41
1.200000
  1
U
 50
162.000000
 51
3.000000
  7
JX_FONT
 72
     5
 11
136.441153
 21
224.603775
  0
TEXT
  8
CSLAYER1
 62
     6
 10
136.034790
 20
224.646378
 40
3.409090
 41
1.200000
  1
R
 50
173.999985
 51
3.000000
  7
JX_FONT
 72
     5
 11
133.322458
 21
224.931456
  0
TEXT
  8
CSLAYER1
 62
     6
 10
132.916107
 20
224.888657
 40
3.409090
 41
1.200000
  1
A
 50
186.000015
 51
3.000000
  7
JX_FONT
 72
     5
 11
130.203776
 21
224.603578
  0
TEXT
  8
CSLAYER1
 62
     6
 10
120.166183
 20
217.057678
 40
3.409090
 41
1.200000
  1
K
 50
246.000061
 51
3.000000
  7
JX_FONT
 72
     5
 11
119.056905
 21
214.566190
  0
TEXT
  8
CSLAYER1
 62
     6
 10
118.972061
 20
214.166534
 40
3.409090
 41
0.792000
  1
I
 50
258.000000
 51
3.000000
  7
JX_FONT
 72
     5
 11
118.597820
 21
212.405869
  0
TEXT
  8
CSLAYER1
 62
     6
 10
126.867599
 20
223.430054
 40
3.409090
 41
1.200000
  1
D
 50
210.000046
 51
3.000000
  7
JX_FONT
 72
     5
 11
124.505714
 21
222.066416
  0
TEXT
  8
CSLAYER1
 62
     6
 10
124.202156
 20
221.792938
 40
3.409090
 41
1.200000
  1
E
 50
221.999969
 51
3.000000
  7
JX_FONT
 72
     5
 11
122.175397
 21
219.968038
  0
TEXT
  8
CSLAYER1
 62
     6
 10
121.935333
 20
219.637390
 40
3.409090
 41
1.200000
  1
N
 50
234.000061
 51
3.000000
  7
JX_FONT
 72
     5
 11
120.332285
 21
217.430979
  0
TEXT
  8
CSLAYER1
 62
     6
 10
148.155731
 20
211.899490
 40
3.409090
 41
1.200000
  1
S
 50
102.000000
 51
3.000000
  7
JX_FONT
 72
     5
 11
147.588699
 21
214.567165
  0
TEXT
  8
CSLAYER1
 62
     6
 10
147.422424
 20
214.940384
 40
3.409090
 41
1.200000
  1
A
 50
114.000046
 51
3.000000
  7
JX_FONT
 72
     5
 11
146.313141
 21
217.431870
  0
TEXT
  8
CSLAYER1
 62
     6
 10
146.072876
 20
217.762375
 40
3.409090
 41
1.596000
  1
W
 50
126.000038
 51
3.000000
  7
JX_FONT
 72
     5
 11
143.940817
 21
220.696898
  0
TEXT
  8
CSLAYER1
 62
     6
 10
144.166107
 20
220.242111
 40
3.409090
 41
1.200000
  1
A
 50
138.000031
 51
3.000000
  7
JX_FONT
 72
     5
 11
142.139348
 21
222.067011
  0
TEXT
  8
CSLAYER1
 62
     6
 10
141.785446
 20
222.271210
 40
3.409090
 41
1.200000
  1
M
 50
150.000015
 51
3.000000
  7
JX_FONT
 72
     5
 11
139.423559
 21
223.634845
  0
TEXT
  8
CSLAYER1
 62
     6
 10
148.240784
 20
208.772675
 40
3.410000
 41
1.200000
  1
*
 50
90.000000
 51
3.000000
  7
JX_FONT
 72
     5
 11
148.240784
 21
211.500675
  0
CIRCLE
  8
CSLAYER1
  6
CONTINUOUS
 62
     6
 10
133.322916
 20
209.931416
 40
16.000000
  0
CIRCLE
  8
CSLAYER1
  6
CONTINUOUS
 62
     6
 10
133.322916
 20
209.931416
 40
17.000000
  0
LINE
  8
CSLAYER1
  6
CONTINUOUS
 62
     6
 10
140.141092
 20
209.931419
 11
129.913828
 21
213.340504
  0
LINE
  8
CSLAYER1
  6
CONTINUOUS
 62
     6
 10
129.936964
 20
209.931431
 11
129.936964
 21
209.931416
  0
LINE
  8
CSLAYER1
  6
CONTINUOUS
 62
     6
 10
130.082880
 20
159.952458
 11
128.306037
 21
156.931458
  0
LINE
  8
CSLAYER1
  6
CONTINUOUS
 62
     6
 10
130.570896
 20
159.698810
 11
128.956720
 21
156.593252
  0
LINE
  8
CSLAYER1
  6
CONTINUOUS
 62
     6
 10
131.058909
 20
159.445157
 11
129.607403
 21
156.255047
  0
LINE
  8
CSLAYER1
  6
CONTINUOUS
 62
     6
 10
129.594899
 20
160.206095
 11
131.546944
 21
159.191481
  0
ARC
  8
CSLAYER1
  6
CONTINUOUS
 62
     6
 10
133.322962
 20
209.931431
 40
44.000000
 50
0.000000
 51
180.000000
  0
LINE
  8
CSLAYER1
  6
CONTINUOUS
 62
     6
 10
86.322962
 20
159.931416
 11
86.322962
 21
165.931416
  0
LINE
  8
CSLAYER1
  6
DASHED
 62
     6
 10
103.322962
 20
167.931431
 11
103.322962
 21
159.931416
  0
LINE
  8
CSLAYER1
  6
DASHED
 62
     6
 10
90.322962
 20
159.931416
 11
90.322962
 21
167.931416
  0
LINE
  8
CSLAYER1
  6
CONTINUOUS
 62
     6
 10
113.322962
 20
159.931416
 11
86.322962
 21
159.931416
  0
LINE
  8
CSLAYER1
  6
CONTINUOUS
 62
     6
 10
178.322962
 20
167.931416
 11
88.322962
 21
167.931416
  0
LINE
  8
CSLAYER1
  6
CONTINUOUS
 62
     6
 10
89.322962
 20
209.931431
 11
89.322962
 21
168.931416
  0
LINE
  8
CSLAYER1
  6
CONTINUOUS
 62
     6
 10
95.322962
 20
169.931416
 11
95.322962
 21
209.931431
  0
ARC
  8
CSLAYER1
  6
CONTINUOUS
 62
     6
 10
88.322962
 20
165.931416
 40
2.000000
 50
90.000003
 51
180.000005
  0
ARC
  8
CSLAYER1
  6
CONTINUOUS
 62
     6
 10
111.322962
 20
165.931416
 40
2.000000
 50
0.000000
 51
90.000003
  0
ARC
  8
CSLAYER1
  6
CONTINUOUS
 62
     6
 10
97.322962
 20
169.931416
 40
2.000000
 50
180.000005
 51
270.000001
  0
ARC
  8
CSLAYER1
  6
CONTINUOUS
 62
     6
 10
88.322962
 20
168.931416
 40
1.000000
 50
270.000001
 51
359.942691
  0
LINE
  8
CSLAYER1
  6
CONTINUOUS
 62
     6
 10
180.322962
 20
159.931416
 11
180.322962
 21
165.931416
  0
LINE
  8
CSLAYER1
  6
DASHED
 62
     6
 10
163.322962
 20
167.931431
 11
163.322962
 21
159.931416
  0
LINE
  8
CSLAYER1
  6
DASHED
 62
     6
 10
176.322962
 20
159.931416
 11
176.322962
 21
167.931416
  0
LINE
  8
CSLAYER1
  6
CONTINUOUS
 62
     6
 10
153.322962
 20
159.931416
 11
180.322962
 21
159.931416
  0
ARC
  8
CSLAYER1
  6
CONTINUOUS
 62
     6
 10
178.322962
 20
165.931416
 40
2.000000
 50
0.000010
 51
90.000016
  0
ARC
  8
CSLAYER1
  6
CONTINUOUS
 62
     6
 10
155.322962
 20
165.931416
 40
2.000000
 50
90.000016
 51
179.942686
  0
LINE
  8
CSLAYER1
  6
CONTINUOUS
 62
     6
 10
171.322962
 20
169.931416
 11
171.322962
 21
209.931431
  0
ARC
  8
CSLAYER1
  6
CONTINUOUS
 62
     6
 10
169.322962
 20
169.931416
 40
2.000000
 50
270.000001
 51
359.942691
  0
ARC
  8
CSLAYER1
  6
CONTINUOUS
 62
     6
 10
178.322962
 20
168.931416
 40
1.000000
 50
180.000019
 51
270.000001
  0
LINE
  8
CSLAYER1
  6
CONTINUOUS
 62
     6
 10
177.322962
 20
209.931431
 11
177.322962
 21
168.931416
  0
LINE
  8
CSLAYER1
  6
CONTINUOUS
 62
     6
 10
152.322962
 20
164.931431
 11
135.609292
 21
164.931425
  0
ARC
  8
CSLAYER1
  6
CONTINUOUS
 62
     6
 10
114.322962
 20
163.931416
 40
1.000000
 50
90.000023
 51
180.000005
  0
ARC
  8
CSLAYER1
  6
CONTINUOUS
 62
     6
 10
152.322962
 20
163.931416
 40
1.000000
 50
0.000010
 51
90.000016
  0
LINE
  8
CSLAYER1
  6
CONTINUOUS
 62
     6
 10
113.322962
 20
165.931416
 11
113.322962
 21
159.931416
  0
LINE
  8
CSLAYER1
  6
CONTINUOUS
 62
     6
 10
153.322962
 20
165.933415
 11
153.322962
 21
159.931416
  0
LINE
  8
CSLAYER1
  6
CENTER
 62
     3
 10
86.322962
 20
209.931431
 11
180.322962
 21
209.931431
  0
LINE
  8
CSLAYER1
  6
CENTER
 62
     3
 10
133.322931
 20
257.899113
 11
133.322931
 21
159.108841
  0
LINE
  8
CSLAYER1
  6
CENTER
 62
     3
 10
96.822962
 20
170.053639
 11
96.822962
 21
157.668995
  0
LINE
  8
CSLAYER1
  6
CENTER
 62
     3
 10
169.822962
 20
170.053639
 11
169.822962
 21
157.668995
  0
LINE
  8
CSLAYER1
  6
CONTINUOUS
 62
     6
 10
133.397191
 20
164.931424
 11
133.248660
 21
164.931424
  0
LINE
  8
CSLAYER1
  6
CONTINUOUS
 62
     6
 10
131.036562
 20
164.931423
 11
114.322962
 21
164.931416
  0
LINE
  8
CSLAYER1
  6
CENTER
 62
     3
 10
127.822931
 20
247.931431
 11
138.822931
 21
247.931431
  0
LINE
  8
CSLAYER1
  6
CONTINUOUS
 62
     6
 10
130.822931
 20
247.931431
 11
132.072931
 21
247.931431
  0
LINE
  8
CSLAYER1
  6
CONTINUOUS
 62
     6
 10
132.072931
 20
247.931431
 11
132.072931
 21
249.181431
  0
LINE
  8
CSLAYER1
  6
CONTINUOUS
 62
     6
 10
132.072931
 20
249.181431
 11
135.822931
 21
247.931431
  0
LINE
  8
CSLAYER1
  6
CONTINUOUS
 62
     6
 10
135.822931
 20
247.931431
 11
134.572931
 21
247.931431
  0
LINE
  8
CSLAYER1
  6
CONTINUOUS
 62
     6
 10
134.572931
 20
247.931431
 11
134.572931
 21
246.681431
  0
LINE
  8
CSLAYER1
  6
CONTINUOUS
 62
     6
 10
134.572931
 20
246.681431
 11
130.822931
 21
247.931431
  0
CIRCLE
  8
CSLAYER1
  6
CONTINUOUS
 62
     6
 10
133.322931
 20
247.931431
 40
2.500000
  0
CIRCLE
  8
CSLAYER1
  6
CONTINUOUS
 62
     6
 10
133.322931
 20
247.931431
 40
2.900000
  0
ARC
  8
CSLAYER1
  6
CENTER
 62
     3
 10
133.322931
 20
209.931431
 40
31.000005
 50
82.647622
 51
97.352378
  0
ARC
  8
CSLAYER1
  6
CONTINUOUS
 62
     3
 10
133.322931
 20
240.931437
 40
2.000000
 50
-1.849173
 51
181.848571
  0
ARC
  8
CSLAYER1
  6
CONTINUOUS
 62
     6
 10
133.322931
 20
240.931437
 40
1.600000
 50
-1.479513
 51
181.479484
  0
ARC
  8
CSLAYER1
  6
CENTER
 62
     3
 10
133.322931
 20
209.931431
 40
31.000005
 50
172.647622
 51
187.352378
  0
ARC
  8
CSLAYER1
  6
CONTINUOUS
 62
     3
 10
102.322926
 20
209.931431
 40
2.000000
 50
88.150827
 51
271.848571
  0
ARC
  8
CSLAYER1
  6
CONTINUOUS
 62
     6
 10
102.322926
 20
209.931431
 40
1.600000
 50
88.520487
 51
271.479484
  0
ARC
  8
CSLAYER1
  6
CENTER
 62
     3
 10
133.322931
 20
209.931431
 40
31.000005
 50
-7.352378
 51
7.352378
  0
ARC
  8
CSLAYER1
  6
CONTINUOUS
 62
     3
 10
164.322936
 20
209.931431
 40
2.000000
 50
-91.849173
 51
91.848571
  0
ARC
  8
CSLAYER1
  6
CONTINUOUS
 62
     6
 10
164.322936
 20
209.931431
 40
1.600000
 50
-91.479513
 51
91.479484
  0
LINE
  8
CSLAYER1
  6
CENTER
 62
     3
 10
341.322916
 20
358.931452
 11
323.322931
 21
358.931452
  0
LINE
  8
CSLAYER1
  6
CENTER
 62
     3
 10
341.322916
 20
296.931452
 11
323.322931
 21
296.931452
  0
ARC
  8
CSLAYER1
  6
CONTINUOUS
 62
     6
 10
327.322931
 20
369.931452
 40
2.000000
 50
90.000000
 51
180.000000
  0
ARC
  8
CSLAYER1
  6
CONTINUOUS
 62
     6
 10
327.322931
 20
285.931452
 40
2.000000
 50
180.000000
 51
270.000000
  0
LINE
  8
CSLAYER1
  6
CENTER
 62
     3
 10
231.322916
 20
75.931421
 11
231.322916
 21
97.931421
  0
LINE
  8
CSLAYER1
  6
CONTINUOUS
 62
     6
 10
231.322916
 20
86.931421
 11
225.889444
 21
86.931421
  0
LINE
  8
CSLAYER1
  6
CONTINUOUS
 62
     6
 10
231.322916
 20
89.131418
 11
225.889444
 21
89.131418
  0
ARC
  8
CSLAYER1
  6
CONTINUOUS
 62
     6
 10
222.977213
 20
102.690271
 40
15.758816
 50
242.536193
 51
269.942682
  0
ARC
  8
CSLAYER1
  6
CONTINUOUS
 62
     6
 10
222.977213
 20
102.690271
 40
13.558834
 50
242.536193
 51
269.942682
  0
ARC
  8
CSLAYER1
  6
CONTINUOUS
 62
     6
 10
226.842081
 20
88.581415
 40
1.100006
 50
149.999997
 51
209.999999
  0
ARC
  8
CSLAYER1
  6
CONTINUOUS
 62
     6
 10
226.842081
 20
87.481409
 40
1.100006
 50
149.999997
 51
209.999999
  0
ARC
  8
CSLAYER1
  6
CONTINUOUS
 62
     6
 10
224.936807
 20
87.481409
 40
1.100006
 50
-30.000011
 51
29.999977
  0
ARC
  8
CSLAYER1
  6
CONTINUOUS
 62
     6
 10
222.977213
 20
71.172571
 40
13.558834
 50
89.999975
 51
117.463872
  0
ARC
  8
CSLAYER1
  6
CONTINUOUS
 62
     6
 10
222.977243
 20
71.172586
 40
15.758816
 50
90.000003
 51
117.463872
  0
ARC
  8
CSLAYER1
  6
CONTINUOUS
 62
     6
 10
226.842081
 20
86.381403
 40
1.100006
 50
149.999997
 51
209.999999
  0
ARC
  8
CSLAYER1
  6
CONTINUOUS
 62
     6
 10
226.842081
 20
85.281397
 40
1.100006
 50
149.999997
 51
209.999999
  0
ARC
  8
CSLAYER1
  6
CONTINUOUS
 62
     6
 10
224.936807
 20
85.281397
 40
1.100006
 50
-30.000011
 51
29.999977
  0
ARC
  8
CSLAYER1
  6
CONTINUOUS
 62
     6
 10
231.322916
 20
88.031427
 40
1.100006
 50
-89.999999
 51
90.000019
  0
ARC
  8
CSLAYER1
  6
CONTINUOUS
 62
     6
 10
231.322916
 20
85.831415
 40
1.100006
 50
-90.000027
 51
89.999992
  0
LINE
  8
CSLAYER1
  6
CONTINUOUS
 62
     6
 10
231.322916
 20
84.731424
 11
225.889444
 21
84.731424
  0
LINE
  8
CSLAYER1
  6
CONTINUOUS
 62
     6
 10
232.422952
 20
88.031427
 11
232.422952
 21
85.831415
  0
ARC
  8
CSLAYER1
  6
CONTINUOUS
 62
     6
 10
223.297846
 20
87.481455
 40
1.099999
 50
-29.999656
 51
30.000332
  0
ARC
  8
CSLAYER1
  6
CONTINUOUS
 62
     6
 10
223.297838
 20
88.581446
 40
1.099999
 50
-29.999656
 51
30.000332
  0
ARC
  8
CSLAYER1
  6
CONTINUOUS
 62
     6
 10
225.203088
 20
88.581461
 40
1.099999
 50
150.000353
 51
210.000354
  0
ARC
  8
CSLAYER1
  6
CONTINUOUS
 62
     6
 10
223.297846
 20
85.281443
 40
1.099999
 50
-29.999656
 51
30.000332
  0
ARC
  8
CSLAYER1
  6
CONTINUOUS
 62
     6
 10
223.297838
 20
86.381433
 40
1.099999
 50
-29.999656
 51
30.000332
  0
ARC
  8
CSLAYER1
  6
CONTINUOUS
 62
     6
 10
225.203088
 20
86.381449
 40
1.099999
 50
150.000353
 51
210.000354
  0
LINE
  8
CSLAYER1
  6
CONTINUOUS
 62
     6
 10
222.977274
 20
89.131433
 11
224.250467
 21
89.131433
  0
LINE
  8
CSLAYER1
  6
CONTINUOUS
 62
     6
 10
222.977243
 20
86.931406
 11
224.250467
 21
86.931406
  0
LINE
  8
CSLAYER1
  6
CONTINUOUS
 62
     6
 10
222.977274
 20
84.731440
 11
224.250467
 21
84.731440
  0
ARC
  8
CSLAYER1
  6
CONTINUOUS
 62
     6
 10
231.322916
 20
86.931421
 40
8.000000
 50
-164.038116
 51
164.037904
  0
LINE
  8
CSLAYER1
  6
CONTINUOUS
 62
     6
 10
216.382303
 20
90.001871
 11
213.444193
 21
91.619028
  0
LINE
  8
CSLAYER1
  6
CONTINUOUS
 62
     6
 10
216.724100
 20
90.659494
 11
215.709451
 21
88.707437
  0
LINE
  8
CSLAYER1
  6
CONTINUOUS
 62
     6
 10
216.382242
 20
83.860971
 11
213.444193
 21
82.243799
  0
LINE
  8
CSLAYER1
  6
CONTINUOUS
 62
     6
 10
216.724039
 20
83.203348
 11
215.709451
 21
85.155405
  0
LINE
  8
CSLAYER1
  6
CONTINUOUS
 62
     6
 10
216.128153
 20
89.512949
 11
214.120706
 21
91.089731
  0
LINE
  8
CSLAYER1
  6
CONTINUOUS
 62
     6
 10
215.921182
 20
89.114817
 11
213.841409
 21
90.516306
  0
LINE
  8
CSLAYER1
  6
CONTINUOUS
 62
     6
 10
216.128153
 20
84.349894
 11
214.120706
 21
82.773111
  0
LINE
  8
CSLAYER1
  6
CONTINUOUS
 62
     6
 10
215.921182
 20
84.748026
 11
213.841348
 21
83.346521
  0
LINE
  8
CSLAYER1
  6
CONTINUOUS
 62
     6
 10
211.322916
 20
58.472554
 11
211.322916
 21
115.390310
  0
LINE
  8
CSLAYER1
  6
CONTINUOUS
 62
     6
 10
212.322916
 20
57.455098
 11
212.322916
 21
116.407765
  0
LINE
  8
CSLAYER1
  6
CONTINUOUS
 62
     6
 10
212.322763
 20
116.407763
 11
242.322931
 21
116.931416
  0
LINE
  8
CSLAYER1
  6
CONTINUOUS
 62
     6
 10
242.322916
 20
56.931439
 11
212.322763
 21
57.455101
  0
LINE
  8
CSLAYER1
  6
CONTINUOUS
 62
     6
 10
211.322916
 20
58.472554
 11
212.322763
 21
57.455101
  0
LINE
  8
CSLAYER1
  6
CONTINUOUS
 62
     6
 10
212.322763
 20
116.407763
 11
211.322916
 21
115.390310
  0
LINE
  8
CSLAYER1
  6
CONTINUOUS
 62
     6
 10
376.322916
 20
197.931437
 11
376.322916
 21
221.931437
  0
ARC
  8
CSLAYER1
  6
CONTINUOUS
 62
     6
 10
375.322916
 20
221.931437
 40
1.000000
 50
0.000000
 51
90.000000
  0
ARC
  8
CSLAYER1
  6
CONTINUOUS
 62
     6
 10
375.322916
 20
197.931437
 40
1.000000
 50
270.000000
 51
360.000000
  0
ARC
  8
CSLAYER1
  6
CONTINUOUS
 62
     6
 10
292.332285
 20
169.013285
 40
1.000000
 50
270.000000
 51
322.266963
  0
LINE
  8
CSLAYER1
  6
CONTINUOUS
 62
     6
 10
394.822916
 20
332.931452
 11
377.322916
 21
332.931467
  0
LINE
  8
CSLAYER1
  6
CONTINUOUS
 62
     6
 10
377.322916
 20
321.931467
 11
377.322916
 21
333.931445
  0
LINE
  8
CSLAYER1
  6
CONTINUOUS
 62
     6
 10
377.322916
 20
333.931445
 11
376.322931
 21
333.931445
  0
LINE
  8
CSLAYER1
  6
CONTINUOUS
 62
     6
 10
394.822916
 20
322.931467
 11
377.322916
 21
322.931452
  0
LINE
  8
CSLAYER1
  6
CONTINUOUS
 62
     6
 10
377.322916
 20
321.931467
 11
376.322931
 21
321.931467
  0
LINE
  8
CSLAYER1
  6
CONTINUOUS
 62
     6
 10
395.322916
 20
332.431452
 11
395.322916
 21
323.431467
  0
LINE
  8
CSLAYER1
  6
CONTINUOUS
 62
     6
 10
394.822916
 20
332.931452
 11
395.322916
 21
332.431452
  0
LINE
  8
CSLAYER1
  6
CONTINUOUS
 62
     6
 10
394.822916
 20
322.931467
 11
395.322916
 21
323.431467
  0
LINE
  8
CSLAYER1
  6
CONTINUOUS
 62
     6
 10
376.322916
 20
315.931452
 11
376.322916
 21
339.931452
  0
ARC
  8
CSLAYER1
  6
CONTINUOUS
 62
     6
 10
375.322916
 20
339.931452
 40
1.000000
 50
0.000000
 51
90.000000
  0
ARC
  8
CSLAYER1
  6
CONTINUOUS
 62
     6
 10
375.322916
 20
315.931452
 40
1.000000
 50
270.000000
 51
360.000000
  0
LINE
  8
CSLAYER1
  6
CONTINUOUS
 62
     6
 10
394.822916
 20
91.931421
 11
377.322916
 21
91.931437
  0
LINE
  8
CSLAYER1
  6
CONTINUOUS
 62
     6
 10
377.322916
 20
80.931437
 11
377.322916
 21
92.931414
  0
LINE
  8
CSLAYER1
  6
CONTINUOUS
 62
     6
 10
377.322916
 20
92.931414
 11
376.322931
 21
92.931414
  0
LINE
  8
CSLAYER1
  6
CONTINUOUS
 62
     6
 10
394.822916
 20
81.931437
 11
377.322916
 21
81.931421
  0
LINE
  8
CSLAYER1
  6
CONTINUOUS
 62
     6
 10
377.322916
 20
80.931437
 11
376.322931
 21
80.931437
  0
LINE
  8
CSLAYER1
  6
CONTINUOUS
 62
     6
 10
395.322916
 20
91.431421
 11
395.322916
 21
82.431437
  0
LINE
  8
CSLAYER1
  6
CONTINUOUS
 62
     6
 10
394.822916
 20
91.931421
 11
395.322916
 21
91.431421
  0
LINE
  8
CSLAYER1
  6
CONTINUOUS
 62
     6
 10
394.822916
 20
81.931437
 11
395.322916
 21
82.431437
  0
LINE
  8
CSLAYER1
  6
CONTINUOUS
 62
     6
 10
376.322916
 20
74.931421
 11
376.322916
 21
98.931421
  0
ARC
  8
CSLAYER1
  6
CONTINUOUS
 62
     6
 10
375.322916
 20
98.931421
 40
1.000000
 50
0.000000
 51
90.000000
  0
ARC
  8
CSLAYER1
  6
CONTINUOUS
 62
     6
 10
375.322916
 20
74.931421
 40
1.000000
 50
270.000000
 51
360.000000
  0
LINE
  8
CSLAYER1
  6
CONTINUOUS
 62
     6
 10
275.322916
 20
374.931452
 11
355.322916
 21
374.931452
  0
LINE
  8
CSLAYER1
  6
CONTINUOUS
 62
     6
 10
365.322916
 20
364.931452
 11
365.322916
 21
357.931452
  0
LINE
  8
CSLAYER1
  6
CONTINUOUS
 62
     6
 10
265.322916
 20
358.931452
 11
265.322916
 21
364.931452
  0
ARC
  8
CSLAYER1
  6
CONTINUOUS
 62
     6
 10
355.322916
 20
364.931452
 40
10.000000
 50
0.000000
 51
90.000000
  0
ARC
  8
CSLAYER1
  6
CONTINUOUS
 62
     6
 10
355.322916
 20
357.931452
 40
10.000000
 50
274.242275
 51
360.000000
  0
ARC
  8
CSLAYER1
  6
CONTINUOUS
 62
     6
 10
275.322916
 20
364.931452
 40
10.000000
 50
90.000000
 51
180.000000
  0
ARC
  8
CSLAYER1
  6
CONTINUOUS
 62
     6
 10
347.822916
 20
367.431452
 40
3.500000
 50
0.000000
 51
180.000000
  0
ARC
  8
CSLAYER1
  6
CONTINUOUS
 62
     6
 10
347.822916
 20
361.431452
 40
3.500000
 50
-180.000000
 51
0.000000
  0
LINE
  8
CSLAYER1
  6
CONTINUOUS
 62
     6
 10
344.322916
 20
367.431452
 11
344.322916
 21
361.431452
  0
LINE
  8
CSLAYER1
  6
CONTINUOUS
 62
     6
 10
351.322916
 20
367.431452
 11
351.322916
 21
361.431452
  0
ARC
  8
CSLAYER1
  6
CONTINUOUS
 62
     6
 10
282.822916
 20
367.431452
 40
3.500000
 50
0.000000
 51
180.000000
  0
ARC
  8
CSLAYER1
  6
CONTINUOUS
 62
     6
 10
282.822916
 20
361.431452
 40
3.500000
 50
-45.584691
 51
0.000000
  0
LINE
  8
CSLAYER1
  6
CONTINUOUS
 62
     6
 10
279.322916
 20
367.431452
 11
279.322916
 21
361.431452
  0
LINE
  8
CSLAYER1
  6
CONTINUOUS
 62
     6
 10
286.322916
 20
367.431452
 11
286.322916
 21
361.431452
  0
LINE
  8
CSLAYER1
  6
CENTER
 62
     3
 10
347.822916
 20
372.931452
 11
347.822916
 21
355.931452
  0
LINE
  8
CSLAYER1
  6
CENTER
 62
     3
 10
342.322916
 20
367.431452
 11
353.322916
 21
367.431452
  0
LINE
  8
CSLAYER1
  6
CENTER
 62
     3
 10
342.322916
 20
361.431452
 11
353.322916
 21
361.431452
  0
LINE
  8
CSLAYER1
  6
CENTER
 62
     3
 10
282.822916
 20
372.931452
 11
282.822916
 21
355.931452
  0
LINE
  8
CSLAYER1
  6
CENTER
 62
     3
 10
277.322916
 20
367.431452
 11
288.322916
 21
367.431452
  0
LINE
  8
CSLAYER1
  6
CENTER
 62
     3
 10
277.322916
 20
361.431452
 11
288.322916
 21
361.431452
  0
ARC
  8
CSLAYER1
  6
CONTINUOUS
 62
     6
 10
282.822916
 20
361.431452
 40
3.500000
 50
180.000000
 51
225.584691
  0
LINE
  8
CSLAYER1
  6
CONTINUOUS
 62
     6
 10
275.322931
 20
39.931421
 11
355.322916
 21
39.931421
  0
LINE
  8
CSLAYER1
  6
CONTINUOUS
 62
     6
 10
365.322916
 20
49.931421
 11
365.322916
 21
56.931421
  0
LINE
  8
CSLAYER1
  6
CONTINUOUS
 62
     6
 10
355.322916
 20
66.931421
 11
275.322931
 21
66.931421
  0
LINE
  8
CSLAYER1
  6
CONTINUOUS
 62
     6
 10
265.322916
 20
56.931421
 11
265.322916
 21
49.931421
  0
ARC
  8
CSLAYER1
  6
CONTINUOUS
 62
     6
 10
355.322916
 20
49.931421
 40
10.000000
 50
270.000000
 51
360.000000
  0
ARC
  8
CSLAYER1
  6
CONTINUOUS
 62
     6
 10
355.322916
 20
56.931421
 40
10.000000
 50
0.000000
 51
90.000000
  0
ARC
  8
CSLAYER1
  6
CONTINUOUS
 62
     6
 10
275.322916
 20
49.931421
 40
10.000000
 50
180.000000
 51
270.000000
  0
ARC
  8
CSLAYER1
  6
CONTINUOUS
 62
     6
 10
275.322916
 20
56.931421
 40
10.000000
 50
90.000000
 51
180.000000
  0
ARC
  8
CSLAYER1
  6
CONTINUOUS
 62
     6
 10
347.822916
 20
47.431421
 40
3.500000
 50
180.000000
 51
360.000000
  0
ARC
  8
CSLAYER1
  6
CONTINUOUS
 62
     6
 10
347.822916
 20
53.431421
 40
3.500000
 50
0.000000
 51
180.000000
  0
LINE
  8
CSLAYER1
  6
CONTINUOUS
 62
     6
 10
344.322916
 20
47.431421
 11
344.322916
 21
53.431421
  0
LINE
  8
CSLAYER1
  6
CONTINUOUS
 62
     6
 10
351.322916
 20
47.431421
 11
351.322916
 21
53.431421
  0
ARC
  8
CSLAYER1
  6
CONTINUOUS
 62
     6
 10
282.822916
 20
47.431421
 40
3.500000
 50
180.000000
 51
360.000000
  0
ARC
  8
CSLAYER1
  6
CONTINUOUS
 62
     6
 10
282.822916
 20
53.431421
 40
3.500000
 50
0.000000
 51
180.000000
  0
LINE
  8
CSLAYER1
  6
CONTINUOUS
 62
     6
 10
279.322916
 20
47.431421
 11
279.322916
 21
53.431421
  0
LINE
  8
CSLAYER1
  6
CONTINUOUS
 62
     6
 10
286.322916
 20
47.431421
 11
286.322916
 21
53.431421
  0
LINE
  8
CSLAYER1
  6
CENTER
 62
     3
 10
347.822916
 20
41.931421
 11
347.822916
 21
58.931421
  0
LINE
  8
CSLAYER1
  6
CENTER
 62
     3
 10
342.322916
 20
47.431421
 11
353.322916
 21
47.431421
  0
LINE
  8
CSLAYER1
  6
CENTER
 62
     3
 10
342.322916
 20
53.431421
 11
353.322916
 21
53.431421
  0
LINE
  8
CSLAYER1
  6
CENTER
 62
     3
 10
282.822916
 20
41.931421
 11
282.822916
 21
58.931421
  0
LINE
  8
CSLAYER1
  6
CENTER
 62
     3
 10
277.322916
 20
47.431421
 11
288.322916
 21
47.431421
  0
LINE
  8
CSLAYER1
  6
CENTER
 62
     3
 10
277.322916
 20
53.431421
 11
288.322916
 21
53.431421
  0
LINE
  8
CSLAYER1
  6
CONTINUOUS
 62
     6
 10
280.373426
 20
55.931421
 11
285.272405
 21
55.931421
  0
LINE
  8
CSLAYER1
  6
DASHED
 62
     6
 10
380.322916
 20
322.931439
 11
380.322916
 21
324.931464
  0
LINE
  8
CSLAYER1
  6
DASHED
 62
     6
 10
395.322916
 20
324.931451
 11
380.322916
 21
324.931464
  0
ENDSEC
  0
EOF
