  0
SECTION
  2
HEADER
  9
$ACADVER
  1
AC1006
  9
$INSBASE
 10
0.000000
 20
0.000000
 30
0.0
  9
$EXTMIN
 10
0.000000
 20
0.000000
  9
$EXTMAX
 10
420.000000
 20
297.000000
  9
$LIMMIN
 10
0.000000
 20
0.000000
  9
$LIMMAX
 10
420.000000
 20
297.000000
  9
$VIEWCTR
 10
210.000000
 20
148.500000
  9
$VIEWSIZE
 40
297.000000
  9
$SNAPMODE
 70
     0
  9
$SNAPUNIT
 10
1.0
 20
1.0
  9
$SNAPBASE
 10
0.0
 20
0.0
  9
$SNAPANG
 50
0.0
  9
$SNAPSTYLE
 70
     0
  9
$SNAPISOPAIR
 70
     0
  9
$GRIDMODE
 70
     0
  9
$GRIDUNIT
 10
0.0
 20
0.0
  9
$ORTHOMODE
 70
     0
  9
$REGENMODE
 70
     1
  9
$FILLMODE
 70
     1
  9
$QTEXTMODE
 70
     0
  9
$DRAGMODE
 70
     2
  9
$LTSCALE
 40
15.000000
  9
$OSMODE
 70
     0
  9
$ATTMODE
 70
     1
  9
$TEXTSIZE
 40
0.2
  9
$TRACEWID
 40
0.05
  9
$TEXTSTYLE
  7
STANDARD
  9
$CLAYER
  8
CSLAYER1
  9
$CELTYPE
  6
BYLAYER
  9
$CECOLOR
 62
   256
  9
$DIMSCALE
 40
1.0
  9
$DIMASZ
 40
0.18
  9
$DIMEXO
 40
0.0625
  9
$DIMDLI
 40
0.38
  9
$DIMRND
 40
0.0
  9
$DIMDLE
 40
0.0
  9
$DIMEXE
 40
0.18
  9
$DIMTP
 40
0.0
  9
$DIMTM
 40
0.0
  9
$DIMTXT
 40
0.18
  9
$DIMCEN
 40
0.09
  9
$DIMTSZ
 40
0.0
  9
$DIMTOL
 70
     0
  9
$DIMLIM
 70
     0
  9
$DIMTIH
 70
     1
  9
$DIMTOH
 70
     1
  9
$DIMSE1
 70
     0
  9
$DIMSE2
 70
     0
  9
$DIMTAD
 70
     0
  9
$DIMZIN
 70
     0
  9
$DIMBLK
  1

  9
$LUNITS
 70
     2
  9
$LUPREC
 70
     4
  9
$AXISMODE
 70
     0
  9
$AXISUNIT
 10
0.0
 20
0.0
  9
$SKETCHINC
 40
0.1
  9
$FILLETRAD
 40
0.0
  9
$AUNITS
 70
     0
  9
$AUPREC
 70
     0
  9
$MENU
  1
ACAD
  9
$ELEVATION
 40
0.0
  9
$THICKNESS
 40
0.0
  9
$VIEWDIR
 10
0.0
 20
0.0
 30
1.0
  9
$LIMCHECK
 70
     0
  9
$BLIPMODE
 70
     1
  9
$CHAMFERA
 40
0.0
  9
$CHAMFERB
 40
0.0
  9
$FASTZOOM
 70
     1
  9
$SKPOLY
 70
     0
  9
$TDCREATE
 40
0.000000
  9
$TDUPDATE
 40
0.000000
  9
$TDINDWG
 40
0.0
  9
$TDUSRTIMER
 40
0.0
  9
$USRTIMER
 70
     1
  9
$ANGBASE
 50
0.0
  9
$ANGDIR
 70
     0
  9
$PDMODE
 70
     0
  9
$PDSIZE
 40
0.0
  9
$PLINEWID
 40
0.0
  9
$COORDS
 70
     0
  9
$USERI1
 70
     0
  9
$USERI2
 70
     0
  9
$USERI3
 70
     0
  9
$USERI4
 70
     0
  9
$USERI5
 70
     0
  9
$USERR1
 40
0.0
  9
$USERR2
 40
0.0
  9
$USERR3
 40
0.0
  9
$USERR4
 40
0.0
  9
$USERR5
 40
0.0
  0
ENDSEC
  0
SECTION
  2
TABLES
  0
TABLE
  2
LTYPE
 70
     9
  0
LTYPE
  2
CONTINUOUS
 70
    64
  3
Solid line
 72
    65
 73
     0
 40
0.0
  0
LTYPE
  2
DASHED
 70
    64
  3
__ __ __ __ __ __ __ __ __ __ __ __ __ __ __
 72
    65
 73
     2
 40
0.75
 49
0.5
 49
-0.25
  0
LTYPE
  2
HIDDEN
 70
    64
  3
_ _ _ _ _ _ _ _ _ _ _ _ _ _ _ _ _ _ _ _ _ _ _
 72
    65
 73
     2
 40
0.375
 49
0.25
 49
-0.125
  0
LTYPE
  2
DOT
 70
    64
  3
...............................................
 72
    65
 73
     2
 40
0.25
 49
0.0
 49
-0.25
  0
LTYPE
  2
DASHDOT
 70
    64
  3
__ . __ . __ . __ . __ . __ . __ . __ . __ . __
 72
    65
 73
     4
 40
1.0
 49
0.5
 49
-0.25
 49
0.0
 49
-0.25
  0
LTYPE
  2
DIVIDE
 70
    64
  3
__ . . __ . . __ . . __ . . __ . . __ . . __
 72
    65
 73
     6
 40
1.25
 49
0.5
 49
-0.25
 49
0.0
 49
-0.25
 49
0.0
 49
-0.25
  0
LTYPE
  2
CENTER
 70
    64
  3
____ _ ____ _ ____ _ ____ _ ____ _ ____ _ ____ 
 72
    65
 73
     4
 40
2.0
 49
1.25
 49
-0.25
 49
0.25
 49
-0.25
  0
LTYPE
  2
PHANTOM
 70
    64
  3
______  __  __  ______  __  __  ______  __  __ 
 72
    65
 73
     6
 40
2.5
 49
1.25
 49
-0.25
 49
0.25
 49
-0.25
 49
0.25
 49
-0.25
  0
LTYPE
  2
BORDER
 70
    64
  3
__ __ . __ __ . __ __ . __ __ . __ __ . __ __ .
 72
    65
 73
     6
 40
1.75
 49
0.5
 49
-0.25
 49
0.5
 49
-0.25
 49
0.0
 49
-0.25
  0
ENDTAB
  0
TABLE
  2
LAYER
 70
    16
  0
LAYER
  2
CSLAYER1
 70
    64
 62
     7
  6
CONTINUOUS
  0
LAYER
  2
CSLAYER2
 70
    64
 62
     7
  6
CONTINUOUS
  0
LAYER
  2
CSLAYER3
 70
    64
 62
     7
  6
CONTINUOUS
  0
LAYER
  2
CSLAYER4
 70
    64
 62
     7
  6
CONTINUOUS
  0
LAYER
  2
CSLAYER5
 70
    64
 62
     7
  6
CONTINUOUS
  0
LAYER
  2
CSLAYER6
 70
    64
 62
     7
  6
CONTINUOUS
  0
LAYER
  2
CSLAYER7
 70
    64
 62
     7
  6
CONTINUOUS
  0
LAYER
  2
CSLAYER8
 70
    64
 62
     7
  6
CONTINUOUS
  0
LAYER
  2
CSLAYER9
 70
    64
 62
     7
  6
CONTINUOUS
  0
LAYER
  2
CSLAYER10
 70
    64
 62
     7
  6
CONTINUOUS
  0
LAYER
  2
CSLAYER11
 70
    64
 62
     7
  6
CONTINUOUS
  0
LAYER
  2
CSLAYER12
 70
    64
 62
     7
  6
CONTINUOUS
  0
LAYER
  2
CSLAYER13
 70
    64
 62
     7
  6
CONTINUOUS
  0
LAYER
  2
CSLAYER14
 70
    64
 62
     7
  6
CONTINUOUS
  0
LAYER
  2
CSLAYER15
 70
    64
 62
     7
  6
CONTINUOUS
  0
LAYER
  2
CSLAYER16
 70
    64
 62
     7
  6
CONTINUOUS
  0
ENDTAB
  0
TABLE
  2
STYLE
 70
     1
  0
STYLE
  2
JX_FONT
 70
     0
 40
1.0
 41
1.0
 50
0.0
 71
     0
 42
1.0
  3
monotxt
  4
bigfont
  0
ENDTAB
  0
TABLE
  2
VIEW
 70
     0
  0
ENDTAB
  0
ENDSEC
  0
SECTION
  2
BLOCKS
  0
ENDSEC
  0
SECTION
  2
ENTITIES
  0
LINE
  8
CSLAYER1
  6
CENTER
 62
     3
 10
145.045157
 20
148.500008
 11
285.545157
 21
148.499992
  0
LINE
  8
CSLAYER1
  6
CENTER
 62
     3
 10
341.545066
 20
113.499992
 11
341.545066
 21
183.499992
  0
LINE
  8
CSLAYER1
  6
CENTER
 62
     3
 10
372.484336
 20
174.499992
 11
362.545066
 21
174.499992
  0
LINE
  8
CSLAYER1
  6
CENTER
 62
     3
 10
367.545066
 20
169.499992
 11
367.545066
 21
179.499992
  0
CIRCLE
  8
CSLAYER1
  6
CONTINUOUS
 62
     6
 10
367.545066
 20
174.499992
 40
2.250000
  0
LINE
  8
CSLAYER1
  6
CENTER
 62
     3
 10
376.545035
 20
148.499992
 11
306.545157
 21
148.499992
  0
CIRCLE
  8
CSLAYER1
  6
CONTINUOUS
 62
     6
 10
341.545066
 20
148.499992
 40
11.000000
  0
LINE
  8
CSLAYER1
  6
CENTER
 62
     3
 10
315.545066
 20
179.439262
 11
315.545066
 21
169.499992
  0
LINE
  8
CSLAYER1
  6
CENTER
 62
     3
 10
320.545066
 20
174.499992
 11
310.545066
 21
174.499992
  0
CIRCLE
  8
CSLAYER1
  6
CONTINUOUS
 62
     6
 10
315.545066
 20
174.499992
 40
2.250000
  0
LINE
  8
CSLAYER1
  6
CENTER
 62
     3
 10
310.605795
 20
122.499992
 11
320.545066
 21
122.499992
  0
LINE
  8
CSLAYER1
  6
CENTER
 62
     3
 10
315.545066
 20
127.499992
 11
315.545066
 21
117.499992
  0
CIRCLE
  8
CSLAYER1
  6
CONTINUOUS
 62
     6
 10
315.545066
 20
122.499992
 40
2.250000
  0
LINE
  8
CSLAYER1
  6
CENTER
 62
     3
 10
372.484336
 20
122.499992
 11
362.545066
 21
122.499992
  0
LINE
  8
CSLAYER1
  6
CENTER
 62
     3
 10
367.545066
 20
127.499992
 11
367.545066
 21
117.499992
  0
CIRCLE
  8
CSLAYER1
  6
CONTINUOUS
 62
     6
 10
367.545066
 20
122.499992
 40
2.250000
  0
CIRCLE
  8
CSLAYER1
  6
CONTINUOUS
 62
     6
 10
324.574518
 20
165.470540
 40
4.500000
  0
ARC
  8
CSLAYER1
  6
CONTINUOUS
 62
     6
 10
324.574518
 20
165.470540
 40
2.397500
 50
253.398434
 51
286.601595
  0
ARC
  8
CSLAYER1
  6
CONTINUOUS
 62
     6
 10
324.574518
 20
165.470540
 40
2.397500
 50
163.398424
 51
196.601586
  0
ARC
  8
CSLAYER1
  6
CONTINUOUS
 62
     6
 10
324.574518
 20
165.470540
 40
2.397500
 50
73.398442
 51
106.601576
  0
ARC
  8
CSLAYER1
  6
CONTINUOUS
 62
     6
 10
324.574518
 20
165.470540
 40
2.397500
 50
-16.601584
 51
16.601604
  0
LINE
  8
CSLAYER1
  6
CONTINUOUS
 62
     6
 10
323.889520
 20
166.840535
 11
323.889520
 21
167.768102
  0
LINE
  8
CSLAYER1
  6
CONTINUOUS
 62
     6
 10
323.889520
 20
164.100545
 11
323.889520
 21
163.172978
  0
LINE
  8
CSLAYER1
  6
CONTINUOUS
 62
     6
 10
325.259516
 20
166.840535
 11
325.259516
 21
167.768102
  0
LINE
  8
CSLAYER1
  6
CONTINUOUS
 62
     6
 10
325.259516
 20
164.100545
 11
325.259516
 21
163.172978
  0
LINE
  8
CSLAYER1
  6
CONTINUOUS
 62
     6
 10
323.204523
 20
164.785542
 11
322.276972
 21
164.785542
  0
LINE
  8
CSLAYER1
  6
CONTINUOUS
 62
     6
 10
325.944513
 20
164.785542
 11
326.872064
 21
164.785542
  0
LINE
  8
CSLAYER1
  6
CONTINUOUS
 62
     6
 10
323.204523
 20
166.155537
 11
322.276972
 21
166.155537
  0
LINE
  8
CSLAYER1
  6
CONTINUOUS
 62
     6
 10
325.944513
 20
166.155537
 11
326.872064
 21
166.155537
  0
ARC
  8
CSLAYER1
  6
CONTINUOUS
 62
     6
 10
323.204523
 20
166.840535
 40
0.685000
 50
270.000001
 51
359.942691
  0
ARC
  8
CSLAYER1
  6
CONTINUOUS
 62
     6
 10
325.944513
 20
166.840535
 40
0.685000
 50
180.000005
 51
270.000001
  0
ARC
  8
CSLAYER1
  6
CONTINUOUS
 62
     6
 10
325.944513
 20
164.100545
 40
0.685000
 50
90.000009
 51
180.000005
  0
ARC
  8
CSLAYER1
  6
CONTINUOUS
 62
     6
 10
323.204523
 20
164.100545
 40
0.685000
 50
0.000000
 51
90.000009
  0
CIRCLE
  8
CSLAYER1
  6
CONTINUOUS
 62
     6
 10
324.574518
 20
165.470540
 40
5.500000
  0
LINE
  8
CSLAYER1
  6
CONTINUOUS
 62
     3
 10
193.545172
 20
179.500008
 11
193.545172
 21
164.999977
  0
LINE
  8
CSLAYER1
  6
CONTINUOUS
 62
     3
 10
194.545172
 20
163.999977
 11
230.545157
 21
163.999977
  0
LINE
  8
CSLAYER1
  6
CONTINUOUS
 62
     3
 10
231.545157
 20
164.999977
 11
231.545157
 21
179.500008
  0
ARC
  8
CSLAYER1
  6
CONTINUOUS
 62
     3
 10
194.545172
 20
164.999977
 40
1.000000
 50
180.000005
 51
270.000001
  0
ARC
  8
CSLAYER1
  6
CONTINUOUS
 62
     3
 10
230.545157
 20
164.999977
 40
1.000000
 50
270.000001
 51
359.942691
  0
TEXT
  8
CSLAYER1
 62
     3
 10
209.915237
 20
177.114044
 40
3.500000
 41
1.125000
  1
N P
 50
-90.000000
 51
10.000000
  7
JX_FONT
 72
     5
 11
209.915237
 21
166.614044
  0
LINE
  8
CSLAYER1
  6
CONTINUOUS
 62
     6
 10
246.045157
 20
179.500008
 11
246.045157
 21
117.500008
  0
LINE
  8
CSLAYER1
  6
CONTINUOUS
 62
     6
 10
179.045157
 20
179.500008
 11
179.045157
 21
117.500008
  0
LINE
  8
CSLAYER1
  6
CONTINUOUS
 62
     6
 10
246.045157
 20
179.500008
 11
179.045157
 21
179.500008
  0
LINE
  8
CSLAYER1
  6
CONTINUOUS
 62
     6
 10
246.045157
 20
117.500008
 11
179.045157
 21
117.500008
  0
LINE
  8
CSLAYER1
  6
CENTER
 62
     3
 10
168.045157
 20
161.500008
 11
168.045157
 21
94.892028
  0
CIRCLE
  8
CSLAYER1
  6
CONTINUOUS
 62
     6
 10
168.045157
 20
148.500008
 40
8.000000
  0
CIRCLE
  8
CSLAYER1
  6
CONTINUOUS
 62
     6
 10
168.045157
 20
148.500008
 40
6.000000
  0
CIRCLE
  8
CSLAYER1
  6
CONTINUOUS
 62
     3
 10
168.045157
 20
148.500008
 40
5.500000
  0
LINE
  8
CSLAYER1
  6
CONTINUOUS
 62
     6
 10
170.795157
 20
149.300011
 11
165.295157
 21
149.300011
  0
LINE
  8
CSLAYER1
  6
CONTINUOUS
 62
     6
 10
170.795157
 20
147.700005
 11
165.295157
 21
147.700005
  0
LINE
  8
CSLAYER1
  6
CONTINUOUS
 62
     6
 10
165.295157
 20
149.300011
 11
165.295157
 21
147.700005
  0
LINE
  8
CSLAYER1
  6
CONTINUOUS
 62
     6
 10
170.795157
 20
149.300011
 11
170.795157
 21
147.700005
  0
LINE
  8
CSLAYER1
  6
CONTINUOUS
 62
     6
 10
148.045157
 20
120.041129
 11
148.045157
 21
176.958886
  0
LINE
  8
CSLAYER1
  6
CONTINUOUS
 62
     6
 10
149.045157
 20
119.023674
 11
149.045157
 21
177.976341
  0
LINE
  8
CSLAYER1
  6
CONTINUOUS
 62
     6
 10
149.045005
 20
177.976339
 11
179.045172
 21
178.499992
  0
ARC
  8
CSLAYER1
  6
CONTINUOUS
 62
     6
 10
153.386300
 20
105.027892
 40
15.758816
 50
332.536202
 51
359.942691
  0
ARC
  8
CSLAYER1
  6
CONTINUOUS
 62
     6
 10
153.386300
 20
105.027892
 40
13.558834
 50
332.536202
 51
359.942691
  0
ARC
  8
CSLAYER1
  6
CONTINUOUS
 62
     6
 10
168.595132
 20
104.075301
 40
1.099999
 50
60.000350
 51
120.000345
  0
ARC
  8
CSLAYER1
  6
CONTINUOUS
 62
     6
 10
167.495133
 20
104.075286
 40
1.099999
 50
60.000350
 51
120.000345
  0
ARC
  8
CSLAYER1
  6
CONTINUOUS
 62
     6
 10
167.495126
 20
105.980544
 40
1.099999
 50
240.000362
 51
300.000350
  0
LINE
  8
CSLAYER1
  6
CONTINUOUS
 62
     6
 10
166.074700
 20
98.432937
 11
164.457543
 21
95.494865
  0
LINE
  8
CSLAYER1
  6
CONTINUOUS
 62
     6
 10
166.563622
 20
98.178802
 11
164.986840
 21
95.171386
  0
LINE
  8
CSLAYER1
  6
CONTINUOUS
 62
     6
 10
166.961755
 20
97.971847
 11
165.560265
 21
94.892043
  0
LINE
  8
CSLAYER1
  6
CONTINUOUS
 62
     6
 10
165.417077
 20
98.774734
 11
167.369134
 21
97.760116
  0
ARC
  8
CSLAYER1
  6
CONTINUOUS
 62
     6
 10
182.703988
 20
105.027892
 40
15.758816
 50
202.422068
 51
207.463868
  0
ARC
  8
CSLAYER1
  6
CONTINUOUS
 62
     6
 10
182.703988
 20
105.027892
 40
13.558834
 50
179.999978
 51
207.463868
  0
LINE
  8
CSLAYER1
  6
CONTINUOUS
 62
     6
 10
170.015588
 20
98.432906
 11
171.632760
 21
95.494849
  0
LINE
  8
CSLAYER1
  6
CONTINUOUS
 62
     6
 10
169.526666
 20
98.178786
 11
171.103448
 21
95.171386
  0
LINE
  8
CSLAYER1
  6
CONTINUOUS
 62
     6
 10
169.128533
 20
97.971847
 11
170.530038
 21
94.892028
  0
LINE
  8
CSLAYER1
  6
CONTINUOUS
 62
     6
 10
170.673211
 20
98.774718
 11
168.721154
 21
97.760101
  0
ARC
  8
CSLAYER1
  6
CONTINUOUS
 62
     6
 10
167.495156
 20
108.892760
 40
1.100006
 50
240.000007
 51
299.999995
  0
ARC
  8
CSLAYER1
  6
CONTINUOUS
 62
     6
 10
168.595162
 20
108.892760
 40
1.100006
 50
240.000007
 51
299.999995
  0
ARC
  8
CSLAYER1
  6
CONTINUOUS
 62
     6
 10
168.595162
 20
106.987487
 40
1.100006
 50
60.000002
 51
120.000003
  0
LINE
  8
CSLAYER1
  6
CONTINUOUS
 62
     6
 10
169.145163
 20
118.672813
 11
169.145150
 21
107.940124
  0
LINE
  8
CSLAYER1
  6
CONTINUOUS
 62
     6
 10
166.945166
 20
118.711220
 11
166.945153
 21
107.940124
  0
LINE
  8
CSLAYER1
  6
CENTER
 62
     3
 10
90.045165
 20
183.500009
 11
90.045184
 21
95.459544
  0
CIRCLE
  8
CSLAYER1
  6
CONTINUOUS
 62
     6
 10
90.045165
 20
148.499994
 40
30.000000
  0
ARC
  8
CSLAYER1
  6
CONTINUOUS
 62
     6
 10
90.045165
 20
148.499994
 40
31.000000
 50
-85.930420
 51
265.930438
  0
LINE
  8
CSLAYER1
  6
CONTINUOUS
 62
     6
 10
92.245161
 20
107.940128
 11
92.245169
 21
118.580774
  0
LINE
  8
CSLAYER1
  6
CONTINUOUS
 62
     6
 10
87.845164
 20
107.940128
 11
87.845172
 21
118.580774
  0
LINE
  8
CSLAYER1
  6
CONTINUOUS
 62
     6
 10
90.045157
 20
107.940128
 11
90.045172
 21
118.580774
  0
ARC
  8
CSLAYER1
  6
CONTINUOUS
 62
     6
 10
105.804186
 20
105.027981
 40
15.759004
 50
180.000235
 51
207.463987
  0
ARC
  8
CSLAYER1
  6
CONTINUOUS
 62
     6
 10
105.804186
 20
105.027981
 40
13.559023
 50
180.000308
 51
207.464006
  0
ARC
  8
CSLAYER1
  6
CONTINUOUS
 62
     6
 10
90.595183
 20
108.892750
 40
1.099999
 50
239.999870
 51
299.999858
  0
ARC
  8
CSLAYER1
  6
CONTINUOUS
 62
     6
 10
91.695181
 20
108.892750
 40
1.099999
 50
239.999870
 51
299.999858
  0
ARC
  8
CSLAYER1
  6
CONTINUOUS
 62
     6
 10
91.695174
 20
106.987507
 40
1.099999
 50
59.999858
 51
119.999853
  0
ARC
  8
CSLAYER1
  6
CONTINUOUS
 62
     6
 10
91.695164
 20
104.075266
 40
1.099999
 50
59.999715
 51
119.999716
  0
ARC
  8
CSLAYER1
  6
CONTINUOUS
 62
     6
 10
90.595166
 20
104.075281
 40
1.099999
 50
59.999715
 51
119.999716
  0
ARC
  8
CSLAYER1
  6
CONTINUOUS
 62
     6
 10
90.595173
 20
105.980539
 40
1.099999
 50
239.999733
 51
299.999721
  0
LINE
  8
CSLAYER1
  6
CONTINUOUS
 62
     6
 10
93.285245
 20
98.521036
 11
95.062089
 21
95.500038
  0
LINE
  8
CSLAYER1
  6
CONTINUOUS
 62
     6
 10
92.797229
 20
98.267389
 11
94.411406
 21
95.161832
  0
LINE
  8
CSLAYER1
  6
CONTINUOUS
 62
     6
 10
92.309216
 20
98.013736
 11
93.760723
 21
94.823626
  0
LINE
  8
CSLAYER1
  6
CONTINUOUS
 62
     6
 10
93.773257
 20
98.774691
 11
91.821208
 21
97.760073
  0
ARC
  8
CSLAYER1
  6
CONTINUOUS
 62
     6
 10
74.286203
 20
105.027808
 40
15.758933
 50
-27.463461
 51
0.000397
  0
ARC
  8
CSLAYER1
  6
CONTINUOUS
 62
     6
 10
74.286203
 20
105.027808
 40
13.558951
 50
-27.463363
 51
0.000417
  0
ARC
  8
CSLAYER1
  6
CONTINUOUS
 62
     6
 10
88.395140
 20
108.892750
 40
1.099999
 50
240.000198
 51
300.000186
  0
ARC
  8
CSLAYER1
  6
CONTINUOUS
 62
     6
 10
89.495139
 20
108.892750
 40
1.099999
 50
240.000198
 51
300.000186
  0
ARC
  8
CSLAYER1
  6
CONTINUOUS
 62
     6
 10
89.495146
 20
106.987507
 40
1.099999
 50
60.000186
 51
120.000181
  0
ARC
  8
CSLAYER1
  6
CONTINUOUS
 62
     6
 10
89.495160
 20
104.075296
 40
1.099999
 50
60.000350
 51
120.000345
  0
ARC
  8
CSLAYER1
  6
CONTINUOUS
 62
     6
 10
88.395161
 20
104.075281
 40
1.099999
 50
60.000350
 51
120.000345
  0
ARC
  8
CSLAYER1
  6
CONTINUOUS
 62
     6
 10
88.395150
 20
105.980539
 40
1.099999
 50
240.000362
 51
300.000350
  0
LINE
  8
CSLAYER1
  6
CENTER
 62
     3
 10
125.045173
 20
148.500009
 11
55.045173
 21
148.500009
  0
CIRCLE
  8
CSLAYER1
  6
CONTINUOUS
 62
     6
 10
90.045157
 20
148.499994
 40
6.818180
  0
CIRCLE
  8
CSLAYER1
  6
CONTINUOUS
 62
     6
 10
90.045157
 20
148.499994
 40
7.909089
  0
LINE
  8
CSLAYER1
  6
CONTINUOUS
 62
     6
 10
83.226977
 20
148.499994
 11
93.454245
 21
145.090905
  0
LINE
  8
CSLAYER1
  6
CONTINUOUS
 62
     6
 10
93.454245
 20
145.090905
 11
93.495940
 21
148.499994
  0
LINE
  8
CSLAYER1
  6
CONTINUOUS
 62
     6
 10
93.495940
 20
148.499994
 11
96.863341
 21
148.499994
  0
LINE
  8
CSLAYER1
  6
CONTINUOUS
 62
     6
 10
86.636069
 20
151.909082
 11
86.659205
 21
148.499994
  0
LINE
  8
CSLAYER1
  6
CONTINUOUS
 62
     6
 10
86.659205
 20
148.499994
 11
83.226977
 21
148.499994
  0
TEXT
  8
CSLAYER1
 62
     6
 10
75.212341
 20
146.531906
 40
3.409090
 41
1.200000
  1
S
 50
282.000000
 51
3.000000
  7
JX_FONT
 72
     5
 11
75.779373
 21
143.864232
  0
TEXT
  8
CSLAYER1
 62
     6
 10
75.945663
 20
143.491013
 40
3.409090
 41
1.200000
  1
A
 50
294.000031
 51
3.000000
  7
JX_FONT
 72
     5
 11
77.054946
 21
140.999526
  0
TEXT
  8
CSLAYER1
 62
     6
 10
77.295204
 20
140.669022
 40
3.409090
 41
1.596000
  1
W
 50
306.000031
 51
3.000000
  7
JX_FONT
 72
     5
 11
79.427263
 21
137.734498
  0
TEXT
  8
CSLAYER1
 62
     6
 10
79.201965
 20
138.189285
 40
3.409090
 41
1.200000
  1
A
 50
318.000000
 51
3.000000
  7
JX_FONT
 72
     5
 11
81.228723
 21
136.364384
  0
TEXT
  8
CSLAYER1
 62
     6
 10
81.582626
 20
136.160187
 40
3.409090
 41
1.200000
  1
M
 50
330.000000
 51
3.000000
  7
JX_FONT
 72
     5
 11
83.944513
 21
134.796551
  0
TEXT
  8
CSLAYER1
 62
     6
 10
84.333130
 20
134.670395
 40
3.409090
 41
1.200000
  1
U
 50
342.000000
 51
3.000000
  7
JX_FONT
 72
     5
 11
86.926920
 21
133.827621
  0
TEXT
  8
CSLAYER1
 62
     6
 10
87.333282
 20
133.785019
 40
3.409090
 41
1.200000
  1
R
 50
353.999969
 51
3.000000
  7
JX_FONT
 72
     5
 11
90.045614
 21
133.499940
  0
TEXT
  8
CSLAYER1
 62
     6
 10
90.451981
 20
133.542740
 40
3.409090
 41
1.200000
  1
A
 50
6.000000
 51
3.000000
  7
JX_FONT
 72
     5
 11
93.164312
 21
133.827817
  0
TEXT
  8
CSLAYER1
 62
     6
 10
103.201889
 20
141.373718
 40
3.409090
 41
1.200000
  1
K
 50
66.000046
 51
3.000000
  7
JX_FONT
 72
     5
 11
104.311169
 21
143.865206
  0
TEXT
  8
CSLAYER1
 62
     6
 10
104.396011
 20
144.264862
 40
3.409090
 41
0.792000
  1
I
 50
78.000000
 51
3.000000
  7
JX_FONT
 72
     5
 11
104.770252
 21
146.025527
  0
TEXT
  8
CSLAYER1
 62
     6
 10
96.500473
 20
135.001343
 40
3.409090
 41
1.200000
  1
D
 50
30.000032
 51
3.000000
  7
JX_FONT
 72
     5
 11
98.862359
 21
136.364980
  0
TEXT
  8
CSLAYER1
 62
     6
 10
99.165924
 20
136.638458
 40
3.409090
 41
1.200000
  1
E
 50
41.999962
 51
3.000000
  7
JX_FONT
 72
     5
 11
101.192683
 21
138.463358
  0
TEXT
  8
CSLAYER1
 62
     6
 10
101.432755
 20
138.794006
 40
3.409090
 41
1.200000
  1
N
 50
54.000061
 51
3.000000
  7
JX_FONT
 72
     5
 11
103.035802
 21
141.000417
  0
TEXT
  8
CSLAYER1
 62
     6
 10
75.127289
 20
149.658722
 40
3.410000
 41
1.200000
  1
*
 50
-90.000000
 51
3.000000
  7
JX_FONT
 72
     5
 11
75.127289
 21
146.930722
  0
TEXT
  8
CSLAYER1
 62
     6
 10
95.757187
 20
162.329575
 40
3.409090
 41
1.200000
  1
U
 50
162.000000
 51
3.000000
  7
JX_FONT
 72
     5
 11
93.163397
 21
163.172348
  0
TEXT
  8
CSLAYER1
 62
     6
 10
92.757034
 20
163.214951
 40
3.409090
 41
1.200000
  1
R
 50
173.999985
 51
3.000000
  7
JX_FONT
 72
     5
 11
90.044703
 21
163.500029
  0
TEXT
  8
CSLAYER1
 62
     6
 10
89.638344
 20
163.457230
 40
3.409090
 41
1.200000
  1
A
 50
186.000015
 51
3.000000
  7
JX_FONT
 72
     5
 11
86.926012
 21
163.172151
  0
TEXT
  8
CSLAYER1
 62
     6
 10
76.888428
 20
155.626251
 40
3.409090
 41
1.200000
  1
K
 50
246.000061
 51
3.000000
  7
JX_FONT
 72
     5
 11
75.779149
 21
153.134763
  0
TEXT
  8
CSLAYER1
 62
     6
 10
75.694305
 20
152.735107
 40
3.409090
 41
0.792000
  1
I
 50
258.000000
 51
3.000000
  7
JX_FONT
 72
     5
 11
75.320064
 21
150.974442
  0
TEXT
  8
CSLAYER1
 62
     6
 10
83.589844
 20
161.998627
 40
3.409090
 41
1.200000
  1
D
 50
210.000046
 51
3.000000
  7
JX_FONT
 72
     5
 11
81.227958
 21
160.634989
  0
TEXT
  8
CSLAYER1
 62
     6
 10
80.924400
 20
160.361511
 40
3.409090
 41
1.200000
  1
E
 50
221.999969
 51
3.000000
  7
JX_FONT
 72
     5
 11
78.897641
 21
158.536611
  0
TEXT
  8
CSLAYER1
 62
     6
 10
78.657578
 20
158.205963
 40
3.409090
 41
1.200000
  1
N
 50
234.000061
 51
3.000000
  7
JX_FONT
 72
     5
 11
77.054530
 21
155.999552
  0
TEXT
  8
CSLAYER1
 62
     6
 10
104.877975
 20
150.468063
 40
3.409090
 41
1.200000
  1
S
 50
102.000000
 51
3.000000
  7
JX_FONT
 72
     5
 11
104.310944
 21
153.135738
  0
TEXT
  8
CSLAYER1
 62
     6
 10
104.144669
 20
153.508957
 40
3.409090
 41
1.200000
  1
A
 50
114.000046
 51
3.000000
  7
JX_FONT
 72
     5
 11
103.035385
 21
156.000443
  0
TEXT
  8
CSLAYER1
 62
     6
 10
102.795120
 20
156.330948
 40
3.409090
 41
1.596000
  1
W
 50
126.000038
 51
3.000000
  7
JX_FONT
 72
     5
 11
100.663061
 21
159.265471
  0
TEXT
  8
CSLAYER1
 62
     6
 10
100.888351
 20
158.810684
 40
3.409090
 41
1.200000
  1
A
 50
138.000031
 51
3.000000
  7
JX_FONT
 72
     5
 11
98.861592
 21
160.635584
  0
TEXT
  8
CSLAYER1
 62
     6
 10
98.507690
 20
160.839783
 40
3.409090
 41
1.200000
  1
M
 50
150.000015
 51
3.000000
  7
JX_FONT
 72
     5
 11
96.145803
 21
162.203418
  0
TEXT
  8
CSLAYER1
 62
     6
 10
104.963028
 20
147.341248
 40
3.410000
 41
1.200000
  1
*
 50
90.000000
 51
3.000000
  7
JX_FONT
 72
     5
 11
104.963028
 21
150.069248
  0
CIRCLE
  8
CSLAYER1
  6
CONTINUOUS
 62
     6
 10
90.045157
 20
148.499994
 40
16.000000
  0
CIRCLE
  8
CSLAYER1
  6
CONTINUOUS
 62
     6
 10
90.045157
 20
148.499994
 40
17.000000
  0
LINE
  8
CSLAYER1
  6
CONTINUOUS
 62
     6
 10
96.863333
 20
148.499996
 11
86.636069
 21
151.909082
  0
LINE
  8
CSLAYER1
  6
CONTINUOUS
 62
     6
 10
86.659205
 20
148.500009
 11
86.659205
 21
148.499994
  0
CIRCLE
  8
CSLAYER1
  6
CONTINUOUS
 62
     6
 10
346.305960
 20
140.230400
 40
0.999999
  0
ARC
  8
CSLAYER1
  6
CONTINUOUS
 62
     6
 10
346.305960
 20
140.230400
 40
2.143138
 50
50.235874
 51
203.481567
  0
LINE
  8
CSLAYER1
  6
CONTINUOUS
 62
     6
 10
344.340293
 20
139.376472
 11
344.767356
 21
137.982567
  0
CIRCLE
  8
CSLAYER1
  6
CONTINUOUS
 62
     6
 10
336.784171
 20
140.230400
 40
0.999999
  0
ARC
  8
CSLAYER1
  6
CONTINUOUS
 62
     6
 10
336.784171
 20
140.230400
 40
2.143138
 50
-23.481552
 51
129.764124
  0
LINE
  8
CSLAYER1
  6
CONTINUOUS
 62
     6
 10
338.749838
 20
139.376472
 11
338.322775
 21
137.982567
  0
ARC
  8
CSLAYER1
  6
CONTINUOUS
 62
     6
 10
341.545066
 20
147.918388
 40
9.581602
 50
-37.903087
 51
217.903071
  0
ARC
  8
CSLAYER1
  6
CONTINUOUS
 62
     6
 10
348.316397
 20
142.646492
 40
0.999999
 50
230.236306
 51
322.096613
  0
ARC
  8
CSLAYER1
  6
CONTINUOUS
 62
     6
 10
334.773734
 20
142.646492
 40
0.999999
 50
217.903402
 51
309.763723
  0
LINE
  8
CSLAYER1
  6
CONTINUOUS
 62
     6
 10
258.045157
 20
133.500008
 11
258.045157
 21
163.500008
  0
LINE
  8
CSLAYER1
  6
CONTINUOUS
 62
     6
 10
256.045157
 20
116.499992
 11
256.045157
 21
180.499992
  0
LINE
  8
CSLAYER1
  6
CONTINUOUS
 62
     6
 10
258.045157
 20
163.500008
 11
256.045157
 21
163.500008
  0
LINE
  8
CSLAYER1
  6
CONTINUOUS
 62
     6
 10
258.045157
 20
133.500008
 11
256.045157
 21
133.500008
  0
LINE
  8
CSLAYER1
  6
CONTINUOUS
 62
     6
 10
247.045157
 20
178.499992
 11
247.045157
 21
118.499992
  0
LINE
  8
CSLAYER1
  6
CENTER
 62
     3
 10
244.045157
 20
122.499992
 11
258.045157
 21
122.499992
  0
LINE
  8
CSLAYER1
  6
CENTER
 62
     3
 10
244.045163
 20
174.500002
 11
258.045163
 21
174.499999
  0
LINE
  8
CSLAYER1
  6
CENTER
 62
     3
 10
145.045157
 20
54.499973
 11
285.545157
 21
54.499973
  0
LINE
  8
CSLAYER1
  6
CONTINUOUS
 62
     6
 10
246.045157
 20
85.499977
 11
179.045157
 21
85.499977
  0
LINE
  8
CSLAYER1
  6
CONTINUOUS
 62
     6
 10
246.045157
 20
23.499977
 11
179.045157
 21
23.499977
  0
LINE
  8
CSLAYER1
  6
CENTER
 62
     3
 10
145.045157
 20
240.500034
 11
285.545157
 21
240.500034
  0
LINE
  8
CSLAYER1
  6
CONTINUOUS
 62
     6
 10
246.045157
 20
271.500038
 11
179.045157
 21
271.500038
  0
LINE
  8
CSLAYER1
  6
CONTINUOUS
 62
     6
 10
246.045157
 20
209.500038
 11
179.045157
 21
209.500038
  0
LINE
  8
CSLAYER1
  6
CENTER
 62
     3
 10
168.045157
 20
43.499973
 11
168.045157
 21
65.499973
  0
LINE
  8
CSLAYER1
  6
CONTINUOUS
 62
     6
 10
168.045157
 20
54.499973
 11
162.611685
 21
54.499973
  0
LINE
  8
CSLAYER1
  6
CONTINUOUS
 62
     6
 10
168.045157
 20
56.699970
 11
162.611685
 21
56.699970
  0
ARC
  8
CSLAYER1
  6
CONTINUOUS
 62
     6
 10
159.699454
 20
70.258823
 40
15.758816
 50
242.536193
 51
269.942682
  0
ARC
  8
CSLAYER1
  6
CONTINUOUS
 62
     6
 10
159.699454
 20
70.258823
 40
13.558834
 50
242.536193
 51
269.942682
  0
ARC
  8
CSLAYER1
  6
CONTINUOUS
 62
     6
 10
163.564322
 20
56.149967
 40
1.100006
 50
149.999997
 51
209.999999
  0
ARC
  8
CSLAYER1
  6
CONTINUOUS
 62
     6
 10
163.564322
 20
55.049961
 40
1.100006
 50
149.999997
 51
209.999999
  0
ARC
  8
CSLAYER1
  6
CONTINUOUS
 62
     6
 10
161.659049
 20
55.049961
 40
1.100006
 50
-30.000011
 51
29.999977
  0
ARC
  8
CSLAYER1
  6
CONTINUOUS
 62
     6
 10
159.699454
 20
38.741123
 40
13.558834
 50
89.999975
 51
117.463872
  0
ARC
  8
CSLAYER1
  6
CONTINUOUS
 62
     6
 10
159.699484
 20
38.741138
 40
15.758816
 50
90.000003
 51
117.463872
  0
ARC
  8
CSLAYER1
  6
CONTINUOUS
 62
     6
 10
163.564322
 20
53.949955
 40
1.100006
 50
149.999997
 51
209.999999
  0
ARC
  8
CSLAYER1
  6
CONTINUOUS
 62
     6
 10
163.564322
 20
52.849949
 40
1.100006
 50
149.999997
 51
209.999999
  0
ARC
  8
CSLAYER1
  6
CONTINUOUS
 62
     6
 10
161.659049
 20
52.849949
 40
1.100006
 50
-30.000011
 51
29.999977
  0
ARC
  8
CSLAYER1
  6
CONTINUOUS
 62
     6
 10
168.045157
 20
55.599979
 40
1.100006
 50
-89.999999
 51
90.000019
  0
ARC
  8
CSLAYER1
  6
CONTINUOUS
 62
     6
 10
168.045157
 20
53.399967
 40
1.100006
 50
-90.000027
 51
89.999992
  0
LINE
  8
CSLAYER1
  6
CONTINUOUS
 62
     6
 10
168.045157
 20
52.299976
 11
162.611685
 21
52.299976
  0
LINE
  8
CSLAYER1
  6
CONTINUOUS
 62
     6
 10
169.145194
 20
55.599979
 11
169.145194
 21
53.399967
  0
ARC
  8
CSLAYER1
  6
CONTINUOUS
 62
     6
 10
160.020087
 20
55.050007
 40
1.099999
 50
-29.999656
 51
30.000332
  0
ARC
  8
CSLAYER1
  6
CONTINUOUS
 62
     6
 10
160.020079
 20
56.149997
 40
1.099999
 50
-29.999656
 51
30.000332
  0
ARC
  8
CSLAYER1
  6
CONTINUOUS
 62
     6
 10
161.925330
 20
56.150013
 40
1.099999
 50
150.000353
 51
210.000354
  0
ARC
  8
CSLAYER1
  6
CONTINUOUS
 62
     6
 10
160.020087
 20
52.849994
 40
1.099999
 50
-29.999656
 51
30.000332
  0
ARC
  8
CSLAYER1
  6
CONTINUOUS
 62
     6
 10
160.020079
 20
53.949985
 40
1.099999
 50
-29.999656
 51
30.000332
  0
ARC
  8
CSLAYER1
  6
CONTINUOUS
 62
     6
 10
161.925330
 20
53.950000
 40
1.099999
 50
150.000353
 51
210.000354
  0
LINE
  8
CSLAYER1
  6
CONTINUOUS
 62
     6
 10
159.699515
 20
56.699985
 11
160.972708
 21
56.699985
  0
LINE
  8
CSLAYER1
  6
CONTINUOUS
 62
     6
 10
159.699484
 20
54.499958
 11
160.972708
 21
54.499958
  0
LINE
  8
CSLAYER1
  6
CONTINUOUS
 62
     6
 10
159.699515
 20
52.299991
 11
160.972708
 21
52.299991
  0
ARC
  8
CSLAYER1
  6
CONTINUOUS
 62
     6
 10
168.045157
 20
54.499973
 40
8.000000
 50
-164.038116
 51
164.037904
  0
LINE
  8
CSLAYER1
  6
CONTINUOUS
 62
     6
 10
153.104544
 20
57.570423
 11
150.166434
 21
59.187580
  0
LINE
  8
CSLAYER1
  6
CONTINUOUS
 62
     6
 10
153.446341
 20
58.228046
 11
152.431693
 21
56.275989
  0
LINE
  8
CSLAYER1
  6
CONTINUOUS
 62
     6
 10
153.104483
 20
51.429523
 11
150.166434
 21
49.812351
  0
LINE
  8
CSLAYER1
  6
CONTINUOUS
 62
     6
 10
153.446280
 20
50.771900
 11
152.431693
 21
52.723957
  0
LINE
  8
CSLAYER1
  6
CONTINUOUS
 62
     6
 10
152.850394
 20
57.081501
 11
150.842948
 21
58.658283
  0
LINE
  8
CSLAYER1
  6
CONTINUOUS
 62
     6
 10
152.643424
 20
56.683368
 11
150.563651
 21
58.084858
  0
LINE
  8
CSLAYER1
  6
CONTINUOUS
 62
     6
 10
152.850394
 20
51.918445
 11
150.842948
 21
50.341663
  0
LINE
  8
CSLAYER1
  6
CONTINUOUS
 62
     6
 10
152.643424
 20
52.316578
 11
150.563590
 21
50.915073
  0
LINE
  8
CSLAYER1
  6
CONTINUOUS
 62
     3
 10
194.545157
 20
213.653253
 11
230.545157
 21
213.653253
  0
ARC
  8
CSLAYER1
  6
CONTINUOUS
 62
     3
 10
194.545157
 20
214.653253
 40
1.000000
 50
180.000005
 51
270.000001
  0
ARC
  8
CSLAYER1
  6
CONTINUOUS
 62
     3
 10
230.545157
 20
214.653253
 40
1.000000
 50
270.000001
 51
359.942691
  0
LINE
  8
CSLAYER1
  6
CONTINUOUS
 62
     3
 10
193.545157
 20
266.346821
 11
193.545157
 21
214.653253
  0
LINE
  8
CSLAYER1
  6
CONTINUOUS
 62
     3
 10
231.545157
 20
266.346821
 11
231.545157
 21
214.653253
  0
TEXT
  8
CSLAYER1
 62
     3
 10
211.324066
 20
245.998428
 40
3.500000
 41
1.125000
  1
N P
 50
-90.000000
 51
10.000000
  7
JX_FONT
 72
     5
 11
211.324066
 21
235.498428
  0
LINE
  8
CSLAYER1
  6
CONTINUOUS
 62
     3
 10
194.545157
 20
267.346821
 11
230.545157
 21
267.346821
  0
ARC
  8
CSLAYER1
  6
CONTINUOUS
 62
     3
 10
194.545157
 20
266.346821
 40
1.000000
 50
90.000009
 51
180.000005
  0
ARC
  8
CSLAYER1
  6
CONTINUOUS
 62
     3
 10
230.545157
 20
266.346821
 40
1.000000
 50
0.057319
 51
90.000009
  0
LINE
  8
CSLAYER1
  6
CONTINUOUS
 62
     6
 10
86.805122
 20
98.521035
 11
85.028278
 21
95.500036
  0
LINE
  8
CSLAYER1
  6
CONTINUOUS
 62
     6
 10
87.293138
 20
98.267388
 11
85.678961
 21
95.161830
  0
LINE
  8
CSLAYER1
  6
CONTINUOUS
 62
     6
 10
87.781150
 20
98.013735
 11
86.329645
 21
94.823624
  0
LINE
  8
CSLAYER1
  6
CONTINUOUS
 62
     6
 10
86.317141
 20
98.774673
 11
88.269185
 21
97.760059
  0
LINE
  8
CSLAYER1
  6
CONTINUOUS
 62
     6
 10
282.545157
 20
152.500000
 11
258.045157
 21
152.500000
  0
LINE
  8
CSLAYER1
  6
CONTINUOUS
 62
     6
 10
282.545157
 20
144.500000
 11
258.045172
 21
144.500000
  0
LINE
  8
CSLAYER1
  6
CONTINUOUS
 62
     6
 10
282.545157
 20
144.500000
 11
282.545157
 21
152.500000
  0
LINE
  8
CSLAYER1
  6
CONTINUOUS
 62
     6
 10
309.545066
 20
122.499992
 11
309.545066
 21
174.499992
  0
LINE
  8
CSLAYER1
  6
CONTINUOUS
 62
     6
 10
373.545066
 20
122.499992
 11
373.545066
 21
174.499992
  0
LINE
  8
CSLAYER1
  6
CONTINUOUS
 62
     6
 10
367.545066
 20
180.499992
 11
315.545066
 21
180.499992
  0
LINE
  8
CSLAYER1
  6
CONTINUOUS
 62
     6
 10
367.545066
 20
116.499992
 11
315.545066
 21
116.499992
  0
ARC
  8
CSLAYER1
  6
CONTINUOUS
 62
     6
 10
315.545066
 20
174.499992
 40
6.000000
 50
90.000000
 51
180.000000
  0
ARC
  8
CSLAYER1
  6
CONTINUOUS
 62
     6
 10
367.545066
 20
174.499992
 40
6.000000
 50
0.000000
 51
90.000000
  0
ARC
  8
CSLAYER1
  6
CONTINUOUS
 62
     6
 10
367.545066
 20
122.499992
 40
6.000000
 50
270.000000
 51
360.000000
  0
ARC
  8
CSLAYER1
  6
CONTINUOUS
 62
     6
 10
315.545066
 20
122.499992
 40
6.000000
 50
180.000000
 51
270.000000
  0
LINE
  8
CSLAYER1
  6
CONTINUOUS
 62
     6
 10
179.045157
 20
118.500015
 11
149.045005
 21
119.023677
  0
LINE
  8
CSLAYER1
  6
CONTINUOUS
 62
     6
 10
148.045157
 20
120.041129
 11
149.045005
 21
119.023677
  0
LINE
  8
CSLAYER1
  6
CONTINUOUS
 62
     6
 10
179.045157
 20
271.500038
 11
179.045157
 21
209.500038
  0
LINE
  8
CSLAYER1
  6
CONTINUOUS
 62
     6
 10
148.045157
 20
212.041166
 11
148.045157
 21
268.958923
  0
LINE
  8
CSLAYER1
  6
CONTINUOUS
 62
     6
 10
149.045157
 20
211.023711
 11
149.045157
 21
269.976378
  0
LINE
  8
CSLAYER1
  6
CONTINUOUS
 62
     6
 10
149.045005
 20
269.976375
 11
179.045172
 21
270.500029
  0
LINE
  8
CSLAYER1
  6
CONTINUOUS
 62
     6
 10
179.045157
 20
210.500052
 11
149.045005
 21
211.023714
  0
LINE
  8
CSLAYER1
  6
CONTINUOUS
 62
     6
 10
148.045157
 20
212.041166
 11
149.045005
 21
211.023714
  0
LINE
  8
CSLAYER1
  6
CONTINUOUS
 62
     6
 10
149.045005
 20
269.976375
 11
148.045157
 21
268.958923
  0
LINE
  8
CSLAYER1
  6
CONTINUOUS
 62
     6
 10
179.045157
 20
85.499977
 11
179.045157
 21
23.499977
  0
LINE
  8
CSLAYER1
  6
CONTINUOUS
 62
     6
 10
148.045157
 20
26.041105
 11
148.045157
 21
82.958862
  0
LINE
  8
CSLAYER1
  6
CONTINUOUS
 62
     6
 10
149.045157
 20
25.023650
 11
149.045157
 21
83.976317
  0
LINE
  8
CSLAYER1
  6
CONTINUOUS
 62
     6
 10
149.045005
 20
83.976314
 11
179.045172
 21
84.499968
  0
LINE
  8
CSLAYER1
  6
CONTINUOUS
 62
     6
 10
179.045157
 20
24.499991
 11
149.045005
 21
25.023653
  0
LINE
  8
CSLAYER1
  6
CONTINUOUS
 62
     6
 10
148.045157
 20
26.041105
 11
149.045005
 21
25.023653
  0
LINE
  8
CSLAYER1
  6
CONTINUOUS
 62
     6
 10
149.045005
 20
83.976314
 11
148.045157
 21
82.958862
  0
LINE
  8
CSLAYER1
  6
CENTER
 62
     3
 10
120.984443
 20
174.500009
 11
111.045173
 21
174.500009
  0
LINE
  8
CSLAYER1
  6
CENTER
 62
     3
 10
116.045173
 20
169.500009
 11
116.045173
 21
179.500009
  0
CIRCLE
  8
CSLAYER1
  6
CONTINUOUS
 62
     6
 10
116.045173
 20
174.500009
 40
2.250000
  0
LINE
  8
CSLAYER1
  6
CENTER
 62
     3
 10
64.045173
 20
179.439279
 11
64.045173
 21
169.500009
  0
LINE
  8
CSLAYER1
  6
CENTER
 62
     3
 10
69.045173
 20
174.500009
 11
59.045173
 21
174.500009
  0
CIRCLE
  8
CSLAYER1
  6
CONTINUOUS
 62
     6
 10
64.045173
 20
174.500009
 40
2.250000
  0
LINE
  8
CSLAYER1
  6
CENTER
 62
     3
 10
59.105903
 20
122.500009
 11
69.045173
 21
122.500009
  0
LINE
  8
CSLAYER1
  6
CENTER
 62
     3
 10
64.045173
 20
127.500009
 11
64.045173
 21
117.500009
  0
CIRCLE
  8
CSLAYER1
  6
CONTINUOUS
 62
     6
 10
64.045173
 20
122.500009
 40
2.250000
  0
LINE
  8
CSLAYER1
  6
CENTER
 62
     3
 10
120.984443
 20
122.500009
 11
111.045173
 21
122.500009
  0
LINE
  8
CSLAYER1
  6
CENTER
 62
     3
 10
116.045173
 20
127.500009
 11
116.045173
 21
117.500009
  0
CIRCLE
  8
CSLAYER1
  6
CONTINUOUS
 62
     6
 10
116.045173
 20
122.500009
 40
2.250000
  0
LINE
  8
CSLAYER1
  6
CONTINUOUS
 62
     6
 10
58.045173
 20
122.500009
 11
58.045173
 21
174.500009
  0
LINE
  8
CSLAYER1
  6
CONTINUOUS
 62
     6
 10
122.045173
 20
122.500009
 11
122.045173
 21
174.500009
  0
LINE
  8
CSLAYER1
  6
CONTINUOUS
 62
     6
 10
116.045173
 20
180.500009
 11
64.045173
 21
180.500009
  0
LINE
  8
CSLAYER1
  6
CONTINUOUS
 62
     6
 10
116.045173
 20
116.500009
 11
92.245168
 21
116.500009
  0
ARC
  8
CSLAYER1
  6
CONTINUOUS
 62
     6
 10
64.045173
 20
174.500009
 40
6.000000
 50
90.000000
 51
180.000000
  0
ARC
  8
CSLAYER1
  6
CONTINUOUS
 62
     6
 10
116.045173
 20
174.500009
 40
6.000000
 50
0.000000
 51
90.000000
  0
ARC
  8
CSLAYER1
  6
CONTINUOUS
 62
     6
 10
116.045173
 20
122.500009
 40
6.000000
 50
270.000000
 51
360.000000
  0
ARC
  8
CSLAYER1
  6
CONTINUOUS
 62
     6
 10
64.045173
 20
122.500009
 40
6.000000
 50
180.000000
 51
270.000000
  0
LINE
  8
CSLAYER1
  6
CONTINUOUS
 62
     6
 10
87.845170
 20
116.500009
 11
64.045173
 21
116.500009
  0
LINE
  8
CSLAYER1
  6
CONTINUOUS
 62
     6
 10
256.045157
 20
180.499992
 11
249.045157
 21
180.499992
  0
LINE
  8
CSLAYER1
  6
CONTINUOUS
 62
     6
 10
256.045157
 20
116.499992
 11
249.045157
 21
116.499992
  0
ARC
  8
CSLAYER1
  6
CONTINUOUS
 62
     6
 10
249.045157
 20
178.499992
 40
2.000000
 50
90.000000
 51
180.000000
  0
ARC
  8
CSLAYER1
  6
CONTINUOUS
 62
     6
 10
249.045157
 20
118.499992
 40
2.000000
 50
180.000000
 51
270.000000
  0
LINE
  8
CSLAYER1
  6
CONTINUOUS
 62
     6
 10
246.045157
 20
178.499997
 11
247.045157
 21
178.499997
  0
LINE
  8
CSLAYER1
  6
CONTINUOUS
 62
     6
 10
246.045157
 20
118.499997
 11
247.045157
 21
118.499997
  0
LINE
  8
CSLAYER1
  6
CONTINUOUS
 62
     6
 10
246.045157
 20
271.500038
 11
246.045157
 21
209.500038
  0
LINE
  8
CSLAYER1
  6
CONTINUOUS
 62
     6
 10
258.045157
 20
225.500038
 11
258.045157
 21
255.500038
  0
LINE
  8
CSLAYER1
  6
CONTINUOUS
 62
     6
 10
256.045157
 20
208.500023
 11
256.045157
 21
272.500023
  0
LINE
  8
CSLAYER1
  6
CONTINUOUS
 62
     6
 10
258.045157
 20
255.500038
 11
256.045157
 21
255.500038
  0
LINE
  8
CSLAYER1
  6
CONTINUOUS
 62
     6
 10
258.045157
 20
225.500038
 11
256.045157
 21
225.500038
  0
LINE
  8
CSLAYER1
  6
CONTINUOUS
 62
     6
 10
247.045157
 20
270.500023
 11
247.045157
 21
210.500023
  0
LINE
  8
CSLAYER1
  6
CENTER
 62
     3
 10
244.045157
 20
214.500023
 11
258.045157
 21
214.500023
  0
LINE
  8
CSLAYER1
  6
CENTER
 62
     3
 10
244.045163
 20
266.500033
 11
258.045163
 21
266.500030
  0
LINE
  8
CSLAYER1
  6
CONTINUOUS
 62
     6
 10
282.545157
 20
244.500030
 11
258.045157
 21
244.500030
  0
LINE
  8
CSLAYER1
  6
CONTINUOUS
 62
     6
 10
282.545157
 20
236.500030
 11
258.045172
 21
236.500030
  0
LINE
  8
CSLAYER1
  6
CONTINUOUS
 62
     6
 10
282.545157
 20
236.500030
 11
282.545157
 21
244.500030
  0
LINE
  8
CSLAYER1
  6
CONTINUOUS
 62
     6
 10
256.045157
 20
272.500023
 11
249.045157
 21
272.500023
  0
LINE
  8
CSLAYER1
  6
CONTINUOUS
 62
     6
 10
256.045157
 20
208.500023
 11
249.045157
 21
208.500023
  0
ARC
  8
CSLAYER1
  6
CONTINUOUS
 62
     6
 10
249.045157
 20
270.500023
 40
2.000000
 50
90.000000
 51
180.000000
  0
ARC
  8
CSLAYER1
  6
CONTINUOUS
 62
     6
 10
249.045157
 20
210.500023
 40
2.000000
 50
180.000000
 51
270.000000
  0
LINE
  8
CSLAYER1
  6
CONTINUOUS
 62
     6
 10
246.045157
 20
270.500028
 11
247.045157
 21
270.500028
  0
LINE
  8
CSLAYER1
  6
CONTINUOUS
 62
     6
 10
246.045157
 20
210.500028
 11
247.045157
 21
210.500028
  0
LINE
  8
CSLAYER1
  6
CONTINUOUS
 62
     6
 10
246.045157
 20
85.499977
 11
246.045157
 21
23.499977
  0
LINE
  8
CSLAYER1
  6
CONTINUOUS
 62
     6
 10
258.045157
 20
39.499977
 11
258.045157
 21
69.499977
  0
LINE
  8
CSLAYER1
  6
CONTINUOUS
 62
     6
 10
256.045157
 20
22.499962
 11
256.045157
 21
86.499962
  0
LINE
  8
CSLAYER1
  6
CONTINUOUS
 62
     6
 10
258.045157
 20
69.499977
 11
256.045157
 21
69.499977
  0
LINE
  8
CSLAYER1
  6
CONTINUOUS
 62
     6
 10
258.045157
 20
39.499977
 11
256.045157
 21
39.499977
  0
LINE
  8
CSLAYER1
  6
CONTINUOUS
 62
     6
 10
247.045157
 20
84.499962
 11
247.045157
 21
24.499962
  0
LINE
  8
CSLAYER1
  6
CENTER
 62
     3
 10
244.045157
 20
28.499962
 11
258.045157
 21
28.499962
  0
LINE
  8
CSLAYER1
  6
CENTER
 62
     3
 10
244.045163
 20
80.499972
 11
258.045163
 21
80.499969
  0
LINE
  8
CSLAYER1
  6
CONTINUOUS
 62
     6
 10
282.545157
 20
58.499969
 11
258.045157
 21
58.499969
  0
LINE
  8
CSLAYER1
  6
CONTINUOUS
 62
     6
 10
282.545157
 20
50.499969
 11
258.045172
 21
50.499969
  0
LINE
  8
CSLAYER1
  6
CONTINUOUS
 62
     6
 10
282.545157
 20
50.499969
 11
282.545157
 21
58.499969
  0
LINE
  8
CSLAYER1
  6
CONTINUOUS
 62
     6
 10
256.045157
 20
86.499962
 11
249.045157
 21
86.499962
  0
LINE
  8
CSLAYER1
  6
CONTINUOUS
 62
     6
 10
256.045157
 20
22.499962
 11
249.045157
 21
22.499962
  0
ARC
  8
CSLAYER1
  6
CONTINUOUS
 62
     6
 10
249.045157
 20
84.499962
 40
2.000000
 50
90.000000
 51
180.000000
  0
ARC
  8
CSLAYER1
  6
CONTINUOUS
 62
     6
 10
249.045157
 20
24.499962
 40
2.000000
 50
180.000000
 51
270.000000
  0
LINE
  8
CSLAYER1
  6
CONTINUOUS
 62
     6
 10
246.045157
 20
84.499967
 11
247.045157
 21
84.499967
  0
LINE
  8
CSLAYER1
  6
CONTINUOUS
 62
     6
 10
246.045157
 20
24.499967
 11
247.045157
 21
24.499967
  0
LINE
  8
CSLAYER1
  6
CONTINUOUS
 62
     6
 10
148.045164
 20
176.958885
 11
149.045012
 21
177.976337
  0
CIRCLE
  8
CSLAYER1
  6
CONTINUOUS
 62
     6
 10
341.545066
 20
148.499992
 40
17.500000
  0
CIRCLE
  8
CSLAYER1
  6
CONTINUOUS
 62
     6
 10
341.545066
 20
148.499992
 40
15.000000
  0
CIRCLE
  8
CSLAYER1
  6
CONTINUOUS
 62
     6
 10
341.545066
 20
148.499992
 40
4.000000
  0
ARC
  8
CSLAYER1
  6
CENTER
 62
     3
 10
341.545096
 20
148.499992
 40
24.000000
 50
114.674222
 51
155.325881
  0
LINE
  8
CSLAYER1
  6
CENTER
 62
     3
 10
330.584926
 20
159.460132
 11
318.564110
 21
171.480948
  0
ARC
  8
CSLAYER1
  6
CENTER
 62
     3
 10
341.545096
 20
148.499992
 40
24.000000
 50
294.674119
 51
335.325778
  0
LINE
  8
CSLAYER1
  6
CENTER
 62
     3
 10
352.526811
 20
137.518247
 11
364.504476
 21
125.540582
  0
CIRCLE
  8
CSLAYER1
  6
CONTINUOUS
 62
     6
 10
358.515644
 20
131.529414
 40
4.500000
  0
ARC
  8
CSLAYER1
  6
CONTINUOUS
 62
     6
 10
358.515644
 20
131.529414
 40
2.397500
 50
253.398434
 51
286.601595
  0
ARC
  8
CSLAYER1
  6
CONTINUOUS
 62
     6
 10
358.515644
 20
131.529414
 40
2.397500
 50
163.398424
 51
196.601586
  0
ARC
  8
CSLAYER1
  6
CONTINUOUS
 62
     6
 10
358.515644
 20
131.529414
 40
2.397500
 50
73.398442
 51
106.601576
  0
ARC
  8
CSLAYER1
  6
CONTINUOUS
 62
     6
 10
358.515644
 20
131.529414
 40
2.397500
 50
-16.601584
 51
16.601604
  0
LINE
  8
CSLAYER1
  6
CONTINUOUS
 62
     6
 10
357.830646
 20
132.899409
 11
357.830646
 21
133.826976
  0
LINE
  8
CSLAYER1
  6
CONTINUOUS
 62
     6
 10
357.830646
 20
130.159419
 11
357.830646
 21
129.231853
  0
LINE
  8
CSLAYER1
  6
CONTINUOUS
 62
     6
 10
359.200641
 20
132.899409
 11
359.200641
 21
133.826976
  0
LINE
  8
CSLAYER1
  6
CONTINUOUS
 62
     6
 10
359.200641
 20
130.159419
 11
359.200641
 21
129.231853
  0
LINE
  8
CSLAYER1
  6
CONTINUOUS
 62
     6
 10
357.145648
 20
130.844417
 11
356.218097
 21
130.844417
  0
LINE
  8
CSLAYER1
  6
CONTINUOUS
 62
     6
 10
359.885639
 20
130.844417
 11
360.813190
 21
130.844417
  0
LINE
  8
CSLAYER1
  6
CONTINUOUS
 62
     6
 10
357.145648
 20
132.214412
 11
356.218097
 21
132.214412
  0
LINE
  8
CSLAYER1
  6
CONTINUOUS
 62
     6
 10
359.885639
 20
132.214412
 11
360.813190
 21
132.214412
  0
ARC
  8
CSLAYER1
  6
CONTINUOUS
 62
     6
 10
357.145648
 20
132.899409
 40
0.685000
 50
270.000001
 51
359.942691
  0
ARC
  8
CSLAYER1
  6
CONTINUOUS
 62
     6
 10
359.885639
 20
132.899409
 40
0.685000
 50
180.000005
 51
270.000001
  0
ARC
  8
CSLAYER1
  6
CONTINUOUS
 62
     6
 10
359.885639
 20
130.159419
 40
0.685000
 50
90.000009
 51
180.000005
  0
ARC
  8
CSLAYER1
  6
CONTINUOUS
 62
     6
 10
357.145648
 20
130.159419
 40
0.685000
 50
0.000000
 51
90.000009
  0
CIRCLE
  8
CSLAYER1
  6
CONTINUOUS
 62
     6
 10
358.515644
 20
131.529414
 40
5.500000
  0
ENDSEC
  0
EOF
