  0
SECTION
  2
HEADER
  9
$ACADVER
  1
AC1006
  9
$INSBASE
 10
0.000000
 20
0.000000
 30
0.0
  9
$EXTMIN
 10
0.000000
 20
0.000000
  9
$EXTMAX
 10
420.000000
 20
297.000000
  9
$LIMMIN
 10
0.000000
 20
0.000000
  9
$LIMMAX
 10
420.000000
 20
297.000000
  9
$VIEWCTR
 10
210.000000
 20
148.500000
  9
$VIEWSIZE
 40
297.000000
  9
$SNAPMODE
 70
     0
  9
$SNAPUNIT
 10
1.0
 20
1.0
  9
$SNAPBASE
 10
0.0
 20
0.0
  9
$SNAPANG
 50
0.0
  9
$SNAPSTYLE
 70
     0
  9
$SNAPISOPAIR
 70
     0
  9
$GRIDMODE
 70
     0
  9
$GRIDUNIT
 10
0.0
 20
0.0
  9
$ORTHOMODE
 70
     0
  9
$REGENMODE
 70
     1
  9
$FILLMODE
 70
     1
  9
$QTEXTMODE
 70
     0
  9
$DRAGMODE
 70
     2
  9
$LTSCALE
 40
15.000000
  9
$OSMODE
 70
     0
  9
$ATTMODE
 70
     1
  9
$TEXTSIZE
 40
0.2
  9
$TRACEWID
 40
0.05
  9
$TEXTSTYLE
  7
STANDARD
  9
$CLAYER
  8
CSLAYER1
  9
$CELTYPE
  6
BYLAYER
  9
$CECOLOR
 62
   256
  9
$DIMSCALE
 40
1.0
  9
$DIMASZ
 40
0.18
  9
$DIMEXO
 40
0.0625
  9
$DIMDLI
 40
0.38
  9
$DIMRND
 40
0.0
  9
$DIMDLE
 40
0.0
  9
$DIMEXE
 40
0.18
  9
$DIMTP
 40
0.0
  9
$DIMTM
 40
0.0
  9
$DIMTXT
 40
0.18
  9
$DIMCEN
 40
0.09
  9
$DIMTSZ
 40
0.0
  9
$DIMTOL
 70
     0
  9
$DIMLIM
 70
     0
  9
$DIMTIH
 70
     1
  9
$DIMTOH
 70
     1
  9
$DIMSE1
 70
     0
  9
$DIMSE2
 70
     0
  9
$DIMTAD
 70
     0
  9
$DIMZIN
 70
     0
  9
$DIMBLK
  1

  9
$LUNITS
 70
     2
  9
$LUPREC
 70
     4
  9
$AXISMODE
 70
     0
  9
$AXISUNIT
 10
0.0
 20
0.0
  9
$SKETCHINC
 40
0.1
  9
$FILLETRAD
 40
0.0
  9
$AUNITS
 70
     0
  9
$AUPREC
 70
     0
  9
$MENU
  1
ACAD
  9
$ELEVATION
 40
0.0
  9
$THICKNESS
 40
0.0
  9
$VIEWDIR
 10
0.0
 20
0.0
 30
1.0
  9
$LIMCHECK
 70
     0
  9
$BLIPMODE
 70
     1
  9
$CHAMFERA
 40
0.0
  9
$CHAMFERB
 40
0.0
  9
$FASTZOOM
 70
     1
  9
$SKPOLY
 70
     0
  9
$TDCREATE
 40
0.000000
  9
$TDUPDATE
 40
0.000000
  9
$TDINDWG
 40
0.0
  9
$TDUSRTIMER
 40
0.0
  9
$USRTIMER
 70
     1
  9
$ANGBASE
 50
0.0
  9
$ANGDIR
 70
     0
  9
$PDMODE
 70
     0
  9
$PDSIZE
 40
0.0
  9
$PLINEWID
 40
0.0
  9
$COORDS
 70
     0
  9
$USERI1
 70
     0
  9
$USERI2
 70
     0
  9
$USERI3
 70
     0
  9
$USERI4
 70
     0
  9
$USERI5
 70
     0
  9
$USERR1
 40
0.0
  9
$USERR2
 40
0.0
  9
$USERR3
 40
0.0
  9
$USERR4
 40
0.0
  9
$USERR5
 40
0.0
  0
ENDSEC
  0
SECTION
  2
TABLES
  0
TABLE
  2
LTYPE
 70
     9
  0
LTYPE
  2
CONTINUOUS
 70
    64
  3
Solid line
 72
    65
 73
     0
 40
0.0
  0
LTYPE
  2
DASHED
 70
    64
  3
__ __ __ __ __ __ __ __ __ __ __ __ __ __ __
 72
    65
 73
     2
 40
0.75
 49
0.5
 49
-0.25
  0
LTYPE
  2
HIDDEN
 70
    64
  3
_ _ _ _ _ _ _ _ _ _ _ _ _ _ _ _ _ _ _ _ _ _ _
 72
    65
 73
     2
 40
0.375
 49
0.25
 49
-0.125
  0
LTYPE
  2
DOT
 70
    64
  3
...............................................
 72
    65
 73
     2
 40
0.25
 49
0.0
 49
-0.25
  0
LTYPE
  2
DASHDOT
 70
    64
  3
__ . __ . __ . __ . __ . __ . __ . __ . __ . __
 72
    65
 73
     4
 40
1.0
 49
0.5
 49
-0.25
 49
0.0
 49
-0.25
  0
LTYPE
  2
DIVIDE
 70
    64
  3
__ . . __ . . __ . . __ . . __ . . __ . . __
 72
    65
 73
     6
 40
1.25
 49
0.5
 49
-0.25
 49
0.0
 49
-0.25
 49
0.0
 49
-0.25
  0
LTYPE
  2
CENTER
 70
    64
  3
____ _ ____ _ ____ _ ____ _ ____ _ ____ _ ____ 
 72
    65
 73
     4
 40
2.0
 49
1.25
 49
-0.25
 49
0.25
 49
-0.25
  0
LTYPE
  2
PHANTOM
 70
    64
  3
______  __  __  ______  __  __  ______  __  __ 
 72
    65
 73
     6
 40
2.5
 49
1.25
 49
-0.25
 49
0.25
 49
-0.25
 49
0.25
 49
-0.25
  0
LTYPE
  2
BORDER
 70
    64
  3
__ __ . __ __ . __ __ . __ __ . __ __ . __ __ .
 72
    65
 73
     6
 40
1.75
 49
0.5
 49
-0.25
 49
0.5
 49
-0.25
 49
0.0
 49
-0.25
  0
ENDTAB
  0
TABLE
  2
LAYER
 70
    16
  0
LAYER
  2
CSLAYER1
 70
    64
 62
     7
  6
CONTINUOUS
  0
LAYER
  2
CSLAYER2
 70
    64
 62
     7
  6
CONTINUOUS
  0
LAYER
  2
CSLAYER3
 70
    64
 62
     7
  6
CONTINUOUS
  0
LAYER
  2
CSLAYER4
 70
    64
 62
     7
  6
CONTINUOUS
  0
LAYER
  2
CSLAYER5
 70
    64
 62
     7
  6
CONTINUOUS
  0
LAYER
  2
CSLAYER6
 70
    64
 62
     7
  6
CONTINUOUS
  0
LAYER
  2
CSLAYER7
 70
    64
 62
     7
  6
CONTINUOUS
  0
LAYER
  2
CSLAYER8
 70
    64
 62
     7
  6
CONTINUOUS
  0
LAYER
  2
CSLAYER9
 70
    64
 62
     7
  6
CONTINUOUS
  0
LAYER
  2
CSLAYER10
 70
    64
 62
     7
  6
CONTINUOUS
  0
LAYER
  2
CSLAYER11
 70
    64
 62
     7
  6
CONTINUOUS
  0
LAYER
  2
CSLAYER12
 70
    64
 62
     7
  6
CONTINUOUS
  0
LAYER
  2
CSLAYER13
 70
    64
 62
     7
  6
CONTINUOUS
  0
LAYER
  2
CSLAYER14
 70
    64
 62
     7
  6
CONTINUOUS
  0
LAYER
  2
CSLAYER15
 70
    64
 62
     7
  6
CONTINUOUS
  0
LAYER
  2
CSLAYER16
 70
    64
 62
     7
  6
CONTINUOUS
  0
ENDTAB
  0
TABLE
  2
STYLE
 70
     1
  0
STYLE
  2
JX_FONT
 70
     0
 40
1.0
 41
1.0
 50
0.0
 71
     0
 42
1.0
  3
monotxt
  4
bigfont
  0
ENDTAB
  0
TABLE
  2
VIEW
 70
     0
  0
ENDTAB
  0
ENDSEC
  0
SECTION
  2
BLOCKS
  0
ENDSEC
  0
SECTION
  2
ENTITIES
  0
LINE
  8
CSLAYER1
  6
CENTER
 62
     3
 10
329.772808
 20
153.699714
 11
399.772808
 21
153.699714
  0
LINE
  8
CSLAYER1
  6
CENTER
 62
     3
 10
364.772808
 20
188.699684
 11
364.772808
 21
102.417631
  0
LINE
  8
CSLAYER1
  6
CONTINUOUS
 62
     6
 10
396.772808
 20
179.699714
 11
396.772808
 21
124.199653
  0
LINE
  8
CSLAYER1
  6
CONTINUOUS
 62
     6
 10
338.772808
 20
185.699714
 11
390.772808
 21
185.699714
  0
LINE
  8
CSLAYER1
  6
CONTINUOUS
 62
     6
 10
332.772808
 20
179.699714
 11
332.772808
 21
124.199654
  0
ARC
  8
CSLAYER1
  6
CONTINUOUS
 62
     6
 10
338.772808
 20
124.199653
 40
6.000000
 50
179.999997
 51
246.442077
  0
ARC
  8
CSLAYER1
  6
CONTINUOUS
 62
     6
 10
338.772808
 20
179.699714
 40
6.000000
 50
89.999997
 51
180.000000
  0
ARC
  8
CSLAYER1
  6
CONTINUOUS
 62
     6
 10
390.772808
 20
179.699714
 40
6.000000
 50
-0.000003
 51
90.000000
  0
ARC
  8
CSLAYER1
  6
CONTINUOUS
 62
     6
 10
390.772808
 20
124.199653
 40
6.000000
 50
293.557923
 51
360.000000
  0
CIRCLE
  8
CSLAYER1
  6
DASHED
 62
     6
 10
364.772808
 20
153.699714
 40
31.000000
  0
LINE
  8
CSLAYER1
  6
CENTER
 62
     3
 10
314.772808
 20
168.149715
 11
335.772808
 21
168.149715
  0
LINE
  8
CSLAYER1
  6
CENTER
 62
     3
 10
384.772808
 20
115.199775
 11
384.772808
 21
125.699775
  0
LINE
  8
CSLAYER1
  6
CENTER
 62
     3
 10
344.772808
 20
115.199775
 11
344.772808
 21
125.699775
  0
LINE
  8
CSLAYER1
  6
CONTINUOUS
 62
     6
 10
393.170864
 20
118.699714
 11
336.374752
 21
118.699714
  0
ARC
  8
CSLAYER1
  6
CONTINUOUS
 62
     6
 10
380.531657
 20
112.452970
 40
15.758816
 50
180.057309
 51
207.463798
  0
ARC
  8
CSLAYER1
  6
CONTINUOUS
 62
     6
 10
380.531657
 20
112.452970
 40
13.558834
 50
180.057309
 51
207.463798
  0
ARC
  8
CSLAYER1
  6
CONTINUOUS
 62
     6
 10
365.322825
 20
111.500379
 40
1.099999
 50
59.999655
 51
119.999650
  0
ARC
  8
CSLAYER1
  6
CONTINUOUS
 62
     6
 10
366.422823
 20
111.500364
 40
1.099999
 50
59.999655
 51
119.999650
  0
ARC
  8
CSLAYER1
  6
CONTINUOUS
 62
     6
 10
366.422831
 20
113.405622
 40
1.099999
 50
239.999650
 51
299.999638
  0
LINE
  8
CSLAYER1
  6
CONTINUOUS
 62
     6
 10
368.500880
 20
106.199812
 11
366.548823
 21
105.185194
  0
ARC
  8
CSLAYER1
  6
CONTINUOUS
 62
     6
 10
366.422800
 20
116.317838
 40
1.100006
 50
240.000005
 51
299.999993
  0
ARC
  8
CSLAYER1
  6
CONTINUOUS
 62
     6
 10
365.322794
 20
116.317838
 40
1.100006
 50
240.000005
 51
299.999993
  0
ARC
  8
CSLAYER1
  6
CONTINUOUS
 62
     6
 10
365.322794
 20
114.412565
 40
1.100006
 50
59.999997
 51
119.999998
  0
LINE
  8
CSLAYER1
  6
CONTINUOUS
 62
     6
 10
364.772807
 20
115.365202
 11
364.772807
 21
119.515347
  0
LINE
  8
CSLAYER1
  6
CONTINUOUS
 62
     6
 10
366.972804
 20
115.365202
 11
366.972804
 21
119.515347
  0
LINE
  8
CSLAYER1
  6
CONTINUOUS
 62
     6
 10
368.036662
 20
105.958525
 11
369.653819
 21
103.020445
  0
LINE
  8
CSLAYER1
  6
CONTINUOUS
 62
     6
 10
367.547739
 20
105.704389
 11
369.124522
 21
102.696974
  0
LINE
  8
CSLAYER1
  6
CONTINUOUS
 62
     6
 10
367.149607
 20
105.497434
 11
368.551096
 21
102.417631
  0
ARC
  8
CSLAYER1
  6
CONTINUOUS
 62
     6
 10
349.013956
 20
112.452970
 40
15.758816
 50
332.536202
 51
359.942691
  0
ARC
  8
CSLAYER1
  6
CONTINUOUS
 62
     6
 10
349.013956
 20
112.452970
 40
13.558834
 50
332.536202
 51
359.942691
  0
LINE
  8
CSLAYER1
  6
CONTINUOUS
 62
     6
 10
361.044733
 20
106.199812
 11
362.996790
 21
105.185194
  0
LINE
  8
CSLAYER1
  6
CONTINUOUS
 62
     6
 10
362.572810
 20
115.365202
 11
362.572810
 21
119.515347
  0
LINE
  8
CSLAYER1
  6
CONTINUOUS
 62
     6
 10
361.508952
 20
105.958525
 11
359.891795
 21
103.020445
  0
LINE
  8
CSLAYER1
  6
CONTINUOUS
 62
     6
 10
361.997874
 20
105.704389
 11
360.421091
 21
102.696974
  0
LINE
  8
CSLAYER1
  6
CONTINUOUS
 62
     6
 10
362.396006
 20
105.497434
 11
360.994517
 21
102.417631
  0
ARC
  8
CSLAYER1
  6
CONTINUOUS
 62
     6
 10
364.222813
 20
116.317838
 40
1.100006
 50
240.000005
 51
299.999993
  0
ARC
  8
CSLAYER1
  6
CONTINUOUS
 62
     6
 10
363.122807
 20
116.317838
 40
1.100006
 50
240.000005
 51
299.999993
  0
ARC
  8
CSLAYER1
  6
CONTINUOUS
 62
     6
 10
363.122807
 20
114.412565
 40
1.100006
 50
59.999997
 51
119.999998
  0
ARC
  8
CSLAYER1
  6
CONTINUOUS
 62
     6
 10
363.122844
 20
111.502580
 40
1.099999
 50
59.999655
 51
119.999650
  0
ARC
  8
CSLAYER1
  6
CONTINUOUS
 62
     6
 10
364.222843
 20
111.502565
 40
1.099999
 50
59.999655
 51
119.999650
  0
ARC
  8
CSLAYER1
  6
CONTINUOUS
 62
     6
 10
364.222850
 20
113.407823
 40
1.099999
 50
239.999650
 51
299.999638
  0
LINE
  8
CSLAYER1
  6
CONTINUOUS
 62
     6
 10
362.572810
 20
120.330980
 11
362.572810
 21
121.146612
  0
LINE
  8
CSLAYER1
  6
CONTINUOUS
 62
     6
 10
362.572810
 20
121.962245
 11
362.572810
 21
122.777877
  0
LINE
  8
CSLAYER1
  6
CONTINUOUS
 62
     6
 10
364.772807
 20
120.330980
 11
364.772807
 21
121.146612
  0
LINE
  8
CSLAYER1
  6
CONTINUOUS
 62
     6
 10
364.772807
 20
121.962245
 11
364.772807
 21
122.699775
  0
LINE
  8
CSLAYER1
  6
CONTINUOUS
 62
     6
 10
366.972806
 20
120.330980
 11
366.972806
 21
121.146612
  0
LINE
  8
CSLAYER1
  6
CONTINUOUS
 62
     6
 10
366.972806
 20
121.962245
 11
366.972806
 21
122.777877
  0
LINE
  8
CSLAYER1
  6
CONTINUOUS
 62
     6
 10
318.272808
 20
173.149715
 11
332.772808
 21
173.149715
  0
LINE
  8
CSLAYER1
  6
CONTINUOUS
 62
     6
 10
318.272808
 20
163.149715
 11
332.772808
 21
163.149715
  0
LINE
  8
CSLAYER1
  6
CONTINUOUS
 62
     6
 10
317.772808
 20
172.649715
 11
317.772808
 21
163.649715
  0
LINE
  8
CSLAYER1
  6
CONTINUOUS
 62
     6
 10
317.772808
 20
172.649715
 11
318.272808
 21
173.149715
  0
LINE
  8
CSLAYER1
  6
CONTINUOUS
 62
     6
 10
318.272808
 20
163.149715
 11
317.772808
 21
163.649715
  0
LINE
  8
CSLAYER1
  6
CONTINUOUS
 62
     6
 10
318.272808
 20
173.149715
 11
318.272808
 21
163.149715
  0
LINE
  8
CSLAYER1
  6
CENTER
 62
     3
 10
67.247923
 20
188.699728
 11
67.247941
 21
102.884633
  0
CIRCLE
  8
CSLAYER1
  6
CONTINUOUS
 62
     6
 10
67.247923
 20
153.699713
 40
30.000000
  0
ARC
  8
CSLAYER1
  6
CONTINUOUS
 62
     6
 10
67.247923
 20
153.699713
 40
31.000000
 50
-85.930420
 51
265.930438
  0
LINE
  8
CSLAYER1
  6
CONTINUOUS
 62
     6
 10
69.447919
 20
115.365218
 11
69.447927
 21
123.780493
  0
LINE
  8
CSLAYER1
  6
CONTINUOUS
 62
     6
 10
65.047921
 20
115.365218
 11
65.047930
 21
123.780493
  0
LINE
  8
CSLAYER1
  6
CONTINUOUS
 62
     6
 10
67.247915
 20
115.365218
 11
67.247931
 21
123.780493
  0
ARC
  8
CSLAYER1
  6
CONTINUOUS
 62
     6
 10
83.006944
 20
112.453070
 40
15.759004
 50
180.000235
 51
207.463987
  0
ARC
  8
CSLAYER1
  6
CONTINUOUS
 62
     6
 10
83.006944
 20
112.453070
 40
13.559023
 50
180.000308
 51
207.464006
  0
ARC
  8
CSLAYER1
  6
CONTINUOUS
 62
     6
 10
67.797941
 20
116.317839
 40
1.099999
 50
239.999870
 51
299.999858
  0
ARC
  8
CSLAYER1
  6
CONTINUOUS
 62
     6
 10
68.897939
 20
116.317839
 40
1.099999
 50
239.999870
 51
299.999858
  0
ARC
  8
CSLAYER1
  6
CONTINUOUS
 62
     6
 10
68.897931
 20
114.412596
 40
1.099999
 50
59.999858
 51
119.999853
  0
ARC
  8
CSLAYER1
  6
CONTINUOUS
 62
     6
 10
68.897922
 20
111.500355
 40
1.099999
 50
59.999715
 51
119.999716
  0
ARC
  8
CSLAYER1
  6
CONTINUOUS
 62
     6
 10
67.797923
 20
111.500371
 40
1.099999
 50
59.999715
 51
119.999716
  0
ARC
  8
CSLAYER1
  6
CONTINUOUS
 62
     6
 10
67.797931
 20
113.405629
 40
1.099999
 50
239.999733
 51
299.999721
  0
LINE
  8
CSLAYER1
  6
CONTINUOUS
 62
     6
 10
70.488002
 20
105.946126
 11
72.264847
 21
102.925127
  0
LINE
  8
CSLAYER1
  6
CONTINUOUS
 62
     6
 10
69.999986
 20
105.692478
 11
71.614164
 21
102.586921
  0
LINE
  8
CSLAYER1
  6
CONTINUOUS
 62
     6
 10
69.511974
 20
105.438825
 11
70.963481
 21
102.248715
  0
LINE
  8
CSLAYER1
  6
CONTINUOUS
 62
     6
 10
70.976015
 20
106.199780
 11
69.023965
 21
105.185163
  0
ARC
  8
CSLAYER1
  6
CONTINUOUS
 62
     6
 10
51.488961
 20
112.452898
 40
15.758933
 50
-27.463461
 51
0.000397
  0
ARC
  8
CSLAYER1
  6
CONTINUOUS
 62
     6
 10
51.488961
 20
112.452898
 40
13.558951
 50
-27.463363
 51
0.000417
  0
ARC
  8
CSLAYER1
  6
CONTINUOUS
 62
     6
 10
65.597898
 20
116.317839
 40
1.099999
 50
240.000198
 51
300.000186
  0
ARC
  8
CSLAYER1
  6
CONTINUOUS
 62
     6
 10
66.697896
 20
116.317839
 40
1.099999
 50
240.000198
 51
300.000186
  0
ARC
  8
CSLAYER1
  6
CONTINUOUS
 62
     6
 10
66.697904
 20
114.412596
 40
1.099999
 50
60.000186
 51
120.000181
  0
ARC
  8
CSLAYER1
  6
CONTINUOUS
 62
     6
 10
66.697917
 20
111.500386
 40
1.099999
 50
60.000350
 51
120.000345
  0
ARC
  8
CSLAYER1
  6
CONTINUOUS
 62
     6
 10
65.597919
 20
111.500371
 40
1.099999
 50
60.000350
 51
120.000345
  0
ARC
  8
CSLAYER1
  6
CONTINUOUS
 62
     6
 10
65.597907
 20
113.405629
 40
1.099999
 50
240.000362
 51
300.000350
  0
LINE
  8
CSLAYER1
  6
CENTER
 62
     3
 10
102.247931
 20
153.699728
 11
32.247931
 21
153.699728
  0
CIRCLE
  8
CSLAYER1
  6
CONTINUOUS
 62
     6
 10
67.247915
 20
153.699713
 40
6.818180
  0
CIRCLE
  8
CSLAYER1
  6
CONTINUOUS
 62
     6
 10
67.247915
 20
153.699713
 40
7.909089
  0
LINE
  8
CSLAYER1
  6
CONTINUOUS
 62
     6
 10
60.429735
 20
153.699713
 11
70.657003
 21
150.290625
  0
LINE
  8
CSLAYER1
  6
CONTINUOUS
 62
     6
 10
70.657003
 20
150.290625
 11
70.698698
 21
153.699713
  0
LINE
  8
CSLAYER1
  6
CONTINUOUS
 62
     6
 10
70.698698
 20
153.699713
 11
74.066099
 21
153.699713
  0
LINE
  8
CSLAYER1
  6
CONTINUOUS
 62
     6
 10
63.838827
 20
157.108801
 11
63.861963
 21
153.699713
  0
LINE
  8
CSLAYER1
  6
CONTINUOUS
 62
     6
 10
63.861963
 20
153.699713
 11
60.429735
 21
153.699713
  0
TEXT
  8
CSLAYER1
 62
     6
 10
52.415104
 20
151.731613
 40
3.409090
 41
1.200000
  1
S
 50
282.000000
 51
3.000000
  7
JX_FONT
 72
     5
 11
52.982136
 21
149.063939
  0
TEXT
  8
CSLAYER1
 62
     6
 10
53.148411
 20
148.690720
 40
3.409090
 41
1.200000
  1
A
 50
294.000031
 51
3.000000
  7
JX_FONT
 72
     5
 11
54.257694
 21
146.199233
  0
TEXT
  8
CSLAYER1
 62
     6
 10
54.497959
 20
145.868729
 40
3.409090
 41
1.596000
  1
W
 50
306.000031
 51
3.000000
  7
JX_FONT
 72
     5
 11
56.630018
 21
142.934205
  0
TEXT
  8
CSLAYER1
 62
     6
 10
56.404728
 20
143.388992
 40
3.409090
 41
1.200000
  1
A
 50
318.000000
 51
3.000000
  7
JX_FONT
 72
     5
 11
58.431486
 21
141.564091
  0
TEXT
  8
CSLAYER1
 62
     6
 10
58.785374
 20
141.359894
 40
3.409090
 41
1.200000
  1
M
 50
330.000000
 51
3.000000
  7
JX_FONT
 72
     5
 11
61.147261
 21
139.996258
  0
TEXT
  8
CSLAYER1
 62
     6
 10
61.535892
 20
139.870102
 40
3.409090
 41
1.200000
  1
U
 50
342.000000
 51
3.000000
  7
JX_FONT
 72
     5
 11
64.129682
 21
139.027329
  0
TEXT
  8
CSLAYER1
 62
     6
 10
64.536049
 20
138.984726
 40
3.409090
 41
1.200000
  1
R
 50
353.999969
 51
3.000000
  7
JX_FONT
 72
     5
 11
67.248380
 21
138.699647
  0
TEXT
  8
CSLAYER1
 62
     6
 10
67.654732
 20
138.742447
 40
3.409090
 41
1.200000
  1
A
 50
6.000000
 51
3.000000
  7
JX_FONT
 72
     5
 11
70.367064
 21
139.027524
  0
TEXT
  8
CSLAYER1
 62
     6
 10
80.404640
 20
146.573425
 40
3.409090
 41
1.200000
  1
K
 50
66.000046
 51
3.000000
  7
JX_FONT
 72
     5
 11
81.513920
 21
149.064913
  0
TEXT
  8
CSLAYER1
 62
     6
 10
81.598763
 20
149.464569
 40
3.409090
 41
0.792000
  1
I
 50
78.000000
 51
3.000000
  7
JX_FONT
 72
     5
 11
81.973003
 21
151.225234
  0
TEXT
  8
CSLAYER1
 62
     6
 10
73.703224
 20
140.201050
 40
3.409090
 41
1.200000
  1
D
 50
30.000032
 51
3.000000
  7
JX_FONT
 72
     5
 11
76.065110
 21
141.564687
  0
TEXT
  8
CSLAYER1
 62
     6
 10
76.368690
 20
141.838165
 40
3.409090
 41
1.200000
  1
E
 50
41.999962
 51
3.000000
  7
JX_FONT
 72
     5
 11
78.395450
 21
143.663065
  0
TEXT
  8
CSLAYER1
 62
     6
 10
78.635506
 20
143.993713
 40
3.409090
 41
1.200000
  1
N
 50
54.000061
 51
3.000000
  7
JX_FONT
 72
     5
 11
80.238554
 21
146.200125
  0
TEXT
  8
CSLAYER1
 62
     6
 10
52.330051
 20
154.858429
 40
3.410000
 41
1.200000
  1
*
 50
-90.000000
 51
3.000000
  7
JX_FONT
 72
     5
 11
52.330051
 21
152.130429
  0
TEXT
  8
CSLAYER1
 62
     6
 10
72.959938
 20
167.529282
 40
3.409090
 41
1.200000
  1
U
 50
162.000000
 51
3.000000
  7
JX_FONT
 72
     5
 11
70.366148
 21
168.372055
  0
TEXT
  8
CSLAYER1
 62
     6
 10
69.959785
 20
168.414658
 40
3.409090
 41
1.200000
  1
R
 50
173.999985
 51
3.000000
  7
JX_FONT
 72
     5
 11
67.247454
 21
168.699736
  0
TEXT
  8
CSLAYER1
 62
     6
 10
66.841103
 20
168.656937
 40
3.409090
 41
1.200000
  1
A
 50
186.000015
 51
3.000000
  7
JX_FONT
 72
     5
 11
64.128771
 21
168.371858
  0
TEXT
  8
CSLAYER1
 62
     6
 10
54.091190
 20
160.825958
 40
3.409090
 41
1.200000
  1
K
 50
246.000061
 51
3.000000
  7
JX_FONT
 72
     5
 11
52.981912
 21
158.334470
  0
TEXT
  8
CSLAYER1
 62
     6
 10
52.897068
 20
157.934814
 40
3.409090
 41
0.792000
  1
I
 50
258.000000
 51
3.000000
  7
JX_FONT
 72
     5
 11
52.522827
 21
156.174149
  0
TEXT
  8
CSLAYER1
 62
     6
 10
60.792606
 20
167.198334
 40
3.409090
 41
1.200000
  1
D
 50
210.000046
 51
3.000000
  7
JX_FONT
 72
     5
 11
58.430721
 21
165.834696
  0
TEXT
  8
CSLAYER1
 62
     6
 10
58.127171
 20
165.561218
 40
3.409090
 41
1.200000
  1
E
 50
221.999969
 51
3.000000
  7
JX_FONT
 72
     5
 11
56.100411
 21
163.736318
  0
TEXT
  8
CSLAYER1
 62
     6
 10
55.860325
 20
163.405670
 40
3.409090
 41
1.200000
  1
N
 50
234.000061
 51
3.000000
  7
JX_FONT
 72
     5
 11
54.257277
 21
161.199259
  0
TEXT
  8
CSLAYER1
 62
     6
 10
82.080727
 20
155.667770
 40
3.409090
 41
1.200000
  1
S
 50
102.000000
 51
3.000000
  7
JX_FONT
 72
     5
 11
81.513695
 21
158.335445
  0
TEXT
  8
CSLAYER1
 62
     6
 10
81.347420
 20
158.708664
 40
3.409090
 41
1.200000
  1
A
 50
114.000046
 51
3.000000
  7
JX_FONT
 72
     5
 11
80.238136
 21
161.200150
  0
TEXT
  8
CSLAYER1
 62
     6
 10
79.997871
 20
161.530655
 40
3.409090
 41
1.596000
  1
W
 50
126.000038
 51
3.000000
  7
JX_FONT
 72
     5
 11
77.865813
 21
164.465178
  0
TEXT
  8
CSLAYER1
 62
     6
 10
78.091103
 20
164.010391
 40
3.409090
 41
1.200000
  1
A
 50
138.000031
 51
3.000000
  7
JX_FONT
 72
     5
 11
76.064344
 21
165.835291
  0
TEXT
  8
CSLAYER1
 62
     6
 10
75.710457
 20
166.039490
 40
3.409090
 41
1.200000
  1
M
 50
150.000015
 51
3.000000
  7
JX_FONT
 72
     5
 11
73.348570
 21
167.403125
  0
TEXT
  8
CSLAYER1
 62
     6
 10
82.165779
 20
152.540955
 40
3.410000
 41
1.200000
  1
*
 50
90.000000
 51
3.000000
  7
JX_FONT
 72
     5
 11
82.165779
 21
155.268955
  0
CIRCLE
  8
CSLAYER1
  6
CONTINUOUS
 62
     6
 10
67.247915
 20
153.699713
 40
16.000000
  0
CIRCLE
  8
CSLAYER1
  6
CONTINUOUS
 62
     6
 10
67.247915
 20
153.699713
 40
17.000000
  0
LINE
  8
CSLAYER1
  6
CONTINUOUS
 62
     6
 10
74.066091
 20
153.699715
 11
63.838827
 21
157.108801
  0
LINE
  8
CSLAYER1
  6
CONTINUOUS
 62
     6
 10
63.861963
 20
153.699728
 11
63.861963
 21
153.699713
  0
LINE
  8
CSLAYER1
  6
CONTINUOUS
 62
     6
 10
64.007879
 20
105.946125
 11
62.231036
 21
102.925125
  0
LINE
  8
CSLAYER1
  6
CONTINUOUS
 62
     6
 10
64.495895
 20
105.692477
 11
62.881719
 21
102.586919
  0
LINE
  8
CSLAYER1
  6
CONTINUOUS
 62
     6
 10
64.983908
 20
105.438825
 11
63.532402
 21
102.248714
  0
LINE
  8
CSLAYER1
  6
CONTINUOUS
 62
     6
 10
63.519898
 20
106.199763
 11
65.471943
 21
105.185148
  0
LINE
  8
CSLAYER1
  6
CONTINUOUS
 62
     6
 10
35.247931
 20
124.199671
 11
35.247931
 21
179.699728
  0
LINE
  8
CSLAYER1
  6
CONTINUOUS
 62
     6
 10
99.247931
 20
124.199671
 11
99.247931
 21
179.699728
  0
LINE
  8
CSLAYER1
  6
CONTINUOUS
 62
     6
 10
93.247931
 20
185.699728
 11
41.247931
 21
185.699728
  0
LINE
  8
CSLAYER1
  6
CONTINUOUS
 62
     6
 10
93.247931
 20
121.699728
 11
69.447926
 21
121.699728
  0
ARC
  8
CSLAYER1
  6
CONTINUOUS
 62
     6
 10
41.247931
 20
179.699728
 40
6.000000
 50
90.000000
 51
180.000000
  0
LINE
  8
CSLAYER1
  6
CONTINUOUS
 62
     6
 10
65.047928
 20
121.699728
 11
41.247931
 21
121.699728
  0
LINE
  8
CSLAYER1
  6
CENTER
 62
     3
 10
41.247931
 20
186.199736
 11
41.247931
 21
173.266479
  0
CIRCLE
  8
CSLAYER1
  6
CONTINUOUS
 62
     6
 10
41.247939
 20
179.699743
 40
3.500000
  0
ARC
  8
CSLAYER1
  6
CONTINUOUS
 62
     6
 10
41.247926
 20
179.699744
 40
1.944444
 50
163.398416
 51
196.601577
  0
ARC
  8
CSLAYER1
  6
CONTINUOUS
 62
     6
 10
41.247926
 20
179.699744
 40
1.944444
 50
253.398422
 51
286.601583
  0
ARC
  8
CSLAYER1
  6
CONTINUOUS
 62
     6
 10
41.247926
 20
179.699744
 40
1.944444
 50
-16.601562
 51
16.601572
  0
ARC
  8
CSLAYER1
  6
CONTINUOUS
 62
     6
 10
41.247926
 20
179.699744
 40
1.944444
 50
73.398406
 51
106.601595
  0
LINE
  8
CSLAYER1
  6
CONTINUOUS
 62
     6
 10
42.359051
 20
179.144181
 11
43.111308
 21
179.144181
  0
LINE
  8
CSLAYER1
  6
CONTINUOUS
 62
     6
 10
40.136801
 20
179.144181
 11
39.384545
 21
179.144181
  0
LINE
  8
CSLAYER1
  6
CONTINUOUS
 62
     6
 10
42.359051
 20
180.255306
 11
43.111308
 21
180.255306
  0
LINE
  8
CSLAYER1
  6
CONTINUOUS
 62
     6
 10
40.136801
 20
180.255306
 11
39.384545
 21
180.255306
  0
LINE
  8
CSLAYER1
  6
CONTINUOUS
 62
     6
 10
40.692364
 20
178.588648
 11
40.692364
 21
177.836333
  0
LINE
  8
CSLAYER1
  6
CONTINUOUS
 62
     6
 10
40.692364
 20
180.810840
 11
40.692364
 21
181.563154
  0
LINE
  8
CSLAYER1
  6
CONTINUOUS
 62
     6
 10
41.803489
 20
178.588648
 11
41.803489
 21
177.836333
  0
LINE
  8
CSLAYER1
  6
CONTINUOUS
 62
     6
 10
41.803489
 20
180.810840
 11
41.803489
 21
181.563154
  0
ARC
  8
CSLAYER1
  6
CONTINUOUS
 62
     6
 10
42.359051
 20
178.588648
 40
0.555556
 50
90.000001
 51
179.942691
  0
ARC
  8
CSLAYER1
  6
CONTINUOUS
 62
     6
 10
42.359051
 20
180.810840
 40
0.555556
 50
180.000010
 51
270.000016
  0
ARC
  8
CSLAYER1
  6
CONTINUOUS
 62
     6
 10
40.136801
 20
180.810840
 40
0.555556
 50
-89.999984
 51
0.000005
  0
ARC
  8
CSLAYER1
  6
CONTINUOUS
 62
     6
 10
40.136801
 20
178.588648
 40
0.555556
 50
0.000005
 51
89.942654
  0
LINE
  8
CSLAYER1
  6
CENTER
 62
     3
 10
34.747922
 20
179.699728
 11
47.747939
 21
179.699728
  0
ARC
  8
CSLAYER1
  6
CONTINUOUS
 62
     6
 10
93.247920
 20
179.699739
 40
6.000000
 50
0.000024
 51
90.000024
  0
LINE
  8
CSLAYER1
  6
CENTER
 62
     3
 10
93.247917
 20
186.199747
 11
93.247922
 21
173.266490
  0
CIRCLE
  8
CSLAYER1
  6
CONTINUOUS
 62
     6
 10
93.247911
 20
179.699754
 40
3.500000
  0
ARC
  8
CSLAYER1
  6
CONTINUOUS
 62
     6
 10
93.247924
 20
179.699755
 40
1.944444
 50
-16.601553
 51
16.601609
  0
ARC
  8
CSLAYER1
  6
CONTINUOUS
 62
     6
 10
93.247924
 20
179.699755
 40
1.944444
 50
253.398441
 51
286.601603
  0
ARC
  8
CSLAYER1
  6
CONTINUOUS
 62
     6
 10
93.247924
 20
179.699755
 40
1.944444
 50
163.398452
 51
196.601586
  0
ARC
  8
CSLAYER1
  6
CONTINUOUS
 62
     6
 10
93.247924
 20
179.699755
 40
1.944444
 50
73.398429
 51
106.601618
  0
LINE
  8
CSLAYER1
  6
CONTINUOUS
 62
     6
 10
92.136800
 20
179.144192
 11
91.384543
 21
179.144191
  0
LINE
  8
CSLAYER1
  6
CONTINUOUS
 62
     6
 10
94.359049
 20
179.144193
 11
95.111306
 21
179.144193
  0
LINE
  8
CSLAYER1
  6
CONTINUOUS
 62
     6
 10
92.136799
 20
180.255317
 11
91.384543
 21
180.255316
  0
LINE
  8
CSLAYER1
  6
CONTINUOUS
 62
     6
 10
94.359049
 20
180.255318
 11
95.111305
 21
180.255318
  0
LINE
  8
CSLAYER1
  6
CONTINUOUS
 62
     6
 10
93.803487
 20
178.588659
 11
93.803487
 21
177.836345
  0
LINE
  8
CSLAYER1
  6
CONTINUOUS
 62
     6
 10
93.803486
 20
180.810851
 11
93.803486
 21
181.563165
  0
LINE
  8
CSLAYER1
  6
CONTINUOUS
 62
     6
 10
92.692362
 20
178.588659
 11
92.692363
 21
177.836344
  0
LINE
  8
CSLAYER1
  6
CONTINUOUS
 62
     6
 10
92.692361
 20
180.810850
 11
92.692361
 21
181.563165
  0
ARC
  8
CSLAYER1
  6
CONTINUOUS
 62
     6
 10
92.136800
 20
178.588658
 40
0.555556
 50
0.057333
 51
90.000024
  0
ARC
  8
CSLAYER1
  6
CONTINUOUS
 62
     6
 10
92.136799
 20
180.810850
 40
0.555556
 50
-89.999992
 51
0.000014
  0
ARC
  8
CSLAYER1
  6
CONTINUOUS
 62
     6
 10
94.359049
 20
180.810851
 40
0.555556
 50
180.000019
 51
270.000008
  0
ARC
  8
CSLAYER1
  6
CONTINUOUS
 62
     6
 10
94.359049
 20
178.588659
 40
0.555556
 50
90.057370
 51
180.000019
  0
LINE
  8
CSLAYER1
  6
CENTER
 62
     3
 10
99.747928
 20
179.699742
 11
86.747911
 21
179.699736
  0
ARC
  8
CSLAYER1
  6
CONTINUOUS
 62
     6
 10
41.247931
 20
127.699728
 40
6.000000
 50
180.000000
 51
270.000000
  0
LINE
  8
CSLAYER1
  6
CENTER
 62
     3
 10
41.247931
 20
121.199720
 11
41.247931
 21
134.132977
  0
CIRCLE
  8
CSLAYER1
  6
CONTINUOUS
 62
     6
 10
41.247939
 20
127.699713
 40
3.500000
  0
ARC
  8
CSLAYER1
  6
CONTINUOUS
 62
     6
 10
41.247926
 20
127.699712
 40
1.944444
 50
163.398423
 51
196.601584
  0
ARC
  8
CSLAYER1
  6
CONTINUOUS
 62
     6
 10
41.247926
 20
127.699712
 40
1.944444
 50
73.398417
 51
106.601578
  0
ARC
  8
CSLAYER1
  6
CONTINUOUS
 62
     6
 10
41.247926
 20
127.699712
 40
1.944444
 50
-16.601572
 51
16.601562
  0
ARC
  8
CSLAYER1
  6
CONTINUOUS
 62
     6
 10
41.247926
 20
127.699712
 40
1.944444
 50
253.398405
 51
286.601594
  0
LINE
  8
CSLAYER1
  6
CONTINUOUS
 62
     6
 10
42.359051
 20
128.255275
 11
43.111308
 21
128.255275
  0
LINE
  8
CSLAYER1
  6
CONTINUOUS
 62
     6
 10
40.136801
 20
128.255275
 11
39.384545
 21
128.255275
  0
LINE
  8
CSLAYER1
  6
CONTINUOUS
 62
     6
 10
42.359051
 20
127.144150
 11
43.111308
 21
127.144150
  0
LINE
  8
CSLAYER1
  6
CONTINUOUS
 62
     6
 10
40.136801
 20
127.144150
 11
39.384545
 21
127.144150
  0
LINE
  8
CSLAYER1
  6
CONTINUOUS
 62
     6
 10
40.692364
 20
128.810808
 11
40.692364
 21
129.563123
  0
LINE
  8
CSLAYER1
  6
CONTINUOUS
 62
     6
 10
40.692364
 20
126.588616
 11
40.692364
 21
125.836302
  0
LINE
  8
CSLAYER1
  6
CONTINUOUS
 62
     6
 10
41.803489
 20
128.810808
 11
41.803489
 21
129.563123
  0
LINE
  8
CSLAYER1
  6
CONTINUOUS
 62
     6
 10
41.803489
 20
126.588616
 11
41.803489
 21
125.836302
  0
ARC
  8
CSLAYER1
  6
CONTINUOUS
 62
     6
 10
42.359051
 20
128.810808
 40
0.555556
 50
180.057309
 51
269.999999
  0
ARC
  8
CSLAYER1
  6
CONTINUOUS
 62
     6
 10
42.359051
 20
126.588616
 40
0.555556
 50
89.999984
 51
179.999990
  0
ARC
  8
CSLAYER1
  6
CONTINUOUS
 62
     6
 10
40.136801
 20
126.588616
 40
0.555556
 50
-0.000005
 51
89.999984
  0
ARC
  8
CSLAYER1
  6
CONTINUOUS
 62
     6
 10
40.136801
 20
128.810808
 40
0.555556
 50
270.057346
 51
359.999995
  0
LINE
  8
CSLAYER1
  6
CENTER
 62
     3
 10
34.747922
 20
127.699728
 11
47.747939
 21
127.699728
  0
ARC
  8
CSLAYER1
  6
CONTINUOUS
 62
     6
 10
93.247920
 20
127.699717
 40
6.000000
 50
269.999976
 51
359.999976
  0
LINE
  8
CSLAYER1
  6
CENTER
 62
     3
 10
93.247917
 20
121.199709
 11
93.247922
 21
134.132966
  0
CIRCLE
  8
CSLAYER1
  6
CONTINUOUS
 62
     6
 10
93.247911
 20
127.699702
 40
3.500000
  0
ARC
  8
CSLAYER1
  6
CONTINUOUS
 62
     6
 10
93.247924
 20
127.699701
 40
1.944444
 50
-16.601609
 51
16.601553
  0
ARC
  8
CSLAYER1
  6
CONTINUOUS
 62
     6
 10
93.247924
 20
127.699701
 40
1.944444
 50
73.398397
 51
106.601559
  0
ARC
  8
CSLAYER1
  6
CONTINUOUS
 62
     6
 10
93.247924
 20
127.699701
 40
1.944444
 50
163.398414
 51
196.601548
  0
ARC
  8
CSLAYER1
  6
CONTINUOUS
 62
     6
 10
93.247924
 20
127.699701
 40
1.944444
 50
253.398382
 51
286.601571
  0
LINE
  8
CSLAYER1
  6
CONTINUOUS
 62
     6
 10
92.136800
 20
128.255264
 11
91.384543
 21
128.255264
  0
LINE
  8
CSLAYER1
  6
CONTINUOUS
 62
     6
 10
94.359049
 20
128.255263
 11
95.111306
 21
128.255263
  0
LINE
  8
CSLAYER1
  6
CONTINUOUS
 62
     6
 10
92.136799
 20
127.144139
 11
91.384543
 21
127.144140
  0
LINE
  8
CSLAYER1
  6
CONTINUOUS
 62
     6
 10
94.359049
 20
127.144138
 11
95.111305
 21
127.144138
  0
LINE
  8
CSLAYER1
  6
CONTINUOUS
 62
     6
 10
93.803487
 20
128.810797
 11
93.803487
 21
129.563111
  0
LINE
  8
CSLAYER1
  6
CONTINUOUS
 62
     6
 10
93.803486
 20
126.588605
 11
93.803486
 21
125.836291
  0
LINE
  8
CSLAYER1
  6
CONTINUOUS
 62
     6
 10
92.692362
 20
128.810797
 11
92.692363
 21
129.563112
  0
LINE
  8
CSLAYER1
  6
CONTINUOUS
 62
     6
 10
92.692361
 20
126.588606
 11
92.692361
 21
125.836291
  0
ARC
  8
CSLAYER1
  6
CONTINUOUS
 62
     6
 10
92.136800
 20
128.810798
 40
0.555556
 50
269.999976
 51
359.942667
  0
ARC
  8
CSLAYER1
  6
CONTINUOUS
 62
     6
 10
92.136799
 20
126.588606
 40
0.555556
 50
-0.000014
 51
89.999992
  0
ARC
  8
CSLAYER1
  6
CONTINUOUS
 62
     6
 10
94.359049
 20
126.588605
 40
0.555556
 50
89.999992
 51
179.999981
  0
ARC
  8
CSLAYER1
  6
CONTINUOUS
 62
     6
 10
94.359049
 20
128.810797
 40
0.555556
 50
179.999981
 51
269.942630
  0
LINE
  8
CSLAYER1
  6
CENTER
 62
     3
 10
99.747928
 20
127.699714
 11
86.747911
 21
127.699720
  0
LINE
  8
CSLAYER1
  6
CONTINUOUS
 62
     6
 10
38.849904
 20
118.699719
 11
65.047926
 21
118.699719
  0
ARC
  8
CSLAYER1
  6
CONTINUOUS
 62
     6
 10
93.247931
 20
124.199671
 40
6.000000
 50
-66.442077
 51
0.000003
  0
ARC
  8
CSLAYER1
  6
CONTINUOUS
 62
     6
 10
41.247931
 20
124.199671
 40
6.000000
 50
180.000000
 51
246.442077
  0
LINE
  8
CSLAYER1
  6
CONTINUOUS
 62
     6
 10
69.447924
 20
118.699719
 11
95.645957
 21
118.699719
  0
LINE
  8
CSLAYER1
  6
CENTER
 62
     3
 10
117.247925
 20
168.149750
 11
96.247925
 21
168.149741
  0
LINE
  8
CSLAYER1
  6
CONTINUOUS
 62
     6
 10
113.747922
 20
173.149748
 11
99.247922
 21
173.149742
  0
LINE
  8
CSLAYER1
  6
CONTINUOUS
 62
     6
 10
113.747927
 20
163.149748
 11
99.247927
 21
163.149742
  0
LINE
  8
CSLAYER1
  6
CONTINUOUS
 62
     6
 10
114.247923
 20
172.649748
 11
114.247927
 21
163.649748
  0
LINE
  8
CSLAYER1
  6
CONTINUOUS
 62
     6
 10
114.247923
 20
172.649748
 11
113.747922
 21
173.149748
  0
LINE
  8
CSLAYER1
  6
CONTINUOUS
 62
     6
 10
113.747927
 20
163.149748
 11
114.247927
 21
163.649748
  0
LINE
  8
CSLAYER1
  6
CONTINUOUS
 62
     6
 10
113.747922
 20
173.149748
 11
113.747927
 21
163.149748
  0
LINE
  8
CSLAYER1
  6
CENTER
 62
     3
 10
47.247931
 20
115.199789
 11
47.247931
 21
125.699789
  0
LINE
  8
CSLAYER1
  6
CENTER
 62
     3
 10
87.247931
 20
115.199789
 11
87.247931
 21
125.699789
  0
LINE
  8
CSLAYER1
  6
CENTER
 62
     3
 10
138.282858
 20
55.853003
 11
288.282850
 21
55.853020
  0
LINE
  8
CSLAYER1
  6
CENTER
 62
     3
 10
233.693068
 20
29.853014
 11
251.282846
 21
29.853015
  0
LINE
  8
CSLAYER1
  6
CENTER
 62
     3
 10
233.693063
 20
81.853014
 11
251.282841
 21
81.853015
  0
ARC
  8
CSLAYER1
  6
CONTINUOUS
 62
     6
 10
239.407850
 20
85.353014
 40
0.125000
 50
89.999945
 51
179.999995
  0
ARC
  8
CSLAYER1
  6
CONTINUOUS
 62
     6
 10
239.407850
 20
78.353014
 40
0.125000
 50
180.000009
 51
269.999991
  0
ARC
  8
CSLAYER1
  6
CONTINUOUS
 62
     6
 10
240.157850
 20
85.353014
 40
0.125000
 50
-0.000010
 51
89.999945
  0
ARC
  8
CSLAYER1
  6
CONTINUOUS
 62
     6
 10
240.157850
 20
78.353014
 40
0.125000
 50
269.999991
 51
359.942654
  0
LINE
  8
CSLAYER1
  6
CONTINUOUS
 62
     6
 10
239.407850
 20
85.478014
 11
240.157850
 21
85.478014
  0
LINE
  8
CSLAYER1
  6
CONTINUOUS
 62
     6
 10
239.407850
 20
78.228014
 11
240.157850
 21
78.228014
  0
LINE
  8
CSLAYER1
  6
CONTINUOUS
 62
     6
 10
239.000196
 20
85.352038
 11
238.181440
 21
85.281481
  0
ARC
  8
CSLAYER1
  6
CONTINUOUS
 62
     6
 10
238.294722
 20
84.005114
 40
1.290623
 50
95.000080
 51
163.742779
  0
ARC
  8
CSLAYER1
  6
CONTINUOUS
 62
     6
 10
239.022840
 20
85.096789
 40
0.258129
 50
-0.000010
 51
94.999698
  0
LINE
  8
CSLAYER1
  6
CONTINUOUS
 62
     6
 10
239.000196
 20
78.353991
 11
238.181440
 21
78.424548
  0
ARC
  8
CSLAYER1
  6
CONTINUOUS
 62
     6
 10
238.294722
 20
79.700915
 40
1.290623
 50
196.257170
 51
264.999910
  0
ARC
  8
CSLAYER1
  6
CONTINUOUS
 62
     6
 10
239.022840
 20
78.609240
 40
0.258129
 50
265.000238
 51
359.942654
  0
ARC
  8
CSLAYER1
  6
CONTINUOUS
 62
     6
 10
245.782850
 20
81.853014
 40
9.089782
 50
163.965402
 51
196.029042
  0
LINE
  8
CSLAYER1
  6
CONTINUOUS
 62
     6
 10
240.282820
 20
82.597887
 11
239.282820
 21
82.043078
  0
LINE
  8
CSLAYER1
  6
CONTINUOUS
 62
     6
 10
240.282820
 20
81.972887
 11
239.282820
 21
81.418078
  0
ARC
  8
CSLAYER1
  6
CONTINUOUS
 62
     6
 10
239.407850
 20
33.353014
 40
0.125000
 50
89.999945
 51
179.999995
  0
ARC
  8
CSLAYER1
  6
CONTINUOUS
 62
     6
 10
239.407850
 20
26.353014
 40
0.125000
 50
180.000009
 51
269.999991
  0
ARC
  8
CSLAYER1
  6
CONTINUOUS
 62
     6
 10
240.157850
 20
33.353014
 40
0.125000
 50
-0.000010
 51
89.999945
  0
ARC
  8
CSLAYER1
  6
CONTINUOUS
 62
     6
 10
240.157850
 20
26.353014
 40
0.125000
 50
269.999991
 51
359.942654
  0
LINE
  8
CSLAYER1
  6
CONTINUOUS
 62
     6
 10
239.407850
 20
33.478014
 11
240.157850
 21
33.478014
  0
LINE
  8
CSLAYER1
  6
CONTINUOUS
 62
     6
 10
239.407850
 20
26.228014
 11
240.157850
 21
26.228014
  0
LINE
  8
CSLAYER1
  6
CONTINUOUS
 62
     6
 10
239.000196
 20
33.352038
 11
238.181440
 21
33.281481
  0
ARC
  8
CSLAYER1
  6
CONTINUOUS
 62
     6
 10
238.294722
 20
32.005114
 40
1.290623
 50
95.000080
 51
163.742779
  0
ARC
  8
CSLAYER1
  6
CONTINUOUS
 62
     6
 10
239.022840
 20
33.096789
 40
0.258129
 50
-0.000010
 51
94.999698
  0
LINE
  8
CSLAYER1
  6
CONTINUOUS
 62
     6
 10
239.000196
 20
26.353991
 11
238.181440
 21
26.424548
  0
ARC
  8
CSLAYER1
  6
CONTINUOUS
 62
     6
 10
238.294722
 20
27.700915
 40
1.290623
 50
196.257170
 51
264.999910
  0
ARC
  8
CSLAYER1
  6
CONTINUOUS
 62
     6
 10
239.022840
 20
26.609240
 40
0.258129
 50
265.000238
 51
359.942654
  0
ARC
  8
CSLAYER1
  6
CONTINUOUS
 62
     6
 10
245.782850
 20
29.853014
 40
9.089782
 50
163.965402
 51
196.029042
  0
LINE
  8
CSLAYER1
  6
CONTINUOUS
 62
     6
 10
240.282820
 20
30.597887
 11
239.282820
 21
30.043078
  0
LINE
  8
CSLAYER1
  6
CONTINUOUS
 62
     6
 10
240.282820
 20
29.972887
 11
239.282820
 21
29.418078
  0
LINE
  8
CSLAYER1
  6
CONTINUOUS
 62
     6
 10
172.282850
 20
24.853003
 11
172.282850
 21
86.853003
  0
LINE
  8
CSLAYER1
  6
CONTINUOUS
 62
     6
 10
239.282850
 20
24.853003
 11
172.282850
 21
24.853003
  0
LINE
  8
CSLAYER1
  6
CONTINUOUS
 62
     6
 10
239.282850
 20
86.853003
 11
172.282850
 21
86.853003
  0
LINE
  8
CSLAYER1
  6
CONTINUOUS
 62
     6
 10
239.282850
 20
24.853003
 11
239.282850
 21
86.853003
  0
LINE
  8
CSLAYER1
  6
CONTINUOUS
 62
     6
 10
285.282857
 20
25.853019
 11
285.282844
 21
85.853019
  0
LINE
  8
CSLAYER1
  6
CONTINUOUS
 62
     6
 10
284.282856
 20
28.353019
 11
284.282844
 21
83.353019
  0
LINE
  8
CSLAYER1
  6
CONTINUOUS
 62
     6
 10
248.282843
 20
87.853015
 11
283.282843
 21
87.853019
  0
LINE
  8
CSLAYER1
  6
CONTINUOUS
 62
     6
 10
248.282844
 20
84.353015
 11
283.282844
 21
84.353019
  0
ARC
  8
CSLAYER1
  6
CONTINUOUS
 62
     6
 10
283.282844
 20
85.853019
 40
2.000000
 50
0.000012
 51
90.000006
  0
ARC
  8
CSLAYER1
  6
CONTINUOUS
 62
     6
 10
283.282844
 20
83.353019
 40
1.000000
 50
0.000012
 51
90.000006
  0
LINE
  8
CSLAYER1
  6
CONTINUOUS
 62
     6
 10
248.282850
 20
23.853015
 11
283.282850
 21
23.853019
  0
LINE
  8
CSLAYER1
  6
CONTINUOUS
 62
     6
 10
248.282850
 20
27.353015
 11
283.282850
 21
27.353019
  0
ARC
  8
CSLAYER1
  6
CONTINUOUS
 62
     6
 10
283.282850
 20
25.853019
 40
2.000000
 50
270.000006
 51
360.000000
  0
ARC
  8
CSLAYER1
  6
CONTINUOUS
 62
     6
 10
283.282850
 20
28.353019
 40
1.000000
 50
270.000006
 51
360.000000
  0
LINE
  8
CSLAYER1
  6
CONTINUOUS
 62
     6
 10
248.282857
 20
23.852997
 11
248.282843
 21
87.853027
  0
LINE
  8
CSLAYER1
  6
CONTINUOUS
 62
     6
 10
240.282850
 20
85.853003
 11
239.282850
 21
85.853003
  0
LINE
  8
CSLAYER1
  6
CONTINUOUS
 62
     6
 10
240.282850
 20
25.853003
 11
239.282850
 21
25.853003
  0
LINE
  8
CSLAYER1
  6
CONTINUOUS
 62
     6
 10
240.282835
 20
25.852988
 11
239.282835
 21
25.852988
  0
ARC
  8
CSLAYER1
  6
CONTINUOUS
 62
     6
 10
242.282850
 20
25.853003
 40
2.000000
 50
180.000009
 51
269.999997
  0
LINE
  8
CSLAYER1
  6
CONTINUOUS
 62
     6
 10
248.282850
 20
23.853003
 11
242.282850
 21
23.853003
  0
ARC
  8
CSLAYER1
  6
CONTINUOUS
 62
     6
 10
242.282850
 20
85.853034
 40
2.000000
 50
90.000027
 51
179.999995
  0
LINE
  8
CSLAYER1
  6
CONTINUOUS
 62
     6
 10
248.282850
 20
87.853034
 11
242.282850
 21
87.853034
  0
LINE
  8
CSLAYER1
  6
CONTINUOUS
 62
     6
 10
240.282850
 20
25.853003
 11
240.282850
 21
85.853034
  0
CIRCLE
  8
CSLAYER1
  6
CONTINUOUS
 62
     6
 10
266.282850
 20
55.853017
 40
2.500000
  0
CIRCLE
  8
CSLAYER1
  6
CONTINUOUS
 62
     6
 10
266.282850
 20
55.853017
 40
2.900000
  0
LINE
  8
CSLAYER1
  6
CONTINUOUS
 62
     6
 10
266.282850
 20
57.103017
 11
267.532850
 21
57.103017
  0
LINE
  8
CSLAYER1
  6
CONTINUOUS
 62
     6
 10
266.282850
 20
54.603017
 11
265.032850
 21
54.603017
  0
LINE
  8
CSLAYER1
  6
CONTINUOUS
 62
     6
 10
267.532850
 20
57.103017
 11
266.282851
 21
53.353017
  0
LINE
  8
CSLAYER1
  6
CONTINUOUS
 62
     6
 10
266.282851
 20
53.353017
 11
266.282850
 21
54.603017
  0
LINE
  8
CSLAYER1
  6
CONTINUOUS
 62
     6
 10
265.032850
 20
54.603017
 11
266.282850
 21
58.353017
  0
LINE
  8
CSLAYER1
  6
CONTINUOUS
 62
     6
 10
266.282850
 20
58.353017
 11
266.282850
 21
57.103017
  0
LINE
  8
CSLAYER1
  6
CONTINUOUS
 62
     6
 10
253.282853
 20
43.790270
 11
253.282848
 21
67.915762
  0
LINE
  8
CSLAYER1
  6
CONTINUOUS
 62
     6
 10
280.282853
 20
43.790270
 11
280.282848
 21
67.915768
  0
LINE
  8
CSLAYER1
  6
CONTINUOUS
 62
     6
 10
262.282845
 20
80.853017
 11
271.282845
 21
80.853018
  0
LINE
  8
CSLAYER1
  6
CONTINUOUS
 62
     6
 10
260.282846
 20
75.853017
 11
260.282845
 21
78.853016
  0
ARC
  8
CSLAYER1
  6
CONTINUOUS
 62
     6
 10
262.282845
 20
78.853017
 40
2.000000
 50
90.000006
 51
180.000012
  0
ARC
  8
CSLAYER1
  6
CONTINUOUS
 62
     6
 10
254.282846
 20
75.853016
 40
6.000000
 50
-82.819232
 51
0.000012
  0
ARC
  8
CSLAYER1
  6
CONTINUOUS
 62
     6
 10
255.282848
 20
67.915762
 40
2.000000
 50
97.180768
 51
180.000012
  0
LINE
  8
CSLAYER1
  6
CONTINUOUS
 62
     6
 10
273.282846
 20
75.853020
 11
273.282845
 21
78.853019
  0
ARC
  8
CSLAYER1
  6
CONTINUOUS
 62
     6
 10
271.282845
 20
78.853019
 40
2.000000
 50
0.000012
 51
90.000019
  0
ARC
  8
CSLAYER1
  6
CONTINUOUS
 62
     6
 10
279.282846
 20
75.853021
 40
6.000000
 50
180.000012
 51
262.819257
  0
ARC
  8
CSLAYER1
  6
CONTINUOUS
 62
     6
 10
278.282848
 20
67.915767
 40
2.000000
 50
0.000012
 51
82.819257
  0
LINE
  8
CSLAYER1
  6
CONTINUOUS
 62
     6
 10
262.282850
 20
30.853017
 11
271.282850
 21
30.853018
  0
LINE
  8
CSLAYER1
  6
CONTINUOUS
 62
     6
 10
260.282850
 20
35.853016
 11
260.282850
 21
32.853017
  0
ARC
  8
CSLAYER1
  6
CONTINUOUS
 62
     6
 10
262.282850
 20
32.853017
 40
2.000000
 50
180.000000
 51
270.000006
  0
ARC
  8
CSLAYER1
  6
CONTINUOUS
 62
     6
 10
254.282850
 20
35.853016
 40
6.000000
 50
0.000000
 51
82.819244
  0
ARC
  8
CSLAYER1
  6
CONTINUOUS
 62
     6
 10
255.282850
 20
43.790270
 40
2.000000
 50
180.000000
 51
262.819244
  0
LINE
  8
CSLAYER1
  6
CONTINUOUS
 62
     6
 10
273.282850
 20
35.853016
 11
273.282850
 21
32.853017
  0
ARC
  8
CSLAYER1
  6
CONTINUOUS
 62
     6
 10
271.282850
 20
32.853017
 40
2.000000
 50
-90.000006
 51
0.000000
  0
ARC
  8
CSLAYER1
  6
CONTINUOUS
 62
     6
 10
279.282850
 20
35.853016
 40
6.000000
 50
97.180756
 51
180.000000
  0
ARC
  8
CSLAYER1
  6
CONTINUOUS
 62
     6
 10
278.282850
 20
43.790270
 40
2.000000
 50
277.180756
 51
360.000000
  0
LINE
  8
CSLAYER1
  6
CONTINUOUS
 62
     6
 10
260.782843
 20
102.853017
 11
269.782843
 21
102.853018
  0
LINE
  8
CSLAYER1
  6
CONTINUOUS
 62
     6
 10
270.282846
 20
87.853018
 11
270.282843
 21
102.353018
  0
LINE
  8
CSLAYER1
  6
CONTINUOUS
 62
     6
 10
260.282846
 20
87.853016
 11
260.282843
 21
102.353016
  0
LINE
  8
CSLAYER1
  6
CONTINUOUS
 62
     6
 10
260.782843
 20
102.853017
 11
260.282843
 21
102.353016
  0
LINE
  8
CSLAYER1
  6
CONTINUOUS
 62
     6
 10
269.782843
 20
102.853018
 11
270.282843
 21
102.353018
  0
LINE
  8
CSLAYER1
  6
CONTINUOUS
 62
     6
 10
260.282843
 20
102.353016
 11
270.282843
 21
102.353018
  0
CIRCLE
  8
CSLAYER1
  6
CONTINUOUS
 62
     3
 10
254.282855
 20
35.853016
 40
3.000000
  0
CIRCLE
  8
CSLAYER1
  6
CONTINUOUS
 62
     6
 10
254.282855
 20
35.853016
 40
2.400000
  0
LINE
  8
CSLAYER1
  6
CENTER
 62
     3
 10
249.282855
 20
35.853015
 11
259.282855
 21
35.853017
  0
LINE
  8
CSLAYER1
  6
CENTER
 62
     3
 10
254.282853
 20
40.853016
 11
254.282856
 21
30.853016
  0
CIRCLE
  8
CSLAYER1
  6
CONTINUOUS
 62
     3
 10
279.282855
 20
35.853019
 40
3.000000
  0
CIRCLE
  8
CSLAYER1
  6
CONTINUOUS
 62
     6
 10
279.282855
 20
35.853019
 40
2.400000
  0
LINE
  8
CSLAYER1
  6
CENTER
 62
     3
 10
274.282855
 20
35.853018
 11
284.282855
 21
35.853020
  0
LINE
  8
CSLAYER1
  6
CENTER
 62
     3
 10
279.282853
 20
40.853019
 11
279.282856
 21
30.853019
  0
CIRCLE
  8
CSLAYER1
  6
CONTINUOUS
 62
     3
 10
254.282846
 20
75.853016
 40
3.000000
  0
CIRCLE
  8
CSLAYER1
  6
CONTINUOUS
 62
     6
 10
254.282846
 20
75.853016
 40
2.400000
  0
LINE
  8
CSLAYER1
  6
CENTER
 62
     3
 10
249.282846
 20
75.853015
 11
259.282846
 21
75.853017
  0
LINE
  8
CSLAYER1
  6
CENTER
 62
     3
 10
254.282845
 20
80.853016
 11
254.282847
 21
70.853016
  0
CIRCLE
  8
CSLAYER1
  6
CONTINUOUS
 62
     3
 10
279.282846
 20
75.853019
 40
3.000000
  0
CIRCLE
  8
CSLAYER1
  6
CONTINUOUS
 62
     6
 10
279.282846
 20
75.853019
 40
2.400000
  0
LINE
  8
CSLAYER1
  6
CENTER
 62
     3
 10
274.282846
 20
75.853018
 11
284.282846
 21
75.853020
  0
LINE
  8
CSLAYER1
  6
CENTER
 62
     3
 10
279.282845
 20
80.853019
 11
279.282847
 21
70.853019
  0
LINE
  8
CSLAYER1
  6
CENTER
 62
     3
 10
265.282843
 20
105.853017
 11
265.282861
 21
20.853017
  0
LINE
  8
CSLAYER1
  6
CENTER
 62
     3
 10
161.282850
 20
44.853007
 11
161.282850
 21
66.853007
  0
LINE
  8
CSLAYER1
  6
CONTINUOUS
 62
     6
 10
161.282850
 20
55.853007
 11
155.849378
 21
55.853007
  0
LINE
  8
CSLAYER1
  6
CONTINUOUS
 62
     6
 10
161.282850
 20
58.053004
 11
155.849378
 21
58.053004
  0
ARC
  8
CSLAYER1
  6
CONTINUOUS
 62
     6
 10
152.937147
 20
71.611857
 40
15.758816
 50
242.536193
 51
269.942682
  0
ARC
  8
CSLAYER1
  6
CONTINUOUS
 62
     6
 10
152.937147
 20
71.611857
 40
13.558834
 50
242.536193
 51
269.942682
  0
ARC
  8
CSLAYER1
  6
CONTINUOUS
 62
     6
 10
156.802015
 20
57.503001
 40
1.100006
 50
149.999997
 51
209.999999
  0
ARC
  8
CSLAYER1
  6
CONTINUOUS
 62
     6
 10
156.802015
 20
56.402995
 40
1.100006
 50
149.999997
 51
209.999999
  0
ARC
  8
CSLAYER1
  6
CONTINUOUS
 62
     6
 10
154.896742
 20
56.402995
 40
1.100006
 50
-30.000011
 51
29.999977
  0
ARC
  8
CSLAYER1
  6
CONTINUOUS
 62
     6
 10
152.937147
 20
40.094157
 40
13.558834
 50
89.999975
 51
117.463872
  0
ARC
  8
CSLAYER1
  6
CONTINUOUS
 62
     6
 10
152.937178
 20
40.094172
 40
15.758816
 50
90.000003
 51
117.463872
  0
ARC
  8
CSLAYER1
  6
CONTINUOUS
 62
     6
 10
156.802015
 20
55.302989
 40
1.100006
 50
149.999997
 51
209.999999
  0
ARC
  8
CSLAYER1
  6
CONTINUOUS
 62
     6
 10
156.802015
 20
54.202983
 40
1.100006
 50
149.999997
 51
209.999999
  0
ARC
  8
CSLAYER1
  6
CONTINUOUS
 62
     6
 10
154.896742
 20
54.202983
 40
1.100006
 50
-30.000011
 51
29.999977
  0
ARC
  8
CSLAYER1
  6
CONTINUOUS
 62
     6
 10
161.282850
 20
56.953013
 40
1.100006
 50
-89.999999
 51
90.000019
  0
ARC
  8
CSLAYER1
  6
CONTINUOUS
 62
     6
 10
161.282850
 20
54.753001
 40
1.100006
 50
-90.000027
 51
89.999992
  0
LINE
  8
CSLAYER1
  6
CONTINUOUS
 62
     6
 10
161.282850
 20
53.653010
 11
155.849378
 21
53.653010
  0
LINE
  8
CSLAYER1
  6
CONTINUOUS
 62
     6
 10
162.382887
 20
56.953013
 11
162.382887
 21
54.753001
  0
ARC
  8
CSLAYER1
  6
CONTINUOUS
 62
     6
 10
153.257780
 20
56.403041
 40
1.099999
 50
-29.999656
 51
30.000332
  0
ARC
  8
CSLAYER1
  6
CONTINUOUS
 62
     6
 10
153.257772
 20
57.503031
 40
1.099999
 50
-29.999656
 51
30.000332
  0
ARC
  8
CSLAYER1
  6
CONTINUOUS
 62
     6
 10
155.163023
 20
57.503047
 40
1.099999
 50
150.000353
 51
210.000354
  0
ARC
  8
CSLAYER1
  6
CONTINUOUS
 62
     6
 10
153.257780
 20
54.203028
 40
1.099999
 50
-29.999656
 51
30.000332
  0
ARC
  8
CSLAYER1
  6
CONTINUOUS
 62
     6
 10
153.257772
 20
55.303019
 40
1.099999
 50
-29.999656
 51
30.000332
  0
ARC
  8
CSLAYER1
  6
CONTINUOUS
 62
     6
 10
155.163023
 20
55.303034
 40
1.099999
 50
150.000353
 51
210.000354
  0
LINE
  8
CSLAYER1
  6
CONTINUOUS
 62
     6
 10
152.937208
 20
58.053019
 11
154.210401
 21
58.053019
  0
LINE
  8
CSLAYER1
  6
CONTINUOUS
 62
     6
 10
152.937178
 20
55.852992
 11
154.210401
 21
55.852992
  0
LINE
  8
CSLAYER1
  6
CONTINUOUS
 62
     6
 10
152.937208
 20
53.653025
 11
154.210401
 21
53.653025
  0
ARC
  8
CSLAYER1
  6
CONTINUOUS
 62
     6
 10
161.282850
 20
55.853007
 40
8.000000
 50
-164.038116
 51
164.037904
  0
LINE
  8
CSLAYER1
  6
CONTINUOUS
 62
     6
 10
146.342237
 20
58.923457
 11
143.404127
 21
60.540614
  0
LINE
  8
CSLAYER1
  6
CONTINUOUS
 62
     6
 10
146.684034
 20
59.581080
 11
145.669386
 21
57.629023
  0
LINE
  8
CSLAYER1
  6
CONTINUOUS
 62
     6
 10
146.342176
 20
52.782557
 11
143.404127
 21
51.165385
  0
LINE
  8
CSLAYER1
  6
CONTINUOUS
 62
     6
 10
146.683973
 20
52.124934
 11
145.669386
 21
54.076991
  0
LINE
  8
CSLAYER1
  6
CONTINUOUS
 62
     6
 10
146.088087
 20
58.434535
 11
144.080641
 21
60.011317
  0
LINE
  8
CSLAYER1
  6
CONTINUOUS
 62
     6
 10
145.881117
 20
58.036402
 11
143.801344
 21
59.437892
  0
LINE
  8
CSLAYER1
  6
CONTINUOUS
 62
     6
 10
146.088087
 20
53.271479
 11
144.080641
 21
51.694697
  0
LINE
  8
CSLAYER1
  6
CONTINUOUS
 62
     6
 10
145.881117
 20
53.669612
 11
143.801283
 21
52.268107
  0
LINE
  8
CSLAYER1
  6
CONTINUOUS
 62
     6
 10
141.282850
 20
27.394139
 11
141.282850
 21
84.311896
  0
LINE
  8
CSLAYER1
  6
CONTINUOUS
 62
     6
 10
142.282850
 20
26.376684
 11
142.282850
 21
85.329351
  0
LINE
  8
CSLAYER1
  6
CONTINUOUS
 62
     6
 10
142.282698
 20
85.329348
 11
172.282865
 21
85.853002
  0
LINE
  8
CSLAYER1
  6
CONTINUOUS
 62
     6
 10
172.282850
 20
25.853025
 11
142.282698
 21
26.376687
  0
LINE
  8
CSLAYER1
  6
CONTINUOUS
 62
     6
 10
141.282850
 20
27.394139
 11
142.282698
 21
26.376687
  0
LINE
  8
CSLAYER1
  6
CONTINUOUS
 62
     6
 10
142.282698
 20
85.329348
 11
141.282850
 21
84.311896
  0
LINE
  8
CSLAYER1
  6
CENTER
 62
     3
 10
138.282853
 20
248.363913
 11
288.282850
 21
248.363913
  0
LINE
  8
CSLAYER1
  6
CONTINUOUS
 62
     6
 10
239.282853
 20
279.363917
 11
172.282853
 21
279.363917
  0
LINE
  8
CSLAYER1
  6
CONTINUOUS
 62
     6
 10
239.282853
 20
217.363917
 11
172.282853
 21
217.363917
  0
LINE
  8
CSLAYER1
  6
CONTINUOUS
 62
     3
 10
188.150239
 20
221.517132
 11
224.150239
 21
221.517132
  0
ARC
  8
CSLAYER1
  6
CONTINUOUS
 62
     3
 10
188.150239
 20
222.517132
 40
1.000000
 50
180.000005
 51
270.000001
  0
ARC
  8
CSLAYER1
  6
CONTINUOUS
 62
     3
 10
224.150239
 20
222.517132
 40
1.000000
 50
270.000001
 51
359.942691
  0
LINE
  8
CSLAYER1
  6
CONTINUOUS
 62
     3
 10
187.150239
 20
274.210700
 11
187.150239
 21
222.517132
  0
LINE
  8
CSLAYER1
  6
CONTINUOUS
 62
     3
 10
225.150239
 20
274.210700
 11
225.150239
 21
222.517132
  0
TEXT
  8
CSLAYER1
 62
     3
 10
204.929169
 20
253.862289
 40
3.500000
 41
1.125000
  1
N P
 50
270.000000
 51
10.000000
  7
JX_FONT
 72
     5
 11
204.929169
 21
243.362289
  0
LINE
  8
CSLAYER1
  6
CONTINUOUS
 62
     3
 10
188.150239
 20
275.210700
 11
224.150239
 21
275.210700
  0
ARC
  8
CSLAYER1
  6
CONTINUOUS
 62
     3
 10
188.150239
 20
274.210700
 40
1.000000
 50
90.000009
 51
180.000005
  0
ARC
  8
CSLAYER1
  6
CONTINUOUS
 62
     3
 10
224.150239
 20
274.210700
 40
1.000000
 50
0.057319
 51
90.000009
  0
LINE
  8
CSLAYER1
  6
CONTINUOUS
 62
     6
 10
172.282853
 20
279.363917
 11
172.282853
 21
217.363917
  0
LINE
  8
CSLAYER1
  6
CONTINUOUS
 62
     6
 10
141.282853
 20
219.905045
 11
141.282853
 21
276.822802
  0
LINE
  8
CSLAYER1
  6
CONTINUOUS
 62
     6
 10
142.282853
 20
218.887590
 11
142.282853
 21
277.840257
  0
LINE
  8
CSLAYER1
  6
CONTINUOUS
 62
     6
 10
142.282701
 20
277.840254
 11
172.282869
 21
278.363908
  0
LINE
  8
CSLAYER1
  6
CONTINUOUS
 62
     6
 10
172.282853
 20
218.363930
 11
142.282701
 21
218.887592
  0
LINE
  8
CSLAYER1
  6
CONTINUOUS
 62
     6
 10
141.282853
 20
219.905045
 11
142.282701
 21
218.887592
  0
LINE
  8
CSLAYER1
  6
CONTINUOUS
 62
     6
 10
142.282701
 20
277.840254
 11
141.282853
 21
276.822802
  0
LINE
  8
CSLAYER1
  6
CONTINUOUS
 62
     6
 10
239.282853
 20
279.363917
 11
239.282853
 21
217.363917
  0
LINE
  8
CSLAYER1
  6
CONTINUOUS
 62
     6
 10
239.282853
 20
278.363906
 11
240.282853
 21
278.363906
  0
LINE
  8
CSLAYER1
  6
CONTINUOUS
 62
     6
 10
239.282853
 20
218.363906
 11
240.282853
 21
218.363906
  0
LINE
  8
CSLAYER1
  6
CENTER
 62
     3
 10
233.693068
 20
274.363913
 11
251.282846
 21
274.363912
  0
LINE
  8
CSLAYER1
  6
CENTER
 62
     3
 10
233.693063
 20
222.363913
 11
251.282841
 21
222.363912
  0
ARC
  8
CSLAYER1
  6
CONTINUOUS
 62
     6
 10
239.407851
 20
225.863913
 40
0.125000
 50
89.999932
 51
179.999983
  0
ARC
  8
CSLAYER1
  6
CONTINUOUS
 62
     6
 10
239.407849
 20
218.863913
 40
0.125000
 50
179.999996
 51
269.999978
  0
ARC
  8
CSLAYER1
  6
CONTINUOUS
 62
     6
 10
240.157851
 20
225.863913
 40
0.125000
 50
-0.000022
 51
89.999932
  0
ARC
  8
CSLAYER1
  6
CONTINUOUS
 62
     6
 10
240.157849
 20
218.863913
 40
0.125000
 50
269.999978
 51
359.942641
  0
LINE
  8
CSLAYER1
  6
CONTINUOUS
 62
     6
 10
239.407851
 20
225.988913
 11
240.157851
 21
225.988913
  0
LINE
  8
CSLAYER1
  6
CONTINUOUS
 62
     6
 10
239.407849
 20
218.738913
 11
240.157849
 21
218.738913
  0
LINE
  8
CSLAYER1
  6
CONTINUOUS
 62
     6
 10
239.000197
 20
225.862936
 11
238.181441
 21
225.792380
  0
ARC
  8
CSLAYER1
  6
CONTINUOUS
 62
     6
 10
238.294722
 20
224.516013
 40
1.290623
 50
95.000068
 51
163.742766
  0
ARC
  8
CSLAYER1
  6
CONTINUOUS
 62
     6
 10
239.022841
 20
225.607687
 40
0.258129
 50
-0.000022
 51
94.999685
  0
LINE
  8
CSLAYER1
  6
CONTINUOUS
 62
     6
 10
239.000196
 20
218.864889
 11
238.181440
 21
218.935446
  0
ARC
  8
CSLAYER1
  6
CONTINUOUS
 62
     6
 10
238.294721
 20
220.211813
 40
1.290623
 50
196.257158
 51
264.999897
  0
ARC
  8
CSLAYER1
  6
CONTINUOUS
 62
     6
 10
239.022840
 20
219.120138
 40
0.258129
 50
265.000225
 51
359.942641
  0
ARC
  8
CSLAYER1
  6
CONTINUOUS
 62
     6
 10
245.782850
 20
222.363911
 40
9.089782
 50
163.965389
 51
196.029030
  0
LINE
  8
CSLAYER1
  6
CONTINUOUS
 62
     6
 10
240.282820
 20
223.108786
 11
239.282820
 21
222.553976
  0
LINE
  8
CSLAYER1
  6
CONTINUOUS
 62
     6
 10
240.282820
 20
222.483786
 11
239.282820
 21
221.928976
  0
ARC
  8
CSLAYER1
  6
CONTINUOUS
 62
     6
 10
239.407851
 20
277.863913
 40
0.125000
 50
89.999932
 51
179.999983
  0
ARC
  8
CSLAYER1
  6
CONTINUOUS
 62
     6
 10
239.407849
 20
270.863913
 40
0.125000
 50
179.999996
 51
269.999978
  0
ARC
  8
CSLAYER1
  6
CONTINUOUS
 62
     6
 10
240.157851
 20
277.863913
 40
0.125000
 50
-0.000022
 51
89.999932
  0
ARC
  8
CSLAYER1
  6
CONTINUOUS
 62
     6
 10
240.157849
 20
270.863913
 40
0.125000
 50
269.999978
 51
359.942641
  0
LINE
  8
CSLAYER1
  6
CONTINUOUS
 62
     6
 10
239.407851
 20
277.988913
 11
240.157851
 21
277.988913
  0
LINE
  8
CSLAYER1
  6
CONTINUOUS
 62
     6
 10
239.407849
 20
270.738913
 11
240.157849
 21
270.738913
  0
LINE
  8
CSLAYER1
  6
CONTINUOUS
 62
     6
 10
239.000197
 20
277.862936
 11
238.181441
 21
277.792380
  0
ARC
  8
CSLAYER1
  6
CONTINUOUS
 62
     6
 10
238.294722
 20
276.516013
 40
1.290623
 50
95.000068
 51
163.742766
  0
ARC
  8
CSLAYER1
  6
CONTINUOUS
 62
     6
 10
239.022841
 20
277.607687
 40
0.258129
 50
-0.000022
 51
94.999685
  0
LINE
  8
CSLAYER1
  6
CONTINUOUS
 62
     6
 10
239.000196
 20
270.864889
 11
238.181440
 21
270.935446
  0
ARC
  8
CSLAYER1
  6
CONTINUOUS
 62
     6
 10
238.294721
 20
272.211813
 40
1.290623
 50
196.257158
 51
264.999897
  0
ARC
  8
CSLAYER1
  6
CONTINUOUS
 62
     6
 10
239.022840
 20
271.120138
 40
0.258129
 50
265.000225
 51
359.942641
  0
ARC
  8
CSLAYER1
  6
CONTINUOUS
 62
     6
 10
245.782850
 20
274.363911
 40
9.089782
 50
163.965389
 51
196.029030
  0
LINE
  8
CSLAYER1
  6
CONTINUOUS
 62
     6
 10
240.282820
 20
275.108786
 11
239.282820
 21
274.553976
  0
LINE
  8
CSLAYER1
  6
CONTINUOUS
 62
     6
 10
240.282820
 20
274.483786
 11
239.282820
 21
273.928976
  0
LINE
  8
CSLAYER1
  6
CONTINUOUS
 62
     6
 10
285.282850
 20
218.363907
 11
285.282850
 21
278.363908
  0
LINE
  8
CSLAYER1
  6
CONTINUOUS
 62
     6
 10
248.282850
 20
280.363912
 11
283.282850
 21
280.363908
  0
ARC
  8
CSLAYER1
  6
CONTINUOUS
 62
     6
 10
283.282850
 20
278.363908
 40
2.000000
 50
0.000000
 51
89.999994
  0
LINE
  8
CSLAYER1
  6
CONTINUOUS
 62
     6
 10
248.282843
 20
216.363912
 11
283.282843
 21
216.363908
  0
ARC
  8
CSLAYER1
  6
CONTINUOUS
 62
     6
 10
283.282844
 20
218.363908
 40
2.000000
 50
269.999994
 51
359.999988
  0
LINE
  8
CSLAYER1
  6
CONTINUOUS
 62
     6
 10
248.282850
 20
216.363893
 11
248.282850
 21
280.363924
  0
LINE
  8
CSLAYER1
  6
CONTINUOUS
 62
     6
 10
240.282850
 20
278.363924
 11
239.282850
 21
278.363924
  0
ARC
  8
CSLAYER1
  6
CONTINUOUS
 62
     6
 10
242.282850
 20
278.363924
 40
2.000000
 50
90.000003
 51
179.999991
  0
LINE
  8
CSLAYER1
  6
CONTINUOUS
 62
     6
 10
248.282850
 20
280.363924
 11
242.282850
 21
280.363924
  0
ARC
  8
CSLAYER1
  6
CONTINUOUS
 62
     6
 10
242.282850
 20
218.363893
 40
2.000000
 50
180.000005
 51
269.999973
  0
LINE
  8
CSLAYER1
  6
CONTINUOUS
 62
     6
 10
248.282850
 20
216.363893
 11
242.282850
 21
216.363893
  0
LINE
  8
CSLAYER1
  6
CONTINUOUS
 62
     6
 10
240.282850
 20
278.363924
 11
240.282850
 21
218.363893
  0
LINE
  8
CSLAYER1
  6
CONTINUOUS
 62
     6
 10
260.782853
 20
201.363915
 11
269.782853
 21
201.363916
  0
LINE
  8
CSLAYER1
  6
CONTINUOUS
 62
     6
 10
270.282853
 20
216.363916
 11
270.282853
 21
201.863916
  0
LINE
  8
CSLAYER1
  6
CONTINUOUS
 62
     6
 10
260.282853
 20
216.363915
 11
260.282853
 21
201.863915
  0
LINE
  8
CSLAYER1
  6
CONTINUOUS
 62
     6
 10
260.782853
 20
201.363915
 11
260.282853
 21
201.863915
  0
LINE
  8
CSLAYER1
  6
CONTINUOUS
 62
     6
 10
269.782853
 20
201.363916
 11
270.282853
 21
201.863916
  0
LINE
  8
CSLAYER1
  6
CONTINUOUS
 62
     6
 10
260.282853
 20
201.863915
 11
270.282853
 21
201.863916
  0
LINE
  8
CSLAYER1
  6
CENTER
 62
     3
 10
265.282853
 20
198.363916
 11
265.282853
 21
283.363916
  0
LINE
  8
CSLAYER1
  6
CONTINUOUS
 62
     6
 10
240.282853
 20
183.699721
 11
239.282853
 21
183.699721
  0
LINE
  8
CSLAYER1
  6
CONTINUOUS
 62
     6
 10
240.282853
 20
123.699721
 11
239.282853
 21
123.699721
  0
ARC
  8
CSLAYER1
  6
CONTINUOUS
 62
     6
 10
242.282853
 20
123.699721
 40
2.000000
 50
180.000009
 51
269.999997
  0
LINE
  8
CSLAYER1
  6
CONTINUOUS
 62
     6
 10
239.282853
 20
122.699721
 11
239.282853
 21
184.699721
  0
LINE
  8
CSLAYER1
  6
CONTINUOUS
 62
     6
 10
248.282853
 20
121.699721
 11
242.282853
 21
121.699721
  0
LINE
  8
CSLAYER1
  6
CONTINUOUS
 62
     6
 10
240.282853
 20
123.699721
 11
240.282853
 21
183.699722
  0
LINE
  8
CSLAYER1
  6
CENTER
 62
     3
 10
233.693084
 20
179.699736
 11
251.282853
 21
179.699736
  0
LINE
  8
CSLAYER1
  6
CONTINUOUS
 62
     6
 10
172.282853
 20
122.699721
 11
172.282853
 21
184.699721
  0
LINE
  8
CSLAYER1
  6
CENTER
 62
     3
 10
161.282851
 20
166.699726
 11
161.282865
 21
102.317132
  0
CIRCLE
  8
CSLAYER1
  6
CONTINUOUS
 62
     6
 10
161.282853
 20
153.699721
 40
8.000000
  0
CIRCLE
  8
CSLAYER1
  6
CONTINUOUS
 62
     6
 10
161.282853
 20
153.699721
 40
6.000000
  0
CIRCLE
  8
CSLAYER1
  6
CONTINUOUS
 62
     3
 10
161.282853
 20
153.699721
 40
5.500000
  0
LINE
  8
CSLAYER1
  6
CONTINUOUS
 62
     6
 10
164.032853
 20
152.899718
 11
158.532853
 21
152.899718
  0
LINE
  8
CSLAYER1
  6
CONTINUOUS
 62
     6
 10
164.032853
 20
154.499724
 11
158.532853
 21
154.499724
  0
LINE
  8
CSLAYER1
  6
CONTINUOUS
 62
     6
 10
158.532853
 20
152.899718
 11
158.532853
 21
154.499724
  0
LINE
  8
CSLAYER1
  6
CONTINUOUS
 62
     6
 10
164.032853
 20
152.899718
 11
164.032853
 21
154.499724
  0
LINE
  8
CSLAYER1
  6
CONTINUOUS
 62
     6
 10
141.282853
 20
182.176054
 11
141.282853
 21
125.223387
  0
LINE
  8
CSLAYER1
  6
CONTINUOUS
 62
     6
 10
142.282853
 20
183.176054
 11
142.282853
 21
124.223387
  0
LINE
  8
CSLAYER1
  6
CONTINUOUS
 62
     6
 10
142.282853
 20
124.223387
 11
172.282869
 21
123.699736
  0
LINE
  8
CSLAYER1
  6
CONTINUOUS
 62
     6
 10
142.282853
 20
124.223387
 11
141.282853
 21
125.223387
  0
LINE
  8
CSLAYER1
  6
CONTINUOUS
 62
     6
 10
142.282853
 20
183.176054
 11
172.282869
 21
183.699706
  0
LINE
  8
CSLAYER1
  6
CONTINUOUS
 62
     6
 10
142.282853
 20
183.176054
 11
141.282853
 21
182.176054
  0
ARC
  8
CSLAYER1
  6
CONTINUOUS
 62
     6
 10
146.624018
 20
112.452977
 40
15.758816
 50
332.536214
 51
359.942704
  0
ARC
  8
CSLAYER1
  6
CONTINUOUS
 62
     6
 10
146.624018
 20
112.452977
 40
13.558834
 50
332.536214
 51
359.942704
  0
ARC
  8
CSLAYER1
  6
CONTINUOUS
 62
     6
 10
161.832850
 20
111.500390
 40
1.099999
 50
60.000362
 51
120.000357
  0
ARC
  8
CSLAYER1
  6
CONTINUOUS
 62
     6
 10
160.732852
 20
111.500374
 40
1.099999
 50
60.000362
 51
120.000357
  0
ARC
  8
CSLAYER1
  6
CONTINUOUS
 62
     6
 10
160.732844
 20
113.405632
 40
1.099999
 50
240.000374
 51
300.000362
  0
LINE
  8
CSLAYER1
  6
CONTINUOUS
 62
     6
 10
159.312420
 20
105.858025
 11
157.695264
 21
102.919952
  0
LINE
  8
CSLAYER1
  6
CONTINUOUS
 62
     6
 10
159.801342
 20
105.603890
 11
158.224561
 21
102.596474
  0
LINE
  8
CSLAYER1
  6
CONTINUOUS
 62
     6
 10
160.199475
 20
105.396935
 11
158.797986
 21
102.317131
  0
LINE
  8
CSLAYER1
  6
CONTINUOUS
 62
     6
 10
158.654797
 20
106.199821
 11
160.606854
 21
105.185204
  0
ARC
  8
CSLAYER1
  6
CONTINUOUS
 62
     6
 10
175.941706
 20
112.452984
 40
15.758816
 50
202.422080
 51
207.463880
  0
ARC
  8
CSLAYER1
  6
CONTINUOUS
 62
     6
 10
175.941706
 20
112.452984
 40
13.558834
 50
179.999990
 51
207.463880
  0
LINE
  8
CSLAYER1
  6
CONTINUOUS
 62
     6
 10
163.253308
 20
105.857995
 11
164.870480
 21
102.919938
  0
LINE
  8
CSLAYER1
  6
CONTINUOUS
 62
     6
 10
162.764385
 20
105.603875
 11
164.341168
 21
102.596475
  0
LINE
  8
CSLAYER1
  6
CONTINUOUS
 62
     6
 10
162.366253
 20
105.396935
 11
163.767758
 21
102.317117
  0
LINE
  8
CSLAYER1
  6
CONTINUOUS
 62
     6
 10
163.910931
 20
106.199807
 11
161.958874
 21
105.185189
  0
ARC
  8
CSLAYER1
  6
CONTINUOUS
 62
     6
 10
160.732874
 20
116.317849
 40
1.100006
 50
240.000019
 51
300.000007
  0
ARC
  8
CSLAYER1
  6
CONTINUOUS
 62
     6
 10
161.832880
 20
116.317849
 40
1.100006
 50
240.000019
 51
300.000007
  0
ARC
  8
CSLAYER1
  6
CONTINUOUS
 62
     6
 10
161.832880
 20
114.412575
 40
1.100006
 50
60.000014
 51
120.000016
  0
LINE
  8
CSLAYER1
  6
CONTINUOUS
 62
     6
 10
162.382866
 20
123.872532
 11
162.382868
 21
115.365212
  0
LINE
  8
CSLAYER1
  6
CONTINUOUS
 62
     6
 10
160.182869
 20
123.910938
 11
160.182871
 21
115.365212
  0
LINE
  8
CSLAYER1
  6
CONTINUOUS
 62
     6
 10
239.282853
 20
122.699721
 11
172.282853
 21
122.699721
  0
LINE
  8
CSLAYER1
  6
CONTINUOUS
 62
     6
 10
239.282853
 20
184.699721
 11
172.282853
 21
184.699721
  0
LINE
  8
CSLAYER1
  6
CENTER
 62
     3
 10
138.282861
 20
153.699721
 11
290.282853
 21
153.699737
  0
LINE
  8
CSLAYER1
  6
CENTER
 62
     3
 10
233.693084
 20
127.699725
 11
251.282853
 21
127.699727
  0
LINE
  8
CSLAYER1
  6
CONTINUOUS
 62
     6
 10
240.282838
 20
123.699705
 11
239.282838
 21
123.699705
  0
LINE
  8
CSLAYER1
  6
CONTINUOUS
 62
     6
 10
240.282853
 20
123.699710
 11
239.282853
 21
123.699710
  0
ARC
  8
CSLAYER1
  6
CONTINUOUS
 62
     6
 10
239.407853
 20
131.199721
 40
0.125000
 50
89.999945
 51
179.999995
  0
ARC
  8
CSLAYER1
  6
CONTINUOUS
 62
     6
 10
239.407853
 20
124.199721
 40
0.125000
 50
180.000009
 51
269.999991
  0
ARC
  8
CSLAYER1
  6
CONTINUOUS
 62
     6
 10
240.157853
 20
131.199721
 40
0.125000
 50
-0.000010
 51
89.999945
  0
ARC
  8
CSLAYER1
  6
CONTINUOUS
 62
     6
 10
240.157853
 20
124.199721
 40
0.125000
 50
269.999991
 51
359.942654
  0
LINE
  8
CSLAYER1
  6
CONTINUOUS
 62
     6
 10
239.407853
 20
131.324721
 11
240.157853
 21
131.324721
  0
LINE
  8
CSLAYER1
  6
CONTINUOUS
 62
     6
 10
239.407853
 20
124.074721
 11
240.157853
 21
124.074721
  0
LINE
  8
CSLAYER1
  6
CONTINUOUS
 62
     6
 10
239.000200
 20
131.198745
 11
238.181444
 21
131.128188
  0
ARC
  8
CSLAYER1
  6
CONTINUOUS
 62
     6
 10
238.294725
 20
129.851821
 40
1.290623
 50
95.000080
 51
163.742779
  0
ARC
  8
CSLAYER1
  6
CONTINUOUS
 62
     6
 10
239.022844
 20
130.943496
 40
0.258129
 50
-0.000010
 51
94.999698
  0
LINE
  8
CSLAYER1
  6
CONTINUOUS
 62
     6
 10
239.000200
 20
124.200698
 11
238.181444
 21
124.271254
  0
ARC
  8
CSLAYER1
  6
CONTINUOUS
 62
     6
 10
238.294725
 20
125.547622
 40
1.290623
 50
196.257170
 51
264.999910
  0
ARC
  8
CSLAYER1
  6
CONTINUOUS
 62
     6
 10
239.022844
 20
124.455947
 40
0.258129
 50
265.000238
 51
359.942654
  0
ARC
  8
CSLAYER1
  6
CONTINUOUS
 62
     6
 10
245.782853
 20
127.699721
 40
9.089782
 50
163.965402
 51
196.029042
  0
LINE
  8
CSLAYER1
  6
CONTINUOUS
 62
     6
 10
240.282823
 20
128.444605
 11
239.282823
 21
127.889795
  0
LINE
  8
CSLAYER1
  6
CONTINUOUS
 62
     6
 10
240.282823
 20
127.819605
 11
239.282823
 21
127.264795
  0
ARC
  8
CSLAYER1
  6
CONTINUOUS
 62
     6
 10
239.407853
 20
183.199721
 40
0.125000
 50
89.999945
 51
179.999995
  0
ARC
  8
CSLAYER1
  6
CONTINUOUS
 62
     6
 10
239.407853
 20
176.199721
 40
0.125000
 50
180.000009
 51
269.999991
  0
ARC
  8
CSLAYER1
  6
CONTINUOUS
 62
     6
 10
240.157853
 20
183.199721
 40
0.125000
 50
-0.000010
 51
89.999945
  0
ARC
  8
CSLAYER1
  6
CONTINUOUS
 62
     6
 10
240.157853
 20
176.199721
 40
0.125000
 50
269.999991
 51
359.942654
  0
LINE
  8
CSLAYER1
  6
CONTINUOUS
 62
     6
 10
239.407853
 20
183.324721
 11
240.157853
 21
183.324721
  0
LINE
  8
CSLAYER1
  6
CONTINUOUS
 62
     6
 10
239.407853
 20
176.074721
 11
240.157853
 21
176.074721
  0
LINE
  8
CSLAYER1
  6
CONTINUOUS
 62
     6
 10
239.000200
 20
183.198745
 11
238.181444
 21
183.128188
  0
ARC
  8
CSLAYER1
  6
CONTINUOUS
 62
     6
 10
238.294725
 20
181.851821
 40
1.290623
 50
95.000080
 51
163.742779
  0
ARC
  8
CSLAYER1
  6
CONTINUOUS
 62
     6
 10
239.022844
 20
182.943496
 40
0.258129
 50
-0.000010
 51
94.999698
  0
LINE
  8
CSLAYER1
  6
CONTINUOUS
 62
     6
 10
239.000200
 20
176.200698
 11
238.181444
 21
176.271254
  0
ARC
  8
CSLAYER1
  6
CONTINUOUS
 62
     6
 10
238.294725
 20
177.547622
 40
1.290623
 50
196.257170
 51
264.999910
  0
ARC
  8
CSLAYER1
  6
CONTINUOUS
 62
     6
 10
239.022844
 20
176.455947
 40
0.258129
 50
265.000238
 51
359.942654
  0
ARC
  8
CSLAYER1
  6
CONTINUOUS
 62
     6
 10
245.782853
 20
179.699721
 40
9.089782
 50
163.965402
 51
196.029042
  0
LINE
  8
CSLAYER1
  6
CONTINUOUS
 62
     6
 10
240.282823
 20
180.444624
 11
239.282823
 21
179.889814
  0
LINE
  8
CSLAYER1
  6
CONTINUOUS
 62
     6
 10
240.282823
 20
179.819624
 11
239.282823
 21
179.264814
  0
LINE
  8
CSLAYER1
  6
CONTINUOUS
 62
     6
 10
242.282854
 20
185.699722
 11
248.282853
 21
185.699721
  0
ARC
  8
CSLAYER1
  6
CONTINUOUS
 62
     6
 10
242.282853
 20
183.699722
 40
2.000000
 50
89.999994
 51
180.000000
  0
LINE
  8
CSLAYER1
  6
CONTINUOUS
 62
     6
 10
248.282853
 20
188.699733
 11
248.282853
 21
121.699720
  0
LINE
  8
CSLAYER1
  6
CONTINUOUS
 62
     6
 10
285.282853
 20
187.199737
 11
285.282853
 21
123.699724
  0
LINE
  8
CSLAYER1
  6
CONTINUOUS
 62
     6
 10
248.282853
 20
121.699721
 11
283.282854
 21
121.699724
  0
ARC
  8
CSLAYER1
  6
CONTINUOUS
 62
     6
 10
283.282853
 20
123.699724
 40
2.000000
 50
270.000006
 51
360.000000
  0
ARC
  8
CSLAYER1
  6
CONTINUOUS
 62
     6
 10
283.282847
 20
187.199736
 40
2.000000
 50
0.000012
 51
48.587056
  0
CIRCLE
  8
CSLAYER1
  6
CONTINUOUS
 62
     6
 10
265.282850
 20
168.149749
 40
12.700000
  0
CIRCLE
  8
CSLAYER1
  6
CONTINUOUS
 62
     6
 10
265.282850
 20
168.149749
 40
5.000000
  0
LINE
  8
CSLAYER1
  6
CENTER
 62
     3
 10
280.982857
 20
139.249738
 11
249.582857
 21
139.249731
  0
LINE
  8
CSLAYER1
  6
CENTER
 62
     3
 10
280.982850
 20
168.149752
 11
249.582850
 21
168.149745
  0
LINE
  8
CSLAYER1
  6
CENTER
 62
     3
 10
265.282853
 20
192.199658
 11
265.282853
 21
118.699723
  0
CIRCLE
  8
CSLAYER1
  6
CONTINUOUS
 62
     6
 10
265.282850
 20
168.149749
 40
4.500000
  0
CIRCLE
  8
CSLAYER1
  6
CONTINUOUS
 62
     6
 10
265.282857
 20
139.299749
 40
12.700000
  0
LINE
  8
CSLAYER1
  6
CONTINUOUS
 62
     6
 10
248.282853
 20
188.699733
 11
284.605723
 21
188.699736
  0
LINE
  8
CSLAYER1
  6
CONTINUOUS
 62
     3
 10
187.150248
 20
184.699731
 11
187.150251
 21
170.199701
  0
LINE
  8
CSLAYER1
  6
CONTINUOUS
 62
     3
 10
188.150251
 20
169.199701
 11
224.150236
 21
169.199709
  0
LINE
  8
CSLAYER1
  6
CONTINUOUS
 62
     3
 10
225.150236
 20
170.199709
 11
225.150233
 21
184.699740
  0
ARC
  8
CSLAYER1
  6
CONTINUOUS
 62
     3
 10
188.150251
 20
170.199701
 40
1.000000
 50
180.000017
 51
270.000013
  0
ARC
  8
CSLAYER1
  6
CONTINUOUS
 62
     3
 10
224.150236
 20
170.199709
 40
1.000000
 50
270.000013
 51
359.942704
  0
CIRCLE
  8
CSLAYER1
  6
CONTINUOUS
 62
     6
 10
270.779514
 20
158.602113
 40
1.154544
  0
ARC
  8
CSLAYER1
  6
CONTINUOUS
 62
     6
 10
270.779514
 20
158.602113
 40
2.474351
 50
50.235863
 51
203.481562
  0
LINE
  8
CSLAYER1
  6
CONTINUOUS
 62
     6
 10
268.510067
 20
157.616204
 11
269.003120
 21
156.006886
  0
CIRCLE
  8
CSLAYER1
  6
CONTINUOUS
 62
     6
 10
259.786183
 20
158.602111
 40
1.154544
  0
ARC
  8
CSLAYER1
  6
CONTINUOUS
 62
     6
 10
259.786183
 20
158.602111
 40
2.474351
 50
-23.481534
 51
129.764164
  0
LINE
  8
CSLAYER1
  6
CONTINUOUS
 62
     6
 10
262.055628
 20
157.616203
 11
261.562576
 21
156.006884
  0
ARC
  8
CSLAYER1
  6
CONTINUOUS
 62
     6
 10
265.282850
 20
167.478239
 40
11.062396
 50
-37.903054
 51
217.903064
  0
ARC
  8
CSLAYER1
  6
CONTINUOUS
 62
     6
 10
273.100649
 20
161.391595
 40
1.154544
 50
230.236342
 51
322.096602
  0
ARC
  8
CSLAYER1
  6
CONTINUOUS
 62
     6
 10
257.465044
 20
161.391592
 40
1.154544
 50
217.903425
 51
309.763743
  0
CIRCLE
  8
CSLAYER1
  6
CONTINUOUS
 62
     6
 10
270.779520
 20
129.702099
 40
1.154544
  0
ARC
  8
CSLAYER1
  6
CONTINUOUS
 62
     6
 10
270.779520
 20
129.702099
 40
2.474351
 50
50.235863
 51
203.481562
  0
LINE
  8
CSLAYER1
  6
CONTINUOUS
 62
     6
 10
268.510074
 20
128.716190
 11
269.003126
 21
127.106872
  0
CIRCLE
  8
CSLAYER1
  6
CONTINUOUS
 62
     6
 10
259.786189
 20
129.702097
 40
1.154544
  0
ARC
  8
CSLAYER1
  6
CONTINUOUS
 62
     6
 10
259.786189
 20
129.702097
 40
2.474351
 50
-23.481534
 51
129.764164
  0
LINE
  8
CSLAYER1
  6
CONTINUOUS
 62
     6
 10
262.055634
 20
128.716189
 11
261.562582
 21
127.106870
  0
ARC
  8
CSLAYER1
  6
CONTINUOUS
 62
     6
 10
265.282857
 20
138.578225
 40
11.062396
 50
-37.903054
 51
217.903064
  0
ARC
  8
CSLAYER1
  6
CONTINUOUS
 62
     6
 10
273.100655
 20
132.491581
 40
1.154544
 50
230.236342
 51
322.096602
  0
ARC
  8
CSLAYER1
  6
CONTINUOUS
 62
     6
 10
257.465050
 20
132.491578
 40
1.154544
 50
217.903425
 51
309.763743
  0
TEXT
  8
CSLAYER1
 62
     3
 10
204.929169
 20
182.199722
 40
3.500000
 41
1.125000
  1
N P
 50
270.000000
 51
10.000000
  7
JX_FONT
 72
     5
 11
204.929169
 21
171.699722
  0
LINE
  8
CSLAYER1
  6
CENTER
 62
     3
 10
254.282850
 20
118.699724
 11
254.282850
 21
126.699724
  0
LINE
  8
CSLAYER1
  6
CENTER
 62
     3
 10
279.282850
 20
118.699721
 11
279.282850
 21
126.699724
  0
ENDSEC
  0
EOF
