  0
SECTION
  2
HEADER
  9
$ACADVER
  1
AC1006
  9
$INSBASE
 10
0.000000
 20
0.000000
 30
0.0
  9
$EXTMIN
 10
0.000000
 20
0.000000
  9
$EXTMAX
 10
420.000000
 20
297.000000
  9
$LIMMIN
 10
0.000000
 20
0.000000
  9
$LIMMAX
 10
420.000000
 20
297.000000
  9
$VIEWCTR
 10
210.000000
 20
148.500000
  9
$VIEWSIZE
 40
297.000000
  9
$SNAPMODE
 70
     0
  9
$SNAPUNIT
 10
1.0
 20
1.0
  9
$SNAPBASE
 10
0.0
 20
0.0
  9
$SNAPANG
 50
0.0
  9
$SNAPSTYLE
 70
     0
  9
$SNAPISOPAIR
 70
     0
  9
$GRIDMODE
 70
     0
  9
$GRIDUNIT
 10
0.0
 20
0.0
  9
$ORTHOMODE
 70
     0
  9
$REGENMODE
 70
     1
  9
$FILLMODE
 70
     1
  9
$QTEXTMODE
 70
     0
  9
$DRAGMODE
 70
     2
  9
$LTSCALE
 40
15.000000
  9
$OSMODE
 70
     0
  9
$ATTMODE
 70
     1
  9
$TEXTSIZE
 40
0.2
  9
$TRACEWID
 40
0.05
  9
$TEXTSTYLE
  7
STANDARD
  9
$CLAYER
  8
CSLAYER1
  9
$CELTYPE
  6
BYLAYER
  9
$CECOLOR
 62
   256
  9
$DIMSCALE
 40
1.0
  9
$DIMASZ
 40
0.18
  9
$DIMEXO
 40
0.0625
  9
$DIMDLI
 40
0.38
  9
$DIMRND
 40
0.0
  9
$DIMDLE
 40
0.0
  9
$DIMEXE
 40
0.18
  9
$DIMTP
 40
0.0
  9
$DIMTM
 40
0.0
  9
$DIMTXT
 40
0.18
  9
$DIMCEN
 40
0.09
  9
$DIMTSZ
 40
0.0
  9
$DIMTOL
 70
     0
  9
$DIMLIM
 70
     0
  9
$DIMTIH
 70
     1
  9
$DIMTOH
 70
     1
  9
$DIMSE1
 70
     0
  9
$DIMSE2
 70
     0
  9
$DIMTAD
 70
     0
  9
$DIMZIN
 70
     0
  9
$DIMBLK
  1

  9
$LUNITS
 70
     2
  9
$LUPREC
 70
     4
  9
$AXISMODE
 70
     0
  9
$AXISUNIT
 10
0.0
 20
0.0
  9
$SKETCHINC
 40
0.1
  9
$FILLETRAD
 40
0.0
  9
$AUNITS
 70
     0
  9
$AUPREC
 70
     0
  9
$MENU
  1
ACAD
  9
$ELEVATION
 40
0.0
  9
$THICKNESS
 40
0.0
  9
$VIEWDIR
 10
0.0
 20
0.0
 30
1.0
  9
$LIMCHECK
 70
     0
  9
$BLIPMODE
 70
     1
  9
$CHAMFERA
 40
0.0
  9
$CHAMFERB
 40
0.0
  9
$FASTZOOM
 70
     1
  9
$SKPOLY
 70
     0
  9
$TDCREATE
 40
0.000000
  9
$TDUPDATE
 40
0.000000
  9
$TDINDWG
 40
0.0
  9
$TDUSRTIMER
 40
0.0
  9
$USRTIMER
 70
     1
  9
$ANGBASE
 50
0.0
  9
$ANGDIR
 70
     0
  9
$PDMODE
 70
     0
  9
$PDSIZE
 40
0.0
  9
$PLINEWID
 40
0.0
  9
$COORDS
 70
     0
  9
$USERI1
 70
     0
  9
$USERI2
 70
     0
  9
$USERI3
 70
     0
  9
$USERI4
 70
     0
  9
$USERI5
 70
     0
  9
$USERR1
 40
0.0
  9
$USERR2
 40
0.0
  9
$USERR3
 40
0.0
  9
$USERR4
 40
0.0
  9
$USERR5
 40
0.0
  0
ENDSEC
  0
SECTION
  2
TABLES
  0
TABLE
  2
LTYPE
 70
     9
  0
LTYPE
  2
CONTINUOUS
 70
    64
  3
Solid line
 72
    65
 73
     0
 40
0.0
  0
LTYPE
  2
DASHED
 70
    64
  3
__ __ __ __ __ __ __ __ __ __ __ __ __ __ __
 72
    65
 73
     2
 40
0.75
 49
0.5
 49
-0.25
  0
LTYPE
  2
HIDDEN
 70
    64
  3
_ _ _ _ _ _ _ _ _ _ _ _ _ _ _ _ _ _ _ _ _ _ _
 72
    65
 73
     2
 40
0.375
 49
0.25
 49
-0.125
  0
LTYPE
  2
DOT
 70
    64
  3
...............................................
 72
    65
 73
     2
 40
0.25
 49
0.0
 49
-0.25
  0
LTYPE
  2
DASHDOT
 70
    64
  3
__ . __ . __ . __ . __ . __ . __ . __ . __ . __
 72
    65
 73
     4
 40
1.0
 49
0.5
 49
-0.25
 49
0.0
 49
-0.25
  0
LTYPE
  2
DIVIDE
 70
    64
  3
__ . . __ . . __ . . __ . . __ . . __ . . __
 72
    65
 73
     6
 40
1.25
 49
0.5
 49
-0.25
 49
0.0
 49
-0.25
 49
0.0
 49
-0.25
  0
LTYPE
  2
CENTER
 70
    64
  3
____ _ ____ _ ____ _ ____ _ ____ _ ____ _ ____ 
 72
    65
 73
     4
 40
2.0
 49
1.25
 49
-0.25
 49
0.25
 49
-0.25
  0
LTYPE
  2
PHANTOM
 70
    64
  3
______  __  __  ______  __  __  ______  __  __ 
 72
    65
 73
     6
 40
2.5
 49
1.25
 49
-0.25
 49
0.25
 49
-0.25
 49
0.25
 49
-0.25
  0
LTYPE
  2
BORDER
 70
    64
  3
__ __ . __ __ . __ __ . __ __ . __ __ . __ __ .
 72
    65
 73
     6
 40
1.75
 49
0.5
 49
-0.25
 49
0.5
 49
-0.25
 49
0.0
 49
-0.25
  0
ENDTAB
  0
TABLE
  2
LAYER
 70
    16
  0
LAYER
  2
CSLAYER1
 70
    64
 62
     7
  6
CONTINUOUS
  0
LAYER
  2
CSLAYER2
 70
    64
 62
     7
  6
CONTINUOUS
  0
LAYER
  2
CSLAYER3
 70
    64
 62
     7
  6
CONTINUOUS
  0
LAYER
  2
CSLAYER4
 70
    64
 62
     7
  6
CONTINUOUS
  0
LAYER
  2
CSLAYER5
 70
    64
 62
     7
  6
CONTINUOUS
  0
LAYER
  2
CSLAYER6
 70
    64
 62
     7
  6
CONTINUOUS
  0
LAYER
  2
CSLAYER7
 70
    64
 62
     7
  6
CONTINUOUS
  0
LAYER
  2
CSLAYER8
 70
    64
 62
     7
  6
CONTINUOUS
  0
LAYER
  2
CSLAYER9
 70
    64
 62
     7
  6
CONTINUOUS
  0
LAYER
  2
CSLAYER10
 70
    64
 62
     7
  6
CONTINUOUS
  0
LAYER
  2
CSLAYER11
 70
    64
 62
     7
  6
CONTINUOUS
  0
LAYER
  2
CSLAYER12
 70
    64
 62
     7
  6
CONTINUOUS
  0
LAYER
  2
CSLAYER13
 70
    64
 62
     7
  6
CONTINUOUS
  0
LAYER
  2
CSLAYER14
 70
    64
 62
     7
  6
CONTINUOUS
  0
LAYER
  2
CSLAYER15
 70
    64
 62
     7
  6
CONTINUOUS
  0
LAYER
  2
CSLAYER16
 70
    64
 62
     7
  6
CONTINUOUS
  0
ENDTAB
  0
TABLE
  2
STYLE
 70
     1
  0
STYLE
  2
JX_FONT
 70
     0
 40
1.0
 41
1.0
 50
0.0
 71
     0
 42
1.0
  3
monotxt
  4
bigfont
  0
ENDTAB
  0
TABLE
  2
VIEW
 70
     0
  0
ENDTAB
  0
ENDSEC
  0
SECTION
  2
BLOCKS
  0
ENDSEC
  0
SECTION
  2
ENTITIES
  0
LINE
  8
CSLAYER1
  6
CENTER
 62
     3
 10
106.498920
 20
150.176550
 11
36.498920
 21
150.176550
  0
LINE
  8
CSLAYER1
  6
CENTER
 62
     3
 10
71.498920
 20
185.176519
 11
71.498920
 21
98.894466
  0
LINE
  8
CSLAYER1
  6
CONTINUOUS
 62
     6
 10
190.117147
 20
120.176550
 11
191.117147
 21
120.176550
  0
LINE
  8
CSLAYER1
  6
CONTINUOUS
 62
     6
 10
190.117147
 20
180.176550
 11
191.117147
 21
180.176550
  0
ARC
  8
CSLAYER1
  6
CONTINUOUS
 62
     6
 10
188.117147
 20
180.176550
 40
2.000000
 50
0.000009
 51
89.999997
  0
LINE
  8
CSLAYER1
  6
CONTINUOUS
 62
     6
 10
191.117147
 20
181.176550
 11
191.117147
 21
119.176550
  0
LINE
  8
CSLAYER1
  6
CONTINUOUS
 62
     6
 10
182.117147
 20
182.176550
 11
188.117147
 21
182.176550
  0
LINE
  8
CSLAYER1
  6
CONTINUOUS
 62
     6
 10
190.117147
 20
180.176550
 11
190.117147
 21
120.176549
  0
LINE
  8
CSLAYER1
  6
CENTER
 62
     3
 10
196.706916
 20
124.176535
 11
179.117147
 21
124.176535
  0
LINE
  8
CSLAYER1
  6
CONTINUOUS
 62
     6
 10
258.117147
 20
181.176550
 11
258.117147
 21
119.176550
  0
LINE
  8
CSLAYER1
  6
CENTER
 62
     3
 10
269.117147
 20
163.176550
 11
269.117147
 21
98.793956
  0
CIRCLE
  8
CSLAYER1
  6
CONTINUOUS
 62
     6
 10
269.117147
 20
150.176550
 40
8.000000
  0
CIRCLE
  8
CSLAYER1
  6
CONTINUOUS
 62
     6
 10
269.117147
 20
150.176550
 40
6.000000
  0
CIRCLE
  8
CSLAYER1
  6
CONTINUOUS
 62
     3
 10
269.117147
 20
150.176550
 40
5.500000
  0
LINE
  8
CSLAYER1
  6
CONTINUOUS
 62
     6
 10
266.367147
 20
150.976553
 11
271.867147
 21
150.976553
  0
LINE
  8
CSLAYER1
  6
CONTINUOUS
 62
     6
 10
266.367147
 20
149.376547
 11
271.867147
 21
149.376547
  0
LINE
  8
CSLAYER1
  6
CONTINUOUS
 62
     6
 10
271.867147
 20
150.976553
 11
271.867147
 21
149.376547
  0
LINE
  8
CSLAYER1
  6
CONTINUOUS
 62
     6
 10
266.367147
 20
150.976553
 11
266.367147
 21
149.376547
  0
LINE
  8
CSLAYER1
  6
CONTINUOUS
 62
     6
 10
289.117147
 20
121.700216
 11
289.117147
 21
178.652883
  0
LINE
  8
CSLAYER1
  6
CONTINUOUS
 62
     6
 10
288.117147
 20
120.700216
 11
288.117147
 21
179.652883
  0
LINE
  8
CSLAYER1
  6
CONTINUOUS
 62
     6
 10
288.117147
 20
179.652883
 11
258.117131
 21
180.176535
  0
LINE
  8
CSLAYER1
  6
CONTINUOUS
 62
     6
 10
288.117147
 20
179.652883
 11
289.117147
 21
178.652883
  0
LINE
  8
CSLAYER1
  6
CONTINUOUS
 62
     6
 10
288.117147
 20
120.700216
 11
258.117131
 21
120.176565
  0
LINE
  8
CSLAYER1
  6
CONTINUOUS
 62
     6
 10
288.117147
 20
120.700216
 11
289.117147
 21
121.700216
  0
ARC
  8
CSLAYER1
  6
CONTINUOUS
 62
     6
 10
283.775991
 20
108.929805
 40
15.758816
 50
180.057309
 51
207.463798
  0
ARC
  8
CSLAYER1
  6
CONTINUOUS
 62
     6
 10
283.775991
 20
108.929805
 40
13.558834
 50
180.057309
 51
207.463798
  0
ARC
  8
CSLAYER1
  6
CONTINUOUS
 62
     6
 10
268.567159
 20
107.977214
 40
1.099999
 50
59.999655
 51
119.999650
  0
ARC
  8
CSLAYER1
  6
CONTINUOUS
 62
     6
 10
269.667157
 20
107.977198
 40
1.099999
 50
59.999655
 51
119.999650
  0
ARC
  8
CSLAYER1
  6
CONTINUOUS
 62
     6
 10
269.667165
 20
109.882457
 40
1.099999
 50
239.999650
 51
299.999638
  0
LINE
  8
CSLAYER1
  6
CONTINUOUS
 62
     6
 10
271.087590
 20
102.334849
 11
272.704747
 21
99.396777
  0
LINE
  8
CSLAYER1
  6
CONTINUOUS
 62
     6
 10
270.598668
 20
102.080714
 11
272.175450
 21
99.073298
  0
LINE
  8
CSLAYER1
  6
CONTINUOUS
 62
     6
 10
270.200536
 20
101.873759
 11
271.602025
 21
98.793956
  0
LINE
  8
CSLAYER1
  6
CONTINUOUS
 62
     6
 10
271.745214
 20
102.676646
 11
269.793157
 21
101.662028
  0
ARC
  8
CSLAYER1
  6
CONTINUOUS
 62
     6
 10
254.458303
 20
108.929805
 40
15.758816
 50
332.536132
 51
337.577932
  0
ARC
  8
CSLAYER1
  6
CONTINUOUS
 62
     6
 10
254.458303
 20
108.929805
 40
13.558834
 50
-27.463868
 51
0.000022
  0
LINE
  8
CSLAYER1
  6
CONTINUOUS
 62
     6
 10
267.146703
 20
102.334819
 11
265.529531
 21
99.396762
  0
LINE
  8
CSLAYER1
  6
CONTINUOUS
 62
     6
 10
267.635625
 20
102.080699
 11
266.058843
 21
99.073298
  0
LINE
  8
CSLAYER1
  6
CONTINUOUS
 62
     6
 10
268.033757
 20
101.873759
 11
266.632253
 21
98.793940
  0
LINE
  8
CSLAYER1
  6
CONTINUOUS
 62
     6
 10
266.489080
 20
102.676631
 11
268.441136
 21
101.662013
  0
ARC
  8
CSLAYER1
  6
CONTINUOUS
 62
     6
 10
269.667134
 20
112.794673
 40
1.100006
 50
240.000005
 51
299.999993
  0
ARC
  8
CSLAYER1
  6
CONTINUOUS
 62
     6
 10
268.567128
 20
112.794673
 40
1.100006
 50
240.000005
 51
299.999993
  0
ARC
  8
CSLAYER1
  6
CONTINUOUS
 62
     6
 10
268.567128
 20
110.889399
 40
1.100006
 50
59.999997
 51
119.999998
  0
LINE
  8
CSLAYER1
  6
CONTINUOUS
 62
     6
 10
268.017140
 20
120.349356
 11
268.017140
 21
111.842036
  0
LINE
  8
CSLAYER1
  6
CONTINUOUS
 62
     6
 10
270.217137
 20
120.387762
 11
270.217137
 21
111.842036
  0
LINE
  8
CSLAYER1
  6
CONTINUOUS
 62
     6
 10
191.117147
 20
181.176550
 11
258.117147
 21
181.176550
  0
LINE
  8
CSLAYER1
  6
CONTINUOUS
 62
     6
 10
191.117147
 20
119.176550
 11
258.117147
 21
119.176550
  0
LINE
  8
CSLAYER1
  6
CENTER
 62
     3
 10
292.117139
 20
150.176550
 11
140.117147
 21
150.176533
  0
LINE
  8
CSLAYER1
  6
CENTER
 62
     3
 10
196.706916
 20
176.176546
 11
179.117147
 21
176.176543
  0
LINE
  8
CSLAYER1
  6
CONTINUOUS
 62
     6
 10
190.117162
 20
180.176566
 11
191.117162
 21
180.176566
  0
LINE
  8
CSLAYER1
  6
CONTINUOUS
 62
     6
 10
190.117147
 20
180.176561
 11
191.117147
 21
180.176561
  0
ARC
  8
CSLAYER1
  6
CONTINUOUS
 62
     6
 10
190.992147
 20
172.676550
 40
0.125000
 50
269.999945
 51
359.999995
  0
ARC
  8
CSLAYER1
  6
CONTINUOUS
 62
     6
 10
190.992147
 20
179.676550
 40
0.125000
 50
0.000009
 51
89.999991
  0
ARC
  8
CSLAYER1
  6
CONTINUOUS
 62
     6
 10
190.242147
 20
172.676550
 40
0.125000
 50
179.999990
 51
269.999945
  0
ARC
  8
CSLAYER1
  6
CONTINUOUS
 62
     6
 10
190.242147
 20
179.676550
 40
0.125000
 50
89.999991
 51
179.942654
  0
LINE
  8
CSLAYER1
  6
CONTINUOUS
 62
     6
 10
190.992147
 20
172.551550
 11
190.242147
 21
172.551550
  0
LINE
  8
CSLAYER1
  6
CONTINUOUS
 62
     6
 10
190.992147
 20
179.801550
 11
190.242147
 21
179.801550
  0
LINE
  8
CSLAYER1
  6
CONTINUOUS
 62
     6
 10
191.399800
 20
172.677526
 11
192.218556
 21
172.748083
  0
ARC
  8
CSLAYER1
  6
CONTINUOUS
 62
     6
 10
192.105275
 20
174.024450
 40
1.290623
 50
275.000080
 51
343.742779
  0
ARC
  8
CSLAYER1
  6
CONTINUOUS
 62
     6
 10
191.377156
 20
172.932775
 40
0.258129
 50
179.999990
 51
274.999698
  0
LINE
  8
CSLAYER1
  6
CONTINUOUS
 62
     6
 10
191.399800
 20
179.675573
 11
192.218556
 21
179.605016
  0
ARC
  8
CSLAYER1
  6
CONTINUOUS
 62
     6
 10
192.105275
 20
178.328649
 40
1.290623
 50
16.257170
 51
84.999910
  0
ARC
  8
CSLAYER1
  6
CONTINUOUS
 62
     6
 10
191.377156
 20
179.420324
 40
0.258129
 50
85.000238
 51
179.942654
  0
ARC
  8
CSLAYER1
  6
CONTINUOUS
 62
     6
 10
184.617147
 20
176.176550
 40
9.089782
 50
-16.034598
 51
16.029042
  0
LINE
  8
CSLAYER1
  6
CONTINUOUS
 62
     6
 10
190.117177
 20
175.431665
 11
191.117177
 21
175.986475
  0
LINE
  8
CSLAYER1
  6
CONTINUOUS
 62
     6
 10
190.117177
 20
176.056665
 11
191.117177
 21
176.611475
  0
ARC
  8
CSLAYER1
  6
CONTINUOUS
 62
     6
 10
190.992147
 20
120.676550
 40
0.125000
 50
269.999945
 51
359.999995
  0
ARC
  8
CSLAYER1
  6
CONTINUOUS
 62
     6
 10
190.992147
 20
127.676550
 40
0.125000
 50
0.000009
 51
89.999991
  0
ARC
  8
CSLAYER1
  6
CONTINUOUS
 62
     6
 10
190.242147
 20
120.676550
 40
0.125000
 50
179.999990
 51
269.999945
  0
ARC
  8
CSLAYER1
  6
CONTINUOUS
 62
     6
 10
190.242147
 20
127.676550
 40
0.125000
 50
89.999991
 51
179.942654
  0
LINE
  8
CSLAYER1
  6
CONTINUOUS
 62
     6
 10
190.992147
 20
120.551550
 11
190.242147
 21
120.551550
  0
LINE
  8
CSLAYER1
  6
CONTINUOUS
 62
     6
 10
190.992147
 20
127.801550
 11
190.242147
 21
127.801550
  0
LINE
  8
CSLAYER1
  6
CONTINUOUS
 62
     6
 10
191.399800
 20
120.677526
 11
192.218556
 21
120.748083
  0
ARC
  8
CSLAYER1
  6
CONTINUOUS
 62
     6
 10
192.105275
 20
122.024450
 40
1.290623
 50
275.000080
 51
343.742779
  0
ARC
  8
CSLAYER1
  6
CONTINUOUS
 62
     6
 10
191.377156
 20
120.932775
 40
0.258129
 50
179.999990
 51
274.999698
  0
LINE
  8
CSLAYER1
  6
CONTINUOUS
 62
     6
 10
191.399800
 20
127.675573
 11
192.218556
 21
127.605016
  0
ARC
  8
CSLAYER1
  6
CONTINUOUS
 62
     6
 10
192.105275
 20
126.328649
 40
1.290623
 50
16.257170
 51
84.999910
  0
ARC
  8
CSLAYER1
  6
CONTINUOUS
 62
     6
 10
191.377156
 20
127.420324
 40
0.258129
 50
85.000238
 51
179.942654
  0
ARC
  8
CSLAYER1
  6
CONTINUOUS
 62
     6
 10
184.617147
 20
124.176550
 40
9.089782
 50
-16.034598
 51
16.029042
  0
LINE
  8
CSLAYER1
  6
CONTINUOUS
 62
     6
 10
190.117177
 20
123.431647
 11
191.117177
 21
123.986456
  0
LINE
  8
CSLAYER1
  6
CONTINUOUS
 62
     6
 10
190.117177
 20
124.056647
 11
191.117177
 21
124.611456
  0
LINE
  8
CSLAYER1
  6
CONTINUOUS
 62
     6
 10
188.117146
 20
118.176549
 11
182.117147
 21
118.176550
  0
ARC
  8
CSLAYER1
  6
CONTINUOUS
 62
     6
 10
188.117147
 20
120.176549
 40
2.000000
 50
269.999994
 51
360.000000
  0
LINE
  8
CSLAYER1
  6
CENTER
 62
     3
 10
292.117142
 20
52.628295
 11
142.117150
 21
52.628279
  0
LINE
  8
CSLAYER1
  6
CENTER
 62
     3
 10
196.706932
 20
78.628285
 11
179.117154
 21
78.628284
  0
LINE
  8
CSLAYER1
  6
CENTER
 62
     3
 10
196.706937
 20
26.628285
 11
179.117159
 21
26.628284
  0
LINE
  8
CSLAYER1
  6
CONTINUOUS
 62
     6
 10
182.117147
 20
115.176538
 11
182.117147
 21
182.176550
  0
LINE
  8
CSLAYER1
  6
CONTINUOUS
 62
     6
 10
145.117147
 20
116.676534
 11
145.117147
 21
180.176546
  0
LINE
  8
CSLAYER1
  6
CONTINUOUS
 62
     6
 10
182.117147
 20
182.176550
 11
147.117146
 21
182.176546
  0
ARC
  8
CSLAYER1
  6
CONTINUOUS
 62
     6
 10
147.117147
 20
180.176546
 40
2.000000
 50
90.000006
 51
180.000000
  0
ARC
  8
CSLAYER1
  6
CONTINUOUS
 62
     6
 10
147.117153
 20
116.676534
 40
2.000000
 50
180.000012
 51
228.587056
  0
CIRCLE
  8
CSLAYER1
  6
CONTINUOUS
 62
     6
 10
165.117147
 20
164.626550
 40
12.700000
  0
CIRCLE
  8
CSLAYER1
  6
CONTINUOUS
 62
     6
 10
165.117147
 20
164.626550
 40
5.000000
  0
LINE
  8
CSLAYER1
  6
CENTER
 62
     3
 10
149.417147
 20
135.726536
 11
180.817147
 21
135.726536
  0
LINE
  8
CSLAYER1
  6
CENTER
 62
     3
 10
149.417147
 20
164.626550
 11
180.817147
 21
164.626550
  0
LINE
  8
CSLAYER1
  6
CENTER
 62
     3
 10
165.117147
 20
111.676613
 11
165.117147
 21
185.176548
  0
CIRCLE
  8
CSLAYER1
  6
CONTINUOUS
 62
     6
 10
165.117147
 20
164.626550
 40
4.500000
  0
CIRCLE
  8
CSLAYER1
  6
CONTINUOUS
 62
     6
 10
165.117147
 20
135.776550
 40
12.700000
  0
LINE
  8
CSLAYER1
  6
CONTINUOUS
 62
     6
 10
182.117147
 20
115.176538
 11
145.794277
 21
115.176534
  0
LINE
  8
CSLAYER1
  6
CONTINUOUS
 62
     6
 10
39.498920
 20
176.176549
 11
39.498920
 21
120.676489
  0
LINE
  8
CSLAYER1
  6
CONTINUOUS
 62
     6
 10
97.498920
 20
182.176550
 11
45.498920
 21
182.176550
  0
LINE
  8
CSLAYER1
  6
CONTINUOUS
 62
     6
 10
103.498920
 20
176.176550
 11
103.498920
 21
120.676489
  0
ARC
  8
CSLAYER1
  6
CONTINUOUS
 62
     6
 10
97.498920
 20
120.676489
 40
6.000000
 50
-66.442077
 51
0.000003
  0
ARC
  8
CSLAYER1
  6
CONTINUOUS
 62
     6
 10
97.498920
 20
176.176550
 40
6.000000
 50
0.000000
 51
90.000003
  0
ARC
  8
CSLAYER1
  6
CONTINUOUS
 62
     6
 10
45.498920
 20
176.176550
 40
6.000000
 50
90.000000
 51
180.000003
  0
ARC
  8
CSLAYER1
  6
CONTINUOUS
 62
     6
 10
45.498920
 20
120.676489
 40
6.000000
 50
180.000000
 51
246.442077
  0
CIRCLE
  8
CSLAYER1
  6
DASHED
 62
     6
 10
71.498920
 20
150.176550
 40
31.000000
  0
LINE
  8
CSLAYER1
  6
CENTER
 62
     3
 10
121.498920
 20
164.626550
 11
100.498920
 21
164.626550
  0
LINE
  8
CSLAYER1
  6
CENTER
 62
     3
 10
51.498920
 20
111.676611
 11
51.498920
 21
122.176611
  0
LINE
  8
CSLAYER1
  6
CENTER
 62
     3
 10
91.498920
 20
111.676611
 11
91.498920
 21
122.176611
  0
LINE
  8
CSLAYER1
  6
CONTINUOUS
 62
     6
 10
43.100864
 20
115.176550
 11
99.896976
 21
115.176550
  0
ARC
  8
CSLAYER1
  6
CONTINUOUS
 62
     6
 10
55.740071
 20
108.929805
 40
15.758816
 50
332.536202
 51
359.942691
  0
ARC
  8
CSLAYER1
  6
CONTINUOUS
 62
     6
 10
55.740071
 20
108.929805
 40
13.558834
 50
332.536202
 51
359.942691
  0
ARC
  8
CSLAYER1
  6
CONTINUOUS
 62
     6
 10
70.948903
 20
107.977214
 40
1.099999
 50
60.000350
 51
120.000345
  0
ARC
  8
CSLAYER1
  6
CONTINUOUS
 62
     6
 10
69.848904
 20
107.977199
 40
1.099999
 50
60.000350
 51
120.000345
  0
ARC
  8
CSLAYER1
  6
CONTINUOUS
 62
     6
 10
69.848897
 20
109.882457
 40
1.099999
 50
240.000362
 51
300.000350
  0
LINE
  8
CSLAYER1
  6
CONTINUOUS
 62
     6
 10
67.770848
 20
102.676647
 11
69.722905
 21
101.662029
  0
ARC
  8
CSLAYER1
  6
CONTINUOUS
 62
     6
 10
69.848927
 20
112.794674
 40
1.100006
 50
240.000007
 51
299.999995
  0
ARC
  8
CSLAYER1
  6
CONTINUOUS
 62
     6
 10
70.948933
 20
112.794674
 40
1.100006
 50
240.000007
 51
299.999995
  0
ARC
  8
CSLAYER1
  6
CONTINUOUS
 62
     6
 10
70.948933
 20
110.889400
 40
1.100006
 50
60.000002
 51
120.000003
  0
LINE
  8
CSLAYER1
  6
CONTINUOUS
 62
     6
 10
71.498921
 20
111.842037
 11
71.498921
 21
115.992182
  0
LINE
  8
CSLAYER1
  6
CONTINUOUS
 62
     6
 10
69.298924
 20
111.842037
 11
69.298924
 21
115.992182
  0
LINE
  8
CSLAYER1
  6
CONTINUOUS
 62
     6
 10
68.235066
 20
102.435360
 11
66.617909
 21
99.497280
  0
LINE
  8
CSLAYER1
  6
CONTINUOUS
 62
     6
 10
68.723988
 20
102.181225
 11
67.147206
 21
99.173809
  0
LINE
  8
CSLAYER1
  6
CONTINUOUS
 62
     6
 10
69.122121
 20
101.974270
 11
67.720631
 21
98.894466
  0
ARC
  8
CSLAYER1
  6
CONTINUOUS
 62
     6
 10
87.257771
 20
108.929805
 40
15.758816
 50
180.057309
 51
207.463798
  0
ARC
  8
CSLAYER1
  6
CONTINUOUS
 62
     6
 10
87.257771
 20
108.929805
 40
13.558834
 50
180.057309
 51
207.463798
  0
LINE
  8
CSLAYER1
  6
CONTINUOUS
 62
     6
 10
75.226994
 20
102.676647
 11
73.274937
 21
101.662029
  0
LINE
  8
CSLAYER1
  6
CONTINUOUS
 62
     6
 10
73.698918
 20
111.842037
 11
73.698918
 21
115.992182
  0
LINE
  8
CSLAYER1
  6
CONTINUOUS
 62
     6
 10
74.762776
 20
102.435360
 11
76.379933
 21
99.497280
  0
LINE
  8
CSLAYER1
  6
CONTINUOUS
 62
     6
 10
74.273854
 20
102.181225
 11
75.850636
 21
99.173809
  0
LINE
  8
CSLAYER1
  6
CONTINUOUS
 62
     6
 10
73.875722
 20
101.974270
 11
75.277211
 21
98.894466
  0
ARC
  8
CSLAYER1
  6
CONTINUOUS
 62
     6
 10
72.048915
 20
112.794674
 40
1.100006
 50
240.000007
 51
299.999995
  0
ARC
  8
CSLAYER1
  6
CONTINUOUS
 62
     6
 10
73.148921
 20
112.794674
 40
1.100006
 50
240.000007
 51
299.999995
  0
ARC
  8
CSLAYER1
  6
CONTINUOUS
 62
     6
 10
73.148921
 20
110.889400
 40
1.100006
 50
60.000002
 51
120.000003
  0
ARC
  8
CSLAYER1
  6
CONTINUOUS
 62
     6
 10
73.148883
 20
107.979415
 40
1.099999
 50
60.000350
 51
120.000345
  0
ARC
  8
CSLAYER1
  6
CONTINUOUS
 62
     6
 10
72.048885
 20
107.979400
 40
1.099999
 50
60.000350
 51
120.000345
  0
ARC
  8
CSLAYER1
  6
CONTINUOUS
 62
     6
 10
72.048877
 20
109.884658
 40
1.099999
 50
240.000362
 51
300.000350
  0
LINE
  8
CSLAYER1
  6
CONTINUOUS
 62
     6
 10
73.698918
 20
116.807815
 11
73.698918
 21
117.623447
  0
LINE
  8
CSLAYER1
  6
CONTINUOUS
 62
     6
 10
73.698918
 20
118.439080
 11
73.698918
 21
119.254712
  0
LINE
  8
CSLAYER1
  6
CONTINUOUS
 62
     6
 10
71.498921
 20
116.807815
 11
71.498921
 21
117.623447
  0
LINE
  8
CSLAYER1
  6
CONTINUOUS
 62
     6
 10
71.498921
 20
118.439080
 11
71.498921
 21
119.176611
  0
LINE
  8
CSLAYER1
  6
CONTINUOUS
 62
     6
 10
69.298922
 20
116.807815
 11
69.298922
 21
117.623447
  0
LINE
  8
CSLAYER1
  6
CONTINUOUS
 62
     6
 10
69.298922
 20
118.439080
 11
69.298922
 21
119.254712
  0
ARC
  8
CSLAYER1
  6
CONTINUOUS
 62
     6
 10
190.992150
 20
23.128284
 40
0.125000
 50
269.999945
 51
359.999995
  0
ARC
  8
CSLAYER1
  6
CONTINUOUS
 62
     6
 10
190.992150
 20
30.128284
 40
0.125000
 50
0.000009
 51
89.999991
  0
ARC
  8
CSLAYER1
  6
CONTINUOUS
 62
     6
 10
190.242150
 20
23.128284
 40
0.125000
 50
179.999990
 51
269.999945
  0
ARC
  8
CSLAYER1
  6
CONTINUOUS
 62
     6
 10
190.242150
 20
30.128284
 40
0.125000
 50
89.999991
 51
179.942654
  0
LINE
  8
CSLAYER1
  6
CONTINUOUS
 62
     6
 10
190.992150
 20
23.003284
 11
190.242150
 21
23.003284
  0
LINE
  8
CSLAYER1
  6
CONTINUOUS
 62
     6
 10
190.992150
 20
30.253284
 11
190.242150
 21
30.253284
  0
LINE
  8
CSLAYER1
  6
CONTINUOUS
 62
     6
 10
191.399804
 20
23.129261
 11
192.218560
 21
23.199818
  0
ARC
  8
CSLAYER1
  6
CONTINUOUS
 62
     6
 10
192.105278
 20
24.476185
 40
1.290623
 50
275.000080
 51
343.742779
  0
ARC
  8
CSLAYER1
  6
CONTINUOUS
 62
     6
 10
191.377160
 20
23.384510
 40
0.258129
 50
179.999990
 51
274.999698
  0
LINE
  8
CSLAYER1
  6
CONTINUOUS
 62
     6
 10
191.399804
 20
30.127308
 11
192.218560
 21
30.056751
  0
ARC
  8
CSLAYER1
  6
CONTINUOUS
 62
     6
 10
192.105278
 20
28.780384
 40
1.290623
 50
16.257170
 51
84.999910
  0
ARC
  8
CSLAYER1
  6
CONTINUOUS
 62
     6
 10
191.377160
 20
29.872059
 40
0.258129
 50
85.000238
 51
179.942654
  0
ARC
  8
CSLAYER1
  6
CONTINUOUS
 62
     6
 10
184.617150
 20
26.628284
 40
9.089782
 50
-16.034598
 51
16.029042
  0
LINE
  8
CSLAYER1
  6
CONTINUOUS
 62
     6
 10
190.117180
 20
25.883411
 11
191.117180
 21
26.438221
  0
LINE
  8
CSLAYER1
  6
CONTINUOUS
 62
     6
 10
190.117180
 20
26.508411
 11
191.117180
 21
27.063221
  0
ARC
  8
CSLAYER1
  6
CONTINUOUS
 62
     6
 10
190.992150
 20
75.128284
 40
0.125000
 50
269.999945
 51
359.999995
  0
ARC
  8
CSLAYER1
  6
CONTINUOUS
 62
     6
 10
190.992150
 20
82.128284
 40
0.125000
 50
0.000009
 51
89.999991
  0
ARC
  8
CSLAYER1
  6
CONTINUOUS
 62
     6
 10
190.242150
 20
75.128284
 40
0.125000
 50
179.999990
 51
269.999945
  0
ARC
  8
CSLAYER1
  6
CONTINUOUS
 62
     6
 10
190.242150
 20
82.128284
 40
0.125000
 50
89.999991
 51
179.942654
  0
LINE
  8
CSLAYER1
  6
CONTINUOUS
 62
     6
 10
190.992150
 20
75.003284
 11
190.242150
 21
75.003284
  0
LINE
  8
CSLAYER1
  6
CONTINUOUS
 62
     6
 10
190.992150
 20
82.253284
 11
190.242150
 21
82.253284
  0
LINE
  8
CSLAYER1
  6
CONTINUOUS
 62
     6
 10
191.399804
 20
75.129261
 11
192.218560
 21
75.199818
  0
ARC
  8
CSLAYER1
  6
CONTINUOUS
 62
     6
 10
192.105278
 20
76.476185
 40
1.290623
 50
275.000080
 51
343.742779
  0
ARC
  8
CSLAYER1
  6
CONTINUOUS
 62
     6
 10
191.377160
 20
75.384510
 40
0.258129
 50
179.999990
 51
274.999698
  0
LINE
  8
CSLAYER1
  6
CONTINUOUS
 62
     6
 10
191.399804
 20
82.127308
 11
192.218560
 21
82.056751
  0
ARC
  8
CSLAYER1
  6
CONTINUOUS
 62
     6
 10
192.105278
 20
80.780384
 40
1.290623
 50
16.257170
 51
84.999910
  0
ARC
  8
CSLAYER1
  6
CONTINUOUS
 62
     6
 10
191.377160
 20
81.872059
 40
0.258129
 50
85.000238
 51
179.942654
  0
ARC
  8
CSLAYER1
  6
CONTINUOUS
 62
     6
 10
184.617150
 20
78.628284
 40
9.089782
 50
-16.034598
 51
16.029042
  0
LINE
  8
CSLAYER1
  6
CONTINUOUS
 62
     6
 10
190.117180
 20
77.883411
 11
191.117180
 21
78.438221
  0
LINE
  8
CSLAYER1
  6
CONTINUOUS
 62
     6
 10
190.117180
 20
78.508411
 11
191.117180
 21
79.063221
  0
LINE
  8
CSLAYER1
  6
CONTINUOUS
 62
     6
 10
258.117150
 20
83.628295
 11
258.117150
 21
21.628295
  0
LINE
  8
CSLAYER1
  6
CONTINUOUS
 62
     6
 10
191.117150
 20
83.628295
 11
258.117150
 21
83.628295
  0
LINE
  8
CSLAYER1
  6
CONTINUOUS
 62
     6
 10
191.117150
 20
21.628295
 11
258.117150
 21
21.628295
  0
LINE
  8
CSLAYER1
  6
CONTINUOUS
 62
     6
 10
191.117150
 20
83.628295
 11
191.117150
 21
21.628295
  0
LINE
  8
CSLAYER1
  6
CONTINUOUS
 62
     6
 10
145.117150
 20
22.628279
 11
145.117150
 21
82.628280
  0
LINE
  8
CSLAYER1
  6
CONTINUOUS
 62
     6
 10
146.117150
 20
25.128279
 11
146.117150
 21
80.128280
  0
LINE
  8
CSLAYER1
  6
CONTINUOUS
 62
     6
 10
182.117150
 20
84.628283
 11
147.117150
 21
84.628280
  0
LINE
  8
CSLAYER1
  6
CONTINUOUS
 62
     6
 10
182.117150
 20
81.128283
 11
147.117150
 21
81.128280
  0
ARC
  8
CSLAYER1
  6
CONTINUOUS
 62
     6
 10
147.117150
 20
82.628280
 40
2.000000
 50
90.000006
 51
180.000000
  0
ARC
  8
CSLAYER1
  6
CONTINUOUS
 62
     6
 10
147.117150
 20
80.128280
 40
1.000000
 50
90.000006
 51
180.000000
  0
LINE
  8
CSLAYER1
  6
CONTINUOUS
 62
     6
 10
182.117157
 20
20.628283
 11
147.117157
 21
20.628280
  0
LINE
  8
CSLAYER1
  6
CONTINUOUS
 62
     6
 10
182.117156
 20
24.128283
 11
147.117156
 21
24.128280
  0
ARC
  8
CSLAYER1
  6
CONTINUOUS
 62
     6
 10
147.117156
 20
22.628280
 40
2.000000
 50
180.000012
 51
270.000006
  0
ARC
  8
CSLAYER1
  6
CONTINUOUS
 62
     6
 10
147.117156
 20
25.128280
 40
1.000000
 50
180.000012
 51
270.000006
  0
LINE
  8
CSLAYER1
  6
CONTINUOUS
 62
     6
 10
182.117150
 20
20.628265
 11
182.117150
 21
84.628295
  0
LINE
  8
CSLAYER1
  6
CONTINUOUS
 62
     6
 10
190.117150
 20
22.628295
 11
191.117150
 21
22.628295
  0
LINE
  8
CSLAYER1
  6
CONTINUOUS
 62
     6
 10
190.117150
 20
82.628295
 11
191.117150
 21
82.628295
  0
LINE
  8
CSLAYER1
  6
CONTINUOUS
 62
     6
 10
190.117165
 20
82.628311
 11
191.117165
 21
82.628311
  0
ARC
  8
CSLAYER1
  6
CONTINUOUS
 62
     6
 10
188.117150
 20
82.628295
 40
2.000000
 50
0.000009
 51
89.999997
  0
LINE
  8
CSLAYER1
  6
CONTINUOUS
 62
     6
 10
182.117150
 20
84.628295
 11
188.117150
 21
84.628295
  0
ARC
  8
CSLAYER1
  6
CONTINUOUS
 62
     6
 10
188.117150
 20
22.628265
 40
2.000000
 50
270.000027
 51
359.999995
  0
LINE
  8
CSLAYER1
  6
CONTINUOUS
 62
     6
 10
182.117150
 20
20.628265
 11
188.117150
 21
20.628265
  0
LINE
  8
CSLAYER1
  6
CONTINUOUS
 62
     6
 10
190.117150
 20
82.628295
 11
190.117150
 21
22.628265
  0
CIRCLE
  8
CSLAYER1
  6
CONTINUOUS
 62
     6
 10
164.117150
 20
52.628281
 40
2.500000
  0
CIRCLE
  8
CSLAYER1
  6
CONTINUOUS
 62
     6
 10
164.117150
 20
52.628281
 40
2.900000
  0
LINE
  8
CSLAYER1
  6
CONTINUOUS
 62
     6
 10
164.117150
 20
53.878281
 11
162.867150
 21
53.878281
  0
LINE
  8
CSLAYER1
  6
CONTINUOUS
 62
     6
 10
164.117150
 20
51.378281
 11
165.367150
 21
51.378281
  0
LINE
  8
CSLAYER1
  6
CONTINUOUS
 62
     6
 10
162.867150
 20
53.878281
 11
164.117150
 21
50.128281
  0
LINE
  8
CSLAYER1
  6
CONTINUOUS
 62
     6
 10
164.117150
 20
50.128281
 11
164.117150
 21
51.378281
  0
LINE
  8
CSLAYER1
  6
CONTINUOUS
 62
     6
 10
165.367150
 20
51.378281
 11
164.117150
 21
55.128281
  0
LINE
  8
CSLAYER1
  6
CONTINUOUS
 62
     6
 10
164.117150
 20
55.128281
 11
164.117150
 21
53.878281
  0
LINE
  8
CSLAYER1
  6
CONTINUOUS
 62
     6
 10
177.117150
 20
40.565537
 11
177.117150
 21
64.691029
  0
LINE
  8
CSLAYER1
  6
CONTINUOUS
 62
     6
 10
150.117150
 20
40.565531
 11
150.117150
 21
64.691029
  0
LINE
  8
CSLAYER1
  6
CONTINUOUS
 62
     6
 10
168.117150
 20
77.628282
 11
159.117150
 21
77.628281
  0
LINE
  8
CSLAYER1
  6
CONTINUOUS
 62
     6
 10
170.117150
 20
72.628283
 11
170.117150
 21
75.628282
  0
ARC
  8
CSLAYER1
  6
CONTINUOUS
 62
     6
 10
168.117150
 20
75.628282
 40
2.000000
 50
0.000000
 51
90.000006
  0
ARC
  8
CSLAYER1
  6
CONTINUOUS
 62
     6
 10
176.117150
 20
72.628283
 40
6.000000
 50
180.000000
 51
262.819244
  0
ARC
  8
CSLAYER1
  6
CONTINUOUS
 62
     6
 10
175.117150
 20
64.691029
 40
2.000000
 50
0.000000
 51
82.819244
  0
LINE
  8
CSLAYER1
  6
CONTINUOUS
 62
     6
 10
157.117150
 20
72.628283
 11
157.117150
 21
75.628282
  0
ARC
  8
CSLAYER1
  6
CONTINUOUS
 62
     6
 10
159.117150
 20
75.628282
 40
2.000000
 50
89.999994
 51
180.000000
  0
ARC
  8
CSLAYER1
  6
CONTINUOUS
 62
     6
 10
151.117150
 20
72.628283
 40
6.000000
 50
277.180756
 51
360.000000
  0
ARC
  8
CSLAYER1
  6
CONTINUOUS
 62
     6
 10
152.117150
 20
64.691029
 40
2.000000
 50
97.180756
 51
180.000000
  0
LINE
  8
CSLAYER1
  6
CONTINUOUS
 62
     6
 10
168.117155
 20
27.628282
 11
159.117155
 21
27.628281
  0
LINE
  8
CSLAYER1
  6
CONTINUOUS
 62
     6
 10
170.117154
 20
32.628281
 11
170.117155
 21
29.628282
  0
ARC
  8
CSLAYER1
  6
CONTINUOUS
 62
     6
 10
168.117155
 20
29.628282
 40
2.000000
 50
-89.999994
 51
0.000012
  0
ARC
  8
CSLAYER1
  6
CONTINUOUS
 62
     6
 10
176.117154
 20
32.628283
 40
6.000000
 50
97.180768
 51
180.000012
  0
ARC
  8
CSLAYER1
  6
CONTINUOUS
 62
     6
 10
175.117152
 20
40.565537
 40
2.000000
 50
-82.819232
 51
0.000012
  0
LINE
  8
CSLAYER1
  6
CONTINUOUS
 62
     6
 10
157.117154
 20
32.628279
 11
157.117155
 21
29.628280
  0
ARC
  8
CSLAYER1
  6
CONTINUOUS
 62
     6
 10
159.117155
 20
29.628280
 40
2.000000
 50
180.000012
 51
270.000019
  0
ARC
  8
CSLAYER1
  6
CONTINUOUS
 62
     6
 10
151.117154
 20
32.628277
 40
6.000000
 50
0.000012
 51
82.819257
  0
ARC
  8
CSLAYER1
  6
CONTINUOUS
 62
     6
 10
152.117152
 20
40.565532
 40
2.000000
 50
180.000012
 51
262.819257
  0
LINE
  8
CSLAYER1
  6
CONTINUOUS
 62
     6
 10
169.617147
 20
99.628282
 11
160.617147
 21
99.628281
  0
LINE
  8
CSLAYER1
  6
CONTINUOUS
 62
     6
 10
160.117147
 20
84.628281
 11
160.117147
 21
99.128281
  0
LINE
  8
CSLAYER1
  6
CONTINUOUS
 62
     6
 10
170.117147
 20
84.628282
 11
170.117147
 21
99.128282
  0
LINE
  8
CSLAYER1
  6
CONTINUOUS
 62
     6
 10
169.617147
 20
99.628282
 11
170.117147
 21
99.128282
  0
LINE
  8
CSLAYER1
  6
CONTINUOUS
 62
     6
 10
160.617147
 20
99.628281
 11
160.117147
 21
99.128281
  0
LINE
  8
CSLAYER1
  6
CONTINUOUS
 62
     6
 10
170.117147
 20
99.128282
 11
160.117147
 21
99.128281
  0
CIRCLE
  8
CSLAYER1
  6
CONTINUOUS
 62
     3
 10
176.117150
 20
32.628283
 40
3.000000
  0
CIRCLE
  8
CSLAYER1
  6
CONTINUOUS
 62
     6
 10
176.117150
 20
32.628283
 40
2.400000
  0
LINE
  8
CSLAYER1
  6
CENTER
 62
     3
 10
181.117150
 20
32.628283
 11
171.117150
 21
32.628283
  0
LINE
  8
CSLAYER1
  6
CENTER
 62
     3
 10
176.117150
 20
37.628283
 11
176.117150
 21
27.628283
  0
CIRCLE
  8
CSLAYER1
  6
CONTINUOUS
 62
     3
 10
151.117150
 20
32.628280
 40
3.000000
  0
CIRCLE
  8
CSLAYER1
  6
CONTINUOUS
 62
     6
 10
151.117150
 20
32.628280
 40
2.400000
  0
LINE
  8
CSLAYER1
  6
CENTER
 62
     3
 10
156.117150
 20
32.628280
 11
146.117150
 21
32.628280
  0
LINE
  8
CSLAYER1
  6
CENTER
 62
     3
 10
151.117150
 20
37.628280
 11
151.117150
 21
27.628280
  0
CIRCLE
  8
CSLAYER1
  6
CONTINUOUS
 62
     3
 10
176.117150
 20
72.628283
 40
3.000000
  0
CIRCLE
  8
CSLAYER1
  6
CONTINUOUS
 62
     6
 10
176.117150
 20
72.628283
 40
2.400000
  0
LINE
  8
CSLAYER1
  6
CENTER
 62
     3
 10
181.117150
 20
72.628283
 11
171.117150
 21
72.628283
  0
LINE
  8
CSLAYER1
  6
CENTER
 62
     3
 10
176.117150
 20
77.628283
 11
176.117150
 21
67.628283
  0
CIRCLE
  8
CSLAYER1
  6
CONTINUOUS
 62
     3
 10
151.117150
 20
72.628280
 40
3.000000
  0
CIRCLE
  8
CSLAYER1
  6
CONTINUOUS
 62
     6
 10
151.117150
 20
72.628280
 40
2.400000
  0
LINE
  8
CSLAYER1
  6
CENTER
 62
     3
 10
156.117150
 20
72.628280
 11
146.117150
 21
72.628280
  0
LINE
  8
CSLAYER1
  6
CENTER
 62
     3
 10
151.117150
 20
77.628280
 11
151.117150
 21
67.628280
  0
LINE
  8
CSLAYER1
  6
CONTINUOUS
 62
     3
 10
243.249745
 20
181.176550
 11
243.249745
 21
166.676519
  0
LINE
  8
CSLAYER1
  6
CONTINUOUS
 62
     3
 10
242.249745
 20
165.676519
 11
206.249761
 21
165.676519
  0
LINE
  8
CSLAYER1
  6
CONTINUOUS
 62
     3
 10
205.249761
 20
166.676519
 11
205.249761
 21
181.176550
  0
ARC
  8
CSLAYER1
  6
CONTINUOUS
 62
     3
 10
242.249745
 20
166.676519
 40
1.000000
 50
269.999999
 51
359.999995
  0
ARC
  8
CSLAYER1
  6
CONTINUOUS
 62
     3
 10
206.249761
 20
166.676519
 40
1.000000
 50
180.057309
 51
269.999999
  0
CIRCLE
  8
CSLAYER1
  6
CONTINUOUS
 62
     6
 10
159.620485
 20
155.078914
 40
1.154544
  0
ARC
  8
CSLAYER1
  6
CONTINUOUS
 62
     6
 10
159.620485
 20
155.078914
 40
2.474351
 50
-23.481549
 51
129.764149
  0
LINE
  8
CSLAYER1
  6
CONTINUOUS
 62
     6
 10
161.889932
 20
154.093005
 11
161.396880
 21
152.483686
  0
CIRCLE
  8
CSLAYER1
  6
CONTINUOUS
 62
     6
 10
170.613816
 20
155.078914
 40
1.154544
  0
ARC
  8
CSLAYER1
  6
CONTINUOUS
 62
     6
 10
170.613816
 20
155.078914
 40
2.474351
 50
50.235849
 51
203.481547
  0
LINE
  8
CSLAYER1
  6
CONTINUOUS
 62
     6
 10
168.344372
 20
154.093005
 11
168.837424
 21
152.483686
  0
ARC
  8
CSLAYER1
  6
CONTINUOUS
 62
     6
 10
165.117147
 20
163.955040
 40
11.062396
 50
-37.903051
 51
217.903067
  0
ARC
  8
CSLAYER1
  6
CONTINUOUS
 62
     6
 10
157.299349
 20
157.868395
 40
1.154544
 50
217.903410
 51
309.763671
  0
ARC
  8
CSLAYER1
  6
CONTINUOUS
 62
     6
 10
172.934954
 20
157.868395
 40
1.154544
 50
230.236270
 51
322.096587
  0
CIRCLE
  8
CSLAYER1
  6
CONTINUOUS
 62
     6
 10
159.620485
 20
126.178900
 40
1.154544
  0
ARC
  8
CSLAYER1
  6
CONTINUOUS
 62
     6
 10
159.620485
 20
126.178900
 40
2.474351
 50
-23.481549
 51
129.764149
  0
LINE
  8
CSLAYER1
  6
CONTINUOUS
 62
     6
 10
161.889932
 20
125.192991
 11
161.396880
 21
123.583672
  0
CIRCLE
  8
CSLAYER1
  6
CONTINUOUS
 62
     6
 10
170.613816
 20
126.178900
 40
1.154544
  0
ARC
  8
CSLAYER1
  6
CONTINUOUS
 62
     6
 10
170.613816
 20
126.178900
 40
2.474351
 50
50.235849
 51
203.481547
  0
LINE
  8
CSLAYER1
  6
CONTINUOUS
 62
     6
 10
168.344372
 20
125.192991
 11
168.837424
 21
123.583672
  0
ARC
  8
CSLAYER1
  6
CONTINUOUS
 62
     6
 10
165.117147
 20
135.055026
 40
11.062396
 50
-37.903051
 51
217.903067
  0
ARC
  8
CSLAYER1
  6
CONTINUOUS
 62
     6
 10
157.299349
 20
128.968381
 40
1.154544
 50
217.903410
 51
309.763671
  0
ARC
  8
CSLAYER1
  6
CONTINUOUS
 62
     6
 10
172.934954
 20
128.968381
 40
1.154544
 50
230.236270
 51
322.096587
  0
LINE
  8
CSLAYER1
  6
CONTINUOUS
 62
     6
 10
117.998920
 20
169.626550
 11
103.498920
 21
169.626550
  0
LINE
  8
CSLAYER1
  6
CONTINUOUS
 62
     6
 10
117.998920
 20
159.626550
 11
103.498920
 21
159.626550
  0
LINE
  8
CSLAYER1
  6
CONTINUOUS
 62
     6
 10
118.498920
 20
169.126550
 11
118.498920
 21
160.126550
  0
LINE
  8
CSLAYER1
  6
CONTINUOUS
 62
     6
 10
118.498920
 20
169.126550
 11
117.998920
 21
169.626550
  0
LINE
  8
CSLAYER1
  6
CONTINUOUS
 62
     6
 10
117.998920
 20
159.626550
 11
118.498920
 21
160.126550
  0
LINE
  8
CSLAYER1
  6
CONTINUOUS
 62
     6
 10
117.998920
 20
169.626550
 11
117.998920
 21
159.626550
  0
LINE
  8
CSLAYER1
  6
CENTER
 62
     3
 10
165.117147
 20
102.628282
 11
165.117147
 21
17.628282
  0
LINE
  8
CSLAYER1
  6
CENTER
 62
     3
 10
359.636864
 20
185.176546
 11
359.636882
 21
99.361451
  0
CIRCLE
  8
CSLAYER1
  6
CONTINUOUS
 62
     6
 10
359.636863
 20
150.176530
 40
30.000000
  0
ARC
  8
CSLAYER1
  6
CONTINUOUS
 62
     6
 10
359.636863
 20
150.176530
 40
31.000000
 50
-85.930420
 51
265.930438
  0
LINE
  8
CSLAYER1
  6
CONTINUOUS
 62
     6
 10
361.836859
 20
111.842035
 11
361.836868
 21
120.257310
  0
LINE
  8
CSLAYER1
  6
CONTINUOUS
 62
     6
 10
357.436862
 20
111.842035
 11
357.436870
 21
120.257310
  0
LINE
  8
CSLAYER1
  6
CONTINUOUS
 62
     6
 10
359.636855
 20
111.842035
 11
359.636871
 21
120.257310
  0
ARC
  8
CSLAYER1
  6
CONTINUOUS
 62
     6
 10
375.395884
 20
108.929888
 40
15.759004
 50
180.000235
 51
207.463987
  0
ARC
  8
CSLAYER1
  6
CONTINUOUS
 62
     6
 10
375.395884
 20
108.929888
 40
13.559023
 50
180.000308
 51
207.464006
  0
ARC
  8
CSLAYER1
  6
CONTINUOUS
 62
     6
 10
360.186881
 20
112.794657
 40
1.099999
 50
239.999870
 51
299.999858
  0
ARC
  8
CSLAYER1
  6
CONTINUOUS
 62
     6
 10
361.286879
 20
112.794657
 40
1.099999
 50
239.999870
 51
299.999858
  0
ARC
  8
CSLAYER1
  6
CONTINUOUS
 62
     6
 10
361.286872
 20
110.889414
 40
1.099999
 50
59.999858
 51
119.999853
  0
ARC
  8
CSLAYER1
  6
CONTINUOUS
 62
     6
 10
361.286862
 20
107.977173
 40
1.099999
 50
59.999715
 51
119.999716
  0
ARC
  8
CSLAYER1
  6
CONTINUOUS
 62
     6
 10
360.186864
 20
107.977188
 40
1.099999
 50
59.999715
 51
119.999716
  0
ARC
  8
CSLAYER1
  6
CONTINUOUS
 62
     6
 10
360.186871
 20
109.882447
 40
1.099999
 50
239.999733
 51
299.999721
  0
LINE
  8
CSLAYER1
  6
CONTINUOUS
 62
     6
 10
362.876943
 20
102.422944
 11
364.653787
 21
99.401945
  0
LINE
  8
CSLAYER1
  6
CONTINUOUS
 62
     6
 10
362.388927
 20
102.169296
 11
364.003104
 21
99.063739
  0
LINE
  8
CSLAYER1
  6
CONTINUOUS
 62
     6
 10
361.900914
 20
101.915643
 11
363.352421
 21
98.725533
  0
LINE
  8
CSLAYER1
  6
CONTINUOUS
 62
     6
 10
363.364955
 20
102.676598
 11
361.412906
 21
101.661980
  0
ARC
  8
CSLAYER1
  6
CONTINUOUS
 62
     6
 10
343.877901
 20
108.929715
 40
15.758933
 50
-27.463461
 51
0.000397
  0
ARC
  8
CSLAYER1
  6
CONTINUOUS
 62
     6
 10
343.877901
 20
108.929715
 40
13.558951
 50
-27.463363
 51
0.000417
  0
ARC
  8
CSLAYER1
  6
CONTINUOUS
 62
     6
 10
357.986838
 20
112.794657
 40
1.099999
 50
240.000198
 51
300.000186
  0
ARC
  8
CSLAYER1
  6
CONTINUOUS
 62
     6
 10
359.086837
 20
112.794657
 40
1.099999
 50
240.000198
 51
300.000186
  0
ARC
  8
CSLAYER1
  6
CONTINUOUS
 62
     6
 10
359.086844
 20
110.889414
 40
1.099999
 50
60.000186
 51
120.000181
  0
ARC
  8
CSLAYER1
  6
CONTINUOUS
 62
     6
 10
359.086858
 20
107.977204
 40
1.099999
 50
60.000350
 51
120.000345
  0
ARC
  8
CSLAYER1
  6
CONTINUOUS
 62
     6
 10
357.986859
 20
107.977188
 40
1.099999
 50
60.000350
 51
120.000345
  0
ARC
  8
CSLAYER1
  6
CONTINUOUS
 62
     6
 10
357.986848
 20
109.882447
 40
1.099999
 50
240.000362
 51
300.000350
  0
LINE
  8
CSLAYER1
  6
CENTER
 62
     3
 10
394.636871
 20
150.176546
 11
324.636871
 21
150.176546
  0
CIRCLE
  8
CSLAYER1
  6
CONTINUOUS
 62
     6
 10
359.636855
 20
150.176530
 40
6.818180
  0
CIRCLE
  8
CSLAYER1
  6
CONTINUOUS
 62
     6
 10
359.636855
 20
150.176530
 40
7.909089
  0
LINE
  8
CSLAYER1
  6
CONTINUOUS
 62
     6
 10
352.818675
 20
150.176530
 11
363.045944
 21
146.767442
  0
LINE
  8
CSLAYER1
  6
CONTINUOUS
 62
     6
 10
363.045944
 20
146.767442
 11
363.087638
 21
150.176530
  0
LINE
  8
CSLAYER1
  6
CONTINUOUS
 62
     6
 10
363.087638
 20
150.176530
 11
366.455039
 21
150.176530
  0
LINE
  8
CSLAYER1
  6
CONTINUOUS
 62
     6
 10
356.227767
 20
153.585618
 11
356.250903
 21
150.176530
  0
LINE
  8
CSLAYER1
  6
CONTINUOUS
 62
     6
 10
356.250903
 20
150.176530
 11
352.818675
 21
150.176530
  0
TEXT
  8
CSLAYER1
 62
     6
 10
344.804047
 20
148.208435
 40
3.409090
 41
1.200000
  1
S
 50
282.000000
 51
3.000000
  7
JX_FONT
 72
     5
 11
345.371078
 21
145.540760
  0
TEXT
  8
CSLAYER1
 62
     6
 10
345.537354
 20
145.167542
 40
3.409090
 41
1.200000
  1
A
 50
294.000031
 51
3.000000
  7
JX_FONT
 72
     5
 11
346.646636
 21
142.676055
  0
TEXT
  8
CSLAYER1
 62
     6
 10
346.886902
 20
142.345551
 40
3.409090
 41
1.596000
  1
W
 50
306.000031
 51
3.000000
  7
JX_FONT
 72
     5
 11
349.018960
 21
139.411027
  0
TEXT
  8
CSLAYER1
 62
     6
 10
348.793671
 20
139.865814
 40
3.409090
 41
1.200000
  1
A
 50
318.000000
 51
3.000000
  7
JX_FONT
 72
     5
 11
350.820429
 21
138.040913
  0
TEXT
  8
CSLAYER1
 62
     6
 10
351.174316
 20
137.836716
 40
3.409090
 41
1.200000
  1
M
 50
330.000000
 51
3.000000
  7
JX_FONT
 72
     5
 11
353.536203
 21
136.473080
  0
TEXT
  8
CSLAYER1
 62
     6
 10
353.924835
 20
136.346924
 40
3.409090
 41
1.200000
  1
U
 50
342.000000
 51
3.000000
  7
JX_FONT
 72
     5
 11
356.518625
 21
135.504150
  0
TEXT
  8
CSLAYER1
 62
     6
 10
356.924988
 20
135.461548
 40
3.409090
 41
1.200000
  1
R
 50
353.999969
 51
3.000000
  7
JX_FONT
 72
     5
 11
359.637319
 21
135.176469
  0
TEXT
  8
CSLAYER1
 62
     6
 10
360.043671
 20
135.219269
 40
3.409090
 41
1.200000
  1
A
 50
6.000000
 51
3.000000
  7
JX_FONT
 72
     5
 11
362.756002
 21
135.504346
  0
TEXT
  8
CSLAYER1
 62
     6
 10
372.793579
 20
143.050247
 40
3.409090
 41
1.200000
  1
K
 50
66.000046
 51
3.000000
  7
JX_FONT
 72
     5
 11
373.902859
 21
145.541735
  0
TEXT
  8
CSLAYER1
 62
     6
 10
373.987701
 20
145.941391
 40
3.409090
 41
0.792000
  1
I
 50
78.000000
 51
3.000000
  7
JX_FONT
 72
     5
 11
374.361942
 21
147.702056
  0
TEXT
  8
CSLAYER1
 62
     6
 10
366.092163
 20
136.677872
 40
3.409090
 41
1.200000
  1
D
 50
30.000032
 51
3.000000
  7
JX_FONT
 72
     5
 11
368.454049
 21
138.041509
  0
TEXT
  8
CSLAYER1
 62
     6
 10
368.757629
 20
138.314987
 40
3.409090
 41
1.200000
  1
E
 50
41.999962
 51
3.000000
  7
JX_FONT
 72
     5
 11
370.784389
 21
140.139887
  0
TEXT
  8
CSLAYER1
 62
     6
 10
371.024445
 20
140.470535
 40
3.409090
 41
1.200000
  1
N
 50
54.000061
 51
3.000000
  7
JX_FONT
 72
     5
 11
372.627493
 21
142.676946
  0
TEXT
  8
CSLAYER1
 62
     6
 10
344.718994
 20
151.335251
 40
3.410000
 41
1.200000
  1
*
 50
-90.000000
 51
3.000000
  7
JX_FONT
 72
     5
 11
344.718994
 21
148.607251
  0
TEXT
  8
CSLAYER1
 62
     6
 10
365.348877
 20
164.006104
 40
3.409090
 41
1.200000
  1
U
 50
162.000000
 51
3.000000
  7
JX_FONT
 72
     5
 11
362.755087
 21
164.848877
  0
TEXT
  8
CSLAYER1
 62
     6
 10
362.348724
 20
164.891479
 40
3.409090
 41
1.200000
  1
R
 50
173.999985
 51
3.000000
  7
JX_FONT
 72
     5
 11
359.636393
 21
165.176558
  0
TEXT
  8
CSLAYER1
 62
     6
 10
359.230042
 20
165.133759
 40
3.409090
 41
1.200000
  1
A
 50
186.000015
 51
3.000000
  7
JX_FONT
 72
     5
 11
356.517710
 21
164.848680
  0
TEXT
  8
CSLAYER1
 62
     6
 10
346.480133
 20
157.302780
 40
3.409090
 41
1.200000
  1
K
 50
246.000061
 51
3.000000
  7
JX_FONT
 72
     5
 11
345.370854
 21
154.811292
  0
TEXT
  8
CSLAYER1
 62
     6
 10
345.286011
 20
154.411636
 40
3.409090
 41
0.792000
  1
I
 50
258.000000
 51
3.000000
  7
JX_FONT
 72
     5
 11
344.911770
 21
152.650971
  0
TEXT
  8
CSLAYER1
 62
     6
 10
353.181549
 20
163.675156
 40
3.409090
 41
1.200000
  1
D
 50
210.000046
 51
3.000000
  7
JX_FONT
 72
     5
 11
350.819663
 21
162.311518
  0
TEXT
  8
CSLAYER1
 62
     6
 10
350.516113
 20
162.038040
 40
3.409090
 41
1.200000
  1
E
 50
221.999969
 51
3.000000
  7
JX_FONT
 72
     5
 11
348.489354
 21
160.213140
  0
TEXT
  8
CSLAYER1
 62
     6
 10
348.249268
 20
159.882492
 40
3.409090
 41
1.200000
  1
N
 50
234.000061
 51
3.000000
  7
JX_FONT
 72
     5
 11
346.646220
 21
157.676081
  0
TEXT
  8
CSLAYER1
 62
     6
 10
374.469666
 20
152.144592
 40
3.409090
 41
1.200000
  1
S
 50
102.000000
 51
3.000000
  7
JX_FONT
 72
     5
 11
373.902634
 21
154.812267
  0
TEXT
  8
CSLAYER1
 62
     6
 10
373.736359
 20
155.185486
 40
3.409090
 41
1.200000
  1
A
 50
114.000046
 51
3.000000
  7
JX_FONT
 72
     5
 11
372.627075
 21
157.676972
  0
TEXT
  8
CSLAYER1
 62
     6
 10
372.386810
 20
158.007477
 40
3.409090
 41
1.596000
  1
W
 50
126.000038
 51
3.000000
  7
JX_FONT
 72
     5
 11
370.254751
 21
160.942000
  0
TEXT
  8
CSLAYER1
 62
     6
 10
370.480042
 20
160.487213
 40
3.409090
 41
1.200000
  1
A
 50
138.000031
 51
3.000000
  7
JX_FONT
 72
     5
 11
368.453282
 21
162.312113
  0
TEXT
  8
CSLAYER1
 62
     6
 10
368.099396
 20
162.516312
 40
3.409090
 41
1.200000
  1
M
 50
150.000015
 51
3.000000
  7
JX_FONT
 72
     5
 11
365.737509
 21
163.879947
  0
TEXT
  8
CSLAYER1
 62
     6
 10
374.554718
 20
149.017776
 40
3.410000
 41
1.200000
  1
*
 50
90.000000
 51
3.000000
  7
JX_FONT
 72
     5
 11
374.554718
 21
151.745777
  0
CIRCLE
  8
CSLAYER1
  6
CONTINUOUS
 62
     6
 10
359.636855
 20
150.176530
 40
16.000000
  0
CIRCLE
  8
CSLAYER1
  6
CONTINUOUS
 62
     6
 10
359.636855
 20
150.176530
 40
17.000000
  0
LINE
  8
CSLAYER1
  6
CONTINUOUS
 62
     6
 10
366.455031
 20
150.176533
 11
356.227767
 21
153.585618
  0
LINE
  8
CSLAYER1
  6
CONTINUOUS
 62
     6
 10
356.250903
 20
150.176546
 11
356.250903
 21
150.176530
  0
LINE
  8
CSLAYER1
  6
CONTINUOUS
 62
     6
 10
356.396820
 20
102.422942
 11
354.619976
 21
99.401943
  0
LINE
  8
CSLAYER1
  6
CONTINUOUS
 62
     6
 10
356.884836
 20
102.169295
 11
355.270659
 21
99.063737
  0
LINE
  8
CSLAYER1
  6
CONTINUOUS
 62
     6
 10
357.372848
 20
101.915642
 11
355.921343
 21
98.725531
  0
LINE
  8
CSLAYER1
  6
CONTINUOUS
 62
     6
 10
355.908839
 20
102.676580
 11
357.860883
 21
101.661966
  0
LINE
  8
CSLAYER1
  6
CONTINUOUS
 62
     6
 10
327.636871
 20
120.676489
 11
327.636871
 21
176.176546
  0
LINE
  8
CSLAYER1
  6
CONTINUOUS
 62
     6
 10
391.636871
 20
120.676489
 11
391.636871
 21
176.176546
  0
LINE
  8
CSLAYER1
  6
CONTINUOUS
 62
     6
 10
385.636871
 20
182.176546
 11
333.636871
 21
182.176546
  0
LINE
  8
CSLAYER1
  6
CONTINUOUS
 62
     6
 10
385.636871
 20
118.176546
 11
361.836866
 21
118.176546
  0
ARC
  8
CSLAYER1
  6
CONTINUOUS
 62
     6
 10
333.636871
 20
176.176546
 40
6.000000
 50
90.000000
 51
180.000000
  0
LINE
  8
CSLAYER1
  6
CONTINUOUS
 62
     6
 10
357.436868
 20
118.176546
 11
333.636871
 21
118.176546
  0
LINE
  8
CSLAYER1
  6
CENTER
 62
     3
 10
333.636871
 20
182.676554
 11
333.636871
 21
169.743296
  0
CIRCLE
  8
CSLAYER1
  6
CONTINUOUS
 62
     6
 10
333.636879
 20
176.176561
 40
3.500000
  0
ARC
  8
CSLAYER1
  6
CONTINUOUS
 62
     6
 10
333.636866
 20
176.176561
 40
1.944444
 50
163.398416
 51
196.601577
  0
ARC
  8
CSLAYER1
  6
CONTINUOUS
 62
     6
 10
333.636866
 20
176.176561
 40
1.944444
 50
253.398422
 51
286.601583
  0
ARC
  8
CSLAYER1
  6
CONTINUOUS
 62
     6
 10
333.636866
 20
176.176561
 40
1.944444
 50
-16.601562
 51
16.601572
  0
ARC
  8
CSLAYER1
  6
CONTINUOUS
 62
     6
 10
333.636866
 20
176.176561
 40
1.944444
 50
73.398406
 51
106.601595
  0
LINE
  8
CSLAYER1
  6
CONTINUOUS
 62
     6
 10
334.747991
 20
175.620999
 11
335.500248
 21
175.620999
  0
LINE
  8
CSLAYER1
  6
CONTINUOUS
 62
     6
 10
332.525742
 20
175.620999
 11
331.773485
 21
175.620999
  0
LINE
  8
CSLAYER1
  6
CONTINUOUS
 62
     6
 10
334.747991
 20
176.732124
 11
335.500248
 21
176.732124
  0
LINE
  8
CSLAYER1
  6
CONTINUOUS
 62
     6
 10
332.525742
 20
176.732124
 11
331.773485
 21
176.732124
  0
LINE
  8
CSLAYER1
  6
CONTINUOUS
 62
     6
 10
333.081304
 20
175.065465
 11
333.081304
 21
174.313151
  0
LINE
  8
CSLAYER1
  6
CONTINUOUS
 62
     6
 10
333.081304
 20
177.287657
 11
333.081304
 21
178.039972
  0
LINE
  8
CSLAYER1
  6
CONTINUOUS
 62
     6
 10
334.192429
 20
175.065465
 11
334.192429
 21
174.313151
  0
LINE
  8
CSLAYER1
  6
CONTINUOUS
 62
     6
 10
334.192429
 20
177.287657
 11
334.192429
 21
178.039972
  0
ARC
  8
CSLAYER1
  6
CONTINUOUS
 62
     6
 10
334.747991
 20
175.065465
 40
0.555556
 50
90.000001
 51
179.942691
  0
ARC
  8
CSLAYER1
  6
CONTINUOUS
 62
     6
 10
334.747991
 20
177.287657
 40
0.555556
 50
180.000010
 51
270.000016
  0
ARC
  8
CSLAYER1
  6
CONTINUOUS
 62
     6
 10
332.525742
 20
177.287657
 40
0.555556
 50
-89.999984
 51
0.000005
  0
ARC
  8
CSLAYER1
  6
CONTINUOUS
 62
     6
 10
332.525742
 20
175.065465
 40
0.555556
 50
0.000005
 51
89.942654
  0
LINE
  8
CSLAYER1
  6
CENTER
 62
     3
 10
327.136863
 20
176.176546
 11
340.136879
 21
176.176546
  0
ARC
  8
CSLAYER1
  6
CONTINUOUS
 62
     6
 10
385.636860
 20
176.176557
 40
6.000000
 50
0.000024
 51
90.000024
  0
LINE
  8
CSLAYER1
  6
CENTER
 62
     3
 10
385.636857
 20
182.676565
 11
385.636863
 21
169.743307
  0
CIRCLE
  8
CSLAYER1
  6
CONTINUOUS
 62
     6
 10
385.636852
 20
176.176572
 40
3.500000
  0
ARC
  8
CSLAYER1
  6
CONTINUOUS
 62
     6
 10
385.636864
 20
176.176572
 40
1.944444
 50
-16.601553
 51
16.601609
  0
ARC
  8
CSLAYER1
  6
CONTINUOUS
 62
     6
 10
385.636864
 20
176.176572
 40
1.944444
 50
253.398441
 51
286.601603
  0
ARC
  8
CSLAYER1
  6
CONTINUOUS
 62
     6
 10
385.636864
 20
176.176572
 40
1.944444
 50
163.398452
 51
196.601586
  0
ARC
  8
CSLAYER1
  6
CONTINUOUS
 62
     6
 10
385.636864
 20
176.176572
 40
1.944444
 50
73.398429
 51
106.601618
  0
LINE
  8
CSLAYER1
  6
CONTINUOUS
 62
     6
 10
384.525740
 20
175.621009
 11
383.773483
 21
175.621009
  0
LINE
  8
CSLAYER1
  6
CONTINUOUS
 62
     6
 10
386.747989
 20
175.621010
 11
387.500246
 21
175.621011
  0
LINE
  8
CSLAYER1
  6
CONTINUOUS
 62
     6
 10
384.525739
 20
176.732134
 11
383.773483
 21
176.732134
  0
LINE
  8
CSLAYER1
  6
CONTINUOUS
 62
     6
 10
386.747989
 20
176.732135
 11
387.500245
 21
176.732135
  0
LINE
  8
CSLAYER1
  6
CONTINUOUS
 62
     6
 10
386.192427
 20
175.065477
 11
386.192428
 21
174.313162
  0
LINE
  8
CSLAYER1
  6
CONTINUOUS
 62
     6
 10
386.192426
 20
177.287668
 11
386.192426
 21
178.039983
  0
LINE
  8
CSLAYER1
  6
CONTINUOUS
 62
     6
 10
385.081302
 20
175.065476
 11
385.081303
 21
174.313162
  0
LINE
  8
CSLAYER1
  6
CONTINUOUS
 62
     6
 10
385.081302
 20
177.287668
 11
385.081301
 21
178.039982
  0
ARC
  8
CSLAYER1
  6
CONTINUOUS
 62
     6
 10
384.525740
 20
175.065476
 40
0.555556
 50
0.057333
 51
90.000024
  0
ARC
  8
CSLAYER1
  6
CONTINUOUS
 62
     6
 10
384.525739
 20
177.287668
 40
0.555556
 50
-89.999992
 51
0.000014
  0
ARC
  8
CSLAYER1
  6
CONTINUOUS
 62
     6
 10
386.747989
 20
177.287669
 40
0.555556
 50
180.000019
 51
270.000008
  0
ARC
  8
CSLAYER1
  6
CONTINUOUS
 62
     6
 10
386.747990
 20
175.065477
 40
0.555556
 50
90.057370
 51
180.000019
  0
LINE
  8
CSLAYER1
  6
CENTER
 62
     3
 10
392.136868
 20
176.176559
 11
379.136852
 21
176.176554
  0
ARC
  8
CSLAYER1
  6
CONTINUOUS
 62
     6
 10
333.636871
 20
124.176546
 40
6.000000
 50
180.000000
 51
270.000000
  0
LINE
  8
CSLAYER1
  6
CENTER
 62
     3
 10
333.636871
 20
117.676537
 11
333.636871
 21
130.609795
  0
CIRCLE
  8
CSLAYER1
  6
CONTINUOUS
 62
     6
 10
333.636879
 20
124.176531
 40
3.500000
  0
ARC
  8
CSLAYER1
  6
CONTINUOUS
 62
     6
 10
333.636866
 20
124.176530
 40
1.944444
 50
163.398423
 51
196.601584
  0
ARC
  8
CSLAYER1
  6
CONTINUOUS
 62
     6
 10
333.636866
 20
124.176530
 40
1.944444
 50
73.398417
 51
106.601578
  0
ARC
  8
CSLAYER1
  6
CONTINUOUS
 62
     6
 10
333.636866
 20
124.176530
 40
1.944444
 50
-16.601572
 51
16.601562
  0
ARC
  8
CSLAYER1
  6
CONTINUOUS
 62
     6
 10
333.636866
 20
124.176530
 40
1.944444
 50
253.398405
 51
286.601594
  0
LINE
  8
CSLAYER1
  6
CONTINUOUS
 62
     6
 10
334.747991
 20
124.732092
 11
335.500248
 21
124.732092
  0
LINE
  8
CSLAYER1
  6
CONTINUOUS
 62
     6
 10
332.525742
 20
124.732092
 11
331.773485
 21
124.732092
  0
LINE
  8
CSLAYER1
  6
CONTINUOUS
 62
     6
 10
334.747991
 20
123.620967
 11
335.500248
 21
123.620967
  0
LINE
  8
CSLAYER1
  6
CONTINUOUS
 62
     6
 10
332.525742
 20
123.620967
 11
331.773485
 21
123.620967
  0
LINE
  8
CSLAYER1
  6
CONTINUOUS
 62
     6
 10
333.081304
 20
125.287626
 11
333.081304
 21
126.039940
  0
LINE
  8
CSLAYER1
  6
CONTINUOUS
 62
     6
 10
333.081304
 20
123.065434
 11
333.081304
 21
122.313120
  0
LINE
  8
CSLAYER1
  6
CONTINUOUS
 62
     6
 10
334.192429
 20
125.287626
 11
334.192429
 21
126.039940
  0
LINE
  8
CSLAYER1
  6
CONTINUOUS
 62
     6
 10
334.192429
 20
123.065434
 11
334.192429
 21
122.313120
  0
ARC
  8
CSLAYER1
  6
CONTINUOUS
 62
     6
 10
334.747991
 20
125.287626
 40
0.555556
 50
180.057309
 51
269.999999
  0
ARC
  8
CSLAYER1
  6
CONTINUOUS
 62
     6
 10
334.747991
 20
123.065434
 40
0.555556
 50
89.999984
 51
179.999990
  0
ARC
  8
CSLAYER1
  6
CONTINUOUS
 62
     6
 10
332.525742
 20
123.065434
 40
0.555556
 50
-0.000005
 51
89.999984
  0
ARC
  8
CSLAYER1
  6
CONTINUOUS
 62
     6
 10
332.525742
 20
125.287626
 40
0.555556
 50
270.057346
 51
359.999995
  0
LINE
  8
CSLAYER1
  6
CENTER
 62
     3
 10
327.136863
 20
124.176546
 11
340.136879
 21
124.176546
  0
ARC
  8
CSLAYER1
  6
CONTINUOUS
 62
     6
 10
385.636860
 20
124.176535
 40
6.000000
 50
269.999976
 51
359.999976
  0
LINE
  8
CSLAYER1
  6
CENTER
 62
     3
 10
385.636857
 20
117.676526
 11
385.636863
 21
130.609784
  0
CIRCLE
  8
CSLAYER1
  6
CONTINUOUS
 62
     6
 10
385.636852
 20
124.176520
 40
3.500000
  0
ARC
  8
CSLAYER1
  6
CONTINUOUS
 62
     6
 10
385.636864
 20
124.176519
 40
1.944444
 50
-16.601609
 51
16.601553
  0
ARC
  8
CSLAYER1
  6
CONTINUOUS
 62
     6
 10
385.636864
 20
124.176519
 40
1.944444
 50
73.398397
 51
106.601559
  0
ARC
  8
CSLAYER1
  6
CONTINUOUS
 62
     6
 10
385.636864
 20
124.176519
 40
1.944444
 50
163.398414
 51
196.601548
  0
ARC
  8
CSLAYER1
  6
CONTINUOUS
 62
     6
 10
385.636864
 20
124.176519
 40
1.944444
 50
253.398382
 51
286.601571
  0
LINE
  8
CSLAYER1
  6
CONTINUOUS
 62
     6
 10
384.525740
 20
124.732082
 11
383.773483
 21
124.732082
  0
LINE
  8
CSLAYER1
  6
CONTINUOUS
 62
     6
 10
386.747989
 20
124.732081
 11
387.500246
 21
124.732080
  0
LINE
  8
CSLAYER1
  6
CONTINUOUS
 62
     6
 10
384.525739
 20
123.620957
 11
383.773483
 21
123.620957
  0
LINE
  8
CSLAYER1
  6
CONTINUOUS
 62
     6
 10
386.747989
 20
123.620956
 11
387.500245
 21
123.620956
  0
LINE
  8
CSLAYER1
  6
CONTINUOUS
 62
     6
 10
386.192427
 20
125.287614
 11
386.192428
 21
126.039929
  0
LINE
  8
CSLAYER1
  6
CONTINUOUS
 62
     6
 10
386.192426
 20
123.065423
 11
386.192426
 21
122.313108
  0
LINE
  8
CSLAYER1
  6
CONTINUOUS
 62
     6
 10
385.081302
 20
125.287615
 11
385.081303
 21
126.039929
  0
LINE
  8
CSLAYER1
  6
CONTINUOUS
 62
     6
 10
385.081302
 20
123.065423
 11
385.081301
 21
122.313109
  0
ARC
  8
CSLAYER1
  6
CONTINUOUS
 62
     6
 10
384.525740
 20
125.287615
 40
0.555556
 50
269.999976
 51
359.942667
  0
ARC
  8
CSLAYER1
  6
CONTINUOUS
 62
     6
 10
384.525739
 20
123.065423
 40
0.555556
 50
-0.000014
 51
89.999992
  0
ARC
  8
CSLAYER1
  6
CONTINUOUS
 62
     6
 10
386.747989
 20
123.065423
 40
0.555556
 50
89.999992
 51
179.999981
  0
ARC
  8
CSLAYER1
  6
CONTINUOUS
 62
     6
 10
386.747990
 20
125.287614
 40
0.555556
 50
179.999981
 51
269.942630
  0
LINE
  8
CSLAYER1
  6
CENTER
 62
     3
 10
392.136868
 20
124.176532
 11
379.136852
 21
124.176537
  0
LINE
  8
CSLAYER1
  6
CONTINUOUS
 62
     6
 10
331.238844
 20
115.176537
 11
357.436866
 21
115.176537
  0
ARC
  8
CSLAYER1
  6
CONTINUOUS
 62
     6
 10
385.636871
 20
120.676489
 40
6.000000
 50
-66.442077
 51
0.000003
  0
ARC
  8
CSLAYER1
  6
CONTINUOUS
 62
     6
 10
333.636871
 20
120.676489
 40
6.000000
 50
180.000000
 51
246.442077
  0
LINE
  8
CSLAYER1
  6
CONTINUOUS
 62
     6
 10
361.836864
 20
115.176537
 11
388.034898
 21
115.176537
  0
LINE
  8
CSLAYER1
  6
CENTER
 62
     3
 10
292.117147
 20
243.657411
 11
142.117150
 21
243.657411
  0
LINE
  8
CSLAYER1
  6
CONTINUOUS
 62
     6
 10
191.117147
 20
212.657407
 11
258.117147
 21
212.657407
  0
LINE
  8
CSLAYER1
  6
CONTINUOUS
 62
     6
 10
191.117147
 20
274.657407
 11
258.117147
 21
274.657407
  0
LINE
  8
CSLAYER1
  6
CONTINUOUS
 62
     3
 10
242.249761
 20
270.504191
 11
206.249761
 21
270.504191
  0
ARC
  8
CSLAYER1
  6
CONTINUOUS
 62
     3
 10
242.249761
 20
269.504191
 40
1.000000
 50
0.000005
 51
90.000001
  0
ARC
  8
CSLAYER1
  6
CONTINUOUS
 62
     3
 10
206.249761
 20
269.504191
 40
1.000000
 50
90.000001
 51
179.942691
  0
LINE
  8
CSLAYER1
  6
CONTINUOUS
 62
     3
 10
243.249761
 20
217.810624
 11
243.249761
 21
269.504191
  0
LINE
  8
CSLAYER1
  6
CONTINUOUS
 62
     3
 10
205.249761
 20
217.810624
 11
205.249761
 21
269.504191
  0
TEXT
  8
CSLAYER1
 62
     3
 10
225.470840
 20
238.159012
 40
3.500000
 41
1.125000
  1
N P
 50
90.000000
 51
10.000000
  7
JX_FONT
 72
     5
 11
225.470840
 21
248.659012
  0
LINE
  8
CSLAYER1
  6
CONTINUOUS
 62
     3
 10
242.249761
 20
216.810624
 11
206.249761
 21
216.810624
  0
ARC
  8
CSLAYER1
  6
CONTINUOUS
 62
     3
 10
242.249761
 20
217.810624
 40
1.000000
 50
-89.999991
 51
0.000005
  0
ARC
  8
CSLAYER1
  6
CONTINUOUS
 62
     3
 10
206.249761
 20
217.810624
 40
1.000000
 50
180.057319
 51
270.000009
  0
LINE
  8
CSLAYER1
  6
CONTINUOUS
 62
     6
 10
258.117147
 20
212.657407
 11
258.117147
 21
274.657407
  0
LINE
  8
CSLAYER1
  6
CONTINUOUS
 62
     6
 10
289.117147
 20
272.116278
 11
289.117147
 21
215.198522
  0
LINE
  8
CSLAYER1
  6
CONTINUOUS
 62
     6
 10
288.117147
 20
273.133734
 11
288.117147
 21
214.181067
  0
LINE
  8
CSLAYER1
  6
CONTINUOUS
 62
     6
 10
288.117299
 20
214.181069
 11
258.117131
 21
213.657416
  0
LINE
  8
CSLAYER1
  6
CONTINUOUS
 62
     6
 10
258.117147
 20
273.657393
 11
288.117299
 21
273.133731
  0
LINE
  8
CSLAYER1
  6
CONTINUOUS
 62
     6
 10
289.117147
 20
272.116278
 11
288.117299
 21
273.133731
  0
LINE
  8
CSLAYER1
  6
CONTINUOUS
 62
     6
 10
288.117299
 20
214.181069
 11
289.117147
 21
215.198522
  0
LINE
  8
CSLAYER1
  6
CONTINUOUS
 62
     6
 10
191.117147
 20
212.657407
 11
191.117147
 21
274.657407
  0
LINE
  8
CSLAYER1
  6
CONTINUOUS
 62
     6
 10
191.117147
 20
213.657417
 11
190.117147
 21
213.657417
  0
LINE
  8
CSLAYER1
  6
CONTINUOUS
 62
     6
 10
191.117147
 20
273.657417
 11
190.117147
 21
273.657417
  0
LINE
  8
CSLAYER1
  6
CENTER
 62
     3
 10
196.706932
 20
217.657410
 11
179.117154
 21
217.657411
  0
LINE
  8
CSLAYER1
  6
CENTER
 62
     3
 10
196.706937
 20
269.657410
 11
179.117159
 21
269.657411
  0
ARC
  8
CSLAYER1
  6
CONTINUOUS
 62
     6
 10
190.992149
 20
266.157411
 40
0.125000
 50
269.999932
 51
359.999983
  0
ARC
  8
CSLAYER1
  6
CONTINUOUS
 62
     6
 10
190.992151
 20
273.157411
 40
0.125000
 50
-0.000004
 51
89.999978
  0
ARC
  8
CSLAYER1
  6
CONTINUOUS
 62
     6
 10
190.242149
 20
266.157411
 40
0.125000
 50
179.999978
 51
269.999932
  0
ARC
  8
CSLAYER1
  6
CONTINUOUS
 62
     6
 10
190.242151
 20
273.157411
 40
0.125000
 50
89.999978
 51
179.942641
  0
LINE
  8
CSLAYER1
  6
CONTINUOUS
 62
     6
 10
190.992149
 20
266.032411
 11
190.242149
 21
266.032411
  0
LINE
  8
CSLAYER1
  6
CONTINUOUS
 62
     6
 10
190.992151
 20
273.282411
 11
190.242151
 21
273.282411
  0
LINE
  8
CSLAYER1
  6
CONTINUOUS
 62
     6
 10
191.399803
 20
266.158387
 11
192.218559
 21
266.228944
  0
ARC
  8
CSLAYER1
  6
CONTINUOUS
 62
     6
 10
192.105278
 20
267.505311
 40
1.290623
 50
275.000068
 51
343.742766
  0
ARC
  8
CSLAYER1
  6
CONTINUOUS
 62
     6
 10
191.377159
 20
266.413636
 40
0.258129
 50
179.999978
 51
274.999685
  0
LINE
  8
CSLAYER1
  6
CONTINUOUS
 62
     6
 10
191.399804
 20
273.156434
 11
192.218560
 21
273.085877
  0
ARC
  8
CSLAYER1
  6
CONTINUOUS
 62
     6
 10
192.105279
 20
271.809510
 40
1.290623
 50
16.257158
 51
84.999897
  0
ARC
  8
CSLAYER1
  6
CONTINUOUS
 62
     6
 10
191.377160
 20
272.901185
 40
0.258129
 50
85.000225
 51
179.942641
  0
ARC
  8
CSLAYER1
  6
CONTINUOUS
 62
     6
 10
184.617150
 20
269.657412
 40
9.089782
 50
-16.034611
 51
16.029030
  0
LINE
  8
CSLAYER1
  6
CONTINUOUS
 62
     6
 10
190.117180
 20
268.912538
 11
191.117180
 21
269.467347
  0
LINE
  8
CSLAYER1
  6
CONTINUOUS
 62
     6
 10
190.117180
 20
269.537538
 11
191.117180
 21
270.092347
  0
ARC
  8
CSLAYER1
  6
CONTINUOUS
 62
     6
 10
190.992149
 20
214.157411
 40
0.125000
 50
269.999932
 51
359.999983
  0
ARC
  8
CSLAYER1
  6
CONTINUOUS
 62
     6
 10
190.992151
 20
221.157411
 40
0.125000
 50
-0.000004
 51
89.999978
  0
ARC
  8
CSLAYER1
  6
CONTINUOUS
 62
     6
 10
190.242149
 20
214.157411
 40
0.125000
 50
179.999978
 51
269.999932
  0
ARC
  8
CSLAYER1
  6
CONTINUOUS
 62
     6
 10
190.242151
 20
221.157411
 40
0.125000
 50
89.999978
 51
179.942641
  0
LINE
  8
CSLAYER1
  6
CONTINUOUS
 62
     6
 10
190.992149
 20
214.032411
 11
190.242149
 21
214.032411
  0
LINE
  8
CSLAYER1
  6
CONTINUOUS
 62
     6
 10
190.992151
 20
221.282411
 11
190.242151
 21
221.282411
  0
LINE
  8
CSLAYER1
  6
CONTINUOUS
 62
     6
 10
191.399803
 20
214.158387
 11
192.218559
 21
214.228944
  0
ARC
  8
CSLAYER1
  6
CONTINUOUS
 62
     6
 10
192.105278
 20
215.505311
 40
1.290623
 50
275.000068
 51
343.742766
  0
ARC
  8
CSLAYER1
  6
CONTINUOUS
 62
     6
 10
191.377159
 20
214.413636
 40
0.258129
 50
179.999978
 51
274.999685
  0
LINE
  8
CSLAYER1
  6
CONTINUOUS
 62
     6
 10
191.399804
 20
221.156434
 11
192.218560
 21
221.085877
  0
ARC
  8
CSLAYER1
  6
CONTINUOUS
 62
     6
 10
192.105279
 20
219.809510
 40
1.290623
 50
16.257158
 51
84.999897
  0
ARC
  8
CSLAYER1
  6
CONTINUOUS
 62
     6
 10
191.377160
 20
220.901185
 40
0.258129
 50
85.000225
 51
179.942641
  0
ARC
  8
CSLAYER1
  6
CONTINUOUS
 62
     6
 10
184.617150
 20
217.657412
 40
9.089782
 50
-16.034611
 51
16.029030
  0
LINE
  8
CSLAYER1
  6
CONTINUOUS
 62
     6
 10
190.117180
 20
216.912538
 11
191.117180
 21
217.467347
  0
LINE
  8
CSLAYER1
  6
CONTINUOUS
 62
     6
 10
190.117180
 20
217.537538
 11
191.117180
 21
218.092347
  0
LINE
  8
CSLAYER1
  6
CONTINUOUS
 62
     6
 10
145.117150
 20
273.657416
 11
145.117150
 21
213.657415
  0
LINE
  8
CSLAYER1
  6
CONTINUOUS
 62
     6
 10
182.117150
 20
211.657412
 11
147.117150
 21
211.657415
  0
ARC
  8
CSLAYER1
  6
CONTINUOUS
 62
     6
 10
147.117150
 20
213.657415
 40
2.000000
 50
180.000000
 51
269.999994
  0
LINE
  8
CSLAYER1
  6
CONTINUOUS
 62
     6
 10
182.117157
 20
275.657412
 11
147.117157
 21
275.657415
  0
ARC
  8
CSLAYER1
  6
CONTINUOUS
 62
     6
 10
147.117156
 20
273.657415
 40
2.000000
 50
89.999994
 51
179.999988
  0
LINE
  8
CSLAYER1
  6
CONTINUOUS
 62
     6
 10
182.117150
 20
275.657430
 11
182.117150
 21
211.657400
  0
LINE
  8
CSLAYER1
  6
CONTINUOUS
 62
     6
 10
190.117150
 20
213.657400
 11
191.117150
 21
213.657400
  0
ARC
  8
CSLAYER1
  6
CONTINUOUS
 62
     6
 10
188.117150
 20
213.657400
 40
2.000000
 50
270.000003
 51
359.999991
  0
LINE
  8
CSLAYER1
  6
CONTINUOUS
 62
     6
 10
182.117150
 20
211.657400
 11
188.117150
 21
211.657400
  0
ARC
  8
CSLAYER1
  6
CONTINUOUS
 62
     6
 10
188.117150
 20
273.657430
 40
2.000000
 50
0.000005
 51
89.999973
  0
LINE
  8
CSLAYER1
  6
CONTINUOUS
 62
     6
 10
182.117150
 20
275.657430
 11
188.117150
 21
275.657430
  0
LINE
  8
CSLAYER1
  6
CONTINUOUS
 62
     6
 10
190.117150
 20
213.657400
 11
190.117150
 21
273.657430
  0
LINE
  8
CSLAYER1
  6
CONTINUOUS
 62
     6
 10
169.617147
 20
196.657413
 11
160.617147
 21
196.657414
  0
LINE
  8
CSLAYER1
  6
CONTINUOUS
 62
     6
 10
160.117147
 20
211.657414
 11
160.117147
 21
197.157414
  0
LINE
  8
CSLAYER1
  6
CONTINUOUS
 62
     6
 10
170.117147
 20
211.657413
 11
170.117147
 21
197.157413
  0
LINE
  8
CSLAYER1
  6
CONTINUOUS
 62
     6
 10
169.617147
 20
196.657413
 11
170.117147
 21
197.157413
  0
LINE
  8
CSLAYER1
  6
CONTINUOUS
 62
     6
 10
160.617147
 20
196.657414
 11
160.117147
 21
197.157414
  0
LINE
  8
CSLAYER1
  6
CONTINUOUS
 62
     6
 10
170.117147
 20
197.157413
 11
160.117147
 21
197.157414
  0
LINE
  8
CSLAYER1
  6
CENTER
 62
     3
 10
165.117147
 20
193.657414
 11
165.117147
 21
278.657414
  0
LINE
  8
CSLAYER1
  6
CENTER
 62
     3
 10
309.636871
 20
164.626546
 11
330.636871
 21
164.626546
  0
LINE
  8
CSLAYER1
  6
CONTINUOUS
 62
     6
 10
313.136871
 20
169.626546
 11
327.636871
 21
169.626546
  0
LINE
  8
CSLAYER1
  6
CONTINUOUS
 62
     6
 10
313.136871
 20
159.626546
 11
327.636871
 21
159.626546
  0
LINE
  8
CSLAYER1
  6
CONTINUOUS
 62
     6
 10
312.636871
 20
169.126546
 11
312.636871
 21
160.126546
  0
LINE
  8
CSLAYER1
  6
CONTINUOUS
 62
     6
 10
312.636871
 20
169.126546
 11
313.136871
 21
169.626546
  0
LINE
  8
CSLAYER1
  6
CONTINUOUS
 62
     6
 10
313.136871
 20
159.626546
 11
312.636871
 21
160.126546
  0
LINE
  8
CSLAYER1
  6
CONTINUOUS
 62
     6
 10
313.136871
 20
169.626546
 11
313.136871
 21
159.626546
  0
LINE
  8
CSLAYER1
  6
CENTER
 62
     3
 10
339.636871
 20
111.676607
 11
339.636871
 21
122.176607
  0
LINE
  8
CSLAYER1
  6
CENTER
 62
     3
 10
379.636871
 20
111.676607
 11
379.636871
 21
122.176607
  0
LINE
  8
CSLAYER1
  6
CENTER
 62
     3
 10
269.117150
 20
63.628292
 11
269.117150
 21
41.628292
  0
LINE
  8
CSLAYER1
  6
CONTINUOUS
 62
     6
 10
269.117150
 20
52.628292
 11
274.550622
 21
52.628292
  0
LINE
  8
CSLAYER1
  6
CONTINUOUS
 62
     6
 10
269.117150
 20
50.428295
 11
274.550622
 21
50.428295
  0
ARC
  8
CSLAYER1
  6
CONTINUOUS
 62
     6
 10
277.462853
 20
36.869442
 40
15.758816
 50
62.536193
 51
89.942682
  0
ARC
  8
CSLAYER1
  6
CONTINUOUS
 62
     6
 10
277.462853
 20
36.869442
 40
13.558834
 50
62.536193
 51
89.942682
  0
ARC
  8
CSLAYER1
  6
CONTINUOUS
 62
     6
 10
273.597985
 20
50.978298
 40
1.100006
 50
-30.000003
 51
29.999999
  0
ARC
  8
CSLAYER1
  6
CONTINUOUS
 62
     6
 10
273.597985
 20
52.078304
 40
1.100006
 50
-30.000003
 51
29.999999
  0
ARC
  8
CSLAYER1
  6
CONTINUOUS
 62
     6
 10
275.503258
 20
52.078304
 40
1.100006
 50
149.999989
 51
209.999977
  0
ARC
  8
CSLAYER1
  6
CONTINUOUS
 62
     6
 10
277.462853
 20
68.387142
 40
13.558834
 50
269.999975
 51
297.463872
  0
ARC
  8
CSLAYER1
  6
CONTINUOUS
 62
     6
 10
277.462822
 20
68.387127
 40
15.758816
 50
270.000003
 51
297.463872
  0
ARC
  8
CSLAYER1
  6
CONTINUOUS
 62
     6
 10
273.597985
 20
53.178310
 40
1.100006
 50
-30.000003
 51
29.999999
  0
ARC
  8
CSLAYER1
  6
CONTINUOUS
 62
     6
 10
273.597985
 20
54.278316
 40
1.100006
 50
-30.000003
 51
29.999999
  0
ARC
  8
CSLAYER1
  6
CONTINUOUS
 62
     6
 10
275.503258
 20
54.278316
 40
1.100006
 50
149.999989
 51
209.999977
  0
ARC
  8
CSLAYER1
  6
CONTINUOUS
 62
     6
 10
269.117150
 20
51.528286
 40
1.100006
 50
90.000001
 51
270.000019
  0
ARC
  8
CSLAYER1
  6
CONTINUOUS
 62
     6
 10
269.117150
 20
53.728298
 40
1.100006
 50
89.999973
 51
269.999992
  0
LINE
  8
CSLAYER1
  6
CONTINUOUS
 62
     6
 10
269.117150
 20
54.828289
 11
274.550622
 21
54.828289
  0
LINE
  8
CSLAYER1
  6
CONTINUOUS
 62
     6
 10
268.017113
 20
51.528286
 11
268.017113
 21
53.728298
  0
ARC
  8
CSLAYER1
  6
CONTINUOUS
 62
     6
 10
277.142220
 20
52.078258
 40
1.099999
 50
150.000344
 51
210.000332
  0
ARC
  8
CSLAYER1
  6
CONTINUOUS
 62
     6
 10
277.142228
 20
50.978267
 40
1.099999
 50
150.000344
 51
210.000332
  0
ARC
  8
CSLAYER1
  6
CONTINUOUS
 62
     6
 10
275.236977
 20
50.978252
 40
1.099999
 50
-29.999647
 51
30.000354
  0
ARC
  8
CSLAYER1
  6
CONTINUOUS
 62
     6
 10
277.142220
 20
54.278270
 40
1.099999
 50
150.000344
 51
210.000332
  0
ARC
  8
CSLAYER1
  6
CONTINUOUS
 62
     6
 10
277.142228
 20
53.178279
 40
1.099999
 50
150.000344
 51
210.000332
  0
ARC
  8
CSLAYER1
  6
CONTINUOUS
 62
     6
 10
275.236977
 20
53.178264
 40
1.099999
 50
-29.999647
 51
30.000354
  0
LINE
  8
CSLAYER1
  6
CONTINUOUS
 62
     6
 10
277.462792
 20
50.428279
 11
276.189599
 21
50.428279
  0
LINE
  8
CSLAYER1
  6
CONTINUOUS
 62
     6
 10
277.462822
 20
52.628307
 11
276.189599
 21
52.628307
  0
LINE
  8
CSLAYER1
  6
CONTINUOUS
 62
     6
 10
277.462792
 20
54.828273
 11
276.189599
 21
54.828273
  0
ARC
  8
CSLAYER1
  6
CONTINUOUS
 62
     6
 10
269.117150
 20
52.628292
 40
8.000000
 50
15.961884
 51
344.037904
  0
LINE
  8
CSLAYER1
  6
CONTINUOUS
 62
     6
 10
284.057763
 20
49.557842
 11
286.995873
 21
47.940685
  0
LINE
  8
CSLAYER1
  6
CONTINUOUS
 62
     6
 10
283.715966
 20
48.900219
 11
284.730614
 21
50.852275
  0
LINE
  8
CSLAYER1
  6
CONTINUOUS
 62
     6
 10
284.057824
 20
55.698742
 11
286.995873
 21
57.315914
  0
LINE
  8
CSLAYER1
  6
CONTINUOUS
 62
     6
 10
283.716027
 20
56.356365
 11
284.730614
 21
54.404308
  0
LINE
  8
CSLAYER1
  6
CONTINUOUS
 62
     6
 10
284.311913
 20
50.046764
 11
286.319359
 21
48.469982
  0
LINE
  8
CSLAYER1
  6
CONTINUOUS
 62
     6
 10
284.518883
 20
50.444896
 11
286.598656
 21
49.043407
  0
LINE
  8
CSLAYER1
  6
CONTINUOUS
 62
     6
 10
284.311913
 20
55.209819
 11
286.319359
 21
56.786602
  0
LINE
  8
CSLAYER1
  6
CONTINUOUS
 62
     6
 10
284.518883
 20
54.811687
 11
286.598717
 21
56.213192
  0
LINE
  8
CSLAYER1
  6
CONTINUOUS
 62
     6
 10
289.117150
 20
81.087159
 11
289.117150
 21
24.169403
  0
LINE
  8
CSLAYER1
  6
CONTINUOUS
 62
     6
 10
288.117150
 20
82.104615
 11
288.117150
 21
23.151948
  0
LINE
  8
CSLAYER1
  6
CONTINUOUS
 62
     6
 10
288.117302
 20
23.151950
 11
258.117135
 21
22.628297
  0
LINE
  8
CSLAYER1
  6
CONTINUOUS
 62
     6
 10
258.117150
 20
82.628274
 11
288.117302
 21
82.104612
  0
LINE
  8
CSLAYER1
  6
CONTINUOUS
 62
     6
 10
289.117150
 20
81.087159
 11
288.117302
 21
82.104612
  0
LINE
  8
CSLAYER1
  6
CONTINUOUS
 62
     6
 10
288.117302
 20
23.151950
 11
289.117150
 21
24.169403
  0
TEXT
  8
CSLAYER1
 62
     3
 10
225.470840
 20
168.176529
 40
3.500000
 41
1.125000
  1
N P
 50
90.000000
 51
10.000000
  7
JX_FONT
 72
     5
 11
225.470840
 21
178.676529
  0
LINE
  8
CSLAYER1
  6
CENTER
 62
     3
 10
176.117150
 20
112.176537
 11
176.117150
 21
120.176537
  0
LINE
  8
CSLAYER1
  6
CENTER
 62
     3
 10
151.117150
 20
112.176535
 11
151.117150
 21
120.176537
  0
ENDSEC
  0
EOF
