  0
SECTION
  2
HEADER
  9
$ACADVER
  1
AC1006
  9
$INSBASE
 10
0.000000
 20
0.000000
 30
0.0
  9
$EXTMIN
 10
0.000000
 20
0.000000
  9
$EXTMAX
 10
420.000000
 20
297.000000
  9
$LIMMIN
 10
0.000000
 20
0.000000
  9
$LIMMAX
 10
420.000000
 20
297.000000
  9
$VIEWCTR
 10
210.000000
 20
148.500000
  9
$VIEWSIZE
 40
297.000000
  9
$SNAPMODE
 70
     0
  9
$SNAPUNIT
 10
1.0
 20
1.0
  9
$SNAPBASE
 10
0.0
 20
0.0
  9
$SNAPANG
 50
0.0
  9
$SNAPSTYLE
 70
     0
  9
$SNAPISOPAIR
 70
     0
  9
$GRIDMODE
 70
     0
  9
$GRIDUNIT
 10
0.0
 20
0.0
  9
$ORTHOMODE
 70
     0
  9
$REGENMODE
 70
     1
  9
$FILLMODE
 70
     1
  9
$QTEXTMODE
 70
     0
  9
$DRAGMODE
 70
     2
  9
$LTSCALE
 40
15.000000
  9
$OSMODE
 70
     0
  9
$ATTMODE
 70
     1
  9
$TEXTSIZE
 40
0.2
  9
$TRACEWID
 40
0.05
  9
$TEXTSTYLE
  7
STANDARD
  9
$CLAYER
  8
CSLAYER1
  9
$CELTYPE
  6
BYLAYER
  9
$CECOLOR
 62
   256
  9
$DIMSCALE
 40
1.0
  9
$DIMASZ
 40
0.18
  9
$DIMEXO
 40
0.0625
  9
$DIMDLI
 40
0.38
  9
$DIMRND
 40
0.0
  9
$DIMDLE
 40
0.0
  9
$DIMEXE
 40
0.18
  9
$DIMTP
 40
0.0
  9
$DIMTM
 40
0.0
  9
$DIMTXT
 40
0.18
  9
$DIMCEN
 40
0.09
  9
$DIMTSZ
 40
0.0
  9
$DIMTOL
 70
     0
  9
$DIMLIM
 70
     0
  9
$DIMTIH
 70
     1
  9
$DIMTOH
 70
     1
  9
$DIMSE1
 70
     0
  9
$DIMSE2
 70
     0
  9
$DIMTAD
 70
     0
  9
$DIMZIN
 70
     0
  9
$DIMBLK
  1

  9
$LUNITS
 70
     2
  9
$LUPREC
 70
     4
  9
$AXISMODE
 70
     0
  9
$AXISUNIT
 10
0.0
 20
0.0
  9
$SKETCHINC
 40
0.1
  9
$FILLETRAD
 40
0.0
  9
$AUNITS
 70
     0
  9
$AUPREC
 70
     0
  9
$MENU
  1
ACAD
  9
$ELEVATION
 40
0.0
  9
$THICKNESS
 40
0.0
  9
$VIEWDIR
 10
0.0
 20
0.0
 30
1.0
  9
$LIMCHECK
 70
     0
  9
$BLIPMODE
 70
     1
  9
$CHAMFERA
 40
0.0
  9
$CHAMFERB
 40
0.0
  9
$FASTZOOM
 70
     1
  9
$SKPOLY
 70
     0
  9
$TDCREATE
 40
0.000000
  9
$TDUPDATE
 40
0.000000
  9
$TDINDWG
 40
0.0
  9
$TDUSRTIMER
 40
0.0
  9
$USRTIMER
 70
     1
  9
$ANGBASE
 50
0.0
  9
$ANGDIR
 70
     0
  9
$PDMODE
 70
     0
  9
$PDSIZE
 40
0.0
  9
$PLINEWID
 40
0.0
  9
$COORDS
 70
     0
  9
$USERI1
 70
     0
  9
$USERI2
 70
     0
  9
$USERI3
 70
     0
  9
$USERI4
 70
     0
  9
$USERI5
 70
     0
  9
$USERR1
 40
0.0
  9
$USERR2
 40
0.0
  9
$USERR3
 40
0.0
  9
$USERR4
 40
0.0
  9
$USERR5
 40
0.0
  0
ENDSEC
  0
SECTION
  2
TABLES
  0
TABLE
  2
LTYPE
 70
     9
  0
LTYPE
  2
CONTINUOUS
 70
    64
  3
Solid line
 72
    65
 73
     0
 40
0.0
  0
LTYPE
  2
DASHED
 70
    64
  3
__ __ __ __ __ __ __ __ __ __ __ __ __ __ __
 72
    65
 73
     2
 40
0.75
 49
0.5
 49
-0.25
  0
LTYPE
  2
HIDDEN
 70
    64
  3
_ _ _ _ _ _ _ _ _ _ _ _ _ _ _ _ _ _ _ _ _ _ _
 72
    65
 73
     2
 40
0.375
 49
0.25
 49
-0.125
  0
LTYPE
  2
DOT
 70
    64
  3
...............................................
 72
    65
 73
     2
 40
0.25
 49
0.0
 49
-0.25
  0
LTYPE
  2
DASHDOT
 70
    64
  3
__ . __ . __ . __ . __ . __ . __ . __ . __ . __
 72
    65
 73
     4
 40
1.0
 49
0.5
 49
-0.25
 49
0.0
 49
-0.25
  0
LTYPE
  2
DIVIDE
 70
    64
  3
__ . . __ . . __ . . __ . . __ . . __ . . __
 72
    65
 73
     6
 40
1.25
 49
0.5
 49
-0.25
 49
0.0
 49
-0.25
 49
0.0
 49
-0.25
  0
LTYPE
  2
CENTER
 70
    64
  3
____ _ ____ _ ____ _ ____ _ ____ _ ____ _ ____ 
 72
    65
 73
     4
 40
2.0
 49
1.25
 49
-0.25
 49
0.25
 49
-0.25
  0
LTYPE
  2
PHANTOM
 70
    64
  3
______  __  __  ______  __  __  ______  __  __ 
 72
    65
 73
     6
 40
2.5
 49
1.25
 49
-0.25
 49
0.25
 49
-0.25
 49
0.25
 49
-0.25
  0
LTYPE
  2
BORDER
 70
    64
  3
__ __ . __ __ . __ __ . __ __ . __ __ . __ __ .
 72
    65
 73
     6
 40
1.75
 49
0.5
 49
-0.25
 49
0.5
 49
-0.25
 49
0.0
 49
-0.25
  0
ENDTAB
  0
TABLE
  2
LAYER
 70
    16
  0
LAYER
  2
CSLAYER1
 70
    64
 62
     7
  6
CONTINUOUS
  0
LAYER
  2
CSLAYER2
 70
    64
 62
     7
  6
CONTINUOUS
  0
LAYER
  2
CSLAYER3
 70
    64
 62
     7
  6
CONTINUOUS
  0
LAYER
  2
CSLAYER4
 70
    64
 62
     7
  6
CONTINUOUS
  0
LAYER
  2
CSLAYER5
 70
    64
 62
     7
  6
CONTINUOUS
  0
LAYER
  2
CSLAYER6
 70
    64
 62
     7
  6
CONTINUOUS
  0
LAYER
  2
CSLAYER7
 70
    64
 62
     7
  6
CONTINUOUS
  0
LAYER
  2
CSLAYER8
 70
    64
 62
     7
  6
CONTINUOUS
  0
LAYER
  2
CSLAYER9
 70
    64
 62
     7
  6
CONTINUOUS
  0
LAYER
  2
CSLAYER10
 70
    64
 62
     7
  6
CONTINUOUS
  0
LAYER
  2
CSLAYER11
 70
    64
 62
     7
  6
CONTINUOUS
  0
LAYER
  2
CSLAYER12
 70
    64
 62
     7
  6
CONTINUOUS
  0
LAYER
  2
CSLAYER13
 70
    64
 62
     7
  6
CONTINUOUS
  0
LAYER
  2
CSLAYER14
 70
    64
 62
     7
  6
CONTINUOUS
  0
LAYER
  2
CSLAYER15
 70
    64
 62
     7
  6
CONTINUOUS
  0
LAYER
  2
CSLAYER16
 70
    64
 62
     7
  6
CONTINUOUS
  0
ENDTAB
  0
TABLE
  2
STYLE
 70
     1
  0
STYLE
  2
JX_FONT
 70
     0
 40
1.0
 41
1.0
 50
0.0
 71
     0
 42
1.0
  3
monotxt
  4
bigfont
  0
ENDTAB
  0
TABLE
  2
VIEW
 70
     0
  0
ENDTAB
  0
ENDSEC
  0
SECTION
  2
BLOCKS
  0
ENDSEC
  0
SECTION
  2
ENTITIES
  0
LINE
  8
CSLAYER1
  6
CENTER
 62
     3
 10
404.000000
 20
148.499992
 11
318.000000
 21
148.499992
  0
LINE
  8
CSLAYER1
  6
CENTER
 62
     3
 10
361.000000
 20
191.499992
 11
361.000000
 21
105.499992
  0
LINE
  8
CSLAYER1
  6
CENTER
 62
     3
 10
123.999979
 20
53.500012
 11
303.000000
 21
53.499992
  0
ARC
  8
CSLAYER1
  6
CENTER
 62
     3
 10
361.000000
 20
148.499992
 40
47.000000
 50
214.301068
 51
235.678932
  0
ARC
  8
CSLAYER1
  6
CENTER
 62
     3
 10
361.000000
 20
148.499992
 40
47.000000
 50
34.301068
 51
55.678932
  0
LINE
  8
CSLAYER1
  6
CENTER
 62
     3
 10
385.941497
 20
123.558494
 11
400.336336
 21
109.163656
  0
LINE
  8
CSLAYER1
  6
CENTER
 62
     3
 10
385.941497
 20
173.441489
 11
400.336336
 21
187.836327
  0
LINE
  8
CSLAYER1
  6
CENTER
 62
     3
 10
336.058503
 20
173.441489
 11
321.663664
 21
187.836327
  0
LINE
  8
CSLAYER1
  6
CENTER
 62
     3
 10
381.000000
 20
163.499992
 11
341.000000
 21
163.499992
  0
LINE
  8
CSLAYER1
  6
CENTER
 62
     3
 10
336.058503
 20
123.558494
 11
321.663664
 21
109.163656
  0
ARC
  8
CSLAYER1
  6
CONTINUOUS
 62
     6
 10
394.234019
 20
181.734010
 40
4.600000
 50
180.398154
 51
239.581846
  0
ARC
  8
CSLAYER1
  6
CONTINUOUS
 62
     6
 10
394.234019
 20
181.734010
 40
4.600000
 50
240.398154
 51
299.581846
  0
ARC
  8
CSLAYER1
  6
CONTINUOUS
 62
     6
 10
394.234019
 20
181.734010
 40
4.600000
 50
300.398154
 51
359.581846
  0
ARC
  8
CSLAYER1
  6
CONTINUOUS
 62
     6
 10
394.234019
 20
181.734010
 40
4.600000
 50
0.398154
 51
59.581846
  0
ARC
  8
CSLAYER1
  6
CONTINUOUS
 62
     6
 10
394.234019
 20
181.734010
 40
4.600000
 50
60.398154
 51
119.581846
  0
ARC
  8
CSLAYER1
  6
CONTINUOUS
 62
     6
 10
394.234019
 20
181.734010
 40
4.600000
 50
120.398154
 51
179.581846
  0
LINE
  8
CSLAYER1
  6
CONTINUOUS
 62
     6
 10
389.615217
 20
181.734816
 11
391.923920
 21
177.734413
  0
LINE
  8
CSLAYER1
  6
CONTINUOUS
 62
     6
 10
391.923920
 20
177.734413
 11
396.542722
 21
177.733607
  0
LINE
  8
CSLAYER1
  6
CONTINUOUS
 62
     6
 10
396.542722
 20
177.733607
 11
398.852821
 21
181.733204
  0
LINE
  8
CSLAYER1
  6
CONTINUOUS
 62
     6
 10
398.852821
 20
181.733204
 11
396.544118
 21
185.733607
  0
LINE
  8
CSLAYER1
  6
CONTINUOUS
 62
     6
 10
396.544118
 20
185.733607
 11
391.925316
 21
185.734413
  0
LINE
  8
CSLAYER1
  6
CONTINUOUS
 62
     6
 10
391.925316
 20
185.734413
 11
389.615217
 21
181.734816
  0
CIRCLE
  8
CSLAYER1
  6
CONTINUOUS
 62
     6
 10
394.234019
 20
181.734010
 40
3.880000
  0
CIRCLE
  8
CSLAYER1
  6
CONTINUOUS
 62
     3
 10
394.234019
 20
181.734010
 40
2.500000
  0
CIRCLE
  8
CSLAYER1
  6
CONTINUOUS
 62
     6
 10
394.234019
 20
181.734010
 40
2.075000
  0
ARC
  8
CSLAYER1
  6
CONTINUOUS
 62
     6
 10
394.234019
 20
115.265973
 40
4.600000
 50
120.398154
 51
179.581846
  0
ARC
  8
CSLAYER1
  6
CONTINUOUS
 62
     6
 10
394.234019
 20
115.265973
 40
4.600000
 50
180.398154
 51
239.581846
  0
ARC
  8
CSLAYER1
  6
CONTINUOUS
 62
     6
 10
394.234019
 20
115.265973
 40
4.600000
 50
240.398154
 51
299.581846
  0
ARC
  8
CSLAYER1
  6
CONTINUOUS
 62
     6
 10
394.234019
 20
115.265973
 40
4.600000
 50
300.398154
 51
359.581846
  0
ARC
  8
CSLAYER1
  6
CONTINUOUS
 62
     6
 10
394.234019
 20
115.265973
 40
4.600000
 50
0.398154
 51
59.581846
  0
ARC
  8
CSLAYER1
  6
CONTINUOUS
 62
     6
 10
394.234019
 20
115.265973
 40
4.600000
 50
60.398154
 51
119.581846
  0
LINE
  8
CSLAYER1
  6
CONTINUOUS
 62
     6
 10
391.925316
 20
119.266376
 11
389.615217
 21
115.266779
  0
LINE
  8
CSLAYER1
  6
CONTINUOUS
 62
     6
 10
389.615217
 20
115.266779
 11
391.923920
 21
111.266376
  0
LINE
  8
CSLAYER1
  6
CONTINUOUS
 62
     6
 10
391.923920
 20
111.266376
 11
396.542722
 21
111.265570
  0
LINE
  8
CSLAYER1
  6
CONTINUOUS
 62
     6
 10
396.542722
 20
111.265570
 11
398.852821
 21
115.265167
  0
LINE
  8
CSLAYER1
  6
CONTINUOUS
 62
     6
 10
398.852821
 20
115.265167
 11
396.544118
 21
119.265570
  0
LINE
  8
CSLAYER1
  6
CONTINUOUS
 62
     6
 10
396.544118
 20
119.265570
 11
391.925316
 21
119.266376
  0
CIRCLE
  8
CSLAYER1
  6
CONTINUOUS
 62
     6
 10
394.234019
 20
115.265973
 40
3.880000
  0
CIRCLE
  8
CSLAYER1
  6
CONTINUOUS
 62
     3
 10
394.234019
 20
115.265973
 40
2.500000
  0
CIRCLE
  8
CSLAYER1
  6
CONTINUOUS
 62
     6
 10
394.234019
 20
115.265973
 40
2.075000
  0
CIRCLE
  8
CSLAYER1
  6
CONTINUOUS
 62
     6
 10
361.000000
 20
163.499992
 40
5.000000
  0
LINE
  8
CSLAYER1
  6
CONTINUOUS
 62
     6
 10
358.500000
 20
165.499992
 11
356.417424
 21
165.499992
  0
LINE
  8
CSLAYER1
  6
CONTINUOUS
 62
     6
 10
358.500000
 20
161.499992
 11
356.417424
 21
161.499992
  0
LINE
  8
CSLAYER1
  6
CONTINUOUS
 62
     6
 10
358.500000
 20
165.499992
 11
358.500000
 21
161.499992
  0
LINE
  8
CSLAYER1
  6
CONTINUOUS
 62
     6
 10
394.249999
 20
108.499992
 11
327.750001
 21
108.499992
  0
LINE
  8
CSLAYER1
  6
CONTINUOUS
 62
     6
 10
394.249999
 20
188.499992
 11
327.750001
 21
188.499992
  0
LINE
  8
CSLAYER1
  6
CONTINUOUS
 62
     6
 10
401.000000
 20
181.749991
 11
401.000000
 21
115.249992
  0
LINE
  8
CSLAYER1
  6
CONTINUOUS
 62
     6
 10
321.000000
 20
181.749991
 11
321.000000
 21
115.249992
  0
CIRCLE
  8
CSLAYER1
  6
CONTINUOUS
 62
     6
 10
327.750001
 20
115.249992
 40
6.750001
  0
CIRCLE
  8
CSLAYER1
  6
CONTINUOUS
 62
     6
 10
394.249999
 20
115.249992
 40
6.750001
  0
CIRCLE
  8
CSLAYER1
  6
CONTINUOUS
 62
     6
 10
394.249999
 20
181.749991
 40
6.750001
  0
CIRCLE
  8
CSLAYER1
  6
CONTINUOUS
 62
     6
 10
327.750001
 20
181.749991
 40
6.750001
  0
CIRCLE
  8
CSLAYER1
  6
CONTINUOUS
 62
     6
 10
361.000000
 20
163.499992
 40
12.000000
  0
CIRCLE
  8
CSLAYER1
  6
CONTINUOUS
 62
     6
 10
361.000000
 20
163.499992
 40
17.000000
  0
ARC
  8
CSLAYER1
  6
CONTINUOUS
 62
     6
 10
327.758878
 20
115.270075
 40
4.600000
 50
0.398154
 51
59.581846
  0
ARC
  8
CSLAYER1
  6
CONTINUOUS
 62
     6
 10
327.758878
 20
115.270075
 40
4.600000
 50
60.398154
 51
119.581846
  0
ARC
  8
CSLAYER1
  6
CONTINUOUS
 62
     6
 10
327.758878
 20
115.270075
 40
4.600000
 50
120.398154
 51
179.581846
  0
ARC
  8
CSLAYER1
  6
CONTINUOUS
 62
     6
 10
327.758878
 20
115.270075
 40
4.600000
 50
180.398154
 51
239.581846
  0
ARC
  8
CSLAYER1
  6
CONTINUOUS
 62
     6
 10
327.758878
 20
115.270075
 40
4.600000
 50
240.398154
 51
299.581846
  0
ARC
  8
CSLAYER1
  6
CONTINUOUS
 62
     6
 10
327.758878
 20
115.270075
 40
4.600000
 50
300.398154
 51
359.581846
  0
LINE
  8
CSLAYER1
  6
CONTINUOUS
 62
     6
 10
332.377680
 20
115.269269
 11
330.068977
 21
119.269672
  0
LINE
  8
CSLAYER1
  6
CONTINUOUS
 62
     6
 10
330.068977
 20
119.269672
 11
325.450175
 21
119.270478
  0
LINE
  8
CSLAYER1
  6
CONTINUOUS
 62
     6
 10
325.450175
 20
119.270478
 11
323.140076
 21
115.270881
  0
LINE
  8
CSLAYER1
  6
CONTINUOUS
 62
     6
 10
323.140076
 20
115.270881
 11
325.448778
 21
111.270478
  0
LINE
  8
CSLAYER1
  6
CONTINUOUS
 62
     6
 10
325.448778
 20
111.270478
 11
330.067581
 21
111.269672
  0
LINE
  8
CSLAYER1
  6
CONTINUOUS
 62
     6
 10
330.067581
 20
111.269672
 11
332.377680
 21
115.269269
  0
CIRCLE
  8
CSLAYER1
  6
CONTINUOUS
 62
     6
 10
327.758878
 20
115.270075
 40
3.880000
  0
CIRCLE
  8
CSLAYER1
  6
CONTINUOUS
 62
     3
 10
327.758878
 20
115.270075
 40
2.500000
  0
CIRCLE
  8
CSLAYER1
  6
CONTINUOUS
 62
     6
 10
327.758878
 20
115.270075
 40
2.075000
  0
ARC
  8
CSLAYER1
  6
CONTINUOUS
 62
     6
 10
327.765981
 20
181.734010
 40
4.600000
 50
300.398154
 51
359.581846
  0
ARC
  8
CSLAYER1
  6
CONTINUOUS
 62
     6
 10
327.765981
 20
181.734010
 40
4.600000
 50
0.398154
 51
59.581846
  0
ARC
  8
CSLAYER1
  6
CONTINUOUS
 62
     6
 10
327.765981
 20
181.734010
 40
4.600000
 50
60.398154
 51
119.581846
  0
ARC
  8
CSLAYER1
  6
CONTINUOUS
 62
     6
 10
327.765981
 20
181.734010
 40
4.600000
 50
120.398154
 51
179.581846
  0
ARC
  8
CSLAYER1
  6
CONTINUOUS
 62
     6
 10
327.765981
 20
181.734010
 40
4.600000
 50
180.398154
 51
239.581846
  0
ARC
  8
CSLAYER1
  6
CONTINUOUS
 62
     6
 10
327.765981
 20
181.734010
 40
4.600000
 50
240.398154
 51
299.581846
  0
LINE
  8
CSLAYER1
  6
CONTINUOUS
 62
     6
 10
330.074684
 20
177.733607
 11
332.384783
 21
181.733204
  0
LINE
  8
CSLAYER1
  6
CONTINUOUS
 62
     6
 10
332.384783
 20
181.733204
 11
330.076080
 21
185.733607
  0
LINE
  8
CSLAYER1
  6
CONTINUOUS
 62
     6
 10
330.076080
 20
185.733607
 11
325.457278
 21
185.734413
  0
LINE
  8
CSLAYER1
  6
CONTINUOUS
 62
     6
 10
325.457278
 20
185.734413
 11
323.147179
 21
181.734816
  0
LINE
  8
CSLAYER1
  6
CONTINUOUS
 62
     6
 10
323.147179
 20
181.734816
 11
325.455882
 21
177.734413
  0
LINE
  8
CSLAYER1
  6
CONTINUOUS
 62
     6
 10
325.455882
 20
177.734413
 11
330.074684
 21
177.733607
  0
CIRCLE
  8
CSLAYER1
  6
CONTINUOUS
 62
     6
 10
327.765981
 20
181.734010
 40
3.880000
  0
CIRCLE
  8
CSLAYER1
  6
CONTINUOUS
 62
     3
 10
327.765981
 20
181.734010
 40
2.500000
  0
CIRCLE
  8
CSLAYER1
  6
CONTINUOUS
 62
     6
 10
327.765981
 20
181.734010
 40
2.075000
  0
LINE
  8
CSLAYER1
  6
CONTINUOUS
 62
     6
 10
158.000000
 20
84.500012
 11
158.000000
 21
22.500012
  0
LINE
  8
CSLAYER1
  6
CONTINUOUS
 62
     6
 10
158.000000
 20
84.500012
 11
225.495515
 21
84.500012
  0
LINE
  8
CSLAYER1
  6
CONTINUOUS
 62
     6
 10
158.000000
 20
22.500012
 11
225.495512
 21
22.500012
  0
LINE
  8
CSLAYER1
  6
CONTINUOUS
 62
     6
 10
225.000000
 20
22.500012
 11
225.000000
 21
84.500012
  0
LINE
  8
CSLAYER1
  6
CONTINUOUS
 62
     6
 10
228.500000
 20
14.500001
 11
228.500000
 21
92.500001
  0
LINE
  8
CSLAYER1
  6
CONTINUOUS
 62
     6
 10
235.000000
 20
13.500000
 11
235.000000
 21
93.500001
  0
ARC
  8
CSLAYER1
  6
CONTINUOUS
 62
     6
 10
229.500000
 20
92.500001
 40
1.000000
 50
89.999994
 51
180.000000
  0
ARC
  8
CSLAYER1
  6
CONTINUOUS
 62
     6
 10
229.500000
 20
14.500001
 40
1.000000
 50
180.000000
 51
269.999994
  0
LINE
  8
CSLAYER1
  6
CONTINUOUS
 62
     6
 10
235.000000
 20
93.500000
 11
229.500000
 21
93.500000
  0
LINE
  8
CSLAYER1
  6
CONTINUOUS
 62
     6
 10
235.000000
 20
13.500000
 11
229.500000
 21
13.500000
  0
ARC
  8
CSLAYER1
  6
CONTINUOUS
 62
     6
 10
261.226497
 20
86.734016
 40
8.773503
 50
-15.261480
 51
15.261480
  0
LINE
  8
CSLAYER1
  6
CONTINUOUS
 62
     6
 10
270.000000
 20
89.234016
 11
277.200000
 21
89.234016
  0
LINE
  8
CSLAYER1
  6
CONTINUOUS
 62
     6
 10
278.000000
 20
85.034016
 11
278.000000
 21
88.434016
  0
LINE
  8
CSLAYER1
  6
CONTINUOUS
 62
     6
 10
270.000000
 20
84.234016
 11
277.200000
 21
84.234016
  0
LINE
  8
CSLAYER1
  6
CONTINUOUS
 62
     6
 10
278.000000
 20
88.434016
 11
277.200000
 21
89.234016
  0
LINE
  8
CSLAYER1
  6
CONTINUOUS
 62
     6
 10
278.000000
 20
85.034016
 11
277.200000
 21
84.234016
  0
LINE
  8
CSLAYER1
  6
CONTINUOUS
 62
     6
 10
277.200000
 20
89.234016
 11
277.200000
 21
84.234016
  0
LINE
  8
CSLAYER1
  6
CONTINUOUS
 62
     3
 10
270.000000
 20
84.734016
 11
277.700000
 21
84.734016
  0
LINE
  8
CSLAYER1
  6
CONTINUOUS
 62
     3
 10
270.000000
 20
88.734016
 11
277.700000
 21
88.734016
  0
ARC
  8
CSLAYER1
  6
CONTINUOUS
 62
     6
 10
267.690599
 20
83.269914
 40
2.309401
 50
-15.446648
 51
30.000000
  0
ARC
  8
CSLAYER1
  6
CONTINUOUS
 62
     6
 10
267.690599
 20
90.198117
 40
2.309401
 50
-30.000000
 51
15.446648
  0
LINE
  8
CSLAYER1
  6
CONTINUOUS
 62
     6
 10
269.690599
 20
82.115214
 11
266.000000
 21
82.115214
  0
LINE
  8
CSLAYER1
  6
CONTINUOUS
 62
     6
 10
269.690599
 20
84.424615
 11
266.000000
 21
84.424615
  0
LINE
  8
CSLAYER1
  6
CONTINUOUS
 62
     6
 10
269.690599
 20
89.043417
 11
266.000000
 21
89.043417
  0
LINE
  8
CSLAYER1
  6
CONTINUOUS
 62
     6
 10
269.690599
 20
91.352818
 11
266.000000
 21
91.352818
  0
LINE
  8
CSLAYER1
  6
CONTINUOUS
 62
     6
 10
270.000000
 20
82.854016
 11
270.000000
 21
90.614016
  0
LINE
  8
CSLAYER1
  6
CONTINUOUS
 62
     6
 10
266.000000
 20
82.115214
 11
266.000000
 21
91.352818
  0
LINE
  8
CSLAYER1
  6
CONTINUOUS
 62
     6
 10
270.000000
 20
82.854016
 11
269.690599
 21
82.115214
  0
LINE
  8
CSLAYER1
  6
CONTINUOUS
 62
     6
 10
270.000000
 20
90.614016
 11
269.690599
 21
91.352818
  0
LINE
  8
CSLAYER1
  6
CONTINUOUS
 62
     6
 10
266.000000
 20
82.134016
 11
265.000000
 21
82.134016
  0
LINE
  8
CSLAYER1
  6
CONTINUOUS
 62
     6
 10
265.000000
 20
91.334016
 11
266.000000
 21
91.334016
  0
LINE
  8
CSLAYER1
  6
CONTINUOUS
 62
     6
 10
266.000000
 20
87.470016
 11
265.000000
 21
87.102016
  0
LINE
  8
CSLAYER1
  6
CONTINUOUS
 62
     6
 10
266.000000
 20
86.366016
 11
265.000000
 21
85.998016
  0
ARC
  8
CSLAYER1
  6
CONTINUOUS
 62
     6
 10
267.690592
 20
16.801874
 40
2.309401
 50
-15.446648
 51
30.000000
  0
ARC
  8
CSLAYER1
  6
CONTINUOUS
 62
     6
 10
261.226490
 20
20.265976
 40
8.773503
 50
-15.261480
 51
15.261480
  0
ARC
  8
CSLAYER1
  6
CONTINUOUS
 62
     6
 10
267.690592
 20
23.730077
 40
2.309401
 50
-30.000000
 51
15.446648
  0
LINE
  8
CSLAYER1
  6
CONTINUOUS
 62
     6
 10
269.690592
 20
15.647174
 11
265.999993
 21
15.647174
  0
LINE
  8
CSLAYER1
  6
CONTINUOUS
 62
     6
 10
269.690592
 20
17.956575
 11
265.999993
 21
17.956575
  0
LINE
  8
CSLAYER1
  6
CONTINUOUS
 62
     6
 10
269.690592
 20
22.575377
 11
265.999993
 21
22.575377
  0
LINE
  8
CSLAYER1
  6
CONTINUOUS
 62
     6
 10
269.690592
 20
24.884778
 11
265.999993
 21
24.884778
  0
LINE
  8
CSLAYER1
  6
CONTINUOUS
 62
     6
 10
269.999993
 20
16.385976
 11
269.999993
 21
24.145976
  0
LINE
  8
CSLAYER1
  6
CONTINUOUS
 62
     6
 10
265.999993
 20
15.647174
 11
265.999993
 21
24.884778
  0
LINE
  8
CSLAYER1
  6
CONTINUOUS
 62
     6
 10
269.999993
 20
16.385976
 11
269.690592
 21
15.647174
  0
LINE
  8
CSLAYER1
  6
CONTINUOUS
 62
     6
 10
269.999993
 20
24.145976
 11
269.690592
 21
24.884778
  0
LINE
  8
CSLAYER1
  6
CONTINUOUS
 62
     6
 10
265.999993
 20
15.665976
 11
264.999993
 21
15.665976
  0
LINE
  8
CSLAYER1
  6
CONTINUOUS
 62
     6
 10
264.999993
 20
24.865976
 11
265.999993
 21
24.865976
  0
LINE
  8
CSLAYER1
  6
CONTINUOUS
 62
     6
 10
264.999993
 20
15.665976
 11
264.999993
 21
24.865976
  0
LINE
  8
CSLAYER1
  6
CONTINUOUS
 62
     6
 10
265.999993
 20
21.001976
 11
264.999993
 21
20.633976
  0
LINE
  8
CSLAYER1
  6
CONTINUOUS
 62
     6
 10
265.999993
 20
19.897976
 11
264.999993
 21
19.529976
  0
LINE
  8
CSLAYER1
  6
CONTINUOUS
 62
     6
 10
235.000000
 20
93.500000
 11
264.000000
 21
93.499996
  0
LINE
  8
CSLAYER1
  6
CONTINUOUS
 62
     6
 10
265.000000
 20
80.999996
 11
265.000000
 21
92.499996
  0
LINE
  8
CSLAYER1
  6
CONTINUOUS
 62
     6
 10
264.000000
 20
20.265976
 11
264.000000
 21
86.734016
  0
ARC
  8
CSLAYER1
  6
CONTINUOUS
 62
     6
 10
264.000000
 20
92.499996
 40
1.000000
 50
0.000000
 51
89.999994
  0
ARC
  8
CSLAYER1
  6
CONTINUOUS
 62
     6
 10
264.000000
 20
80.999996
 40
1.000000
 50
269.999994
 51
360.000000
  0
LINE
  8
CSLAYER1
  6
CONTINUOUS
 62
     6
 10
264.999994
 20
25.999996
 11
264.999992
 21
14.499996
  0
ARC
  8
CSLAYER1
  6
CONTINUOUS
 62
     6
 10
263.999992
 20
14.499996
 40
1.000000
 50
269.999994
 51
359.999988
  0
ARC
  8
CSLAYER1
  6
CONTINUOUS
 62
     6
 10
263.999994
 20
25.999996
 40
1.000000
 50
-0.000012
 51
89.999994
  0
LINE
  8
CSLAYER1
  6
CONTINUOUS
 62
     6
 10
235.000000
 20
13.500000
 11
263.999991
 21
13.499996
  0
LINE
  8
CSLAYER1
  6
CONTINUOUS
 62
     6
 10
270.000000
 20
37.999995
 11
270.000000
 21
68.999995
  0
LINE
  8
CSLAYER1
  6
CONTINUOUS
 62
     6
 10
265.500000
 20
70.499996
 11
268.500000
 21
70.499995
  0
LINE
  8
CSLAYER1
  6
CONTINUOUS
 62
     6
 10
265.500000
 20
36.499996
 11
268.500000
 21
36.499995
  0
ARC
  8
CSLAYER1
  6
CONTINUOUS
 62
     6
 10
268.500000
 20
68.999995
 40
1.500000
 50
0.000000
 51
89.999994
  0
ARC
  8
CSLAYER1
  6
CONTINUOUS
 62
     6
 10
265.500000
 20
71.999996
 40
1.500000
 50
180.000000
 51
269.999994
  0
ARC
  8
CSLAYER1
  6
CONTINUOUS
 62
     6
 10
268.500000
 20
37.999995
 40
1.500000
 50
269.999994
 51
360.000000
  0
ARC
  8
CSLAYER1
  6
CONTINUOUS
 62
     6
 10
265.500000
 20
34.999996
 40
1.500000
 50
89.999994
 51
180.000000
  0
LINE
  8
CSLAYER1
  6
CONTINUOUS
 62
     6
 10
265.000001
 20
92.468035
 11
264.999999
 21
80.968035
  0
LINE
  8
CSLAYER1
  6
CONTINUOUS
 62
     6
 10
300.000000
 20
48.499992
 11
300.000000
 21
58.499992
  0
LINE
  8
CSLAYER1
  6
CONTINUOUS
 62
     6
 10
270.000000
 20
58.499995
 11
300.000000
 21
58.499992
  0
LINE
  8
CSLAYER1
  6
CONTINUOUS
 62
     6
 10
269.999999
 20
48.499995
 11
299.999999
 21
48.499992
  0
LINE
  8
CSLAYER1
  6
CONTINUOUS
 62
     6
 10
277.000000
 20
165.499994
 11
300.000000
 21
165.499992
  0
LINE
  8
CSLAYER1
  6
CONTINUOUS
 62
     6
 10
277.000000
 20
161.499994
 11
300.000000
 21
161.499992
  0
ARC
  8
CSLAYER1
  6
CONTINUOUS
 62
     6
 10
277.000000
 20
163.499994
 40
2.000000
 50
89.999994
 51
269.999994
  0
LINE
  8
CSLAYER1
  6
CONTINUOUS
 62
     6
 10
269.999993
 20
22.765976
 11
277.199993
 21
22.765976
  0
LINE
  8
CSLAYER1
  6
CONTINUOUS
 62
     6
 10
277.999993
 20
18.565976
 11
277.999993
 21
21.965976
  0
LINE
  8
CSLAYER1
  6
CONTINUOUS
 62
     6
 10
269.999993
 20
17.765976
 11
277.199993
 21
17.765976
  0
LINE
  8
CSLAYER1
  6
CONTINUOUS
 62
     6
 10
277.999993
 20
21.965976
 11
277.199993
 21
22.765976
  0
LINE
  8
CSLAYER1
  6
CONTINUOUS
 62
     6
 10
277.999993
 20
18.565976
 11
277.199993
 21
17.765976
  0
LINE
  8
CSLAYER1
  6
CONTINUOUS
 62
     6
 10
277.199993
 20
22.765976
 11
277.199993
 21
17.765976
  0
LINE
  8
CSLAYER1
  6
CONTINUOUS
 62
     3
 10
269.999993
 20
18.265976
 11
277.699993
 21
18.265976
  0
LINE
  8
CSLAYER1
  6
CONTINUOUS
 62
     3
 10
269.999993
 20
22.265976
 11
277.699993
 21
22.265976
  0
LINE
  8
CSLAYER1
  6
CENTER
 62
     3
 10
222.272416
 20
86.734016
 11
280.240258
 21
86.734016
  0
LINE
  8
CSLAYER1
  6
CONTINUOUS
 62
     6
 10
228.149119
 20
91.077658
 11
227.132714
 21
90.990032
  0
ARC
  8
CSLAYER1
  6
CONTINUOUS
 62
     6
 10
227.273358
 20
89.405557
 40
1.602152
 50
95.000118
 51
163.742789
  0
ARC
  8
CSLAYER1
  6
CONTINUOUS
 62
     6
 10
228.177229
 20
90.760778
 40
0.320436
 50
-0.000017
 51
94.999718
  0
LINE
  8
CSLAYER1
  6
CONTINUOUS
 62
     6
 10
228.149119
 20
82.390351
 11
227.132714
 21
82.477977
  0
ARC
  8
CSLAYER1
  6
CONTINUOUS
 62
     6
 10
227.273358
 20
84.062451
 40
1.602152
 50
196.257208
 51
264.999892
  0
ARC
  8
CSLAYER1
  6
CONTINUOUS
 62
     6
 10
228.177229
 20
82.707231
 40
0.320436
 50
265.000275
 51
359.942691
  0
LINE
  8
CSLAYER1
  6
CONTINUOUS
 62
     6
 10
228.149111
 20
15.922344
 11
227.132705
 21
16.009970
  0
ARC
  8
CSLAYER1
  6
CONTINUOUS
 62
     6
 10
227.273350
 20
17.594444
 40
1.602152
 50
196.257199
 51
264.999870
  0
ARC
  8
CSLAYER1
  6
CONTINUOUS
 62
     6
 10
228.177221
 20
16.239224
 40
0.320436
 50
-94.999730
 51
0.000005
  0
LINE
  8
CSLAYER1
  6
CONTINUOUS
 62
     6
 10
228.149113
 20
24.609650
 11
227.132707
 21
24.522025
  0
ARC
  8
CSLAYER1
  6
CONTINUOUS
 62
     6
 10
227.273351
 20
22.937550
 40
1.602152
 50
95.000095
 51
163.742780
  0
ARC
  8
CSLAYER1
  6
CONTINUOUS
 62
     6
 10
228.177223
 20
24.292770
 40
0.320436
 50
0.057296
 51
94.999713
  0
LINE
  8
CSLAYER1
  6
CENTER
 62
     3
 10
221.972408
 20
20.265987
 11
280.240258
 21
20.265972
  0
ARC
  8
CSLAYER1
  6
CONTINUOUS
 62
     6
 10
236.568966
 20
86.734004
 40
11.296550
 50
163.933744
 51
196.066255
  0
ARC
  8
CSLAYER1
  6
CONTINUOUS
 62
     6
 10
236.568958
 20
20.265995
 40
11.296550
 50
163.933732
 51
196.066243
  0
LINE
  8
CSLAYER1
  6
CENTER
 62
     3
 10
105.969902
 20
148.500024
 11
19.969932
 21
148.500005
  0
CIRCLE
  8
CSLAYER1
  6
CONTINUOUS
 62
     6
 10
62.969902
 20
148.500022
 40
30.000000
  0
ARC
  8
CSLAYER1
  6
CONTINUOUS
 62
     6
 10
62.969902
 20
148.500022
 40
31.000000
 50
-85.930420
 51
265.930438
  0
LINE
  8
CSLAYER1
  6
CONTINUOUS
 62
     6
 10
65.169899
 20
107.940157
 11
65.169906
 21
118.580802
  0
LINE
  8
CSLAYER1
  6
CONTINUOUS
 62
     6
 10
60.769901
 20
107.940157
 11
60.769909
 21
118.580802
  0
LINE
  8
CSLAYER1
  6
CONTINUOUS
 62
     6
 10
62.969894
 20
107.940157
 11
62.969909
 21
118.580802
  0
ARC
  8
CSLAYER1
  6
CONTINUOUS
 62
     6
 10
78.728923
 20
105.028010
 40
15.759004
 50
180.000235
 51
207.463987
  0
ARC
  8
CSLAYER1
  6
CONTINUOUS
 62
     6
 10
78.728923
 20
105.028010
 40
13.559023
 50
180.000308
 51
207.464006
  0
ARC
  8
CSLAYER1
  6
CONTINUOUS
 62
     6
 10
63.519920
 20
108.892778
 40
1.099999
 50
239.999870
 51
299.999858
  0
ARC
  8
CSLAYER1
  6
CONTINUOUS
 62
     6
 10
64.619918
 20
108.892778
 40
1.099999
 50
239.999870
 51
299.999858
  0
ARC
  8
CSLAYER1
  6
CONTINUOUS
 62
     6
 10
64.619911
 20
106.987535
 40
1.099999
 50
59.999858
 51
119.999853
  0
ARC
  8
CSLAYER1
  6
CONTINUOUS
 62
     6
 10
64.619901
 20
104.075295
 40
1.099999
 50
59.999715
 51
119.999716
  0
ARC
  8
CSLAYER1
  6
CONTINUOUS
 62
     6
 10
63.519903
 20
104.075310
 40
1.099999
 50
59.999715
 51
119.999716
  0
ARC
  8
CSLAYER1
  6
CONTINUOUS
 62
     6
 10
63.519910
 20
105.980568
 40
1.099999
 50
239.999733
 51
299.999721
  0
LINE
  8
CSLAYER1
  6
CONTINUOUS
 62
     6
 10
66.209982
 20
98.521065
 11
67.986826
 21
95.500066
  0
LINE
  8
CSLAYER1
  6
CONTINUOUS
 62
     6
 10
65.721966
 20
98.267418
 11
67.336143
 21
95.161860
  0
LINE
  8
CSLAYER1
  6
CONTINUOUS
 62
     6
 10
65.233953
 20
98.013765
 11
66.685460
 21
94.823654
  0
LINE
  8
CSLAYER1
  6
CONTINUOUS
 62
     6
 10
66.697994
 20
98.774720
 11
64.745945
 21
97.760102
  0
ARC
  8
CSLAYER1
  6
CONTINUOUS
 62
     6
 10
47.210940
 20
105.027837
 40
15.758933
 50
-27.463461
 51
0.000397
  0
ARC
  8
CSLAYER1
  6
CONTINUOUS
 62
     6
 10
47.210940
 20
105.027837
 40
13.558951
 50
-27.463363
 51
0.000417
  0
ARC
  8
CSLAYER1
  6
CONTINUOUS
 62
     6
 10
61.319877
 20
108.892778
 40
1.099999
 50
240.000198
 51
300.000186
  0
ARC
  8
CSLAYER1
  6
CONTINUOUS
 62
     6
 10
62.419876
 20
108.892778
 40
1.099999
 50
240.000198
 51
300.000186
  0
ARC
  8
CSLAYER1
  6
CONTINUOUS
 62
     6
 10
62.419883
 20
106.987535
 40
1.099999
 50
60.000186
 51
120.000181
  0
ARC
  8
CSLAYER1
  6
CONTINUOUS
 62
     6
 10
62.419897
 20
104.075325
 40
1.099999
 50
60.000350
 51
120.000345
  0
ARC
  8
CSLAYER1
  6
CONTINUOUS
 62
     6
 10
61.319898
 20
104.075310
 40
1.099999
 50
60.000350
 51
120.000345
  0
ARC
  8
CSLAYER1
  6
CONTINUOUS
 62
     6
 10
61.319887
 20
105.980568
 40
1.099999
 50
240.000362
 51
300.000350
  0
LINE
  8
CSLAYER1
  6
CENTER
 62
     3
 10
62.969917
 20
94.823654
 11
62.969917
 21
191.499999
  0
CIRCLE
  8
CSLAYER1
  6
CONTINUOUS
 62
     6
 10
62.969894
 20
148.500022
 40
6.818180
  0
CIRCLE
  8
CSLAYER1
  6
CONTINUOUS
 62
     6
 10
62.969894
 20
148.500022
 40
7.909089
  0
LINE
  8
CSLAYER1
  6
CONTINUOUS
 62
     6
 10
56.151714
 20
148.500022
 11
66.378982
 21
145.090934
  0
LINE
  8
CSLAYER1
  6
CONTINUOUS
 62
     6
 10
66.378982
 20
145.090934
 11
66.420677
 21
148.500022
  0
LINE
  8
CSLAYER1
  6
CONTINUOUS
 62
     6
 10
66.420677
 20
148.500022
 11
69.788078
 21
148.500022
  0
LINE
  8
CSLAYER1
  6
CONTINUOUS
 62
     6
 10
59.560806
 20
151.909110
 11
59.583942
 21
148.500022
  0
LINE
  8
CSLAYER1
  6
CONTINUOUS
 62
     6
 10
59.583942
 20
148.500022
 11
56.151714
 21
148.500022
  0
TEXT
  8
CSLAYER1
 62
     6
 10
48.137077
 20
146.531921
 40
3.409090
 41
1.200000
  1
S
 50
282.000000
 51
3.000000
  7
JX_FONT
 72
     5
 11
48.704109
 21
143.864247
  0
TEXT
  8
CSLAYER1
 62
     6
 10
48.870399
 20
143.491028
 40
3.409090
 41
1.200000
  1
A
 50
294.000031
 51
3.000000
  7
JX_FONT
 72
     5
 11
49.979682
 21
140.999541
  0
TEXT
  8
CSLAYER1
 62
     6
 10
50.219933
 20
140.669037
 40
3.409090
 41
1.596000
  1
W
 50
306.000031
 51
3.000000
  7
JX_FONT
 72
     5
 11
52.351991
 21
137.734513
  0
TEXT
  8
CSLAYER1
 62
     6
 10
52.126701
 20
138.189301
 40
3.409090
 41
1.200000
  1
A
 50
318.000000
 51
3.000000
  7
JX_FONT
 72
     5
 11
54.153459
 21
136.364399
  0
TEXT
  8
CSLAYER1
 62
     6
 10
54.507362
 20
136.160202
 40
3.409090
 41
1.200000
  1
M
 50
330.000000
 51
3.000000
  7
JX_FONT
 72
     5
 11
56.869249
 21
134.796566
  0
TEXT
  8
CSLAYER1
 62
     6
 10
57.257866
 20
134.670410
 40
3.409090
 41
1.200000
  1
U
 50
342.000000
 51
3.000000
  7
JX_FONT
 72
     5
 11
59.851656
 21
133.827637
  0
TEXT
  8
CSLAYER1
 62
     6
 10
60.258018
 20
133.785034
 40
3.409090
 41
1.200000
  1
R
 50
353.999969
 51
3.000000
  7
JX_FONT
 72
     5
 11
62.970350
 21
133.499955
  0
TEXT
  8
CSLAYER1
 62
     6
 10
63.376717
 20
133.542755
 40
3.409090
 41
1.200000
  1
A
 50
6.000000
 51
3.000000
  7
JX_FONT
 72
     5
 11
66.089048
 21
133.827833
  0
TEXT
  8
CSLAYER1
 62
     6
 10
76.126625
 20
141.373734
 40
3.409090
 41
1.200000
  1
K
 50
66.000046
 51
3.000000
  7
JX_FONT
 72
     5
 11
77.235905
 21
143.865221
  0
TEXT
  8
CSLAYER1
 62
     6
 10
77.320747
 20
144.264877
 40
3.409090
 41
0.792000
  1
I
 50
78.000000
 51
3.000000
  7
JX_FONT
 72
     5
 11
77.694988
 21
146.025543
  0
TEXT
  8
CSLAYER1
 62
     6
 10
69.425209
 20
135.001358
 40
3.409090
 41
1.200000
  1
D
 50
30.000031
 51
3.000000
  7
JX_FONT
 72
     5
 11
71.787095
 21
136.364995
  0
TEXT
  8
CSLAYER1
 62
     6
 10
72.090660
 20
136.638474
 40
3.409090
 41
1.200000
  1
E
 50
41.999969
 51
3.000000
  7
JX_FONT
 72
     5
 11
74.117419
 21
138.463374
  0
TEXT
  8
CSLAYER1
 62
     6
 10
74.357491
 20
138.794022
 40
3.409090
 41
1.200000
  1
N
 50
54.000061
 51
3.000000
  7
JX_FONT
 72
     5
 11
75.960538
 21
141.000433
  0
TEXT
  8
CSLAYER1
 62
     6
 10
48.052025
 20
149.658737
 40
3.410000
 41
1.200000
  1
*
 50
270.000000
 51
3.000000
  7
JX_FONT
 72
     5
 11
48.052025
 21
146.930737
  0
TEXT
  8
CSLAYER1
 62
     6
 10
68.681923
 20
162.329590
 40
3.409090
 41
1.200000
  1
U
 50
162.000000
 51
3.000000
  7
JX_FONT
 72
     5
 11
66.088133
 21
163.172363
  0
TEXT
  8
CSLAYER1
 62
     6
 10
65.681770
 20
163.214966
 40
3.409090
 41
1.200000
  1
R
 50
174.000000
 51
3.000000
  7
JX_FONT
 72
     5
 11
62.969439
 21
163.500043
  0
TEXT
  8
CSLAYER1
 62
     6
 10
62.563087
 20
163.457245
 40
3.409090
 41
1.200000
  1
A
 50
186.000000
 51
3.000000
  7
JX_FONT
 72
     5
 11
59.850756
 21
163.172167
  0
TEXT
  8
CSLAYER1
 62
     6
 10
49.813164
 20
155.626266
 40
3.409090
 41
1.200000
  1
K
 50
246.000061
 51
3.000000
  7
JX_FONT
 72
     5
 11
48.703885
 21
153.134778
  0
TEXT
  8
CSLAYER1
 62
     6
 10
48.619041
 20
152.735123
 40
3.409090
 41
0.792000
  1
I
 50
258.000000
 51
3.000000
  7
JX_FONT
 72
     5
 11
48.244800
 21
150.974457
  0
TEXT
  8
CSLAYER1
 62
     6
 10
56.514580
 20
161.998642
 40
3.409090
 41
1.200000
  1
D
 50
210.000061
 51
3.000000
  7
JX_FONT
 72
     5
 11
54.152694
 21
160.635003
  0
TEXT
  8
CSLAYER1
 62
     6
 10
53.849129
 20
160.361526
 40
3.409090
 41
1.200000
  1
E
 50
221.999969
 51
3.000000
  7
JX_FONT
 72
     5
 11
51.822370
 21
158.536626
  0
TEXT
  8
CSLAYER1
 62
     6
 10
51.582314
 20
158.205978
 40
3.409090
 41
1.200000
  1
N
 50
234.000061
 51
3.000000
  7
JX_FONT
 72
     5
 11
49.979266
 21
155.999567
  0
TEXT
  8
CSLAYER1
 62
     6
 10
77.802711
 20
150.468079
 40
3.409090
 41
1.200000
  1
S
 50
102.000000
 51
3.000000
  7
JX_FONT
 72
     5
 11
77.235680
 21
153.135753
  0
TEXT
  8
CSLAYER1
 62
     6
 10
77.069405
 20
153.508972
 40
3.409090
 41
1.200000
  1
A
 50
114.000046
 51
3.000000
  7
JX_FONT
 72
     5
 11
75.960121
 21
156.000458
  0
TEXT
  8
CSLAYER1
 62
     6
 10
75.719856
 20
156.330963
 40
3.409090
 41
1.596000
  1
W
 50
126.000031
 51
3.000000
  7
JX_FONT
 72
     5
 11
73.587798
 21
159.265487
  0
TEXT
  8
CSLAYER1
 62
     6
 10
73.813087
 20
158.810699
 40
3.409090
 41
1.200000
  1
A
 50
138.000031
 51
3.000000
  7
JX_FONT
 72
     5
 11
71.786328
 21
160.635600
  0
TEXT
  8
CSLAYER1
 62
     6
 10
71.432426
 20
160.839798
 40
3.409090
 41
1.200000
  1
M
 50
150.000015
 51
3.000000
  7
JX_FONT
 72
     5
 11
69.070539
 21
162.203433
  0
TEXT
  8
CSLAYER1
 62
     6
 10
77.887764
 20
147.341263
 40
3.410000
 41
1.200000
  1
*
 50
90.000000
 51
3.000000
  7
JX_FONT
 72
     5
 11
77.887764
 21
150.069263
  0
CIRCLE
  8
CSLAYER1
  6
CONTINUOUS
 62
     6
 10
62.969894
 20
148.500022
 40
16.000000
  0
CIRCLE
  8
CSLAYER1
  6
CONTINUOUS
 62
     6
 10
62.969894
 20
148.500022
 40
17.000000
  0
LINE
  8
CSLAYER1
  6
CONTINUOUS
 62
     6
 10
69.788070
 20
148.500025
 11
59.560806
 21
151.909110
  0
LINE
  8
CSLAYER1
  6
CONTINUOUS
 62
     6
 10
59.583942
 20
148.500038
 11
59.583942
 21
148.500022
  0
LINE
  8
CSLAYER1
  6
CONTINUOUS
 62
     6
 10
59.729859
 20
98.521064
 11
57.953015
 21
95.500064
  0
LINE
  8
CSLAYER1
  6
CONTINUOUS
 62
     6
 10
60.217875
 20
98.267416
 11
58.603699
 21
95.161859
  0
LINE
  8
CSLAYER1
  6
CONTINUOUS
 62
     6
 10
60.705887
 20
98.013764
 11
59.254382
 21
94.823653
  0
LINE
  8
CSLAYER1
  6
CONTINUOUS
 62
     6
 10
59.241878
 20
98.774702
 11
61.193922
 21
97.760087
  0
ARC
  8
CSLAYER1
  6
CENTER
 62
     3
 10
361.000000
 20
148.499992
 40
47.000000
 50
124.321068
 51
145.698932
  0
ARC
  8
CSLAYER1
  6
CENTER
 62
     3
 10
361.000000
 20
148.499992
 40
47.000000
 50
304.321068
 51
325.698932
  0
LINE
  8
CSLAYER1
  6
CONTINUOUS
 62
     6
 10
28.969902
 20
188.500022
 11
96.969902
 21
188.500022
  0
LINE
  8
CSLAYER1
  6
CONTINUOUS
 62
     6
 10
28.969902
 20
108.500022
 11
60.769901
 21
108.500022
  0
LINE
  8
CSLAYER1
  6
CONTINUOUS
 62
     6
 10
22.969902
 20
114.500022
 11
22.969902
 21
182.500022
  0
LINE
  8
CSLAYER1
  6
CONTINUOUS
 62
     6
 10
102.969902
 20
114.500022
 11
102.969902
 21
182.500022
  0
ARC
  8
CSLAYER1
  6
CONTINUOUS
 62
     6
 10
96.969902
 20
182.500022
 40
6.000000
 50
0.000000
 51
90.000000
  0
ARC
  8
CSLAYER1
  6
CONTINUOUS
 62
     6
 10
28.969902
 20
182.500022
 40
6.000000
 50
90.000000
 51
180.000000
  0
ARC
  8
CSLAYER1
  6
CONTINUOUS
 62
     6
 10
28.969902
 20
114.500022
 40
6.000000
 50
180.000000
 51
270.000000
  0
ARC
  8
CSLAYER1
  6
CONTINUOUS
 62
     6
 10
96.969902
 20
114.500022
 40
6.000000
 50
270.000000
 51
360.000000
  0
ARC
  8
CSLAYER1
  6
CENTER
 62
     3
 10
62.969910
 20
148.500007
 40
47.000000
 50
305.548947
 51
324.451077
  0
LINE
  8
CSLAYER1
  6
CENTER
 62
     3
 10
90.728123
 20
120.741806
 11
101.679748
 21
109.790185
  0
CIRCLE
  8
CSLAYER1
  6
CONTINUOUS
 62
     6
 10
96.203936
 20
115.265996
 40
4.500000
  0
ARC
  8
CSLAYER1
  6
CONTINUOUS
 62
     6
 10
96.203937
 20
115.266012
 40
2.500000
 50
73.398416
 51
106.601577
  0
ARC
  8
CSLAYER1
  6
CONTINUOUS
 62
     6
 10
96.203937
 20
115.266012
 40
2.500000
 50
163.398422
 51
196.601583
  0
ARC
  8
CSLAYER1
  6
CONTINUOUS
 62
     6
 10
96.203937
 20
115.266012
 40
2.500000
 50
253.398438
 51
286.601572
  0
ARC
  8
CSLAYER1
  6
CONTINUOUS
 62
     6
 10
96.203937
 20
115.266012
 40
2.500000
 50
-16.601594
 51
16.601595
  0
LINE
  8
CSLAYER1
  6
CONTINUOUS
 62
     6
 10
95.489642
 20
113.837423
 11
95.489642
 21
112.870236
  0
LINE
  8
CSLAYER1
  6
CONTINUOUS
 62
     6
 10
95.489642
 20
116.694601
 11
95.489642
 21
117.661788
  0
LINE
  8
CSLAYER1
  6
CONTINUOUS
 62
     6
 10
96.918231
 20
113.837423
 11
96.918231
 21
112.870236
  0
LINE
  8
CSLAYER1
  6
CONTINUOUS
 62
     6
 10
96.918231
 20
116.694601
 11
96.918231
 21
117.661788
  0
LINE
  8
CSLAYER1
  6
CONTINUOUS
 62
     6
 10
94.775385
 20
115.980307
 11
93.808123
 21
115.980307
  0
LINE
  8
CSLAYER1
  6
CONTINUOUS
 62
     6
 10
97.632488
 20
115.980307
 11
98.599750
 21
115.980307
  0
LINE
  8
CSLAYER1
  6
CONTINUOUS
 62
     6
 10
94.775385
 20
114.551718
 11
93.808123
 21
114.551718
  0
LINE
  8
CSLAYER1
  6
CONTINUOUS
 62
     6
 10
97.632488
 20
114.551718
 11
98.599750
 21
114.551718
  0
ARC
  8
CSLAYER1
  6
CONTINUOUS
 62
     6
 10
94.775385
 20
113.837423
 40
0.714286
 50
0.000001
 51
89.942691
  0
ARC
  8
CSLAYER1
  6
CONTINUOUS
 62
     6
 10
97.632488
 20
113.837423
 40
0.714286
 50
90.000010
 51
180.000016
  0
ARC
  8
CSLAYER1
  6
CONTINUOUS
 62
     6
 10
97.632488
 20
116.694601
 40
0.714286
 50
180.000016
 51
270.000005
  0
ARC
  8
CSLAYER1
  6
CONTINUOUS
 62
     6
 10
94.775385
 20
116.694601
 40
0.714286
 50
270.000005
 51
359.942654
  0
ARC
  8
CSLAYER1
  6
CENTER
 62
     3
 10
62.969924
 20
148.500007
 40
47.000000
 50
35.548947
 51
54.451077
  0
LINE
  8
CSLAYER1
  6
CENTER
 62
     3
 10
90.728126
 20
176.258221
 11
101.679746
 21
187.209846
  0
CIRCLE
  8
CSLAYER1
  6
CONTINUOUS
 62
     6
 10
96.203936
 20
181.734033
 40
4.500000
  0
ARC
  8
CSLAYER1
  6
CONTINUOUS
 62
     6
 10
96.203919
 20
181.734034
 40
2.500000
 50
163.398416
 51
196.601577
  0
ARC
  8
CSLAYER1
  6
CONTINUOUS
 62
     6
 10
96.203919
 20
181.734034
 40
2.500000
 50
253.398422
 51
286.601583
  0
ARC
  8
CSLAYER1
  6
CONTINUOUS
 62
     6
 10
96.203919
 20
181.734034
 40
2.500000
 50
-16.601562
 51
16.601572
  0
ARC
  8
CSLAYER1
  6
CONTINUOUS
 62
     6
 10
96.203919
 20
181.734034
 40
2.500000
 50
73.398406
 51
106.601595
  0
LINE
  8
CSLAYER1
  6
CONTINUOUS
 62
     6
 10
97.632508
 20
181.019740
 11
98.599695
 21
181.019740
  0
LINE
  8
CSLAYER1
  6
CONTINUOUS
 62
     6
 10
94.775330
 20
181.019740
 11
93.808143
 21
181.019740
  0
LINE
  8
CSLAYER1
  6
CONTINUOUS
 62
     6
 10
97.632508
 20
182.448329
 11
98.599695
 21
182.448329
  0
LINE
  8
CSLAYER1
  6
CONTINUOUS
 62
     6
 10
94.775330
 20
182.448329
 11
93.808143
 21
182.448329
  0
LINE
  8
CSLAYER1
  6
CONTINUOUS
 62
     6
 10
95.489625
 20
180.305482
 11
95.489625
 21
179.338221
  0
LINE
  8
CSLAYER1
  6
CONTINUOUS
 62
     6
 10
95.489625
 20
183.162586
 11
95.489625
 21
184.129847
  0
LINE
  8
CSLAYER1
  6
CONTINUOUS
 62
     6
 10
96.918214
 20
180.305482
 11
96.918214
 21
179.338221
  0
LINE
  8
CSLAYER1
  6
CONTINUOUS
 62
     6
 10
96.918214
 20
183.162586
 11
96.918214
 21
184.129847
  0
ARC
  8
CSLAYER1
  6
CONTINUOUS
 62
     6
 10
97.632508
 20
180.305482
 40
0.714286
 50
90.000001
 51
179.942691
  0
ARC
  8
CSLAYER1
  6
CONTINUOUS
 62
     6
 10
97.632508
 20
183.162586
 40
0.714286
 50
180.000010
 51
270.000016
  0
ARC
  8
CSLAYER1
  6
CONTINUOUS
 62
     6
 10
94.775330
 20
183.162586
 40
0.714286
 50
-89.999984
 51
0.000005
  0
ARC
  8
CSLAYER1
  6
CONTINUOUS
 62
     6
 10
94.775330
 20
180.305482
 40
0.714286
 50
0.000005
 51
89.942654
  0
ARC
  8
CSLAYER1
  6
CENTER
 62
     3
 10
62.969924
 20
148.500022
 40
47.000000
 50
125.548947
 51
144.451077
  0
LINE
  8
CSLAYER1
  6
CENTER
 62
     3
 10
35.211711
 20
176.258223
 11
24.260086
 21
187.209843
  0
CIRCLE
  8
CSLAYER1
  6
CONTINUOUS
 62
     6
 10
29.735898
 20
181.734033
 40
4.500000
  0
ARC
  8
CSLAYER1
  6
CONTINUOUS
 62
     6
 10
29.735897
 20
181.734017
 40
2.500000
 50
253.398416
 51
286.601577
  0
ARC
  8
CSLAYER1
  6
CONTINUOUS
 62
     6
 10
29.735897
 20
181.734017
 40
2.500000
 50
-16.601578
 51
16.601583
  0
ARC
  8
CSLAYER1
  6
CONTINUOUS
 62
     6
 10
29.735897
 20
181.734017
 40
2.500000
 50
73.398438
 51
106.601572
  0
ARC
  8
CSLAYER1
  6
CONTINUOUS
 62
     6
 10
29.735897
 20
181.734017
 40
2.500000
 50
163.398406
 51
196.601595
  0
LINE
  8
CSLAYER1
  6
CONTINUOUS
 62
     6
 10
30.450192
 20
183.162606
 11
30.450192
 21
184.129793
  0
LINE
  8
CSLAYER1
  6
CONTINUOUS
 62
     6
 10
30.450192
 20
180.305428
 11
30.450192
 21
179.338241
  0
LINE
  8
CSLAYER1
  6
CONTINUOUS
 62
     6
 10
29.021603
 20
183.162606
 11
29.021603
 21
184.129793
  0
LINE
  8
CSLAYER1
  6
CONTINUOUS
 62
     6
 10
29.021603
 20
180.305428
 11
29.021603
 21
179.338241
  0
LINE
  8
CSLAYER1
  6
CONTINUOUS
 62
     6
 10
31.164449
 20
181.019722
 11
32.131711
 21
181.019722
  0
LINE
  8
CSLAYER1
  6
CONTINUOUS
 62
     6
 10
28.307346
 20
181.019722
 11
27.340084
 21
181.019722
  0
LINE
  8
CSLAYER1
  6
CONTINUOUS
 62
     6
 10
31.164449
 20
182.448311
 11
32.131711
 21
182.448311
  0
LINE
  8
CSLAYER1
  6
CONTINUOUS
 62
     6
 10
28.307346
 20
182.448311
 11
27.340084
 21
182.448311
  0
ARC
  8
CSLAYER1
  6
CONTINUOUS
 62
     6
 10
31.164449
 20
183.162606
 40
0.714286
 50
180.000001
 51
269.942691
  0
ARC
  8
CSLAYER1
  6
CONTINUOUS
 62
     6
 10
28.307346
 20
183.162606
 40
0.714286
 50
-89.999990
 51
0.000016
  0
ARC
  8
CSLAYER1
  6
CONTINUOUS
 62
     6
 10
28.307346
 20
180.305428
 40
0.714286
 50
0.000016
 51
90.000005
  0
ARC
  8
CSLAYER1
  6
CONTINUOUS
 62
     6
 10
31.164449
 20
180.305428
 40
0.714286
 50
90.000005
 51
179.942654
  0
ARC
  8
CSLAYER1
  6
CENTER
 62
     3
 10
62.969910
 20
148.500022
 40
47.000000
 50
215.548947
 51
234.451077
  0
LINE
  8
CSLAYER1
  6
CENTER
 62
     3
 10
35.211709
 20
120.741808
 11
24.260088
 21
109.790183
  0
CIRCLE
  8
CSLAYER1
  6
CONTINUOUS
 62
     6
 10
29.735898
 20
115.265996
 40
4.500000
  0
ARC
  8
CSLAYER1
  6
CONTINUOUS
 62
     6
 10
29.735915
 20
115.265995
 40
2.500000
 50
-16.601584
 51
16.601577
  0
ARC
  8
CSLAYER1
  6
CONTINUOUS
 62
     6
 10
29.735915
 20
115.265995
 40
2.500000
 50
73.398422
 51
106.601583
  0
ARC
  8
CSLAYER1
  6
CONTINUOUS
 62
     6
 10
29.735915
 20
115.265995
 40
2.500000
 50
163.398438
 51
196.601572
  0
ARC
  8
CSLAYER1
  6
CONTINUOUS
 62
     6
 10
29.735915
 20
115.265995
 40
2.500000
 50
253.398406
 51
286.601595
  0
LINE
  8
CSLAYER1
  6
CONTINUOUS
 62
     6
 10
28.307326
 20
115.980289
 11
27.340139
 21
115.980289
  0
LINE
  8
CSLAYER1
  6
CONTINUOUS
 62
     6
 10
31.164504
 20
115.980289
 11
32.131691
 21
115.980289
  0
LINE
  8
CSLAYER1
  6
CONTINUOUS
 62
     6
 10
28.307326
 20
114.551700
 11
27.340139
 21
114.551700
  0
LINE
  8
CSLAYER1
  6
CONTINUOUS
 62
     6
 10
31.164504
 20
114.551700
 11
32.131691
 21
114.551700
  0
LINE
  8
CSLAYER1
  6
CONTINUOUS
 62
     6
 10
30.450209
 20
116.694547
 11
30.450209
 21
117.661808
  0
LINE
  8
CSLAYER1
  6
CONTINUOUS
 62
     6
 10
30.450209
 20
113.837443
 11
30.450209
 21
112.870182
  0
LINE
  8
CSLAYER1
  6
CONTINUOUS
 62
     6
 10
29.021620
 20
116.694547
 11
29.021620
 21
117.661808
  0
LINE
  8
CSLAYER1
  6
CONTINUOUS
 62
     6
 10
29.021620
 20
113.837443
 11
29.021620
 21
112.870182
  0
ARC
  8
CSLAYER1
  6
CONTINUOUS
 62
     6
 10
28.307326
 20
116.694547
 40
0.714286
 50
270.000001
 51
359.942691
  0
ARC
  8
CSLAYER1
  6
CONTINUOUS
 62
     6
 10
28.307326
 20
113.837443
 40
0.714286
 50
0.000010
 51
90.000016
  0
ARC
  8
CSLAYER1
  6
CONTINUOUS
 62
     6
 10
31.164504
 20
113.837443
 40
0.714286
 50
90.000016
 51
180.000005
  0
ARC
  8
CSLAYER1
  6
CONTINUOUS
 62
     6
 10
31.164504
 20
116.694547
 40
0.714286
 50
180.000005
 51
269.942654
  0
LINE
  8
CSLAYER1
  6
CONTINUOUS
 62
     6
 10
65.169899
 20
108.500022
 11
96.969902
 21
108.500022
  0
LINE
  8
CSLAYER1
  6
CENTER
 62
     3
 10
123.999990
 20
148.500012
 11
273.000000
 21
148.499995
  0
LINE
  8
CSLAYER1
  6
CONTINUOUS
 62
     6
 10
157.999993
 20
118.500020
 11
127.999994
 21
119.023678
  0
LINE
  8
CSLAYER1
  6
CONTINUOUS
 62
     6
 10
158.000000
 20
179.500012
 11
158.000000
 21
117.500012
  0
LINE
  8
CSLAYER1
  6
CONTINUOUS
 62
     6
 10
158.000000
 20
179.500012
 11
225.495515
 21
179.500012
  0
LINE
  8
CSLAYER1
  6
CONTINUOUS
 62
     6
 10
158.000000
 20
117.500012
 11
225.495512
 21
117.500012
  0
LINE
  8
CSLAYER1
  6
CONTINUOUS
 62
     6
 10
225.000000
 20
117.500012
 11
225.000000
 21
179.500012
  0
LINE
  8
CSLAYER1
  6
CONTINUOUS
 62
     6
 10
128.000000
 20
177.976346
 11
158.000015
 21
178.499997
  0
LINE
  8
CSLAYER1
  6
CONTINUOUS
 62
     6
 10
128.000000
 20
177.976346
 11
127.000000
 21
176.976346
  0
LINE
  8
CSLAYER1
  6
CONTINUOUS
 62
     6
 10
128.000000
 20
119.023678
 11
127.000000
 21
120.023678
  0
LINE
  8
CSLAYER1
  6
CONTINUOUS
 62
     6
 10
127.000000
 20
120.023678
 11
127.000000
 21
176.976346
  0
LINE
  8
CSLAYER1
  6
CONTINUOUS
 62
     6
 10
128.000000
 20
119.023677
 11
128.000000
 21
177.976346
  0
LINE
  8
CSLAYER1
  6
CONTINUOUS
 62
     6
 10
228.500000
 20
109.500001
 11
228.500000
 21
187.500001
  0
LINE
  8
CSLAYER1
  6
CONTINUOUS
 62
     6
 10
235.000000
 20
108.500000
 11
235.000000
 21
188.500001
  0
ARC
  8
CSLAYER1
  6
CONTINUOUS
 62
     6
 10
229.500000
 20
187.500001
 40
1.000000
 50
89.999994
 51
180.000000
  0
ARC
  8
CSLAYER1
  6
CONTINUOUS
 62
     6
 10
229.500000
 20
109.500001
 40
1.000000
 50
180.000000
 51
269.999994
  0
LINE
  8
CSLAYER1
  6
CONTINUOUS
 62
     6
 10
235.000000
 20
188.500000
 11
229.500000
 21
188.500000
  0
LINE
  8
CSLAYER1
  6
CONTINUOUS
 62
     6
 10
235.000000
 20
108.500000
 11
229.500000
 21
108.500000
  0
LINE
  8
CSLAYER1
  6
CONTINUOUS
 62
     6
 10
235.000000
 20
188.500000
 11
264.000000
 21
188.499996
  0
LINE
  8
CSLAYER1
  6
CONTINUOUS
 62
     6
 10
265.000000
 20
175.999996
 11
265.000000
 21
187.499996
  0
LINE
  8
CSLAYER1
  6
CONTINUOUS
 62
     6
 10
264.000000
 20
115.265976
 11
264.000000
 21
181.734016
  0
ARC
  8
CSLAYER1
  6
CONTINUOUS
 62
     6
 10
264.000000
 20
187.499996
 40
1.000000
 50
0.000000
 51
89.999994
  0
ARC
  8
CSLAYER1
  6
CONTINUOUS
 62
     6
 10
264.000000
 20
175.999996
 40
1.000000
 50
269.999994
 51
360.000000
  0
LINE
  8
CSLAYER1
  6
CONTINUOUS
 62
     6
 10
264.999994
 20
120.999996
 11
264.999992
 21
109.499996
  0
ARC
  8
CSLAYER1
  6
CONTINUOUS
 62
     6
 10
263.999992
 20
109.499996
 40
1.000000
 50
269.999994
 51
359.999988
  0
ARC
  8
CSLAYER1
  6
CONTINUOUS
 62
     6
 10
263.999994
 20
120.999996
 40
1.000000
 50
-0.000012
 51
89.999994
  0
LINE
  8
CSLAYER1
  6
CONTINUOUS
 62
     6
 10
235.000000
 20
108.500000
 11
263.999991
 21
108.499996
  0
LINE
  8
CSLAYER1
  6
CONTINUOUS
 62
     6
 10
270.000000
 20
147.999991
 11
270.000000
 21
178.999991
  0
LINE
  8
CSLAYER1
  6
CONTINUOUS
 62
     6
 10
265.500000
 20
146.499991
 11
268.500000
 21
146.499991
  0
ARC
  8
CSLAYER1
  6
CONTINUOUS
 62
     6
 10
268.500000
 20
147.999991
 40
1.500000
 50
269.999994
 51
360.000000
  0
ARC
  8
CSLAYER1
  6
CONTINUOUS
 62
     6
 10
265.500000
 20
144.999991
 40
1.500000
 50
89.999994
 51
180.000000
  0
LINE
  8
CSLAYER1
  6
CONTINUOUS
 62
     6
 10
265.000001
 20
187.468035
 11
264.999999
 21
175.968035
  0
LINE
  8
CSLAYER1
  6
CONTINUOUS
 62
     6
 10
300.000000
 20
158.499988
 11
300.000000
 21
168.499988
  0
LINE
  8
CSLAYER1
  6
CONTINUOUS
 62
     6
 10
270.000000
 20
168.499991
 11
300.000000
 21
168.499988
  0
LINE
  8
CSLAYER1
  6
CONTINUOUS
 62
     6
 10
269.999999
 20
158.499991
 11
299.999999
 21
158.499988
  0
LINE
  8
CSLAYER1
  6
CENTER
 62
     3
 10
222.272416
 20
181.734016
 11
280.240258
 21
181.734016
  0
LINE
  8
CSLAYER1
  6
CONTINUOUS
 62
     6
 10
228.149119
 20
186.077658
 11
227.132714
 21
185.990032
  0
ARC
  8
CSLAYER1
  6
CONTINUOUS
 62
     6
 10
227.273358
 20
184.405557
 40
1.602152
 50
95.000118
 51
163.742789
  0
ARC
  8
CSLAYER1
  6
CONTINUOUS
 62
     6
 10
228.177229
 20
185.760778
 40
0.320436
 50
-0.000017
 51
94.999718
  0
LINE
  8
CSLAYER1
  6
CONTINUOUS
 62
     6
 10
228.149119
 20
177.390351
 11
227.132714
 21
177.477977
  0
ARC
  8
CSLAYER1
  6
CONTINUOUS
 62
     6
 10
227.273358
 20
179.062451
 40
1.602152
 50
196.257208
 51
264.999892
  0
ARC
  8
CSLAYER1
  6
CONTINUOUS
 62
     6
 10
228.177229
 20
177.707231
 40
0.320436
 50
265.000275
 51
359.942691
  0
LINE
  8
CSLAYER1
  6
CONTINUOUS
 62
     6
 10
228.149111
 20
110.922344
 11
227.132705
 21
111.009970
  0
ARC
  8
CSLAYER1
  6
CONTINUOUS
 62
     6
 10
227.273350
 20
112.594444
 40
1.602152
 50
196.257199
 51
264.999870
  0
ARC
  8
CSLAYER1
  6
CONTINUOUS
 62
     6
 10
228.177221
 20
111.239224
 40
0.320436
 50
-94.999730
 51
0.000005
  0
LINE
  8
CSLAYER1
  6
CONTINUOUS
 62
     6
 10
228.149113
 20
119.609650
 11
227.132707
 21
119.522025
  0
ARC
  8
CSLAYER1
  6
CONTINUOUS
 62
     6
 10
227.273351
 20
117.937550
 40
1.602152
 50
95.000095
 51
163.742780
  0
ARC
  8
CSLAYER1
  6
CONTINUOUS
 62
     6
 10
228.177223
 20
119.292770
 40
0.320436
 50
0.057296
 51
94.999713
  0
LINE
  8
CSLAYER1
  6
CENTER
 62
     3
 10
221.972408
 20
115.265987
 11
280.240258
 21
115.265972
  0
ARC
  8
CSLAYER1
  6
CONTINUOUS
 62
     6
 10
236.568966
 20
181.734004
 40
11.296550
 50
163.933744
 51
196.066255
  0
ARC
  8
CSLAYER1
  6
CONTINUOUS
 62
     6
 10
236.568958
 20
115.265995
 40
11.296550
 50
163.933732
 51
196.066243
  0
LINE
  8
CSLAYER1
  6
CENTER
 62
     3
 10
303.000000
 20
163.499992
 11
259.000000
 21
163.499992
  0
LINE
  8
CSLAYER1
  6
CONTINUOUS
 62
     3
 10
172.890387
 20
179.500012
 11
172.890387
 21
164.999982
  0
LINE
  8
CSLAYER1
  6
CONTINUOUS
 62
     3
 10
173.890387
 20
163.999982
 11
209.890372
 21
163.999982
  0
LINE
  8
CSLAYER1
  6
CONTINUOUS
 62
     3
 10
210.890372
 20
164.999982
 11
210.890372
 21
179.500012
  0
ARC
  8
CSLAYER1
  6
CONTINUOUS
 62
     3
 10
173.890387
 20
164.999982
 40
1.000000
 50
180.000005
 51
270.000001
  0
ARC
  8
CSLAYER1
  6
CONTINUOUS
 62
     3
 10
209.890372
 20
164.999982
 40
1.000000
 50
270.000001
 51
359.942691
  0
TEXT
  8
CSLAYER1
 62
     3
 10
189.260468
 20
177.114044
 40
3.500000
 41
1.125000
  1
N P
 50
-90.000000
 51
10.000000
  7
JX_FONT
 72
     5
 11
189.260468
 21
166.614044
  0
LINE
  8
CSLAYER1
  6
CENTER
 62
     3
 10
147.000000
 20
161.500012
 11
147.000000
 21
100.258372
  0
CIRCLE
  8
CSLAYER1
  6
CONTINUOUS
 62
     6
 10
147.000000
 20
148.500012
 40
8.000000
  0
CIRCLE
  8
CSLAYER1
  6
CONTINUOUS
 62
     6
 10
147.000000
 20
148.500012
 40
6.000000
  0
CIRCLE
  8
CSLAYER1
  6
CONTINUOUS
 62
     3
 10
147.000000
 20
148.500012
 40
5.500000
  0
LINE
  8
CSLAYER1
  6
CONTINUOUS
 62
     6
 10
149.750000
 20
149.300016
 11
144.250000
 21
149.300016
  0
LINE
  8
CSLAYER1
  6
CONTINUOUS
 62
     6
 10
149.750000
 20
147.700009
 11
144.250000
 21
147.700009
  0
LINE
  8
CSLAYER1
  6
CONTINUOUS
 62
     6
 10
144.250000
 20
149.300016
 11
144.250000
 21
147.700009
  0
LINE
  8
CSLAYER1
  6
CONTINUOUS
 62
     6
 10
149.750000
 20
149.300016
 11
149.750000
 21
147.700009
  0
ARC
  8
CSLAYER1
  6
CONTINUOUS
 62
     6
 10
132.341149
 20
110.394237
 40
15.758816
 50
332.536202
 51
359.942691
  0
ARC
  8
CSLAYER1
  6
CONTINUOUS
 62
     6
 10
132.341149
 20
110.394237
 40
13.558834
 50
332.536202
 51
359.942691
  0
ARC
  8
CSLAYER1
  6
CONTINUOUS
 62
     6
 10
147.549981
 20
109.441646
 40
1.099999
 50
60.000350
 51
120.000345
  0
ARC
  8
CSLAYER1
  6
CONTINUOUS
 62
     6
 10
146.449983
 20
109.441630
 40
1.099999
 50
60.000350
 51
120.000345
  0
ARC
  8
CSLAYER1
  6
CONTINUOUS
 62
     6
 10
146.449975
 20
111.346889
 40
1.099999
 50
240.000362
 51
300.000350
  0
LINE
  8
CSLAYER1
  6
CONTINUOUS
 62
     6
 10
145.029550
 20
103.799281
 11
143.412393
 21
100.861209
  0
LINE
  8
CSLAYER1
  6
CONTINUOUS
 62
     6
 10
145.518472
 20
103.545146
 11
143.941690
 21
100.537730
  0
LINE
  8
CSLAYER1
  6
CONTINUOUS
 62
     6
 10
145.916604
 20
103.338191
 11
144.515115
 21
100.258388
  0
LINE
  8
CSLAYER1
  6
CONTINUOUS
 62
     6
 10
144.371926
 20
104.141078
 11
146.323983
 21
103.126460
  0
ARC
  8
CSLAYER1
  6
CONTINUOUS
 62
     6
 10
161.658837
 20
110.394237
 40
15.758816
 50
202.422068
 51
207.463868
  0
ARC
  8
CSLAYER1
  6
CONTINUOUS
 62
     6
 10
161.658837
 20
110.394237
 40
13.558834
 50
179.999978
 51
207.463868
  0
LINE
  8
CSLAYER1
  6
CONTINUOUS
 62
     6
 10
148.970437
 20
103.799251
 11
150.587609
 21
100.861194
  0
LINE
  8
CSLAYER1
  6
CONTINUOUS
 62
     6
 10
148.481515
 20
103.545131
 11
150.058297
 21
100.537730
  0
LINE
  8
CSLAYER1
  6
CONTINUOUS
 62
     6
 10
148.083383
 20
103.338191
 11
149.484887
 21
100.258372
  0
LINE
  8
CSLAYER1
  6
CONTINUOUS
 62
     6
 10
149.628061
 20
104.141063
 11
147.676004
 21
103.126445
  0
ARC
  8
CSLAYER1
  6
CONTINUOUS
 62
     6
 10
146.450006
 20
114.259105
 40
1.100006
 50
240.000007
 51
299.999995
  0
ARC
  8
CSLAYER1
  6
CONTINUOUS
 62
     6
 10
147.550012
 20
114.259105
 40
1.100006
 50
240.000007
 51
299.999995
  0
ARC
  8
CSLAYER1
  6
CONTINUOUS
 62
     6
 10
147.550012
 20
112.353831
 40
1.100006
 50
60.000002
 51
120.000003
  0
LINE
  8
CSLAYER1
  6
CONTINUOUS
 62
     6
 10
148.100006
 20
118.672818
 11
148.100000
 21
113.306468
  0
LINE
  8
CSLAYER1
  6
CONTINUOUS
 62
     6
 10
145.900009
 20
118.711225
 11
145.900003
 21
113.306468
  0
LINE
  8
CSLAYER1
  6
CONTINUOUS
 62
     6
 10
266.000008
 20
177.115188
 11
266.000008
 21
186.352813
  0
LINE
  8
CSLAYER1
  6
CONTINUOUS
 62
     6
 10
266.000008
 20
177.115188
 11
264.999993
 21
177.115188
  0
LINE
  8
CSLAYER1
  6
CONTINUOUS
 62
     6
 10
266.000008
 20
186.352813
 11
265.000008
 21
186.352813
  0
LINE
  8
CSLAYER1
  6
CONTINUOUS
 62
     6
 10
266.000008
 20
182.356857
 11
265.000008
 21
181.734008
  0
LINE
  8
CSLAYER1
  6
CONTINUOUS
 62
     6
 10
266.000023
 20
181.734008
 11
264.999993
 21
181.090011
  0
LINE
  8
CSLAYER1
  6
CONTINUOUS
 62
     6
 10
277.200005
 20
184.234008
 11
277.200005
 21
179.234008
  0
LINE
  8
CSLAYER1
  6
CONTINUOUS
 62
     6
 10
278.000008
 20
180.034011
 11
278.000008
 21
183.434005
  0
LINE
  8
CSLAYER1
  6
CONTINUOUS
 62
     6
 10
278.000023
 20
183.434005
 11
277.200005
 21
184.234008
  0
LINE
  8
CSLAYER1
  6
CONTINUOUS
 62
     6
 10
278.000023
 20
180.034011
 11
277.200005
 21
179.234008
  0
LINE
  8
CSLAYER1
  6
CONTINUOUS
 62
     3
 10
270.000008
 20
183.801010
 11
277.633004
 21
183.801010
  0
LINE
  8
CSLAYER1
  6
CONTINUOUS
 62
     6
 10
270.000008
 20
184.234008
 11
277.200005
 21
184.234008
  0
LINE
  8
CSLAYER1
  6
CONTINUOUS
 62
     3
 10
270.000008
 20
179.667007
 11
277.633004
 21
179.667007
  0
LINE
  8
CSLAYER1
  6
CONTINUOUS
 62
     6
 10
270.000008
 20
179.234008
 11
277.200005
 21
179.234008
  0
LINE
  8
CSLAYER1
  6
CONTINUOUS
 62
     6
 10
277.199998
 20
112.765976
 11
277.199998
 21
117.765976
  0
LINE
  8
CSLAYER1
  6
CONTINUOUS
 62
     6
 10
278.000016
 20
113.565979
 11
277.199998
 21
112.765976
  0
LINE
  8
CSLAYER1
  6
CONTINUOUS
 62
     6
 10
278.000016
 20
116.965973
 11
277.199998
 21
117.765976
  0
LINE
  8
CSLAYER1
  6
CONTINUOUS
 62
     3
 10
270.000001
 20
113.198974
 11
277.632996
 21
113.198974
  0
LINE
  8
CSLAYER1
  6
CONTINUOUS
 62
     6
 10
270.000001
 20
112.765976
 11
277.199998
 21
112.765976
  0
LINE
  8
CSLAYER1
  6
CONTINUOUS
 62
     3
 10
270.000001
 20
117.332977
 11
277.632996
 21
117.332977
  0
LINE
  8
CSLAYER1
  6
CONTINUOUS
 62
     6
 10
270.000001
 20
117.765976
 11
277.199998
 21
117.765976
  0
LINE
  8
CSLAYER1
  6
CONTINUOUS
 62
     6
 10
278.000001
 20
116.965973
 11
278.000001
 21
113.565979
  0
ARC
  8
CSLAYER1
  6
CONTINUOUS
 62
     6
 10
263.381032
 20
179.734015
 40
6.618802
 50
-17.587954
 51
17.587954
  0
ARC
  8
CSLAYER1
  6
CONTINUOUS
 62
     6
 10
263.381032
 20
183.734015
 40
6.618802
 50
-17.587954
 51
17.587954
  0
LINE
  8
CSLAYER1
  6
CONTINUOUS
 62
     6
 10
269.999834
 20
177.734015
 11
266.000008
 21
177.734015
  0
LINE
  8
CSLAYER1
  6
CONTINUOUS
 62
     6
 10
269.690433
 20
181.734015
 11
266.000008
 21
181.734015
  0
LINE
  8
CSLAYER1
  6
CONTINUOUS
 62
     6
 10
269.999834
 20
185.734015
 11
266.000008
 21
185.734015
  0
LINE
  8
CSLAYER1
  6
CONTINUOUS
 62
     6
 10
269.999834
 20
177.734015
 11
269.999834
 21
185.734015
  0
LINE
  8
CSLAYER1
  6
CONTINUOUS
 62
     6
 10
266.000001
 20
110.647148
 11
266.000001
 21
119.884774
  0
LINE
  8
CSLAYER1
  6
CONTINUOUS
 62
     6
 10
266.000001
 20
110.647148
 11
264.999985
 21
110.647148
  0
LINE
  8
CSLAYER1
  6
CONTINUOUS
 62
     6
 10
266.000001
 20
119.884774
 11
265.000001
 21
119.884774
  0
LINE
  8
CSLAYER1
  6
CONTINUOUS
 62
     6
 10
266.000001
 20
115.888817
 11
265.000001
 21
115.265969
  0
LINE
  8
CSLAYER1
  6
CONTINUOUS
 62
     6
 10
266.000016
 20
115.265969
 11
264.999985
 21
114.621971
  0
ARC
  8
CSLAYER1
  6
CONTINUOUS
 62
     6
 10
263.381025
 20
113.265975
 40
6.618802
 50
-17.587954
 51
17.587954
  0
ARC
  8
CSLAYER1
  6
CONTINUOUS
 62
     6
 10
263.381025
 20
117.265975
 40
6.618802
 50
-17.587954
 51
17.587954
  0
LINE
  8
CSLAYER1
  6
CONTINUOUS
 62
     6
 10
269.999827
 20
111.265975
 11
266.000001
 21
111.265976
  0
LINE
  8
CSLAYER1
  6
CONTINUOUS
 62
     6
 10
269.690426
 20
115.265975
 11
266.000001
 21
115.265976
  0
LINE
  8
CSLAYER1
  6
CONTINUOUS
 62
     6
 10
269.999827
 20
119.265975
 11
266.000001
 21
119.265976
  0
LINE
  8
CSLAYER1
  6
CONTINUOUS
 62
     6
 10
269.999827
 20
111.265975
 11
269.999827
 21
119.265975
  0
LINE
  8
CSLAYER1
  6
CENTER
 62
     3
 10
147.000000
 20
42.500009
 11
147.000000
 21
64.500009
  0
LINE
  8
CSLAYER1
  6
CONTINUOUS
 62
     6
 10
147.000000
 20
53.500009
 11
141.566528
 21
53.500009
  0
LINE
  8
CSLAYER1
  6
CONTINUOUS
 62
     6
 10
147.000000
 20
55.700006
 11
141.566528
 21
55.700006
  0
ARC
  8
CSLAYER1
  6
CONTINUOUS
 62
     6
 10
138.654297
 20
69.258859
 40
15.758816
 50
242.536193
 51
269.942682
  0
ARC
  8
CSLAYER1
  6
CONTINUOUS
 62
     6
 10
138.654297
 20
69.258859
 40
13.558834
 50
242.536193
 51
269.942682
  0
ARC
  8
CSLAYER1
  6
CONTINUOUS
 62
     6
 10
142.519165
 20
55.150003
 40
1.100006
 50
149.999997
 51
209.999999
  0
ARC
  8
CSLAYER1
  6
CONTINUOUS
 62
     6
 10
142.519165
 20
54.049997
 40
1.100006
 50
149.999997
 51
209.999999
  0
ARC
  8
CSLAYER1
  6
CONTINUOUS
 62
     6
 10
140.613892
 20
54.049997
 40
1.100006
 50
-30.000011
 51
29.999977
  0
ARC
  8
CSLAYER1
  6
CONTINUOUS
 62
     6
 10
138.654297
 20
37.741159
 40
13.558834
 50
89.999975
 51
117.463872
  0
ARC
  8
CSLAYER1
  6
CONTINUOUS
 62
     6
 10
138.654327
 20
37.741174
 40
15.758816
 50
90.000003
 51
117.463872
  0
ARC
  8
CSLAYER1
  6
CONTINUOUS
 62
     6
 10
142.519165
 20
52.949990
 40
1.100006
 50
149.999997
 51
209.999999
  0
ARC
  8
CSLAYER1
  6
CONTINUOUS
 62
     6
 10
142.519165
 20
51.849984
 40
1.100006
 50
149.999997
 51
209.999999
  0
ARC
  8
CSLAYER1
  6
CONTINUOUS
 62
     6
 10
140.613892
 20
51.849984
 40
1.100006
 50
-30.000011
 51
29.999977
  0
ARC
  8
CSLAYER1
  6
CONTINUOUS
 62
     6
 10
147.000000
 20
54.600015
 40
1.100006
 50
-89.999999
 51
90.000019
  0
ARC
  8
CSLAYER1
  6
CONTINUOUS
 62
     6
 10
147.000000
 20
52.400003
 40
1.100006
 50
-90.000027
 51
89.999992
  0
LINE
  8
CSLAYER1
  6
CONTINUOUS
 62
     6
 10
147.000000
 20
51.300012
 11
141.566528
 21
51.300012
  0
LINE
  8
CSLAYER1
  6
CONTINUOUS
 62
     6
 10
148.100037
 20
54.600015
 11
148.100037
 21
52.400003
  0
ARC
  8
CSLAYER1
  6
CONTINUOUS
 62
     6
 10
138.974930
 20
54.050042
 40
1.099999
 50
-29.999656
 51
30.000332
  0
ARC
  8
CSLAYER1
  6
CONTINUOUS
 62
     6
 10
138.974922
 20
55.150033
 40
1.099999
 50
-29.999656
 51
30.000332
  0
ARC
  8
CSLAYER1
  6
CONTINUOUS
 62
     6
 10
140.880173
 20
55.150048
 40
1.099999
 50
150.000353
 51
210.000354
  0
ARC
  8
CSLAYER1
  6
CONTINUOUS
 62
     6
 10
138.974930
 20
51.850030
 40
1.099999
 50
-29.999656
 51
30.000332
  0
ARC
  8
CSLAYER1
  6
CONTINUOUS
 62
     6
 10
138.974922
 20
52.950021
 40
1.099999
 50
-29.999656
 51
30.000332
  0
ARC
  8
CSLAYER1
  6
CONTINUOUS
 62
     6
 10
140.880173
 20
52.950036
 40
1.099999
 50
150.000353
 51
210.000354
  0
LINE
  8
CSLAYER1
  6
CONTINUOUS
 62
     6
 10
138.654358
 20
55.700021
 11
139.927551
 21
55.700021
  0
LINE
  8
CSLAYER1
  6
CONTINUOUS
 62
     6
 10
138.654327
 20
53.499994
 11
139.927551
 21
53.499994
  0
LINE
  8
CSLAYER1
  6
CONTINUOUS
 62
     6
 10
138.654358
 20
51.300027
 11
139.927551
 21
51.300027
  0
ARC
  8
CSLAYER1
  6
CONTINUOUS
 62
     6
 10
147.000000
 20
53.500009
 40
8.000000
 50
-164.038116
 51
164.037904
  0
LINE
  8
CSLAYER1
  6
CONTINUOUS
 62
     6
 10
132.059387
 20
56.570459
 11
129.121277
 21
58.187616
  0
LINE
  8
CSLAYER1
  6
CONTINUOUS
 62
     6
 10
132.401184
 20
57.228082
 11
131.386536
 21
55.276025
  0
LINE
  8
CSLAYER1
  6
CONTINUOUS
 62
     6
 10
132.059326
 20
50.429559
 11
129.121277
 21
48.812387
  0
LINE
  8
CSLAYER1
  6
CONTINUOUS
 62
     6
 10
132.401123
 20
49.771936
 11
131.386536
 21
51.723993
  0
LINE
  8
CSLAYER1
  6
CONTINUOUS
 62
     6
 10
131.805237
 20
56.081537
 11
129.797791
 21
57.658319
  0
LINE
  8
CSLAYER1
  6
CONTINUOUS
 62
     6
 10
131.598267
 20
55.683404
 11
129.518494
 21
57.084893
  0
LINE
  8
CSLAYER1
  6
CONTINUOUS
 62
     6
 10
131.805237
 20
50.918481
 11
129.797791
 21
49.341699
  0
LINE
  8
CSLAYER1
  6
CONTINUOUS
 62
     6
 10
131.598267
 20
51.316613
 11
129.518433
 21
49.915109
  0
LINE
  8
CSLAYER1
  6
CONTINUOUS
 62
     6
 10
127.000000
 20
25.041141
 11
127.000000
 21
81.958898
  0
LINE
  8
CSLAYER1
  6
CONTINUOUS
 62
     6
 10
128.000000
 20
24.023686
 11
128.000000
 21
82.976353
  0
LINE
  8
CSLAYER1
  6
CONTINUOUS
 62
     6
 10
127.999848
 20
82.976350
 11
158.000015
 21
83.500004
  0
LINE
  8
CSLAYER1
  6
CONTINUOUS
 62
     6
 10
158.000000
 20
23.500027
 11
127.999848
 21
24.023688
  0
LINE
  8
CSLAYER1
  6
CONTINUOUS
 62
     6
 10
127.000000
 20
25.041141
 11
127.999848
 21
24.023688
  0
LINE
  8
CSLAYER1
  6
CONTINUOUS
 62
     6
 10
127.999848
 20
82.976350
 11
127.000000
 21
81.958898
  0
LINE
  8
CSLAYER1
  6
CENTER
 62
     3
 10
124.000000
 20
243.500012
 11
303.000021
 21
243.499992
  0
TEXT
  8
CSLAYER1
 62
     3
 10
190.127808
 20
248.203857
 40
3.500000
 41
1.125000
  1
N P
 50
-90.000000
 51
10.000000
  7
JX_FONT
 72
     5
 11
190.127808
 21
237.703857
  0
LINE
  8
CSLAYER1
  6
CONTINUOUS
 62
     3
 10
210.890343
 20
217.499994
 11
210.890343
 21
269.500012
  0
LINE
  8
CSLAYER1
  6
CONTINUOUS
 62
     3
 10
209.890343
 20
270.500012
 11
173.109657
 21
270.500012
  0
LINE
  8
CSLAYER1
  6
CONTINUOUS
 62
     3
 10
209.890343
 20
216.499994
 11
173.109656
 21
216.500002
  0
LINE
  8
CSLAYER1
  6
CONTINUOUS
 62
     3
 10
172.109657
 20
217.500002
 11
172.109657
 21
269.500012
  0
ARC
  8
CSLAYER1
  6
CONTINUOUS
 62
     3
 10
173.109657
 20
269.500012
 40
1.000000
 50
90.000000
 51
180.000000
  0
ARC
  8
CSLAYER1
  6
CONTINUOUS
 62
     3
 10
209.890343
 20
269.500012
 40
1.000000
 50
0.000000
 51
90.000000
  0
ARC
  8
CSLAYER1
  6
CONTINUOUS
 62
     3
 10
173.109657
 20
217.500002
 40
1.000000
 50
180.000000
 51
269.999988
  0
ARC
  8
CSLAYER1
  6
CONTINUOUS
 62
     3
 10
209.890343
 20
217.499994
 40
1.000000
 50
269.999988
 51
360.000000
  0
LINE
  8
CSLAYER1
  6
CONTINUOUS
 62
     6
 10
158.000000
 20
274.500012
 11
158.000000
 21
212.500012
  0
LINE
  8
CSLAYER1
  6
CONTINUOUS
 62
     6
 10
158.000000
 20
274.500012
 11
225.495515
 21
274.500012
  0
LINE
  8
CSLAYER1
  6
CONTINUOUS
 62
     6
 10
158.000000
 20
212.500012
 11
225.495512
 21
212.500012
  0
LINE
  8
CSLAYER1
  6
CONTINUOUS
 62
     6
 10
225.000000
 20
212.500012
 11
225.000000
 21
274.500012
  0
LINE
  8
CSLAYER1
  6
CONTINUOUS
 62
     6
 10
228.500000
 20
204.500001
 11
228.500000
 21
282.500001
  0
LINE
  8
CSLAYER1
  6
CONTINUOUS
 62
     6
 10
235.000000
 20
203.500000
 11
235.000000
 21
283.500001
  0
ARC
  8
CSLAYER1
  6
CONTINUOUS
 62
     6
 10
229.500000
 20
282.500001
 40
1.000000
 50
89.999994
 51
180.000000
  0
ARC
  8
CSLAYER1
  6
CONTINUOUS
 62
     6
 10
229.500000
 20
204.500001
 40
1.000000
 50
180.000000
 51
269.999994
  0
LINE
  8
CSLAYER1
  6
CONTINUOUS
 62
     6
 10
235.000000
 20
283.500000
 11
229.500000
 21
283.500000
  0
LINE
  8
CSLAYER1
  6
CONTINUOUS
 62
     6
 10
235.000000
 20
203.500000
 11
229.500000
 21
203.500000
  0
ARC
  8
CSLAYER1
  6
CONTINUOUS
 62
     6
 10
261.226497
 20
276.734016
 40
8.773503
 50
-15.261480
 51
15.261480
  0
LINE
  8
CSLAYER1
  6
CONTINUOUS
 62
     6
 10
270.000000
 20
279.234016
 11
277.200000
 21
279.234016
  0
LINE
  8
CSLAYER1
  6
CONTINUOUS
 62
     6
 10
278.000000
 20
275.034016
 11
278.000000
 21
278.434016
  0
LINE
  8
CSLAYER1
  6
CONTINUOUS
 62
     6
 10
270.000000
 20
274.234016
 11
277.200000
 21
274.234016
  0
LINE
  8
CSLAYER1
  6
CONTINUOUS
 62
     6
 10
278.000000
 20
278.434016
 11
277.200000
 21
279.234016
  0
LINE
  8
CSLAYER1
  6
CONTINUOUS
 62
     6
 10
278.000000
 20
275.034016
 11
277.200000
 21
274.234016
  0
LINE
  8
CSLAYER1
  6
CONTINUOUS
 62
     6
 10
277.200000
 20
279.234016
 11
277.200000
 21
274.234016
  0
LINE
  8
CSLAYER1
  6
CONTINUOUS
 62
     3
 10
270.000000
 20
274.734016
 11
277.700000
 21
274.734016
  0
LINE
  8
CSLAYER1
  6
CONTINUOUS
 62
     3
 10
270.000000
 20
278.734016
 11
277.700000
 21
278.734016
  0
ARC
  8
CSLAYER1
  6
CONTINUOUS
 62
     6
 10
267.690599
 20
273.269914
 40
2.309401
 50
-15.446648
 51
30.000000
  0
ARC
  8
CSLAYER1
  6
CONTINUOUS
 62
     6
 10
267.690599
 20
280.198117
 40
2.309401
 50
-30.000000
 51
15.446648
  0
LINE
  8
CSLAYER1
  6
CONTINUOUS
 62
     6
 10
269.690599
 20
272.115214
 11
266.000000
 21
272.115214
  0
LINE
  8
CSLAYER1
  6
CONTINUOUS
 62
     6
 10
269.690599
 20
274.424615
 11
266.000000
 21
274.424615
  0
LINE
  8
CSLAYER1
  6
CONTINUOUS
 62
     6
 10
269.690599
 20
279.043417
 11
266.000000
 21
279.043417
  0
LINE
  8
CSLAYER1
  6
CONTINUOUS
 62
     6
 10
269.690599
 20
281.352818
 11
266.000000
 21
281.352818
  0
LINE
  8
CSLAYER1
  6
CONTINUOUS
 62
     6
 10
270.000000
 20
272.854016
 11
270.000000
 21
280.614016
  0
LINE
  8
CSLAYER1
  6
CONTINUOUS
 62
     6
 10
266.000000
 20
272.115214
 11
266.000000
 21
281.352818
  0
LINE
  8
CSLAYER1
  6
CONTINUOUS
 62
     6
 10
270.000000
 20
272.854016
 11
269.690599
 21
272.115214
  0
LINE
  8
CSLAYER1
  6
CONTINUOUS
 62
     6
 10
270.000000
 20
280.614016
 11
269.690599
 21
281.352818
  0
LINE
  8
CSLAYER1
  6
CONTINUOUS
 62
     6
 10
266.000000
 20
272.134016
 11
265.000000
 21
272.134016
  0
LINE
  8
CSLAYER1
  6
CONTINUOUS
 62
     6
 10
265.000000
 20
281.334016
 11
266.000000
 21
281.334016
  0
LINE
  8
CSLAYER1
  6
CONTINUOUS
 62
     6
 10
266.000000
 20
277.470016
 11
265.000000
 21
277.102016
  0
LINE
  8
CSLAYER1
  6
CONTINUOUS
 62
     6
 10
266.000000
 20
276.366016
 11
265.000000
 21
275.998016
  0
ARC
  8
CSLAYER1
  6
CONTINUOUS
 62
     6
 10
267.690592
 20
206.801874
 40
2.309401
 50
-15.446648
 51
30.000000
  0
ARC
  8
CSLAYER1
  6
CONTINUOUS
 62
     6
 10
261.226490
 20
210.265976
 40
8.773503
 50
-15.261480
 51
15.261480
  0
ARC
  8
CSLAYER1
  6
CONTINUOUS
 62
     6
 10
267.690592
 20
213.730077
 40
2.309401
 50
-30.000000
 51
15.446648
  0
LINE
  8
CSLAYER1
  6
CONTINUOUS
 62
     6
 10
269.690592
 20
205.647174
 11
265.999993
 21
205.647174
  0
LINE
  8
CSLAYER1
  6
CONTINUOUS
 62
     6
 10
269.690592
 20
207.956575
 11
265.999993
 21
207.956575
  0
LINE
  8
CSLAYER1
  6
CONTINUOUS
 62
     6
 10
269.690592
 20
212.575377
 11
265.999993
 21
212.575377
  0
LINE
  8
CSLAYER1
  6
CONTINUOUS
 62
     6
 10
269.690592
 20
214.884778
 11
265.999993
 21
214.884778
  0
LINE
  8
CSLAYER1
  6
CONTINUOUS
 62
     6
 10
269.999993
 20
206.385976
 11
269.999993
 21
214.145976
  0
LINE
  8
CSLAYER1
  6
CONTINUOUS
 62
     6
 10
265.999993
 20
205.647174
 11
265.999993
 21
214.884778
  0
LINE
  8
CSLAYER1
  6
CONTINUOUS
 62
     6
 10
269.999993
 20
206.385976
 11
269.690592
 21
205.647174
  0
LINE
  8
CSLAYER1
  6
CONTINUOUS
 62
     6
 10
269.999993
 20
214.145976
 11
269.690592
 21
214.884778
  0
LINE
  8
CSLAYER1
  6
CONTINUOUS
 62
     6
 10
265.999993
 20
205.665976
 11
264.999993
 21
205.665976
  0
LINE
  8
CSLAYER1
  6
CONTINUOUS
 62
     6
 10
264.999993
 20
214.865976
 11
265.999993
 21
214.865976
  0
LINE
  8
CSLAYER1
  6
CONTINUOUS
 62
     6
 10
264.999993
 20
205.665976
 11
264.999993
 21
214.865976
  0
LINE
  8
CSLAYER1
  6
CONTINUOUS
 62
     6
 10
265.999993
 20
211.001976
 11
264.999993
 21
210.633976
  0
LINE
  8
CSLAYER1
  6
CONTINUOUS
 62
     6
 10
265.999993
 20
209.897976
 11
264.999993
 21
209.529976
  0
LINE
  8
CSLAYER1
  6
CONTINUOUS
 62
     6
 10
235.000000
 20
283.500000
 11
264.000000
 21
283.499996
  0
LINE
  8
CSLAYER1
  6
CONTINUOUS
 62
     6
 10
265.000000
 20
270.999996
 11
265.000000
 21
282.499996
  0
LINE
  8
CSLAYER1
  6
CONTINUOUS
 62
     6
 10
264.000000
 20
210.265976
 11
264.000000
 21
276.734016
  0
ARC
  8
CSLAYER1
  6
CONTINUOUS
 62
     6
 10
264.000000
 20
282.499996
 40
1.000000
 50
0.000000
 51
89.999994
  0
ARC
  8
CSLAYER1
  6
CONTINUOUS
 62
     6
 10
264.000000
 20
270.999996
 40
1.000000
 50
269.999994
 51
360.000000
  0
LINE
  8
CSLAYER1
  6
CONTINUOUS
 62
     6
 10
264.999994
 20
215.999996
 11
264.999992
 21
204.499996
  0
ARC
  8
CSLAYER1
  6
CONTINUOUS
 62
     6
 10
263.999992
 20
204.499996
 40
1.000000
 50
269.999994
 51
359.999988
  0
ARC
  8
CSLAYER1
  6
CONTINUOUS
 62
     6
 10
263.999994
 20
215.999996
 40
1.000000
 50
-0.000012
 51
89.999994
  0
LINE
  8
CSLAYER1
  6
CONTINUOUS
 62
     6
 10
235.000000
 20
203.500000
 11
263.999991
 21
203.499996
  0
LINE
  8
CSLAYER1
  6
CONTINUOUS
 62
     6
 10
270.000000
 20
227.999995
 11
270.000000
 21
258.999995
  0
LINE
  8
CSLAYER1
  6
CONTINUOUS
 62
     6
 10
265.500000
 20
260.499996
 11
268.500000
 21
260.499995
  0
LINE
  8
CSLAYER1
  6
CONTINUOUS
 62
     6
 10
265.500000
 20
226.499996
 11
268.500000
 21
226.499995
  0
ARC
  8
CSLAYER1
  6
CONTINUOUS
 62
     6
 10
268.500000
 20
258.999995
 40
1.500000
 50
0.000000
 51
89.999994
  0
ARC
  8
CSLAYER1
  6
CONTINUOUS
 62
     6
 10
265.500000
 20
261.999996
 40
1.500000
 50
180.000000
 51
269.999994
  0
ARC
  8
CSLAYER1
  6
CONTINUOUS
 62
     6
 10
268.500000
 20
227.999995
 40
1.500000
 50
269.999994
 51
360.000000
  0
ARC
  8
CSLAYER1
  6
CONTINUOUS
 62
     6
 10
265.500000
 20
224.999996
 40
1.500000
 50
89.999994
 51
180.000000
  0
LINE
  8
CSLAYER1
  6
CONTINUOUS
 62
     6
 10
265.000001
 20
282.468035
 11
264.999999
 21
270.968035
  0
LINE
  8
CSLAYER1
  6
CONTINUOUS
 62
     6
 10
300.000000
 20
238.499992
 11
300.000000
 21
248.499992
  0
LINE
  8
CSLAYER1
  6
CONTINUOUS
 62
     6
 10
270.000000
 20
248.499995
 11
300.000000
 21
248.499992
  0
LINE
  8
CSLAYER1
  6
CONTINUOUS
 62
     6
 10
269.999999
 20
238.499995
 11
299.999999
 21
238.499992
  0
LINE
  8
CSLAYER1
  6
CONTINUOUS
 62
     6
 10
269.999993
 20
212.765976
 11
277.199993
 21
212.765976
  0
LINE
  8
CSLAYER1
  6
CONTINUOUS
 62
     6
 10
277.999993
 20
208.565976
 11
277.999993
 21
211.965976
  0
LINE
  8
CSLAYER1
  6
CONTINUOUS
 62
     6
 10
269.999993
 20
207.765976
 11
277.199993
 21
207.765976
  0
LINE
  8
CSLAYER1
  6
CONTINUOUS
 62
     6
 10
277.999993
 20
211.965976
 11
277.199993
 21
212.765976
  0
LINE
  8
CSLAYER1
  6
CONTINUOUS
 62
     6
 10
277.999993
 20
208.565976
 11
277.199993
 21
207.765976
  0
LINE
  8
CSLAYER1
  6
CONTINUOUS
 62
     6
 10
277.199993
 20
212.765976
 11
277.199993
 21
207.765976
  0
LINE
  8
CSLAYER1
  6
CONTINUOUS
 62
     3
 10
269.999993
 20
208.265976
 11
277.699993
 21
208.265976
  0
LINE
  8
CSLAYER1
  6
CONTINUOUS
 62
     3
 10
269.999993
 20
212.265976
 11
277.699993
 21
212.265976
  0
LINE
  8
CSLAYER1
  6
CENTER
 62
     3
 10
222.272416
 20
276.734016
 11
280.240258
 21
276.734016
  0
LINE
  8
CSLAYER1
  6
CONTINUOUS
 62
     6
 10
228.149119
 20
281.077658
 11
227.132714
 21
280.990032
  0
ARC
  8
CSLAYER1
  6
CONTINUOUS
 62
     6
 10
227.273358
 20
279.405557
 40
1.602152
 50
95.000118
 51
163.742789
  0
ARC
  8
CSLAYER1
  6
CONTINUOUS
 62
     6
 10
228.177229
 20
280.760778
 40
0.320436
 50
-0.000017
 51
94.999718
  0
LINE
  8
CSLAYER1
  6
CONTINUOUS
 62
     6
 10
228.149119
 20
272.390351
 11
227.132714
 21
272.477977
  0
ARC
  8
CSLAYER1
  6
CONTINUOUS
 62
     6
 10
227.273358
 20
274.062451
 40
1.602152
 50
196.257208
 51
264.999892
  0
ARC
  8
CSLAYER1
  6
CONTINUOUS
 62
     6
 10
228.177229
 20
272.707231
 40
0.320436
 50
265.000275
 51
359.942691
  0
LINE
  8
CSLAYER1
  6
CONTINUOUS
 62
     6
 10
228.149111
 20
205.922344
 11
227.132705
 21
206.009970
  0
ARC
  8
CSLAYER1
  6
CONTINUOUS
 62
     6
 10
227.273350
 20
207.594444
 40
1.602152
 50
196.257199
 51
264.999870
  0
ARC
  8
CSLAYER1
  6
CONTINUOUS
 62
     6
 10
228.177221
 20
206.239224
 40
0.320436
 50
-94.999730
 51
0.000005
  0
LINE
  8
CSLAYER1
  6
CONTINUOUS
 62
     6
 10
228.149113
 20
214.609650
 11
227.132707
 21
214.522025
  0
ARC
  8
CSLAYER1
  6
CONTINUOUS
 62
     6
 10
227.273351
 20
212.937550
 40
1.602152
 50
95.000095
 51
163.742780
  0
ARC
  8
CSLAYER1
  6
CONTINUOUS
 62
     6
 10
228.177223
 20
214.292770
 40
0.320436
 50
0.057296
 51
94.999713
  0
LINE
  8
CSLAYER1
  6
CENTER
 62
     3
 10
221.972408
 20
210.265987
 11
280.240258
 21
210.265972
  0
ARC
  8
CSLAYER1
  6
CONTINUOUS
 62
     6
 10
236.568966
 20
276.734004
 40
11.296550
 50
163.933744
 51
196.066255
  0
ARC
  8
CSLAYER1
  6
CONTINUOUS
 62
     6
 10
236.568958
 20
210.265995
 40
11.296550
 50
163.933732
 51
196.066243
  0
LINE
  8
CSLAYER1
  6
CONTINUOUS
 62
     6
 10
127.000000
 20
215.041141
 11
127.000000
 21
271.958898
  0
LINE
  8
CSLAYER1
  6
CONTINUOUS
 62
     6
 10
128.000000
 20
214.023686
 11
128.000000
 21
272.976353
  0
LINE
  8
CSLAYER1
  6
CONTINUOUS
 62
     6
 10
127.999848
 20
272.976350
 11
158.000015
 21
273.500004
  0
LINE
  8
CSLAYER1
  6
CONTINUOUS
 62
     6
 10
158.000000
 20
213.500027
 11
127.999848
 21
214.023688
  0
LINE
  8
CSLAYER1
  6
CONTINUOUS
 62
     6
 10
127.000000
 20
215.041141
 11
127.999848
 21
214.023688
  0
LINE
  8
CSLAYER1
  6
CONTINUOUS
 62
     6
 10
127.999848
 20
272.976350
 11
127.000000
 21
271.958898
  0
LINE
  8
CSLAYER1
  6
DASHED
 62
     6
 10
300.000000
 20
240.999992
 11
275.000000
 21
240.999992
  0
LINE
  8
CSLAYER1
  6
DASHED
 62
     6
 10
275.000000
 20
240.999992
 11
275.000000
 21
238.499995
  0
ENDSEC
  0
EOF
