  0
SECTION
  2
HEADER
  9
$ACADVER
  1
AC1006
  9
$INSBASE
 10
0.000000
 20
0.000000
 30
0.0
  9
$EXTMIN
 10
0.000000
 20
0.000000
  9
$EXTMAX
 10
594.000000
 20
420.000000
  9
$LIMMIN
 10
0.000000
 20
0.000000
  9
$LIMMAX
 10
594.000000
 20
420.000000
  9
$VIEWCTR
 10
297.000000
 20
210.000000
  9
$VIEWSIZE
 40
420.000000
  9
$SNAPMODE
 70
     0
  9
$SNAPUNIT
 10
1.0
 20
1.0
  9
$SNAPBASE
 10
0.0
 20
0.0
  9
$SNAPANG
 50
0.0
  9
$SNAPSTYLE
 70
     0
  9
$SNAPISOPAIR
 70
     0
  9
$GRIDMODE
 70
     0
  9
$GRIDUNIT
 10
0.0
 20
0.0
  9
$ORTHOMODE
 70
     0
  9
$REGENMODE
 70
     1
  9
$FILLMODE
 70
     1
  9
$QTEXTMODE
 70
     0
  9
$DRAGMODE
 70
     2
  9
$LTSCALE
 40
15.000000
  9
$OSMODE
 70
     0
  9
$ATTMODE
 70
     1
  9
$TEXTSIZE
 40
0.2
  9
$TRACEWID
 40
0.05
  9
$TEXTSTYLE
  7
STANDARD
  9
$CLAYER
  8
CSLAYER1
  9
$CELTYPE
  6
BYLAYER
  9
$CECOLOR
 62
   256
  9
$DIMSCALE
 40
1.0
  9
$DIMASZ
 40
0.18
  9
$DIMEXO
 40
0.0625
  9
$DIMDLI
 40
0.38
  9
$DIMRND
 40
0.0
  9
$DIMDLE
 40
0.0
  9
$DIMEXE
 40
0.18
  9
$DIMTP
 40
0.0
  9
$DIMTM
 40
0.0
  9
$DIMTXT
 40
0.18
  9
$DIMCEN
 40
0.09
  9
$DIMTSZ
 40
0.0
  9
$DIMTOL
 70
     0
  9
$DIMLIM
 70
     0
  9
$DIMTIH
 70
     1
  9
$DIMTOH
 70
     1
  9
$DIMSE1
 70
     0
  9
$DIMSE2
 70
     0
  9
$DIMTAD
 70
     0
  9
$DIMZIN
 70
     0
  9
$DIMBLK
  1

  9
$LUNITS
 70
     2
  9
$LUPREC
 70
     4
  9
$AXISMODE
 70
     0
  9
$AXISUNIT
 10
0.0
 20
0.0
  9
$SKETCHINC
 40
0.1
  9
$FILLETRAD
 40
0.0
  9
$AUNITS
 70
     0
  9
$AUPREC
 70
     0
  9
$MENU
  1
ACAD
  9
$ELEVATION
 40
0.0
  9
$THICKNESS
 40
0.0
  9
$VIEWDIR
 10
0.0
 20
0.0
 30
1.0
  9
$LIMCHECK
 70
     0
  9
$BLIPMODE
 70
     1
  9
$CHAMFERA
 40
0.0
  9
$CHAMFERB
 40
0.0
  9
$FASTZOOM
 70
     1
  9
$SKPOLY
 70
     0
  9
$TDCREATE
 40
0.000000
  9
$TDUPDATE
 40
0.000000
  9
$TDINDWG
 40
0.0
  9
$TDUSRTIMER
 40
0.0
  9
$USRTIMER
 70
     1
  9
$ANGBASE
 50
0.0
  9
$ANGDIR
 70
     0
  9
$PDMODE
 70
     0
  9
$PDSIZE
 40
0.0
  9
$PLINEWID
 40
0.0
  9
$COORDS
 70
     0
  9
$USERI1
 70
     0
  9
$USERI2
 70
     0
  9
$USERI3
 70
     0
  9
$USERI4
 70
     0
  9
$USERI5
 70
     0
  9
$USERR1
 40
0.0
  9
$USERR2
 40
0.0
  9
$USERR3
 40
0.0
  9
$USERR4
 40
0.0
  9
$USERR5
 40
0.0
  0
ENDSEC
  0
SECTION
  2
TABLES
  0
TABLE
  2
LTYPE
 70
     9
  0
LTYPE
  2
CONTINUOUS
 70
    64
  3
Solid line
 72
    65
 73
     0
 40
0.0
  0
LTYPE
  2
DASHED
 70
    64
  3
__ __ __ __ __ __ __ __ __ __ __ __ __ __ __
 72
    65
 73
     2
 40
0.75
 49
0.5
 49
-0.25
  0
LTYPE
  2
HIDDEN
 70
    64
  3
_ _ _ _ _ _ _ _ _ _ _ _ _ _ _ _ _ _ _ _ _ _ _
 72
    65
 73
     2
 40
0.375
 49
0.25
 49
-0.125
  0
LTYPE
  2
DOT
 70
    64
  3
...............................................
 72
    65
 73
     2
 40
0.25
 49
0.0
 49
-0.25
  0
LTYPE
  2
DASHDOT
 70
    64
  3
__ . __ . __ . __ . __ . __ . __ . __ . __ . __
 72
    65
 73
     4
 40
1.0
 49
0.5
 49
-0.25
 49
0.0
 49
-0.25
  0
LTYPE
  2
DIVIDE
 70
    64
  3
__ . . __ . . __ . . __ . . __ . . __ . . __
 72
    65
 73
     6
 40
1.25
 49
0.5
 49
-0.25
 49
0.0
 49
-0.25
 49
0.0
 49
-0.25
  0
LTYPE
  2
CENTER
 70
    64
  3
____ _ ____ _ ____ _ ____ _ ____ _ ____ _ ____ 
 72
    65
 73
     4
 40
2.0
 49
1.25
 49
-0.25
 49
0.25
 49
-0.25
  0
LTYPE
  2
PHANTOM
 70
    64
  3
______  __  __  ______  __  __  ______  __  __ 
 72
    65
 73
     6
 40
2.5
 49
1.25
 49
-0.25
 49
0.25
 49
-0.25
 49
0.25
 49
-0.25
  0
LTYPE
  2
BORDER
 70
    64
  3
__ __ . __ __ . __ __ . __ __ . __ __ . __ __ .
 72
    65
 73
     6
 40
1.75
 49
0.5
 49
-0.25
 49
0.5
 49
-0.25
 49
0.0
 49
-0.25
  0
ENDTAB
  0
TABLE
  2
LAYER
 70
    16
  0
LAYER
  2
CSLAYER1
 70
    64
 62
     7
  6
CONTINUOUS
  0
LAYER
  2
CSLAYER2
 70
    64
 62
     7
  6
CONTINUOUS
  0
LAYER
  2
CSLAYER3
 70
    64
 62
     7
  6
CONTINUOUS
  0
LAYER
  2
CSLAYER4
 70
    64
 62
     7
  6
CONTINUOUS
  0
LAYER
  2
CSLAYER5
 70
    64
 62
     7
  6
CONTINUOUS
  0
LAYER
  2
CSLAYER6
 70
    64
 62
     7
  6
CONTINUOUS
  0
LAYER
  2
CSLAYER7
 70
    64
 62
     7
  6
CONTINUOUS
  0
LAYER
  2
CSLAYER8
 70
    64
 62
     7
  6
CONTINUOUS
  0
LAYER
  2
CSLAYER9
 70
    64
 62
     7
  6
CONTINUOUS
  0
LAYER
  2
CSLAYER10
 70
    64
 62
     7
  6
CONTINUOUS
  0
LAYER
  2
CSLAYER11
 70
    64
 62
     7
  6
CONTINUOUS
  0
LAYER
  2
CSLAYER12
 70
    64
 62
     7
  6
CONTINUOUS
  0
LAYER
  2
CSLAYER13
 70
    64
 62
     7
  6
CONTINUOUS
  0
LAYER
  2
CSLAYER14
 70
    64
 62
     7
  6
CONTINUOUS
  0
LAYER
  2
CSLAYER15
 70
    64
 62
     7
  6
CONTINUOUS
  0
LAYER
  2
CSLAYER16
 70
    64
 62
     7
  6
CONTINUOUS
  0
ENDTAB
  0
TABLE
  2
STYLE
 70
     1
  0
STYLE
  2
JX_FONT
 70
     0
 40
1.0
 41
1.0
 50
0.0
 71
     0
 42
1.0
  3
monotxt
  4
bigfont
  0
ENDTAB
  0
TABLE
  2
VIEW
 70
     0
  0
ENDTAB
  0
ENDSEC
  0
SECTION
  2
BLOCKS
  0
ENDSEC
  0
SECTION
  2
ENTITIES
  0
LINE
  8
CSLAYER1
  6
CONTINUOUS
 62
     6
 10
308.287881
 20
252.881177
 11
307.287881
 21
252.881177
  0
LINE
  8
CSLAYER1
  6
CENTER
 62
     3
 10
206.287889
 20
222.881177
 11
396.287881
 21
222.881156
  0
LINE
  8
CSLAYER1
  6
CENTER
 62
     3
 10
206.287889
 20
64.357111
 11
396.287881
 21
64.357111
  0
LINE
  8
CSLAYER1
  6
CONTINUOUS
 62
     6
 10
308.287866
 20
94.357131
 11
307.287866
 21
94.357131
  0
LINE
  8
CSLAYER1
  6
CENTER
 62
     3
 10
113.534120
 20
257.881169
 11
113.534097
 21
151.881140
  0
CIRCLE
  8
CSLAYER1
  6
CONTINUOUS
 62
     6
 10
113.534105
 20
222.881154
 40
30.000000
  0
ARC
  8
CSLAYER1
  6
CONTINUOUS
 62
     6
 10
113.534105
 20
222.881154
 40
31.000000
 50
-85.930444
 51
265.930414
  0
LINE
  8
CSLAYER1
  6
CONTINUOUS
 62
     6
 10
115.734085
 20
184.546658
 11
115.734096
 21
192.961933
  0
LINE
  8
CSLAYER1
  6
CONTINUOUS
 62
     6
 10
111.334087
 20
184.546660
 11
111.334099
 21
192.961935
  0
LINE
  8
CSLAYER1
  6
CONTINUOUS
 62
     6
 10
113.534080
 20
184.546659
 11
113.534100
 21
192.961934
  0
ARC
  8
CSLAYER1
  6
CONTINUOUS
 62
     6
 10
129.293108
 20
181.634505
 40
15.759004
 50
180.000210
 51
207.463963
  0
ARC
  8
CSLAYER1
  6
CONTINUOUS
 62
     6
 10
129.293108
 20
181.634505
 40
13.559023
 50
180.000284
 51
207.463982
  0
ARC
  8
CSLAYER1
  6
CONTINUOUS
 62
     6
 10
114.084106
 20
185.499280
 40
1.099999
 50
239.999846
 51
299.999834
  0
ARC
  8
CSLAYER1
  6
CONTINUOUS
 62
     6
 10
115.184105
 20
185.499280
 40
1.099999
 50
239.999846
 51
299.999834
  0
ARC
  8
CSLAYER1
  6
CONTINUOUS
 62
     6
 10
115.184096
 20
183.594037
 40
1.099999
 50
59.999834
 51
119.999829
  0
ARC
  8
CSLAYER1
  6
CONTINUOUS
 62
     6
 10
115.184086
 20
180.681796
 40
1.099999
 50
59.999691
 51
119.999692
  0
ARC
  8
CSLAYER1
  6
CONTINUOUS
 62
     6
 10
114.084087
 20
180.681812
 40
1.099999
 50
59.999691
 51
119.999692
  0
ARC
  8
CSLAYER1
  6
CONTINUOUS
 62
     6
 10
114.084096
 20
182.587070
 40
1.099999
 50
239.999709
 51
299.999697
  0
LINE
  8
CSLAYER1
  6
CONTINUOUS
 62
     6
 10
116.774164
 20
175.127566
 11
118.551007
 21
172.106567
  0
LINE
  8
CSLAYER1
  6
CONTINUOUS
 62
     6
 10
116.286148
 20
174.873919
 11
117.900324
 21
171.768361
  0
LINE
  8
CSLAYER1
  6
CONTINUOUS
 62
     6
 10
115.798135
 20
174.620266
 11
117.249641
 21
171.430155
  0
LINE
  8
CSLAYER1
  6
CONTINUOUS
 62
     6
 10
117.262176
 20
175.381220
 11
115.310127
 21
174.366603
  0
ARC
  8
CSLAYER1
  6
CONTINUOUS
 62
     6
 10
97.775125
 20
181.634346
 40
15.758933
 50
-27.463485
 51
0.000373
  0
ARC
  8
CSLAYER1
  6
CONTINUOUS
 62
     6
 10
97.775125
 20
181.634346
 40
13.558951
 50
-27.463387
 51
0.000393
  0
ARC
  8
CSLAYER1
  6
CONTINUOUS
 62
     6
 10
111.884064
 20
185.499281
 40
1.099999
 50
240.000174
 51
300.000162
  0
ARC
  8
CSLAYER1
  6
CONTINUOUS
 62
     6
 10
112.984062
 20
185.499281
 40
1.099999
 50
240.000174
 51
300.000162
  0
ARC
  8
CSLAYER1
  6
CONTINUOUS
 62
     6
 10
112.984069
 20
183.594038
 40
1.099999
 50
60.000162
 51
120.000157
  0
ARC
  8
CSLAYER1
  6
CONTINUOUS
 62
     6
 10
112.984081
 20
180.681828
 40
1.099999
 50
60.000326
 51
120.000321
  0
ARC
  8
CSLAYER1
  6
CONTINUOUS
 62
     6
 10
111.884083
 20
180.681813
 40
1.099999
 50
60.000326
 51
120.000321
  0
ARC
  8
CSLAYER1
  6
CONTINUOUS
 62
     6
 10
111.884072
 20
182.587071
 40
1.099999
 50
240.000338
 51
300.000326
  0
LINE
  8
CSLAYER1
  6
CENTER
 62
     3
 10
153.534112
 20
222.881152
 11
73.534126
 21
222.881186
  0
CIRCLE
  8
CSLAYER1
  6
CONTINUOUS
 62
     6
 10
113.534097
 20
222.881154
 40
6.818180
  0
CIRCLE
  8
CSLAYER1
  6
CONTINUOUS
 62
     6
 10
113.534097
 20
222.881154
 40
7.909089
  0
LINE
  8
CSLAYER1
  6
CONTINUOUS
 62
     6
 10
106.715917
 20
222.881157
 11
116.943184
 21
219.472065
  0
LINE
  8
CSLAYER1
  6
CONTINUOUS
 62
     6
 10
116.943184
 20
219.472065
 11
116.984880
 21
222.881153
  0
LINE
  8
CSLAYER1
  6
CONTINUOUS
 62
     6
 10
116.984880
 20
222.881153
 11
120.352281
 21
222.881151
  0
LINE
  8
CSLAYER1
  6
CONTINUOUS
 62
     6
 10
110.125010
 20
226.290244
 11
110.148145
 21
222.881156
  0
LINE
  8
CSLAYER1
  6
CONTINUOUS
 62
     6
 10
110.148145
 20
222.881156
 11
106.715917
 21
222.881157
  0
TEXT
  8
CSLAYER1
 62
     6
 10
98.701302
 20
220.913055
 40
3.409090
 41
1.200000
  1
S
 50
281.999969
 51
3.000000
  7
JX_FONT
 72
     5
 11
99.268332
 21
218.245381
  0
TEXT
  8
CSLAYER1
 62
     6
 10
99.434608
 20
217.872162
 40
3.409090
 41
1.200000
  1
A
 50
294.000000
 51
3.000000
  7
JX_FONT
 72
     5
 11
100.543890
 21
215.380675
  0
TEXT
  8
CSLAYER1
 62
     6
 10
100.784157
 20
215.050171
 40
3.409090
 41
1.596000
  1
W
 50
306.000000
 51
3.000000
  7
JX_FONT
 72
     5
 11
102.916214
 21
212.115646
  0
TEXT
  8
CSLAYER1
 62
     6
 10
102.690918
 20
212.570435
 40
3.409090
 41
1.200000
  1
A
 50
317.999969
 51
3.000000
  7
JX_FONT
 72
     5
 11
104.717675
 21
210.745532
  0
TEXT
  8
CSLAYER1
 62
     6
 10
105.071564
 20
210.541336
 40
3.409090
 41
1.200000
  1
M
 50
329.999969
 51
3.000000
  7
JX_FONT
 72
     5
 11
107.433450
 21
209.177699
  0
TEXT
  8
CSLAYER1
 62
     6
 10
107.822083
 20
209.051544
 40
3.409090
 41
1.200000
  1
U
 50
341.999969
 51
3.000000
  7
JX_FONT
 72
     5
 11
110.415872
 21
208.208769
  0
TEXT
  8
CSLAYER1
 62
     6
 10
110.822235
 20
208.166168
 40
3.409090
 41
1.200000
  1
R
 50
353.999939
 51
3.000000
  7
JX_FONT
 72
     5
 11
113.534567
 21
207.881088
  0
TEXT
  8
CSLAYER1
 62
     6
 10
113.940918
 20
207.923889
 40
3.409090
 41
1.200000
  1
A
 50
5.999976
 51
3.000000
  7
JX_FONT
 72
     5
 11
116.653250
 21
208.208966
  0
TEXT
  8
CSLAYER1
 62
     6
 10
126.690826
 20
215.754852
 40
3.409090
 41
1.200000
  1
K
 50
66.000038
 51
3.000000
  7
JX_FONT
 72
     5
 11
127.800106
 21
218.246340
  0
TEXT
  8
CSLAYER1
 62
     6
 10
127.884949
 20
218.646011
 40
3.409090
 41
0.792000
  1
I
 50
77.999977
 51
3.000000
  7
JX_FONT
 72
     5
 11
128.259190
 21
220.406676
  0
TEXT
  8
CSLAYER1
 62
     6
 10
119.989410
 20
209.382477
 40
3.409090
 41
1.200000
  1
D
 50
30.000006
 51
3.000000
  7
JX_FONT
 72
     5
 11
122.351297
 21
210.746113
  0
TEXT
  8
CSLAYER1
 62
     6
 10
122.654877
 20
211.019608
 40
3.409090
 41
1.200000
  1
E
 50
41.999947
 51
3.000000
  7
JX_FONT
 72
     5
 11
124.681637
 21
212.844507
  0
TEXT
  8
CSLAYER1
 62
     6
 10
124.921692
 20
213.175140
 40
3.409090
 41
1.200000
  1
N
 50
54.000038
 51
3.000000
  7
JX_FONT
 72
     5
 11
126.524741
 21
215.381551
  0
TEXT
  8
CSLAYER1
 62
     6
 10
98.616257
 20
224.039886
 40
3.410000
 41
1.200000
  1
*
 50
269.999969
 51
3.000000
  7
JX_FONT
 72
     5
 11
98.616255
 21
221.311886
  0
TEXT
  8
CSLAYER1
 62
     6
 10
119.246140
 20
236.710724
 40
3.409090
 41
1.200000
  1
U
 50
161.999969
 51
3.000000
  7
JX_FONT
 72
     5
 11
116.652350
 21
237.553499
  0
TEXT
  8
CSLAYER1
 62
     6
 10
116.245979
 20
237.596100
 40
3.409090
 41
1.200000
  1
R
 50
173.999954
 51
3.000000
  7
JX_FONT
 72
     5
 11
113.533648
 21
237.881180
  0
TEXT
  8
CSLAYER1
 62
     6
 10
113.127296
 20
237.838379
 40
3.409090
 41
1.200000
  1
A
 50
185.999985
 51
3.000000
  7
JX_FONT
 72
     5
 11
110.414965
 21
237.553302
  0
TEXT
  8
CSLAYER1
 62
     6
 10
100.377396
 20
230.007416
 40
3.409090
 41
1.200000
  1
K
 50
246.000031
 51
3.000000
  7
JX_FONT
 72
     5
 11
99.268115
 21
227.515928
  0
TEXT
  8
CSLAYER1
 62
     6
 10
99.183266
 20
227.116257
 40
3.409090
 41
0.792000
  1
I
 50
257.999969
 51
3.000000
  7
JX_FONT
 72
     5
 11
98.809024
 21
225.355592
  0
TEXT
  8
CSLAYER1
 62
     6
 10
107.078812
 20
236.379791
 40
3.409090
 41
1.200000
  1
D
 50
210.000015
 51
3.000000
  7
JX_FONT
 72
     5
 11
104.716925
 21
235.016155
  0
TEXT
  8
CSLAYER1
 62
     6
 10
104.413376
 20
234.742661
 40
3.409090
 41
1.200000
  1
E
 50
221.999939
 51
3.000000
  7
JX_FONT
 72
     5
 11
102.386616
 21
232.917761
  0
TEXT
  8
CSLAYER1
 62
     6
 10
102.146523
 20
232.587128
 40
3.409090
 41
1.200000
  1
N
 50
234.000031
 51
3.000000
  7
JX_FONT
 72
     5
 11
100.543473
 21
230.380717
  0
TEXT
  8
CSLAYER1
 62
     6
 10
128.366913
 20
224.849213
 40
3.409090
 41
1.200000
  1
S
 50
101.999977
 51
3.000000
  7
JX_FONT
 72
     5
 11
127.799882
 21
227.516887
  0
TEXT
  8
CSLAYER1
 62
     6
 10
127.633606
 20
227.890106
 40
3.409090
 41
1.200000
  1
A
 50
114.000023
 51
3.000000
  7
JX_FONT
 72
     5
 11
126.524323
 21
230.381593
  0
TEXT
  8
CSLAYER1
 62
     6
 10
126.284058
 20
230.712097
 40
3.409090
 41
1.596000
  1
W
 50
126.000008
 51
3.000000
  7
JX_FONT
 72
     5
 11
124.152000
 21
233.646621
  0
TEXT
  8
CSLAYER1
 62
     6
 10
124.377304
 20
233.191833
 40
3.409090
 41
1.200000
  1
A
 50
138.000000
 51
3.000000
  7
JX_FONT
 72
     5
 11
122.350546
 21
235.016735
  0
TEXT
  8
CSLAYER1
 62
     6
 10
121.996658
 20
235.220932
 40
3.409090
 41
1.200000
  1
M
 50
149.999985
 51
3.000000
  7
JX_FONT
 72
     5
 11
119.634772
 21
236.584569
  0
TEXT
  8
CSLAYER1
 62
     6
 10
128.451965
 20
221.722382
 40
3.410000
 41
1.200000
  1
*
 50
89.999977
 51
3.000000
  7
JX_FONT
 72
     5
 11
128.451966
 21
224.450382
  0
CIRCLE
  8
CSLAYER1
  6
CONTINUOUS
 62
     6
 10
113.534097
 20
222.881154
 40
16.000000
  0
CIRCLE
  8
CSLAYER1
  6
CONTINUOUS
 62
     6
 10
113.534097
 20
222.881154
 40
17.000000
  0
LINE
  8
CSLAYER1
  6
CONTINUOUS
 62
     6
 10
120.352273
 20
222.881154
 11
110.125010
 21
226.290244
  0
LINE
  8
CSLAYER1
  6
CONTINUOUS
 62
     6
 10
110.148145
 20
222.881171
 11
110.148145
 21
222.881156
  0
LINE
  8
CSLAYER1
  6
CONTINUOUS
 62
     6
 10
110.294041
 20
175.127567
 11
108.517196
 21
172.106569
  0
LINE
  8
CSLAYER1
  6
CONTINUOUS
 62
     6
 10
110.782057
 20
174.873920
 11
109.167879
 21
171.768363
  0
LINE
  8
CSLAYER1
  6
CONTINUOUS
 62
     6
 10
111.270069
 20
174.620267
 11
109.818562
 21
171.430157
  0
LINE
  8
CSLAYER1
  6
CONTINUOUS
 62
     6
 10
109.806060
 20
175.381206
 11
111.758104
 21
174.366590
  0
LINE
  8
CSLAYER1
  6
CENTER
 62
     3
 10
87.534126
 20
255.381189
 11
87.534121
 21
242.447931
  0
CIRCLE
  8
CSLAYER1
  6
CONTINUOUS
 62
     6
 10
87.534132
 20
248.881195
 40
3.500000
  0
ARC
  8
CSLAYER1
  6
CONTINUOUS
 62
     6
 10
87.534119
 20
248.881196
 40
1.944444
 50
163.398391
 51
196.601553
  0
ARC
  8
CSLAYER1
  6
CONTINUOUS
 62
     6
 10
87.534119
 20
248.881196
 40
1.944444
 50
253.398397
 51
286.601559
  0
ARC
  8
CSLAYER1
  6
CONTINUOUS
 62
     6
 10
87.534119
 20
248.881196
 40
1.944444
 50
-16.601586
 51
16.601548
  0
ARC
  8
CSLAYER1
  6
CONTINUOUS
 62
     6
 10
87.534119
 20
248.881196
 40
1.944444
 50
73.398382
 51
106.601571
  0
LINE
  8
CSLAYER1
  6
CONTINUOUS
 62
     6
 10
88.645244
 20
248.325633
 11
89.397500
 21
248.325633
  0
LINE
  8
CSLAYER1
  6
CONTINUOUS
 62
     6
 10
86.422994
 20
248.325634
 11
85.670737
 21
248.325635
  0
LINE
  8
CSLAYER1
  6
CONTINUOUS
 62
     6
 10
88.645244
 20
249.436758
 11
89.397501
 21
249.436758
  0
LINE
  8
CSLAYER1
  6
CONTINUOUS
 62
     6
 10
86.422994
 20
249.436759
 11
85.670738
 21
249.436759
  0
LINE
  8
CSLAYER1
  6
CONTINUOUS
 62
     6
 10
86.978556
 20
247.770101
 11
86.978556
 21
247.017786
  0
LINE
  8
CSLAYER1
  6
CONTINUOUS
 62
     6
 10
86.978557
 20
249.992292
 11
86.978557
 21
250.744607
  0
LINE
  8
CSLAYER1
  6
CONTINUOUS
 62
     6
 10
88.089681
 20
247.770100
 11
88.089681
 21
247.017786
  0
LINE
  8
CSLAYER1
  6
CONTINUOUS
 62
     6
 10
88.089682
 20
249.992292
 11
88.089682
 21
250.744606
  0
ARC
  8
CSLAYER1
  6
CONTINUOUS
 62
     6
 10
88.645243
 20
247.770100
 40
0.555556
 50
89.999976
 51
179.942667
  0
ARC
  8
CSLAYER1
  6
CONTINUOUS
 62
     6
 10
88.645244
 20
249.992292
 40
0.555556
 50
179.999986
 51
269.999992
  0
ARC
  8
CSLAYER1
  6
CONTINUOUS
 62
     6
 10
86.422995
 20
249.992292
 40
0.555556
 50
269.999992
 51
359.999981
  0
ARC
  8
CSLAYER1
  6
CONTINUOUS
 62
     6
 10
86.422994
 20
247.770101
 40
0.555556
 50
-0.000019
 51
89.942630
  0
LINE
  8
CSLAYER1
  6
CENTER
 62
     3
 10
81.034115
 20
248.881183
 11
94.034132
 21
248.881178
  0
LINE
  8
CSLAYER1
  6
CENTER
 62
     3
 10
139.534112
 20
255.381178
 11
139.534112
 21
242.447920
  0
CIRCLE
  8
CSLAYER1
  6
CONTINUOUS
 62
     6
 10
139.534104
 20
248.881184
 40
3.500000
  0
ARC
  8
CSLAYER1
  6
CONTINUOUS
 62
     6
 10
139.534117
 20
248.881185
 40
1.944444
 50
-16.601577
 51
16.601584
  0
ARC
  8
CSLAYER1
  6
CONTINUOUS
 62
     6
 10
139.534117
 20
248.881185
 40
1.944444
 50
253.398417
 51
286.601578
  0
ARC
  8
CSLAYER1
  6
CONTINUOUS
 62
     6
 10
139.534117
 20
248.881185
 40
1.944444
 50
163.398428
 51
196.601562
  0
ARC
  8
CSLAYER1
  6
CONTINUOUS
 62
     6
 10
139.534117
 20
248.881185
 40
1.944444
 50
73.398405
 51
106.601594
  0
LINE
  8
CSLAYER1
  6
CONTINUOUS
 62
     6
 10
138.422992
 20
248.325623
 11
137.670736
 21
248.325623
  0
LINE
  8
CSLAYER1
  6
CONTINUOUS
 62
     6
 10
140.645242
 20
248.325623
 11
141.397498
 21
248.325623
  0
LINE
  8
CSLAYER1
  6
CONTINUOUS
 62
     6
 10
138.422992
 20
249.436748
 11
137.670736
 21
249.436748
  0
LINE
  8
CSLAYER1
  6
CONTINUOUS
 62
     6
 10
140.645242
 20
249.436748
 11
141.397498
 21
249.436748
  0
LINE
  8
CSLAYER1
  6
CONTINUOUS
 62
     6
 10
140.089679
 20
247.770089
 11
140.089679
 21
247.017775
  0
LINE
  8
CSLAYER1
  6
CONTINUOUS
 62
     6
 10
140.089679
 20
249.992281
 11
140.089679
 21
250.744595
  0
LINE
  8
CSLAYER1
  6
CONTINUOUS
 62
     6
 10
138.978554
 20
247.770089
 11
138.978554
 21
247.017775
  0
LINE
  8
CSLAYER1
  6
CONTINUOUS
 62
     6
 10
138.978554
 20
249.992281
 11
138.978554
 21
250.744595
  0
ARC
  8
CSLAYER1
  6
CONTINUOUS
 62
     6
 10
138.422992
 20
247.770089
 40
0.555556
 50
0.057309
 51
89.999999
  0
ARC
  8
CSLAYER1
  6
CONTINUOUS
 62
     6
 10
138.422992
 20
249.992281
 40
0.555556
 50
269.999984
 51
359.999990
  0
ARC
  8
CSLAYER1
  6
CONTINUOUS
 62
     6
 10
140.645242
 20
249.992281
 40
0.555556
 50
179.999995
 51
269.999984
  0
ARC
  8
CSLAYER1
  6
CONTINUOUS
 62
     6
 10
140.645242
 20
247.770089
 40
0.555556
 50
90.057346
 51
179.999995
  0
LINE
  8
CSLAYER1
  6
CENTER
 62
     3
 10
146.034121
 20
248.881169
 11
133.034104
 21
248.881169
  0
LINE
  8
CSLAYER1
  6
CENTER
 62
     3
 10
87.534099
 20
190.381172
 11
87.534104
 21
203.314430
  0
CIRCLE
  8
CSLAYER1
  6
CONTINUOUS
 62
     6
 10
87.534110
 20
196.881165
 40
3.500000
  0
ARC
  8
CSLAYER1
  6
CONTINUOUS
 62
     6
 10
87.534097
 20
196.881165
 40
1.944444
 50
163.398399
 51
196.601560
  0
ARC
  8
CSLAYER1
  6
CONTINUOUS
 62
     6
 10
87.534097
 20
196.881165
 40
1.944444
 50
73.398392
 51
106.601554
  0
ARC
  8
CSLAYER1
  6
CONTINUOUS
 62
     6
 10
87.534097
 20
196.881165
 40
1.944444
 50
-16.601596
 51
16.601538
  0
ARC
  8
CSLAYER1
  6
CONTINUOUS
 62
     6
 10
87.534097
 20
196.881165
 40
1.944444
 50
253.398381
 51
286.601569
  0
LINE
  8
CSLAYER1
  6
CONTINUOUS
 62
     6
 10
88.645222
 20
197.436727
 11
89.397479
 21
197.436726
  0
LINE
  8
CSLAYER1
  6
CONTINUOUS
 62
     6
 10
86.422972
 20
197.436728
 11
85.670716
 21
197.436728
  0
LINE
  8
CSLAYER1
  6
CONTINUOUS
 62
     6
 10
88.645222
 20
196.325602
 11
89.397478
 21
196.325602
  0
LINE
  8
CSLAYER1
  6
CONTINUOUS
 62
     6
 10
86.422972
 20
196.325603
 11
85.670715
 21
196.325603
  0
LINE
  8
CSLAYER1
  6
CONTINUOUS
 62
     6
 10
86.978535
 20
197.992261
 11
86.978535
 21
198.744575
  0
LINE
  8
CSLAYER1
  6
CONTINUOUS
 62
     6
 10
86.978534
 20
195.770069
 11
86.978534
 21
195.017755
  0
LINE
  8
CSLAYER1
  6
CONTINUOUS
 62
     6
 10
88.089660
 20
197.992260
 11
88.089660
 21
198.744575
  0
LINE
  8
CSLAYER1
  6
CONTINUOUS
 62
     6
 10
88.089659
 20
195.770069
 11
88.089659
 21
195.017754
  0
ARC
  8
CSLAYER1
  6
CONTINUOUS
 62
     6
 10
88.645222
 20
197.992260
 40
0.555556
 50
180.057285
 51
269.999975
  0
ARC
  8
CSLAYER1
  6
CONTINUOUS
 62
     6
 10
88.645221
 20
195.770068
 40
0.555556
 50
89.999960
 51
179.999966
  0
ARC
  8
CSLAYER1
  6
CONTINUOUS
 62
     6
 10
86.422972
 20
195.770069
 40
0.555556
 50
-0.000029
 51
89.999960
  0
ARC
  8
CSLAYER1
  6
CONTINUOUS
 62
     6
 10
86.422973
 20
197.992261
 40
0.555556
 50
270.057321
 51
359.999971
  0
LINE
  8
CSLAYER1
  6
CENTER
 62
     3
 10
81.034093
 20
196.881183
 11
94.034110
 21
196.881178
  0
LINE
  8
CSLAYER1
  6
CENTER
 62
     3
 10
139.534085
 20
190.381139
 11
139.534096
 21
203.314397
  0
CIRCLE
  8
CSLAYER1
  6
CONTINUOUS
 62
     6
 10
139.534082
 20
196.881132
 40
3.500000
  0
ARC
  8
CSLAYER1
  6
CONTINUOUS
 62
     6
 10
139.534095
 20
196.881132
 40
1.944444
 50
-16.601633
 51
16.601529
  0
ARC
  8
CSLAYER1
  6
CONTINUOUS
 62
     6
 10
139.534095
 20
196.881132
 40
1.944444
 50
73.398373
 51
106.601535
  0
ARC
  8
CSLAYER1
  6
CONTINUOUS
 62
     6
 10
139.534095
 20
196.881132
 40
1.944444
 50
163.398389
 51
196.601524
  0
ARC
  8
CSLAYER1
  6
CONTINUOUS
 62
     6
 10
139.534095
 20
196.881132
 40
1.944444
 50
253.398358
 51
286.601547
  0
LINE
  8
CSLAYER1
  6
CONTINUOUS
 62
     6
 10
138.422971
 20
197.436695
 11
137.670714
 21
197.436696
  0
LINE
  8
CSLAYER1
  6
CONTINUOUS
 62
     6
 10
140.645220
 20
197.436693
 11
141.397477
 21
197.436693
  0
LINE
  8
CSLAYER1
  6
CONTINUOUS
 62
     6
 10
138.422970
 20
196.325570
 11
137.670713
 21
196.325571
  0
LINE
  8
CSLAYER1
  6
CONTINUOUS
 62
     6
 10
140.645219
 20
196.325568
 11
141.397476
 21
196.325568
  0
LINE
  8
CSLAYER1
  6
CONTINUOUS
 62
     6
 10
140.089658
 20
197.992227
 11
140.089659
 21
198.744542
  0
LINE
  8
CSLAYER1
  6
CONTINUOUS
 62
     6
 10
140.089656
 20
195.770035
 11
140.089656
 21
195.017721
  0
LINE
  8
CSLAYER1
  6
CONTINUOUS
 62
     6
 10
138.978533
 20
197.992228
 11
138.978534
 21
198.744542
  0
LINE
  8
CSLAYER1
  6
CONTINUOUS
 62
     6
 10
138.978532
 20
195.770036
 11
138.978531
 21
195.017722
  0
ARC
  8
CSLAYER1
  6
CONTINUOUS
 62
     6
 10
138.422971
 20
197.992229
 40
0.555556
 50
269.999952
 51
359.942643
  0
ARC
  8
CSLAYER1
  6
CONTINUOUS
 62
     6
 10
138.422969
 20
195.770037
 40
0.555556
 50
-0.000039
 51
89.999968
  0
ARC
  8
CSLAYER1
  6
CONTINUOUS
 62
     6
 10
140.645219
 20
195.770035
 40
0.555556
 50
89.999968
 51
179.999956
  0
ARC
  8
CSLAYER1
  6
CONTINUOUS
 62
     6
 10
140.645221
 20
197.992227
 40
0.555556
 50
179.999956
 51
269.942606
  0
LINE
  8
CSLAYER1
  6
CENTER
 62
     3
 10
146.034099
 20
196.881142
 11
133.034082
 21
196.881153
  0
LINE
  8
CSLAYER1
  6
CONTINUOUS
 62
     6
 10
81.534101
 20
196.881183
 11
81.534123
 21
248.881183
  0
LINE
  8
CSLAYER1
  6
CONTINUOUS
 62
     6
 10
145.534101
 20
196.881142
 11
145.534123
 21
248.881156
  0
LINE
  8
CSLAYER1
  6
CONTINUOUS
 62
     6
 10
139.534126
 20
254.881158
 11
87.534126
 21
254.881180
  0
LINE
  8
CSLAYER1
  6
CONTINUOUS
 62
     6
 10
139.534099
 20
190.881158
 11
115.734094
 21
190.881169
  0
ARC
  8
CSLAYER1
  6
CONTINUOUS
 62
     6
 10
87.534123
 20
248.881180
 40
6.000000
 50
89.999976
 51
179.999976
  0
LINE
  8
CSLAYER1
  6
CONTINUOUS
 62
     6
 10
111.334096
 20
190.881170
 11
87.534099
 21
190.881180
  0
ARC
  8
CSLAYER1
  6
CONTINUOUS
 62
     6
 10
139.534112
 20
248.881169
 40
6.000000
 50
-0.000000
 51
90.000000
  0
ARC
  8
CSLAYER1
  6
CONTINUOUS
 62
     6
 10
87.534101
 20
196.881180
 40
6.000000
 50
179.999976
 51
269.999976
  0
ARC
  8
CSLAYER1
  6
CONTINUOUS
 62
     6
 10
139.534090
 20
196.881147
 40
6.000000
 50
269.999951
 51
359.999951
  0
LINE
  8
CSLAYER1
  6
CONTINUOUS
 62
     6
 10
76.534112
 20
170.881170
 11
76.534112
 21
248.881169
  0
LINE
  8
CSLAYER1
  6
CONTINUOUS
 62
     6
 10
85.534112
 20
191.224322
 11
85.534112
 21
154.881170
  0
LINE
  8
CSLAYER1
  6
CONTINUOUS
 62
     6
 10
90.534112
 20
190.881169
 11
90.534112
 21
154.881170
  0
LINE
  8
CSLAYER1
  6
CONTINUOUS
 62
     6
 10
130.534112
 20
190.881169
 11
130.534112
 21
161.381155
  0
LINE
  8
CSLAYER1
  6
CONTINUOUS
 62
     6
 10
82.534112
 20
168.881170
 11
78.534112
 21
168.881170
  0
LINE
  8
CSLAYER1
  6
CONTINUOUS
 62
     6
 10
148.534112
 20
167.881170
 11
133.534112
 21
167.881170
  0
LINE
  8
CSLAYER1
  6
CONTINUOUS
 62
     6
 10
127.534112
 20
158.381155
 11
115.534112
 21
158.381155
  0
LINE
  8
CSLAYER1
  6
CONTINUOUS
 62
     6
 10
111.534112
 20
154.881170
 11
85.534112
 21
154.881170
  0
LINE
  8
CSLAYER1
  6
CONTINUOUS
 62
     6
 10
150.534112
 20
169.881170
 11
150.534112
 21
248.881169
  0
ARC
  8
CSLAYER1
  6
CONTINUOUS
 62
     6
 10
133.534112
 20
164.881170
 40
3.000000
 50
90.000000
 51
180.000000
  0
ARC
  8
CSLAYER1
  6
CONTINUOUS
 62
     6
 10
127.534112
 20
161.381155
 40
3.000000
 50
270.000000
 51
360.000000
  0
ARC
  8
CSLAYER1
  6
CONTINUOUS
 62
     6
 10
82.534112
 20
165.881170
 40
3.000000
 50
0.000000
 51
90.000000
  0
ARC
  8
CSLAYER1
  6
CONTINUOUS
 62
     6
 10
78.534112
 20
170.881170
 40
2.000000
 50
180.000000
 51
270.000000
  0
ARC
  8
CSLAYER1
  6
CONTINUOUS
 62
     6
 10
111.534112
 20
156.881170
 40
2.000000
 50
270.000000
 51
352.819036
  0
ARC
  8
CSLAYER1
  6
CONTINUOUS
 62
     6
 10
148.534112
 20
169.881170
 40
2.000000
 50
270.000000
 51
360.000000
  0
LINE
  8
CSLAYER1
  6
CONTINUOUS
 62
     6
 10
148.534112
 20
211.881170
 11
145.534108
 21
211.881170
  0
ARC
  8
CSLAYER1
  6
CONTINUOUS
 62
     6
 10
148.534112
 20
209.881170
 40
2.000000
 50
0.000000
 51
90.000000
  0
LINE
  8
CSLAYER1
  6
CONTINUOUS
 62
     6
 10
81.534107
 20
210.881170
 11
78.534112
 21
210.881170
  0
ARC
  8
CSLAYER1
  6
CONTINUOUS
 62
     6
 10
78.534112
 20
208.881170
 40
2.000000
 50
90.000000
 51
180.000000
  0
ARC
  8
CSLAYER1
  6
CONTINUOUS
 62
     6
 10
84.805960
 20
186.985204
 40
0.104022
 50
179.999995
 51
269.999997
  0
ARC
  8
CSLAYER1
  6
CONTINUOUS
 62
     6
 10
85.430091
 20
186.985204
 40
0.104022
 50
269.999997
 51
360.000000
  0
LINE
  8
CSLAYER1
  6
CONTINUOUS
 62
     6
 10
84.805960
 20
186.881170
 11
85.430091
 21
186.881170
  0
LINE
  8
CSLAYER1
  6
CONTINUOUS
 62
     6
 10
84.701938
 20
189.244636
 11
85.534112
 21
189.706347
  0
LINE
  8
CSLAYER1
  6
CONTINUOUS
 62
     6
 10
84.701938
 20
189.764745
 11
85.534112
 21
190.226456
  0
LINE
  8
CSLAYER1
  6
CONTINUOUS
 62
     6
 10
84.466721
 20
186.985979
 11
83.785361
 21
187.044720
  0
ARC
  8
CSLAYER1
  6
CONTINUOUS
 62
     6
 10
83.879643
 20
188.106892
 40
1.074023
 50
196.257211
 51
264.999882
  0
ARC
  8
CSLAYER1
  6
CONTINUOUS
 62
     6
 10
84.485565
 20
187.198403
 40
0.214808
 50
-94.999718
 51
0.000017
  0
LINE
  8
CSLAYER1
  6
CONTINUOUS
 62
     6
 10
84.701938
 20
186.985204
 11
84.701938
 21
191.591677
  0
ARC
  8
CSLAYER1
  6
CONTINUOUS
 62
     6
 10
83.879643
 20
191.655447
 40
1.074023
 50
119.904783
 51
163.742789
  0
LINE
  8
CSLAYER1
  6
CENTER
 62
     3
 10
93.534112
 20
157.881170
 11
79.448405
 21
157.881170
  0
ARC
  8
CSLAYER1
  6
CONTINUOUS
 62
     6
 10
84.805960
 20
154.985204
 40
0.104022
 50
179.999995
 51
269.999997
  0
ARC
  8
CSLAYER1
  6
CONTINUOUS
 62
     6
 10
85.430091
 20
154.985204
 40
0.104022
 50
269.999997
 51
360.000000
  0
LINE
  8
CSLAYER1
  6
CONTINUOUS
 62
     6
 10
84.805960
 20
154.881170
 11
85.430091
 21
154.881170
  0
LINE
  8
CSLAYER1
  6
CONTINUOUS
 62
     6
 10
84.701938
 20
157.244636
 11
85.534112
 21
157.706347
  0
LINE
  8
CSLAYER1
  6
CONTINUOUS
 62
     6
 10
84.701938
 20
157.764745
 11
85.534112
 21
158.226456
  0
LINE
  8
CSLAYER1
  6
CONTINUOUS
 62
     6
 10
84.466721
 20
154.985979
 11
83.785361
 21
155.044720
  0
ARC
  8
CSLAYER1
  6
CONTINUOUS
 62
     6
 10
83.879643
 20
156.106892
 40
1.074023
 50
196.257211
 51
264.999882
  0
ARC
  8
CSLAYER1
  6
CONTINUOUS
 62
     6
 10
84.485565
 20
155.198403
 40
0.214808
 50
-94.999718
 51
0.000017
  0
LINE
  8
CSLAYER1
  6
CONTINUOUS
 62
     6
 10
84.701938
 20
154.985204
 11
84.701938
 21
160.777135
  0
ARC
  8
CSLAYER1
  6
CONTINUOUS
 62
     6
 10
84.805960
 20
160.777135
 40
0.104022
 50
90.000003
 51
180.000005
  0
ARC
  8
CSLAYER1
  6
CONTINUOUS
 62
     6
 10
85.430091
 20
160.777135
 40
0.104022
 50
0.000000
 51
90.000003
  0
LINE
  8
CSLAYER1
  6
CONTINUOUS
 62
     6
 10
84.805960
 20
160.881170
 11
85.430091
 21
160.881170
  0
LINE
  8
CSLAYER1
  6
CONTINUOUS
 62
     6
 10
84.466721
 20
160.776361
 11
83.785361
 21
160.717620
  0
ARC
  8
CSLAYER1
  6
CONTINUOUS
 62
     6
 10
83.879643
 20
159.655447
 40
1.074023
 50
95.000118
 51
163.742789
  0
ARC
  8
CSLAYER1
  6
CONTINUOUS
 62
     6
 10
84.485565
 20
160.563936
 40
0.214808
 50
-0.000017
 51
94.999718
  0
LINE
  8
CSLAYER1
  6
CENTER
 62
     3
 10
181.637054
 20
189.881170
 11
73.534112
 21
189.881170
  0
LINE
  8
CSLAYER1
  6
CONTINUOUS
 62
     6
 10
178.034112
 20
194.881170
 11
158.534112
 21
194.881170
  0
LINE
  8
CSLAYER1
  6
CONTINUOUS
 62
     6
 10
158.534112
 20
195.881170
 11
150.534112
 21
195.881170
  0
LINE
  8
CSLAYER1
  6
CONTINUOUS
 62
     6
 10
158.534112
 20
195.881170
 11
158.534112
 21
183.881170
  0
LINE
  8
CSLAYER1
  6
CONTINUOUS
 62
     6
 10
178.034112
 20
184.881170
 11
158.534112
 21
184.881170
  0
LINE
  8
CSLAYER1
  6
CONTINUOUS
 62
     6
 10
158.534112
 20
183.881170
 11
150.534112
 21
183.881170
  0
LINE
  8
CSLAYER1
  6
CONTINUOUS
 62
     6
 10
178.534112
 20
194.381170
 11
178.534112
 21
185.381170
  0
LINE
  8
CSLAYER1
  6
CONTINUOUS
 62
     6
 10
178.034112
 20
194.881170
 11
178.534112
 21
194.381170
  0
LINE
  8
CSLAYER1
  6
CONTINUOUS
 62
     6
 10
178.034112
 20
184.881170
 11
178.534112
 21
185.381170
  0
LINE
  8
CSLAYER1
  6
CONTINUOUS
 62
     6
 10
178.034112
 20
194.881170
 11
178.034112
 21
184.881170
  0
LINE
  8
CSLAYER1
  6
CONTINUOUS
 62
     6
 10
144.534112
 20
254.881169
 11
82.534112
 21
254.881169
  0
ARC
  8
CSLAYER1
  6
CONTINUOUS
 62
     6
 10
144.534112
 20
248.881169
 40
6.000000
 50
0.000000
 51
90.000000
  0
ARC
  8
CSLAYER1
  6
CONTINUOUS
 62
     6
 10
82.534112
 20
248.881169
 40
6.000000
 50
90.000000
 51
180.000000
  0
ARC
  8
CSLAYER1
  6
CONTINUOUS
 62
     6
 10
90.111071
 20
189.897801
 40
7.572785
 50
164.176363
 51
196.066256
  0
ARC
  8
CSLAYER1
  6
CONTINUOUS
 62
     6
 10
90.111071
 20
157.897801
 40
7.572785
 50
164.176363
 51
196.066256
  0
ARC
  8
CSLAYER1
  6
CONTINUOUS
 62
     3
 10
83.534112
 20
210.881169
 40
3.000000
 50
131.810421
 51
179.999994
  0
ARC
  8
CSLAYER1
  6
CONTINUOUS
 62
     6
 10
83.534112
 20
210.881169
 40
2.400000
 50
146.442886
 51
179.999992
  0
ARC
  8
CSLAYER1
  6
CONTINUOUS
 62
     3
 10
83.534112
 20
248.881169
 40
3.000000
 50
117.279452
 51
228.189943
  0
ARC
  8
CSLAYER1
  6
CONTINUOUS
 62
     6
 10
83.534112
 20
248.881169
 40
2.400000
 50
137.873175
 51
213.557761
  0
ARC
  8
CSLAYER1
  6
CONTINUOUS
 62
     3
 10
143.534112
 20
210.881169
 40
3.000000
 50
19.471227
 51
48.189791
  0
ARC
  8
CSLAYER1
  6
CONTINUOUS
 62
     6
 10
143.534112
 20
210.881169
 40
2.400000
 50
24.624327
 51
33.557505
  0
ARC
  8
CSLAYER1
  6
CONTINUOUS
 62
     3
 10
143.534112
 20
248.881169
 40
3.000000
 50
-48.189427
 51
62.720387
  0
ARC
  8
CSLAYER1
  6
CONTINUOUS
 62
     6
 10
143.534112
 20
248.881169
 40
2.400000
 50
-33.556858
 51
42.126416
  0
LINE
  8
CSLAYER1
  6
CENTER
 62
     3
 10
206.287881
 20
344.545356
 11
396.287881
 21
344.545356
  0
LINE
  8
CSLAYER1
  6
CONTINUOUS
 62
     6
 10
307.287881
 20
313.545352
 11
240.287881
 21
313.545352
  0
LINE
  8
CSLAYER1
  6
CONTINUOUS
 62
     6
 10
307.287881
 20
375.545352
 11
240.287881
 21
375.545352
  0
LINE
  8
CSLAYER1
  6
CONTINUOUS
 62
     3
 10
292.155267
 20
317.698576
 11
256.155267
 21
317.698576
  0
ARC
  8
CSLAYER1
  6
CONTINUOUS
 62
     3
 10
292.155267
 20
318.698576
 40
1.000000
 50
269.999999
 51
359.999995
  0
ARC
  8
CSLAYER1
  6
CONTINUOUS
 62
     3
 10
256.155267
 20
318.698576
 40
1.000000
 50
180.057309
 51
269.999999
  0
LINE
  8
CSLAYER1
  6
CONTINUOUS
 62
     3
 10
293.155267
 20
370.392143
 11
293.155267
 21
318.698576
  0
LINE
  8
CSLAYER1
  6
CONTINUOUS
 62
     3
 10
255.155267
 20
370.392143
 11
255.155267
 21
318.698576
  0
TEXT
  8
CSLAYER1
 62
     3
 10
275.376343
 20
339.543732
 40
3.500000
 41
1.125000
  1
N P
 50
90.000000
 51
10.000000
  7
JX_FONT
 72
     5
 11
275.376343
 21
350.043732
  0
LINE
  8
CSLAYER1
  6
CONTINUOUS
 62
     3
 10
292.155267
 20
371.392143
 11
256.155267
 21
371.392143
  0
ARC
  8
CSLAYER1
  6
CONTINUOUS
 62
     3
 10
292.155267
 20
370.392143
 40
1.000000
 50
-0.000005
 51
89.999991
  0
ARC
  8
CSLAYER1
  6
CONTINUOUS
 62
     3
 10
256.155267
 20
370.392143
 40
1.000000
 50
89.999991
 51
179.942681
  0
LINE
  8
CSLAYER1
  6
CONTINUOUS
 62
     6
 10
240.287881
 20
313.545352
 11
240.287881
 21
375.545352
  0
LINE
  8
CSLAYER1
  6
CONTINUOUS
 62
     6
 10
209.287881
 20
373.004224
 11
209.287881
 21
316.086467
  0
LINE
  8
CSLAYER1
  6
CONTINUOUS
 62
     6
 10
210.287881
 20
374.021679
 11
210.287881
 21
315.069012
  0
LINE
  8
CSLAYER1
  6
CONTINUOUS
 62
     6
 10
210.287729
 20
315.069015
 11
240.287896
 21
314.545361
  0
LINE
  8
CSLAYER1
  6
CONTINUOUS
 62
     6
 10
240.287881
 20
374.545338
 11
210.287729
 21
374.021677
  0
LINE
  8
CSLAYER1
  6
CONTINUOUS
 62
     6
 10
209.287881
 20
373.004224
 11
210.287729
 21
374.021677
  0
LINE
  8
CSLAYER1
  6
CONTINUOUS
 62
     6
 10
210.287729
 20
315.069015
 11
209.287881
 21
316.086467
  0
LINE
  8
CSLAYER1
  6
CONTINUOUS
 62
     6
 10
307.287881
 20
313.545352
 11
307.287881
 21
375.545352
  0
LINE
  8
CSLAYER1
  6
CONTINUOUS
 62
     6
 10
307.287881
 20
314.545362
 11
308.287881
 21
314.545363
  0
LINE
  8
CSLAYER1
  6
CONTINUOUS
 62
     6
 10
307.287881
 20
374.545362
 11
308.287881
 21
374.545363
  0
LINE
  8
CSLAYER1
  6
CENTER
 62
     3
 10
301.698096
 20
318.545356
 11
311.287874
 21
318.545357
  0
LINE
  8
CSLAYER1
  6
CENTER
 62
     3
 10
301.698090
 20
370.545356
 11
311.287868
 21
370.545357
  0
ARC
  8
CSLAYER1
  6
CONTINUOUS
 62
     6
 10
307.412879
 20
367.045356
 40
0.125000
 50
180.000017
 51
270.000068
  0
ARC
  8
CSLAYER1
  6
CONTINUOUS
 62
     6
 10
307.412877
 20
374.045356
 40
0.125000
 50
90.000022
 51
180.000004
  0
ARC
  8
CSLAYER1
  6
CONTINUOUS
 62
     6
 10
308.162879
 20
367.045356
 40
0.125000
 50
-89.999932
 51
0.000022
  0
ARC
  8
CSLAYER1
  6
CONTINUOUS
 62
     6
 10
308.162877
 20
374.045356
 40
0.125000
 50
0.057359
 51
90.000022
  0
LINE
  8
CSLAYER1
  6
CONTINUOUS
 62
     6
 10
307.412879
 20
366.920356
 11
308.162879
 21
366.920356
  0
LINE
  8
CSLAYER1
  6
CONTINUOUS
 62
     6
 10
307.412877
 20
374.170356
 11
308.162877
 21
374.170356
  0
LINE
  8
CSLAYER1
  6
CONTINUOUS
 62
     6
 10
307.005225
 20
367.046333
 11
306.186469
 21
367.116889
  0
ARC
  8
CSLAYER1
  6
CONTINUOUS
 62
     6
 10
306.299750
 20
368.393256
 40
1.290623
 50
196.257234
 51
264.999932
  0
ARC
  8
CSLAYER1
  6
CONTINUOUS
 62
     6
 10
307.027869
 20
367.301582
 40
0.258129
 50
-94.999685
 51
0.000022
  0
LINE
  8
CSLAYER1
  6
CONTINUOUS
 62
     6
 10
307.005223
 20
374.044379
 11
306.186467
 21
373.973823
  0
ARC
  8
CSLAYER1
  6
CONTINUOUS
 62
     6
 10
306.299749
 20
372.697455
 40
1.290623
 50
95.000103
 51
163.742842
  0
ARC
  8
CSLAYER1
  6
CONTINUOUS
 62
     6
 10
307.027867
 20
373.789130
 40
0.258129
 50
0.057359
 51
94.999775
  0
ARC
  8
CSLAYER1
  6
CONTINUOUS
 62
     6
 10
313.787878
 20
370.545357
 40
9.089782
 50
163.970970
 51
196.034611
  0
LINE
  8
CSLAYER1
  6
CONTINUOUS
 62
     6
 10
308.287847
 20
371.290229
 11
307.287847
 21
370.735420
  0
LINE
  8
CSLAYER1
  6
CONTINUOUS
 62
     6
 10
308.287847
 20
370.665229
 11
307.287847
 21
370.110420
  0
ARC
  8
CSLAYER1
  6
CONTINUOUS
 62
     6
 10
307.412879
 20
315.045356
 40
0.125000
 50
180.000017
 51
270.000068
  0
ARC
  8
CSLAYER1
  6
CONTINUOUS
 62
     6
 10
307.412877
 20
322.045356
 40
0.125000
 50
90.000022
 51
180.000004
  0
ARC
  8
CSLAYER1
  6
CONTINUOUS
 62
     6
 10
308.162879
 20
315.045356
 40
0.125000
 50
-89.999932
 51
0.000022
  0
ARC
  8
CSLAYER1
  6
CONTINUOUS
 62
     6
 10
308.162877
 20
322.045356
 40
0.125000
 50
0.057359
 51
90.000022
  0
LINE
  8
CSLAYER1
  6
CONTINUOUS
 62
     6
 10
307.412879
 20
314.920356
 11
308.162879
 21
314.920356
  0
LINE
  8
CSLAYER1
  6
CONTINUOUS
 62
     6
 10
307.412877
 20
322.170356
 11
308.162877
 21
322.170356
  0
LINE
  8
CSLAYER1
  6
CONTINUOUS
 62
     6
 10
307.005225
 20
315.046333
 11
306.186469
 21
315.116889
  0
ARC
  8
CSLAYER1
  6
CONTINUOUS
 62
     6
 10
306.299750
 20
316.393256
 40
1.290623
 50
196.257234
 51
264.999932
  0
ARC
  8
CSLAYER1
  6
CONTINUOUS
 62
     6
 10
307.027869
 20
315.301582
 40
0.258129
 50
-94.999685
 51
0.000022
  0
LINE
  8
CSLAYER1
  6
CONTINUOUS
 62
     6
 10
307.005223
 20
322.044379
 11
306.186467
 21
321.973823
  0
ARC
  8
CSLAYER1
  6
CONTINUOUS
 62
     6
 10
306.299749
 20
320.697455
 40
1.290623
 50
95.000103
 51
163.742842
  0
ARC
  8
CSLAYER1
  6
CONTINUOUS
 62
     6
 10
307.027867
 20
321.789130
 40
0.258129
 50
0.057359
 51
94.999775
  0
ARC
  8
CSLAYER1
  6
CONTINUOUS
 62
     6
 10
313.787878
 20
318.545357
 40
9.089782
 50
163.970970
 51
196.034611
  0
LINE
  8
CSLAYER1
  6
CONTINUOUS
 62
     6
 10
308.287847
 20
319.290229
 11
307.287847
 21
318.735420
  0
LINE
  8
CSLAYER1
  6
CONTINUOUS
 62
     6
 10
308.287847
 20
318.665229
 11
307.287847
 21
318.110420
  0
LINE
  8
CSLAYER1
  6
CONTINUOUS
 62
     6
 10
317.287881
 20
376.545376
 11
317.287881
 21
312.545345
  0
LINE
  8
CSLAYER1
  6
CONTINUOUS
 62
     6
 10
308.287878
 20
314.545345
 11
307.287878
 21
314.545345
  0
ARC
  8
CSLAYER1
  6
CONTINUOUS
 62
     6
 10
310.287878
 20
314.545345
 40
2.000000
 50
180.000009
 51
269.999997
  0
LINE
  8
CSLAYER1
  6
CONTINUOUS
 62
     6
 10
310.287878
 20
312.545345
 11
325.287881
 21
312.545345
  0
ARC
  8
CSLAYER1
  6
CONTINUOUS
 62
     6
 10
310.287878
 20
374.545376
 40
2.000000
 50
90.000027
 51
179.999995
  0
LINE
  8
CSLAYER1
  6
CONTINUOUS
 62
     6
 10
310.287878
 20
376.545376
 11
325.287881
 21
376.545376
  0
LINE
  8
CSLAYER1
  6
CONTINUOUS
 62
     6
 10
308.287878
 20
314.545345
 11
308.287878
 21
374.545376
  0
ARC
  8
CSLAYER1
  6
CONTINUOUS
 62
     6
 10
520.083648
 20
186.985190
 40
0.104022
 50
-89.999997
 51
0.000005
  0
ARC
  8
CSLAYER1
  6
CONTINUOUS
 62
     6
 10
519.459517
 20
186.985190
 40
0.104022
 50
180.000000
 51
270.000003
  0
LINE
  8
CSLAYER1
  6
CONTINUOUS
 62
     6
 10
520.083648
 20
186.881155
 11
519.459517
 21
186.881155
  0
LINE
  8
CSLAYER1
  6
CONTINUOUS
 62
     6
 10
520.187669
 20
190.517689
 11
519.355495
 21
190.055978
  0
LINE
  8
CSLAYER1
  6
CONTINUOUS
 62
     6
 10
520.187669
 20
189.997580
 11
519.355495
 21
189.535869
  0
LINE
  8
CSLAYER1
  6
CONTINUOUS
 62
     6
 10
520.422887
 20
186.985964
 11
521.104247
 21
187.044705
  0
ARC
  8
CSLAYER1
  6
CONTINUOUS
 62
     6
 10
521.009965
 20
188.106878
 40
1.074023
 50
275.000118
 51
343.742789
  0
ARC
  8
CSLAYER1
  6
CONTINUOUS
 62
     6
 10
520.404043
 20
187.198389
 40
0.214808
 50
179.999983
 51
274.999718
  0
LINE
  8
CSLAYER1
  6
CONTINUOUS
 62
     6
 10
520.187669
 20
186.985190
 11
520.187669
 21
190.881155
  0
LINE
  8
CSLAYER1
  6
CENTER
 62
     3
 10
511.355495
 20
157.881155
 11
525.441203
 21
157.881155
  0
ARC
  8
CSLAYER1
  6
CONTINUOUS
 62
     6
 10
520.083648
 20
154.985190
 40
0.104022
 50
-89.999997
 51
0.000005
  0
ARC
  8
CSLAYER1
  6
CONTINUOUS
 62
     6
 10
519.459517
 20
154.985190
 40
0.104022
 50
180.000000
 51
270.000003
  0
LINE
  8
CSLAYER1
  6
CONTINUOUS
 62
     6
 10
520.083648
 20
154.881155
 11
519.459517
 21
154.881155
  0
LINE
  8
CSLAYER1
  6
CONTINUOUS
 62
     6
 10
520.187669
 20
158.517689
 11
519.355495
 21
158.055978
  0
LINE
  8
CSLAYER1
  6
CONTINUOUS
 62
     6
 10
520.187669
 20
157.997580
 11
519.355495
 21
157.535869
  0
LINE
  8
CSLAYER1
  6
CONTINUOUS
 62
     6
 10
520.422887
 20
154.985964
 11
521.104247
 21
155.044705
  0
ARC
  8
CSLAYER1
  6
CONTINUOUS
 62
     6
 10
521.009965
 20
156.106878
 40
1.074023
 50
275.000118
 51
343.742789
  0
ARC
  8
CSLAYER1
  6
CONTINUOUS
 62
     6
 10
520.404043
 20
155.198389
 40
0.214808
 50
179.999983
 51
274.999718
  0
LINE
  8
CSLAYER1
  6
CONTINUOUS
 62
     6
 10
520.187669
 20
154.985190
 11
520.187669
 21
160.777121
  0
ARC
  8
CSLAYER1
  6
CONTINUOUS
 62
     6
 10
520.083648
 20
160.777121
 40
0.104022
 50
-0.000005
 51
89.999997
  0
ARC
  8
CSLAYER1
  6
CONTINUOUS
 62
     6
 10
519.459517
 20
160.777121
 40
0.104022
 50
89.999997
 51
180.000000
  0
LINE
  8
CSLAYER1
  6
CONTINUOUS
 62
     6
 10
520.083648
 20
160.881155
 11
519.459517
 21
160.881155
  0
LINE
  8
CSLAYER1
  6
CONTINUOUS
 62
     6
 10
520.422887
 20
160.776346
 11
521.104247
 21
160.717605
  0
ARC
  8
CSLAYER1
  6
CONTINUOUS
 62
     6
 10
521.009965
 20
159.655433
 40
1.074023
 50
16.257211
 51
84.999882
  0
ARC
  8
CSLAYER1
  6
CONTINUOUS
 62
     6
 10
520.404043
 20
160.563922
 40
0.214808
 50
85.000282
 51
180.000017
  0
LINE
  8
CSLAYER1
  6
CENTER
 62
     3
 10
423.252554
 20
189.881155
 11
531.355495
 21
189.881155
  0
LINE
  8
CSLAYER1
  6
CONTINUOUS
 62
     6
 10
426.855495
 20
194.881155
 11
446.355495
 21
194.881155
  0
LINE
  8
CSLAYER1
  6
CONTINUOUS
 62
     6
 10
446.355495
 20
195.881155
 11
454.355495
 21
195.881155
  0
LINE
  8
CSLAYER1
  6
CONTINUOUS
 62
     6
 10
446.355495
 20
195.881155
 11
446.355495
 21
183.881155
  0
LINE
  8
CSLAYER1
  6
CONTINUOUS
 62
     6
 10
426.855495
 20
184.881155
 11
446.355495
 21
184.881155
  0
LINE
  8
CSLAYER1
  6
CONTINUOUS
 62
     6
 10
446.355495
 20
183.881155
 11
454.355495
 21
183.881155
  0
LINE
  8
CSLAYER1
  6
CONTINUOUS
 62
     6
 10
426.355495
 20
194.381155
 11
426.355495
 21
185.381155
  0
LINE
  8
CSLAYER1
  6
CONTINUOUS
 62
     6
 10
426.355495
 20
192.060609
 11
441.355495
 21
192.060609
  0
LINE
  8
CSLAYER1
  6
CONTINUOUS
 62
     6
 10
426.355495
 20
187.701702
 11
441.355495
 21
187.701702
  0
LINE
  8
CSLAYER1
  6
CONTINUOUS
 62
     6
 10
441.355495
 20
192.060609
 11
441.355495
 21
187.701702
  0
LINE
  8
CSLAYER1
  6
CONTINUOUS
 62
     3
 10
426.355495
 20
192.060609
 11
441.355495
 21
187.701702
  0
LINE
  8
CSLAYER1
  6
CONTINUOUS
 62
     3
 10
441.355495
 20
192.060609
 11
426.355495
 21
187.701702
  0
LINE
  8
CSLAYER1
  6
CONTINUOUS
 62
     6
 10
426.855495
 20
194.881155
 11
426.355495
 21
194.381155
  0
LINE
  8
CSLAYER1
  6
CONTINUOUS
 62
     6
 10
426.855495
 20
184.881155
 11
426.355495
 21
185.381155
  0
LINE
  8
CSLAYER1
  6
CONTINUOUS
 62
     6
 10
426.855495
 20
194.881155
 11
426.855495
 21
192.060609
  0
LINE
  8
CSLAYER1
  6
CONTINUOUS
 62
     6
 10
426.855495
 20
187.701702
 11
426.855495
 21
184.881155
  0
LINE
  8
CSLAYER1
  6
CENTER
 62
     3
 10
451.355495
 20
222.881155
 11
531.355495
 21
222.881155
  0
LINE
  8
CSLAYER1
  6
CENTER
 62
     3
 10
491.355495
 20
257.881155
 11
491.355495
 21
151.881176
  0
LINE
  8
CSLAYER1
  6
CONTINUOUS
 62
     6
 10
460.355495
 20
254.881155
 11
522.355495
 21
254.881155
  0
LINE
  8
CSLAYER1
  6
CONTINUOUS
 62
     6
 10
460.355495
 20
190.881155
 11
522.355495
 21
190.881155
  0
LINE
  8
CSLAYER1
  6
CONTINUOUS
 62
     6
 10
454.355495
 20
248.881155
 11
454.355495
 21
169.881155
  0
LINE
  8
CSLAYER1
  6
CONTINUOUS
 62
     6
 10
528.355495
 20
248.881155
 11
528.355495
 21
170.881155
  0
LINE
  8
CSLAYER1
  6
CONTINUOUS
 62
     6
 10
483.355495
 20
248.881155
 11
499.355495
 21
248.881155
  0
LINE
  8
CSLAYER1
  6
CONTINUOUS
 62
     6
 10
473.355495
 20
196.881155
 11
509.355495
 21
196.881155
  0
ARC
  8
CSLAYER1
  6
CONTINUOUS
 62
     6
 10
460.355495
 20
248.881155
 40
6.000000
 50
90.000000
 51
180.000000
  0
ARC
  8
CSLAYER1
  6
CONTINUOUS
 62
     6
 10
522.355495
 20
248.881155
 40
6.000000
 50
0.000000
 51
90.000000
  0
ARC
  8
CSLAYER1
  6
CONTINUOUS
 62
     6
 10
460.355495
 20
196.881155
 40
6.000000
 50
180.000000
 51
270.000000
  0
ARC
  8
CSLAYER1
  6
CONTINUOUS
 62
     6
 10
522.355495
 20
196.881155
 40
6.000000
 50
270.000000
 51
360.000000
  0
LINE
  8
CSLAYER1
  6
CONTINUOUS
 62
     6
 10
465.315743
 20
236.881155
 11
471.355495
 21
236.881155
  0
ARC
  8
CSLAYER1
  6
CONTINUOUS
 62
     6
 10
499.355495
 20
244.881155
 40
4.000000
 50
0.000000
 51
90.000000
  0
ARC
  8
CSLAYER1
  6
CONTINUOUS
 62
     6
 10
483.355495
 20
244.881155
 40
4.000000
 50
90.000000
 51
180.000000
  0
ARC
  8
CSLAYER1
  6
CONTINUOUS
 62
     6
 10
511.355495
 20
244.881155
 40
8.000000
 50
180.000000
 51
270.000000
  0
ARC
  8
CSLAYER1
  6
CONTINUOUS
 62
     6
 10
471.355495
 20
244.881155
 40
8.000000
 50
-90.000000
 51
0.000000
  0
LINE
  8
CSLAYER1
  6
CONTINUOUS
 62
     6
 10
511.355495
 20
236.881155
 11
517.395248
 21
236.881155
  0
LINE
  8
CSLAYER1
  6
CONTINUOUS
 62
     6
 10
513.355495
 20
211.469644
 11
513.355495
 21
200.881155
  0
LINE
  8
CSLAYER1
  6
CONTINUOUS
 62
     6
 10
469.355495
 20
211.567447
 11
469.355495
 21
200.881155
  0
ARC
  8
CSLAYER1
  6
CONTINUOUS
 62
     6
 10
473.355495
 20
200.881155
 40
4.000000
 50
180.000000
 51
270.000000
  0
ARC
  8
CSLAYER1
  6
CONTINUOUS
 62
     6
 10
509.355495
 20
200.881155
 40
4.000000
 50
270.000000
 51
360.000000
  0
LINE
  8
CSLAYER1
  6
CONTINUOUS
 62
     6
 10
522.355495
 20
231.920907
 11
522.355495
 21
223.810003
  0
ARC
  8
CSLAYER1
  6
CONTINUOUS
 62
     6
 10
521.355495
 20
211.469644
 40
8.000000
 50
107.792389
 51
180.000000
  0
LINE
  8
CSLAYER1
  6
CONTINUOUS
 62
     6
 10
460.355495
 20
231.920907
 11
460.355495
 21
223.810003
  0
ARC
  8
CSLAYER1
  6
CONTINUOUS
 62
     6
 10
461.355495
 20
211.469644
 40
8.000000
 50
0.000000
 51
72.207611
  0
LINE
  8
CSLAYER1
  6
CONTINUOUS
 62
     6
 10
519.355495
 20
190.881155
 11
519.355495
 21
154.881155
  0
LINE
  8
CSLAYER1
  6
CONTINUOUS
 62
     6
 10
514.355495
 20
190.881155
 11
514.355495
 21
154.881155
  0
LINE
  8
CSLAYER1
  6
CONTINUOUS
 62
     6
 10
474.355495
 20
190.881155
 11
474.355495
 21
161.381155
  0
LINE
  8
CSLAYER1
  6
CONTINUOUS
 62
     6
 10
522.355495
 20
168.881155
 11
526.355495
 21
168.881155
  0
LINE
  8
CSLAYER1
  6
CONTINUOUS
 62
     6
 10
456.355495
 20
167.881155
 11
471.355495
 21
167.881155
  0
LINE
  8
CSLAYER1
  6
CONTINUOUS
 62
     6
 10
477.355495
 20
158.381155
 11
489.454393
 21
158.381155
  0
LINE
  8
CSLAYER1
  6
CONTINUOUS
 62
     6
 10
493.355495
 20
154.881155
 11
519.355495
 21
154.881155
  0
ARC
  8
CSLAYER1
  6
CONTINUOUS
 62
     6
 10
471.355495
 20
164.881155
 40
3.000000
 50
0.000000
 51
90.000000
  0
ARC
  8
CSLAYER1
  6
CONTINUOUS
 62
     6
 10
522.355495
 20
165.881155
 40
3.000000
 50
90.000000
 51
180.000000
  0
ARC
  8
CSLAYER1
  6
CONTINUOUS
 62
     6
 10
526.355495
 20
170.881155
 40
2.000000
 50
270.000000
 51
360.000000
  0
ARC
  8
CSLAYER1
  6
CONTINUOUS
 62
     6
 10
493.355495
 20
156.881155
 40
2.000000
 50
187.180756
 51
270.000000
  0
ARC
  8
CSLAYER1
  6
CONTINUOUS
 62
     6
 10
456.355495
 20
169.881155
 40
2.000000
 50
180.000000
 51
270.000000
  0
ARC
  8
CSLAYER1
  6
CONTINUOUS
 62
     6
 10
514.778537
 20
189.897787
 40
7.572785
 50
-16.066256
 51
7.394741
  0
ARC
  8
CSLAYER1
  6
CONTINUOUS
 62
     6
 10
514.778537
 20
157.897787
 40
7.572785
 50
-16.066256
 51
15.823637
  0
CIRCLE
  8
CSLAYER1
  6
CONTINUOUS
 62
     3
 10
521.355495
 20
210.881155
 40
3.000000
  0
CIRCLE
  8
CSLAYER1
  6
CONTINUOUS
 62
     6
 10
521.355495
 20
210.881155
 40
2.400000
  0
LINE
  8
CSLAYER1
  6
CENTER
 62
     3
 10
516.355495
 20
210.881155
 11
526.355495
 21
210.881155
  0
LINE
  8
CSLAYER1
  6
CENTER
 62
     3
 10
521.355495
 20
215.881155
 11
521.355495
 21
205.881155
  0
CIRCLE
  8
CSLAYER1
  6
CONTINUOUS
 62
     3
 10
521.355495
 20
248.881155
 40
3.000000
  0
CIRCLE
  8
CSLAYER1
  6
CONTINUOUS
 62
     6
 10
521.355495
 20
248.881155
 40
2.400000
  0
LINE
  8
CSLAYER1
  6
CENTER
 62
     3
 10
516.355495
 20
248.881155
 11
526.355495
 21
248.881155
  0
LINE
  8
CSLAYER1
  6
CENTER
 62
     3
 10
521.355495
 20
253.881155
 11
521.355495
 21
243.881155
  0
CIRCLE
  8
CSLAYER1
  6
CONTINUOUS
 62
     3
 10
461.355495
 20
210.881155
 40
3.000000
  0
CIRCLE
  8
CSLAYER1
  6
CONTINUOUS
 62
     6
 10
461.355495
 20
210.881155
 40
2.400000
  0
LINE
  8
CSLAYER1
  6
CENTER
 62
     3
 10
466.355495
 20
210.881155
 11
456.355495
 21
210.881155
  0
LINE
  8
CSLAYER1
  6
CENTER
 62
     3
 10
461.355495
 20
215.881155
 11
461.355495
 21
205.881155
  0
CIRCLE
  8
CSLAYER1
  6
CONTINUOUS
 62
     3
 10
461.355495
 20
248.881155
 40
3.000000
  0
CIRCLE
  8
CSLAYER1
  6
CONTINUOUS
 62
     6
 10
461.355495
 20
248.881155
 40
2.400000
  0
LINE
  8
CSLAYER1
  6
CENTER
 62
     3
 10
466.355495
 20
248.881155
 11
456.355495
 21
248.881155
  0
LINE
  8
CSLAYER1
  6
CENTER
 62
     3
 10
461.355495
 20
253.881155
 11
461.355495
 21
243.881155
  0
LINE
  8
CSLAYER1
  6
CONTINUOUS
 62
     6
 10
327.287881
 20
314.545345
 11
327.287881
 21
374.545376
  0
LINE
  8
CSLAYER1
  6
CONTINUOUS
 62
     6
 10
383.287881
 20
309.545356
 11
383.287881
 21
379.545356
  0
LINE
  8
CSLAYER1
  6
CONTINUOUS
 62
     6
 10
393.287881
 20
307.545356
 11
393.287881
 21
381.545356
  0
LINE
  8
CSLAYER1
  6
CONTINUOUS
 62
     6
 10
385.287881
 20
381.545356
 11
393.287881
 21
381.545356
  0
LINE
  8
CSLAYER1
  6
CONTINUOUS
 62
     6
 10
385.287881
 20
307.545356
 11
393.287881
 21
307.545356
  0
ARC
  8
CSLAYER1
  6
CONTINUOUS
 62
     6
 10
385.287881
 20
379.545356
 40
2.000000
 50
90.000000
 51
180.000000
  0
ARC
  8
CSLAYER1
  6
CONTINUOUS
 62
     6
 10
385.287881
 20
309.545356
 40
2.000000
 50
180.000000
 51
270.000000
  0
ARC
  8
CSLAYER1
  6
CONTINUOUS
 62
     6
 10
325.287881
 20
314.545345
 40
2.000000
 50
270.000000
 51
360.000000
  0
ARC
  8
CSLAYER1
  6
CONTINUOUS
 62
     6
 10
325.287881
 20
374.545376
 40
2.000000
 50
0.000000
 51
90.000000
  0
LINE
  8
CSLAYER1
  6
CONTINUOUS
 62
     6
 10
329.287881
 20
365.545356
 11
381.287881
 21
365.545356
  0
LINE
  8
CSLAYER1
  6
CONTINUOUS
 62
     6
 10
335.287881
 20
307.545356
 11
375.287881
 21
307.545356
  0
LINE
  8
CSLAYER1
  6
CONTINUOUS
 62
     6
 10
333.287881
 20
309.545356
 11
333.287881
 21
323.545356
  0
LINE
  8
CSLAYER1
  6
CONTINUOUS
 62
     6
 10
377.287881
 20
309.545356
 11
377.287881
 21
323.545356
  0
ARC
  8
CSLAYER1
  6
CONTINUOUS
 62
     6
 10
335.287881
 20
309.545356
 40
2.000000
 50
180.000000
 51
270.000000
  0
ARC
  8
CSLAYER1
  6
CONTINUOUS
 62
     6
 10
375.287881
 20
309.545356
 40
2.000000
 50
270.000000
 51
360.000000
  0
LINE
  8
CSLAYER1
  6
CONTINUOUS
 62
     6
 10
329.287881
 20
323.545356
 11
381.287881
 21
323.545356
  0
ARC
  8
CSLAYER1
  6
CONTINUOUS
 62
     6
 10
381.287881
 20
321.545356
 40
2.000000
 50
0.000000
 51
90.000000
  0
ARC
  8
CSLAYER1
  6
CONTINUOUS
 62
     6
 10
329.287881
 20
321.545356
 40
2.000000
 50
90.000000
 51
180.000000
  0
LINE
  8
CSLAYER1
  6
CONTINUOUS
 62
     6
 10
349.287881
 20
299.545356
 11
361.287881
 21
299.545356
  0
LINE
  8
CSLAYER1
  6
CONTINUOUS
 62
     6
 10
350.787881
 20
279.545356
 11
359.287881
 21
279.545356
  0
LINE
  8
CSLAYER1
  6
CONTINUOUS
 62
     6
 10
349.287881
 20
307.545356
 11
349.287881
 21
299.545356
  0
LINE
  8
CSLAYER1
  6
CONTINUOUS
 62
     6
 10
350.287881
 20
299.545356
 11
350.287881
 21
280.045356
  0
LINE
  8
CSLAYER1
  6
CONTINUOUS
 62
     6
 10
359.787881
 20
280.045356
 11
359.787881
 21
294.545356
  0
LINE
  8
CSLAYER1
  6
CONTINUOUS
 62
     6
 10
359.787881
 20
294.545356
 11
360.287881
 21
294.545356
  0
LINE
  8
CSLAYER1
  6
CONTINUOUS
 62
     6
 10
360.287881
 20
294.545356
 11
360.287881
 21
299.545356
  0
LINE
  8
CSLAYER1
  6
CONTINUOUS
 62
     6
 10
361.287881
 20
299.545356
 11
361.287881
 21
307.545356
  0
LINE
  8
CSLAYER1
  6
CONTINUOUS
 62
     6
 10
350.287881
 20
280.045356
 11
350.787881
 21
279.545356
  0
LINE
  8
CSLAYER1
  6
CONTINUOUS
 62
     6
 10
359.287881
 20
279.545356
 11
359.787881
 21
280.045356
  0
LINE
  8
CSLAYER1
  6
CONTINUOUS
 62
     6
 10
335.287881
 20
381.545356
 11
375.287881
 21
381.545356
  0
LINE
  8
CSLAYER1
  6
CONTINUOUS
 62
     6
 10
327.287881
 20
372.545356
 11
383.287881
 21
372.545356
  0
LINE
  8
CSLAYER1
  6
CONTINUOUS
 62
     6
 10
360.726291
 20
372.545356
 11
360.726291
 21
365.545356
  0
LINE
  8
CSLAYER1
  6
CONTINUOUS
 62
     6
 10
349.849471
 20
365.545356
 11
349.849471
 21
372.545356
  0
LINE
  8
CSLAYER1
  6
CONTINUOUS
 62
     6
 10
333.287881
 20
375.545356
 11
333.287881
 21
379.545356
  0
LINE
  8
CSLAYER1
  6
CONTINUOUS
 62
     6
 10
377.287881
 20
375.545356
 11
377.287881
 21
379.545356
  0
ARC
  8
CSLAYER1
  6
CONTINUOUS
 62
     6
 10
375.287881
 20
379.545356
 40
2.000000
 50
0.000000
 51
90.000000
  0
ARC
  8
CSLAYER1
  6
CONTINUOUS
 62
     6
 10
335.287881
 20
379.545356
 40
2.000000
 50
90.000000
 51
180.000000
  0
ARC
  8
CSLAYER1
  6
CONTINUOUS
 62
     6
 10
380.287881
 20
375.545356
 40
3.000000
 50
180.000000
 51
270.000000
  0
ARC
  8
CSLAYER1
  6
CONTINUOUS
 62
     6
 10
330.287881
 20
375.545356
 40
3.000000
 50
270.000000
 51
360.000000
  0
ARC
  8
CSLAYER1
  6
CONTINUOUS
 62
     6
 10
352.391915
 20
373.273509
 40
0.104022
 50
89.999995
 51
179.999997
  0
ARC
  8
CSLAYER1
  6
CONTINUOUS
 62
     6
 10
352.391915
 20
372.649378
 40
0.104022
 50
179.999997
 51
270.000000
  0
LINE
  8
CSLAYER1
  6
CONTINUOUS
 62
     6
 10
352.287881
 20
373.273509
 11
352.287881
 21
372.649378
  0
LINE
  8
CSLAYER1
  6
CONTINUOUS
 62
     6
 10
354.651347
 20
373.377530
 11
355.113058
 21
372.545356
  0
LINE
  8
CSLAYER1
  6
CONTINUOUS
 62
     6
 10
355.171456
 20
373.377530
 11
355.633167
 21
372.545356
  0
LINE
  8
CSLAYER1
  6
CONTINUOUS
 62
     6
 10
352.392690
 20
373.612748
 11
352.451431
 21
374.294108
  0
ARC
  8
CSLAYER1
  6
CONTINUOUS
 62
     6
 10
353.513604
 20
374.199826
 40
1.074023
 50
106.257211
 51
174.999882
  0
ARC
  8
CSLAYER1
  6
CONTINUOUS
 62
     6
 10
352.605114
 20
373.593904
 40
0.214808
 50
175.000282
 51
270.000017
  0
LINE
  8
CSLAYER1
  6
CONTINUOUS
 62
     6
 10
352.391915
 20
373.377530
 11
358.183847
 21
373.377530
  0
ARC
  8
CSLAYER1
  6
CONTINUOUS
 62
     6
 10
358.183847
 20
373.273509
 40
0.104022
 50
0.000003
 51
90.000005
  0
ARC
  8
CSLAYER1
  6
CONTINUOUS
 62
     6
 10
358.183847
 20
372.649378
 40
0.104022
 50
-90.000000
 51
0.000003
  0
LINE
  8
CSLAYER1
  6
CONTINUOUS
 62
     6
 10
358.287881
 20
373.273509
 11
358.287881
 21
372.649378
  0
LINE
  8
CSLAYER1
  6
CONTINUOUS
 62
     6
 10
358.183072
 20
373.612748
 11
358.124331
 21
374.294108
  0
ARC
  8
CSLAYER1
  6
CONTINUOUS
 62
     6
 10
357.062159
 20
374.199826
 40
1.074023
 50
5.000118
 51
73.742789
  0
ARC
  8
CSLAYER1
  6
CONTINUOUS
 62
     6
 10
357.970648
 20
373.593904
 40
0.214808
 50
-90.000017
 51
4.999718
  0
ARC
  8
CSLAYER1
  6
CONTINUOUS
 62
     6
 10
355.304513
 20
367.968398
 40
7.572785
 50
74.176363
 51
106.066256
  0
LINE
  8
CSLAYER1
  6
CENTER
 62
     3
 10
355.287881
 20
384.545356
 11
355.287881
 21
276.545356
  0
LINE
  8
CSLAYER1
  6
CONTINUOUS
 62
     6
 10
327.287881
 20
368.045356
 11
383.287881
 21
368.045356
  0
LINE
  8
CSLAYER1
  6
CENTER
 62
     3
 10
380.287881
 20
374.545356
 11
396.287881
 21
374.545356
  0
LINE
  8
CSLAYER1
  6
CENTER
 62
     3
 10
380.287881
 20
314.545356
 11
396.287881
 21
314.545356
  0
LINE
  8
CSLAYER1
  6
CONTINUOUS
 62
     3
 10
255.155282
 20
253.881177
 11
255.155282
 21
239.381146
  0
LINE
  8
CSLAYER1
  6
CONTINUOUS
 62
     3
 10
256.155282
 20
238.381146
 11
292.155267
 21
238.381146
  0
LINE
  8
CSLAYER1
  6
CONTINUOUS
 62
     3
 10
293.155267
 20
239.381146
 11
293.155267
 21
253.881177
  0
ARC
  8
CSLAYER1
  6
CONTINUOUS
 62
     3
 10
256.155282
 20
239.381146
 40
1.000000
 50
180.000005
 51
270.000001
  0
ARC
  8
CSLAYER1
  6
CONTINUOUS
 62
     3
 10
292.155267
 20
239.381146
 40
1.000000
 50
270.000001
 51
359.942691
  0
TEXT
  8
CSLAYER1
 62
     3
 10
275.112579
 20
241.767105
 40
3.500000
 41
1.125000
  1
N P
 50
90.000000
 51
10.000000
  7
JX_FONT
 72
     5
 11
275.112579
 21
252.267105
  0
LINE
  8
CSLAYER1
  6
CENTER
 62
     3
 10
301.812013
 20
248.881172
 11
330.287881
 21
248.881165
  0
ARC
  8
CSLAYER1
  6
CONTINUOUS
 62
     6
 10
307.443052
 20
252.260474
 40
0.120690
 50
90.000003
 51
180.000005
  0
ARC
  8
CSLAYER1
  6
CONTINUOUS
 62
     6
 10
307.443052
 20
245.501868
 40
0.120690
 50
180.000005
 51
270.000001
  0
ARC
  8
CSLAYER1
  6
CONTINUOUS
 62
     6
 10
308.167191
 20
252.260474
 40
0.120690
 50
0.000000
 51
90.000003
  0
ARC
  8
CSLAYER1
  6
CONTINUOUS
 62
     6
 10
308.167191
 20
245.501868
 40
0.120690
 50
270.000001
 51
359.942691
  0
LINE
  8
CSLAYER1
  6
CONTINUOUS
 62
     6
 10
307.443052
 20
252.381178
 11
308.167191
 21
252.381178
  0
LINE
  8
CSLAYER1
  6
CONTINUOUS
 62
     6
 10
307.443052
 20
245.381163
 11
308.167191
 21
245.381163
  0
LINE
  8
CSLAYER1
  6
CONTINUOUS
 62
     6
 10
307.322362
 20
248.161937
 11
308.287881
 21
248.697631
  0
LINE
  8
CSLAYER1
  6
CONTINUOUS
 62
     6
 10
307.322362
 20
248.765387
 11
308.287881
 21
249.301081
  0
LINE
  8
CSLAYER1
  6
CONTINUOUS
 62
     6
 10
307.049454
 20
252.259575
 11
306.258915
 21
252.191422
  0
ARC
  8
CSLAYER1
  6
CONTINUOUS
 62
     6
 10
306.368304
 20
250.959050
 40
1.246121
 50
95.000118
 51
163.742789
  0
ARC
  8
CSLAYER1
  6
CONTINUOUS
 62
     6
 10
307.071317
 20
252.013112
 40
0.249229
 50
-0.000017
 51
94.999718
  0
LINE
  8
CSLAYER1
  6
CONTINUOUS
 62
     6
 10
307.049454
 20
245.502767
 11
306.258915
 21
245.570920
  0
ARC
  8
CSLAYER1
  6
CONTINUOUS
 62
     6
 10
306.368304
 20
246.803292
 40
1.246121
 50
196.257208
 51
264.999892
  0
ARC
  8
CSLAYER1
  6
CONTINUOUS
 62
     6
 10
307.071317
 20
245.749229
 40
0.249229
 50
265.000275
 51
359.942691
  0
LINE
  8
CSLAYER1
  6
CONTINUOUS
 62
     6
 10
307.322362
 20
252.260474
 11
307.322362
 21
245.501868
  0
LINE
  8
CSLAYER1
  6
CENTER
 62
     3
 10
301.812013
 20
196.881161
 11
330.287881
 21
196.881161
  0
ARC
  8
CSLAYER1
  6
CONTINUOUS
 62
     6
 10
307.443052
 20
200.260464
 40
0.120690
 50
90.000003
 51
180.000005
  0
ARC
  8
CSLAYER1
  6
CONTINUOUS
 62
     6
 10
307.443052
 20
193.501859
 40
0.120690
 50
180.000005
 51
270.000001
  0
ARC
  8
CSLAYER1
  6
CONTINUOUS
 62
     6
 10
308.167191
 20
200.260464
 40
0.120690
 50
0.000000
 51
90.000003
  0
ARC
  8
CSLAYER1
  6
CONTINUOUS
 62
     6
 10
308.167191
 20
193.501859
 40
0.120690
 50
270.000001
 51
359.942691
  0
LINE
  8
CSLAYER1
  6
CONTINUOUS
 62
     6
 10
307.443052
 20
200.381169
 11
308.167191
 21
200.381169
  0
LINE
  8
CSLAYER1
  6
CONTINUOUS
 62
     6
 10
307.443052
 20
193.381154
 11
308.167191
 21
193.381154
  0
LINE
  8
CSLAYER1
  6
CONTINUOUS
 62
     6
 10
307.322362
 20
196.161928
 11
308.287881
 21
196.697622
  0
LINE
  8
CSLAYER1
  6
CONTINUOUS
 62
     6
 10
307.322362
 20
196.765378
 11
308.287881
 21
197.301072
  0
LINE
  8
CSLAYER1
  6
CONTINUOUS
 62
     6
 10
307.049454
 20
200.259565
 11
306.258915
 21
200.191412
  0
ARC
  8
CSLAYER1
  6
CONTINUOUS
 62
     6
 10
306.368304
 20
198.959040
 40
1.246121
 50
95.000118
 51
163.742789
  0
ARC
  8
CSLAYER1
  6
CONTINUOUS
 62
     6
 10
307.071317
 20
200.013103
 40
0.249229
 50
-0.000017
 51
94.999718
  0
LINE
  8
CSLAYER1
  6
CONTINUOUS
 62
     6
 10
307.049454
 20
193.502757
 11
306.258915
 21
193.570911
  0
ARC
  8
CSLAYER1
  6
CONTINUOUS
 62
     6
 10
306.368304
 20
194.803283
 40
1.246121
 50
196.257208
 51
264.999892
  0
ARC
  8
CSLAYER1
  6
CONTINUOUS
 62
     6
 10
307.071317
 20
193.749220
 40
0.249229
 50
265.000275
 51
359.942691
  0
LINE
  8
CSLAYER1
  6
CONTINUOUS
 62
     6
 10
307.322362
 20
200.260464
 11
307.322362
 21
193.501859
  0
LINE
  8
CSLAYER1
  6
CONTINUOUS
 62
     6
 10
308.287881
 20
192.881177
 11
307.287881
 21
192.881177
  0
ARC
  8
CSLAYER1
  6
CONTINUOUS
 62
     6
 10
310.287881
 20
252.881177
 40
2.000000
 50
90.000003
 51
179.999991
  0
ARC
  8
CSLAYER1
  6
CONTINUOUS
 62
     6
 10
310.287881
 20
192.881146
 40
2.000000
 50
180.000005
 51
269.999973
  0
LINE
  8
CSLAYER1
  6
CONTINUOUS
 62
     6
 10
308.287881
 20
252.881177
 11
308.287881
 21
192.881146
  0
LINE
  8
CSLAYER1
  6
CONTINUOUS
 62
     6
 10
308.287866
 20
252.881192
 11
307.287866
 21
252.881192
  0
LINE
  8
CSLAYER1
  6
CONTINUOUS
 62
     6
 10
310.287881
 20
254.881177
 11
325.287881
 21
254.881177
  0
LINE
  8
CSLAYER1
  6
CONTINUOUS
 62
     6
 10
317.287881
 20
254.881177
 11
317.287881
 21
190.881146
  0
LINE
  8
CSLAYER1
  6
CONTINUOUS
 62
     6
 10
310.287880
 20
190.881146
 11
325.287881
 21
190.881146
  0
LINE
  8
CSLAYER1
  6
CONTINUOUS
 62
     6
 10
307.287881
 20
253.881177
 11
307.287881
 21
252.136462
  0
LINE
  8
CSLAYER1
  6
CONTINUOUS
 62
     6
 10
240.287881
 20
253.881177
 11
240.287881
 21
191.881177
  0
LINE
  8
CSLAYER1
  6
CONTINUOUS
 62
     6
 10
307.287881
 20
253.881177
 11
240.287881
 21
253.881177
  0
LINE
  8
CSLAYER1
  6
CONTINUOUS
 62
     6
 10
307.287881
 20
191.881177
 11
240.287881
 21
191.881177
  0
LINE
  8
CSLAYER1
  6
CONTINUOUS
 62
     6
 10
307.287881
 20
245.625880
 11
307.287881
 21
200.136452
  0
LINE
  8
CSLAYER1
  6
CONTINUOUS
 62
     6
 10
307.287881
 20
193.625871
 11
307.287881
 21
191.881177
  0
LINE
  8
CSLAYER1
  6
CENTER
 62
     3
 10
229.287881
 20
235.881177
 11
229.287881
 21
171.498564
  0
CIRCLE
  8
CSLAYER1
  6
CONTINUOUS
 62
     6
 10
229.287881
 20
222.881177
 40
8.000000
  0
CIRCLE
  8
CSLAYER1
  6
CONTINUOUS
 62
     6
 10
229.287881
 20
222.881177
 40
6.000000
  0
CIRCLE
  8
CSLAYER1
  6
CONTINUOUS
 62
     3
 10
229.287881
 20
222.881177
 40
5.500000
  0
LINE
  8
CSLAYER1
  6
CONTINUOUS
 62
     6
 10
232.037881
 20
223.681180
 11
226.537881
 21
223.681180
  0
LINE
  8
CSLAYER1
  6
CONTINUOUS
 62
     6
 10
232.037881
 20
222.081174
 11
226.537881
 21
222.081174
  0
LINE
  8
CSLAYER1
  6
CONTINUOUS
 62
     6
 10
226.537881
 20
223.681180
 11
226.537881
 21
222.081174
  0
LINE
  8
CSLAYER1
  6
CONTINUOUS
 62
     6
 10
232.037881
 20
223.681180
 11
232.037881
 21
222.081174
  0
LINE
  8
CSLAYER1
  6
CONTINUOUS
 62
     6
 10
209.287881
 20
194.404843
 11
209.287881
 21
251.357510
  0
LINE
  8
CSLAYER1
  6
CONTINUOUS
 62
     6
 10
210.287881
 20
193.404843
 11
210.287881
 21
252.357510
  0
LINE
  8
CSLAYER1
  6
CONTINUOUS
 62
     6
 10
210.287881
 20
252.357510
 11
240.287896
 21
252.881161
  0
LINE
  8
CSLAYER1
  6
CONTINUOUS
 62
     6
 10
210.287881
 20
252.357510
 11
209.287881
 21
251.357510
  0
LINE
  8
CSLAYER1
  6
CONTINUOUS
 62
     6
 10
210.287881
 20
193.404843
 11
240.287896
 21
192.881192
  0
LINE
  8
CSLAYER1
  6
CONTINUOUS
 62
     6
 10
210.287881
 20
193.404843
 11
209.287881
 21
194.404843
  0
ARC
  8
CSLAYER1
  6
CONTINUOUS
 62
     6
 10
307.443052
 20
93.736412
 40
0.120690
 50
90.000003
 51
180.000005
  0
ARC
  8
CSLAYER1
  6
CONTINUOUS
 62
     6
 10
307.443052
 20
86.977807
 40
0.120690
 50
180.000005
 51
270.000001
  0
ARC
  8
CSLAYER1
  6
CONTINUOUS
 62
     6
 10
308.167191
 20
93.736412
 40
0.120690
 50
0.000000
 51
90.000003
  0
ARC
  8
CSLAYER1
  6
CONTINUOUS
 62
     6
 10
308.167191
 20
86.977807
 40
0.120690
 50
270.000001
 51
359.942691
  0
LINE
  8
CSLAYER1
  6
CONTINUOUS
 62
     6
 10
307.443052
 20
93.857117
 11
308.167191
 21
93.857117
  0
LINE
  8
CSLAYER1
  6
CONTINUOUS
 62
     6
 10
307.443052
 20
86.857102
 11
308.167191
 21
86.857102
  0
LINE
  8
CSLAYER1
  6
CONTINUOUS
 62
     6
 10
307.322362
 20
89.637876
 11
308.287881
 21
90.173570
  0
LINE
  8
CSLAYER1
  6
CONTINUOUS
 62
     6
 10
307.322362
 20
90.241325
 11
308.287881
 21
90.777019
  0
LINE
  8
CSLAYER1
  6
CONTINUOUS
 62
     6
 10
307.049454
 20
93.735513
 11
306.258915
 21
93.667360
  0
ARC
  8
CSLAYER1
  6
CONTINUOUS
 62
     6
 10
306.368304
 20
92.434988
 40
1.246121
 50
95.000118
 51
163.742789
  0
ARC
  8
CSLAYER1
  6
CONTINUOUS
 62
     6
 10
307.071317
 20
93.489051
 40
0.249229
 50
-0.000017
 51
94.999718
  0
LINE
  8
CSLAYER1
  6
CONTINUOUS
 62
     6
 10
307.049454
 20
86.978705
 11
306.258915
 21
87.046858
  0
ARC
  8
CSLAYER1
  6
CONTINUOUS
 62
     6
 10
306.368304
 20
88.279230
 40
1.246121
 50
196.257208
 51
264.999892
  0
ARC
  8
CSLAYER1
  6
CONTINUOUS
 62
     6
 10
307.071317
 20
87.225168
 40
0.249229
 50
265.000275
 51
359.942691
  0
LINE
  8
CSLAYER1
  6
CONTINUOUS
 62
     6
 10
307.322362
 20
93.736412
 11
307.322362
 21
86.977807
  0
LINE
  8
CSLAYER1
  6
CENTER
 62
     3
 10
301.812013
 20
90.357119
 11
330.287881
 21
90.357112
  0
ARC
  8
CSLAYER1
  6
CONTINUOUS
 62
     6
 10
307.443052
 20
41.736403
 40
0.120690
 50
90.000003
 51
180.000005
  0
ARC
  8
CSLAYER1
  6
CONTINUOUS
 62
     6
 10
307.443052
 20
34.977797
 40
0.120690
 50
180.000005
 51
270.000001
  0
ARC
  8
CSLAYER1
  6
CONTINUOUS
 62
     6
 10
308.167191
 20
41.736403
 40
0.120690
 50
0.000000
 51
90.000003
  0
ARC
  8
CSLAYER1
  6
CONTINUOUS
 62
     6
 10
308.167191
 20
34.977797
 40
0.120690
 50
270.000001
 51
359.942691
  0
LINE
  8
CSLAYER1
  6
CONTINUOUS
 62
     6
 10
307.443052
 20
41.857107
 11
308.167191
 21
41.857107
  0
LINE
  8
CSLAYER1
  6
CONTINUOUS
 62
     6
 10
307.443052
 20
34.857093
 11
308.167191
 21
34.857093
  0
LINE
  8
CSLAYER1
  6
CONTINUOUS
 62
     6
 10
307.322362
 20
37.637866
 11
308.287881
 21
38.173560
  0
LINE
  8
CSLAYER1
  6
CONTINUOUS
 62
     6
 10
307.322362
 20
38.241316
 11
308.287881
 21
38.777010
  0
LINE
  8
CSLAYER1
  6
CONTINUOUS
 62
     6
 10
307.049454
 20
41.735504
 11
306.258915
 21
41.667351
  0
ARC
  8
CSLAYER1
  6
CONTINUOUS
 62
     6
 10
306.368304
 20
40.434979
 40
1.246121
 50
95.000118
 51
163.742789
  0
ARC
  8
CSLAYER1
  6
CONTINUOUS
 62
     6
 10
307.071317
 20
41.489041
 40
0.249229
 50
-0.000017
 51
94.999718
  0
LINE
  8
CSLAYER1
  6
CONTINUOUS
 62
     6
 10
307.049454
 20
34.978696
 11
306.258915
 21
35.046849
  0
ARC
  8
CSLAYER1
  6
CONTINUOUS
 62
     6
 10
306.368304
 20
36.279221
 40
1.246121
 50
196.257208
 51
264.999892
  0
ARC
  8
CSLAYER1
  6
CONTINUOUS
 62
     6
 10
307.071317
 20
35.225158
 40
0.249229
 50
265.000275
 51
359.942691
  0
LINE
  8
CSLAYER1
  6
CONTINUOUS
 62
     6
 10
307.322362
 20
41.736403
 11
307.322362
 21
34.977797
  0
LINE
  8
CSLAYER1
  6
CENTER
 62
     3
 10
301.812013
 20
38.357108
 11
330.287881
 21
38.357108
  0
LINE
  8
CSLAYER1
  6
CONTINUOUS
 62
     6
 10
308.287881
 20
34.357115
 11
307.287881
 21
34.357115
  0
LINE
  8
CSLAYER1
  6
CONTINUOUS
 62
     6
 10
308.287881
 20
94.357115
 11
307.287881
 21
94.357115
  0
ARC
  8
CSLAYER1
  6
CONTINUOUS
 62
     6
 10
310.287881
 20
94.357115
 40
2.000000
 50
90.000003
 51
179.999991
  0
ARC
  8
CSLAYER1
  6
CONTINUOUS
 62
     6
 10
310.287881
 20
34.357085
 40
2.000000
 50
180.000005
 51
269.999973
  0
LINE
  8
CSLAYER1
  6
CONTINUOUS
 62
     6
 10
308.287881
 20
94.357115
 11
308.287881
 21
34.357085
  0
LINE
  8
CSLAYER1
  6
CONTINUOUS
 62
     6
 10
310.287881
 20
96.357115
 11
325.287881
 21
96.357115
  0
LINE
  8
CSLAYER1
  6
CONTINUOUS
 62
     6
 10
317.287881
 20
96.357115
 11
317.287881
 21
32.357085
  0
LINE
  8
CSLAYER1
  6
CONTINUOUS
 62
     6
 10
310.287880
 20
32.357085
 11
325.287881
 21
32.357085
  0
LINE
  8
CSLAYER1
  6
CONTINUOUS
 62
     6
 10
307.287881
 20
95.357115
 11
307.287881
 21
93.612400
  0
LINE
  8
CSLAYER1
  6
CONTINUOUS
 62
     6
 10
307.287881
 20
95.357115
 11
240.287881
 21
95.357115
  0
LINE
  8
CSLAYER1
  6
CONTINUOUS
 62
     6
 10
307.287881
 20
33.357115
 11
240.287881
 21
33.357115
  0
LINE
  8
CSLAYER1
  6
CONTINUOUS
 62
     6
 10
307.287881
 20
87.101818
 11
307.287881
 21
41.612391
  0
LINE
  8
CSLAYER1
  6
CONTINUOUS
 62
     6
 10
307.287881
 20
35.101809
 11
307.287881
 21
33.357115
  0
LINE
  8
CSLAYER1
  6
CENTER
 62
     3
 10
387.287881
 20
43.857111
 11
387.287881
 21
30.361304
  0
ARC
  8
CSLAYER1
  6
CONTINUOUS
 62
     6
 10
384.391915
 20
35.628959
 40
0.104022
 50
180.000003
 51
270.000005
  0
ARC
  8
CSLAYER1
  6
CONTINUOUS
 62
     6
 10
384.391915
 20
36.253090
 40
0.104022
 50
90.000000
 51
180.000003
  0
LINE
  8
CSLAYER1
  6
CONTINUOUS
 62
     6
 10
384.287881
 20
35.628959
 11
384.287881
 21
36.253090
  0
LINE
  8
CSLAYER1
  6
CONTINUOUS
 62
     6
 10
387.924415
 20
35.524937
 11
387.462704
 21
36.357111
  0
LINE
  8
CSLAYER1
  6
CONTINUOUS
 62
     6
 10
387.404306
 20
35.524937
 11
386.942595
 21
36.357111
  0
LINE
  8
CSLAYER1
  6
CONTINUOUS
 62
     6
 10
384.392690
 20
35.289720
 11
384.451431
 21
34.608360
  0
ARC
  8
CSLAYER1
  6
CONTINUOUS
 62
     6
 10
385.513604
 20
34.702642
 40
1.074023
 50
185.000118
 51
253.742789
  0
ARC
  8
CSLAYER1
  6
CONTINUOUS
 62
     6
 10
384.605114
 20
35.308564
 40
0.214808
 50
89.999983
 51
184.999718
  0
LINE
  8
CSLAYER1
  6
CONTINUOUS
 62
     6
 10
384.391915
 20
35.524937
 11
390.183847
 21
35.524937
  0
ARC
  8
CSLAYER1
  6
CONTINUOUS
 62
     6
 10
390.183847
 20
35.628959
 40
0.104022
 50
269.999995
 51
359.999997
  0
ARC
  8
CSLAYER1
  6
CONTINUOUS
 62
     6
 10
390.183847
 20
36.253090
 40
0.104022
 50
-0.000003
 51
90.000000
  0
LINE
  8
CSLAYER1
  6
CONTINUOUS
 62
     6
 10
390.287881
 20
35.628959
 11
390.287881
 21
36.253090
  0
LINE
  8
CSLAYER1
  6
CONTINUOUS
 62
     6
 10
390.183072
 20
35.289720
 11
390.124331
 21
34.608360
  0
ARC
  8
CSLAYER1
  6
CONTINUOUS
 62
     6
 10
389.062159
 20
34.702642
 40
1.074023
 50
286.257211
 51
354.999882
  0
ARC
  8
CSLAYER1
  6
CONTINUOUS
 62
     6
 10
389.970648
 20
35.308564
 40
0.214808
 50
-4.999718
 51
90.000017
  0
ARC
  8
CSLAYER1
  6
CONTINUOUS
 62
     6
 10
352.391915
 20
35.628959
 40
0.104022
 50
180.000003
 51
270.000005
  0
ARC
  8
CSLAYER1
  6
CONTINUOUS
 62
     6
 10
352.391915
 20
36.253090
 40
0.104022
 50
90.000000
 51
180.000003
  0
LINE
  8
CSLAYER1
  6
CONTINUOUS
 62
     6
 10
352.287881
 20
35.628959
 11
352.287881
 21
36.253090
  0
LINE
  8
CSLAYER1
  6
CONTINUOUS
 62
     6
 10
355.924415
 20
35.524937
 11
355.462704
 21
36.357111
  0
LINE
  8
CSLAYER1
  6
CONTINUOUS
 62
     6
 10
355.404306
 20
35.524937
 11
354.942595
 21
36.357111
  0
LINE
  8
CSLAYER1
  6
CONTINUOUS
 62
     6
 10
352.392690
 20
35.289720
 11
352.451431
 21
34.608360
  0
ARC
  8
CSLAYER1
  6
CONTINUOUS
 62
     6
 10
353.513604
 20
34.702642
 40
1.074023
 50
185.000118
 51
253.742789
  0
ARC
  8
CSLAYER1
  6
CONTINUOUS
 62
     6
 10
352.605114
 20
35.308564
 40
0.214808
 50
89.999983
 51
184.999718
  0
LINE
  8
CSLAYER1
  6
CONTINUOUS
 62
     6
 10
352.391915
 20
35.524937
 11
358.183847
 21
35.524937
  0
ARC
  8
CSLAYER1
  6
CONTINUOUS
 62
     6
 10
358.183847
 20
35.628959
 40
0.104022
 50
269.999995
 51
359.999997
  0
ARC
  8
CSLAYER1
  6
CONTINUOUS
 62
     6
 10
358.183847
 20
36.253090
 40
0.104022
 50
-0.000003
 51
90.000000
  0
LINE
  8
CSLAYER1
  6
CONTINUOUS
 62
     6
 10
358.287881
 20
35.628959
 11
358.287881
 21
36.253090
  0
LINE
  8
CSLAYER1
  6
CONTINUOUS
 62
     6
 10
358.183072
 20
35.289720
 11
358.124331
 21
34.608360
  0
ARC
  8
CSLAYER1
  6
CONTINUOUS
 62
     6
 10
357.062159
 20
34.702642
 40
1.074023
 50
286.257211
 51
354.999882
  0
ARC
  8
CSLAYER1
  6
CONTINUOUS
 62
     6
 10
357.970648
 20
35.308564
 40
0.214808
 50
-4.999718
 51
90.000017
  0
LINE
  8
CSLAYER1
  6
CENTER
 62
     3
 10
323.287881
 20
43.857111
 11
323.287881
 21
30.361304
  0
ARC
  8
CSLAYER1
  6
CONTINUOUS
 62
     6
 10
320.391915
 20
35.628959
 40
0.104022
 50
180.000003
 51
270.000005
  0
ARC
  8
CSLAYER1
  6
CONTINUOUS
 62
     6
 10
320.391915
 20
36.253090
 40
0.104022
 50
90.000000
 51
180.000003
  0
LINE
  8
CSLAYER1
  6
CONTINUOUS
 62
     6
 10
320.287881
 20
35.628959
 11
320.287881
 21
36.253090
  0
LINE
  8
CSLAYER1
  6
CONTINUOUS
 62
     6
 10
323.924415
 20
35.524937
 11
323.462704
 21
36.357111
  0
LINE
  8
CSLAYER1
  6
CONTINUOUS
 62
     6
 10
323.404306
 20
35.524937
 11
322.942595
 21
36.357111
  0
LINE
  8
CSLAYER1
  6
CONTINUOUS
 62
     6
 10
320.392690
 20
35.289720
 11
320.451431
 21
34.608360
  0
ARC
  8
CSLAYER1
  6
CONTINUOUS
 62
     6
 10
321.513604
 20
34.702642
 40
1.074023
 50
185.000118
 51
253.742789
  0
ARC
  8
CSLAYER1
  6
CONTINUOUS
 62
     6
 10
320.605114
 20
35.308564
 40
0.214808
 50
89.999983
 51
184.999718
  0
LINE
  8
CSLAYER1
  6
CONTINUOUS
 62
     6
 10
320.391915
 20
35.524937
 11
326.183847
 21
35.524937
  0
ARC
  8
CSLAYER1
  6
CONTINUOUS
 62
     6
 10
326.183847
 20
35.628959
 40
0.104022
 50
269.999995
 51
359.999997
  0
ARC
  8
CSLAYER1
  6
CONTINUOUS
 62
     6
 10
326.183847
 20
36.253090
 40
0.104022
 50
-0.000003
 51
90.000000
  0
LINE
  8
CSLAYER1
  6
CONTINUOUS
 62
     6
 10
326.287881
 20
35.628959
 11
326.287881
 21
36.253090
  0
LINE
  8
CSLAYER1
  6
CONTINUOUS
 62
     6
 10
326.183072
 20
35.289720
 11
326.124331
 21
34.608360
  0
ARC
  8
CSLAYER1
  6
CONTINUOUS
 62
     6
 10
325.062159
 20
34.702642
 40
1.074023
 50
286.257211
 51
354.999882
  0
ARC
  8
CSLAYER1
  6
CONTINUOUS
 62
     6
 10
325.970648
 20
35.308564
 40
0.214808
 50
-4.999718
 51
90.000017
  0
LINE
  8
CSLAYER1
  6
CONTINUOUS
 62
     6
 10
327.287881
 20
34.357085
 11
327.287881
 21
36.357111
  0
ARC
  8
CSLAYER1
  6
CONTINUOUS
 62
     6
 10
325.287881
 20
94.357115
 40
2.000000
 50
0.000000
 51
90.000000
  0
ARC
  8
CSLAYER1
  6
CONTINUOUS
 62
     6
 10
325.287881
 20
34.357085
 40
2.000000
 50
270.000000
 51
360.000000
  0
LINE
  8
CSLAYER1
  6
CONTINUOUS
 62
     6
 10
327.387773
 20
81.357111
 11
383.265489
 21
81.357111
  0
LINE
  8
CSLAYER1
  6
CONTINUOUS
 62
     6
 10
335.287881
 20
101.357111
 11
375.287881
 21
101.357111
  0
LINE
  8
CSLAYER1
  6
CONTINUOUS
 62
     6
 10
333.287881
 20
99.357111
 11
333.287881
 21
84.357111
  0
LINE
  8
CSLAYER1
  6
CONTINUOUS
 62
     6
 10
377.287881
 20
99.357111
 11
377.287881
 21
84.357111
  0
ARC
  8
CSLAYER1
  6
CONTINUOUS
 62
     6
 10
335.287881
 20
99.357111
 40
2.000000
 50
90.000000
 51
180.000000
  0
ARC
  8
CSLAYER1
  6
CONTINUOUS
 62
     6
 10
375.287881
 20
99.357111
 40
2.000000
 50
0.000000
 51
90.000000
  0
LINE
  8
CSLAYER1
  6
CONTINUOUS
 62
     6
 10
323.787876
 20
77.758049
 11
323.787876
 21
66.325738
  0
ARC
  8
CSLAYER1
  6
CONTINUOUS
 62
     6
 10
327.387773
 20
77.758049
 40
3.599897
 50
90.000000
 51
180.000000
  0
LINE
  8
CSLAYER1
  6
CONTINUOUS
 62
     6
 10
386.787886
 20
77.758049
 11
386.787886
 21
66.325738
  0
ARC
  8
CSLAYER1
  6
CONTINUOUS
 62
     6
 10
383.187989
 20
77.758049
 40
3.599897
 50
0.000000
 51
88.766418
  0
LINE
  8
CSLAYER1
  6
CONTINUOUS
 62
     6
 10
327.287881
 20
84.357111
 11
327.287881
 21
94.357115
  0
ARC
  8
CSLAYER1
  6
CONTINUOUS
 62
     6
 10
330.287881
 20
84.357111
 40
3.000000
 50
-180.000000
 51
0.000000
  0
LINE
  8
CSLAYER1
  6
CONTINUOUS
 62
     6
 10
385.287881
 20
101.357111
 11
393.287881
 21
101.357111
  0
ARC
  8
CSLAYER1
  6
CONTINUOUS
 62
     6
 10
385.287881
 20
99.357111
 40
2.000000
 50
90.000000
 51
180.000000
  0
LINE
  8
CSLAYER1
  6
CONTINUOUS
 62
     6
 10
383.287881
 20
84.324866
 11
383.287881
 21
99.357111
  0
ARC
  8
CSLAYER1
  6
CONTINUOUS
 62
     6
 10
380.287881
 20
84.357111
 40
3.000000
 50
-180.000000
 51
0.000000
  0
LINE
  8
CSLAYER1
  6
CONTINUOUS
 62
     6
 10
393.287881
 20
27.357111
 11
393.287881
 21
101.357111
  0
LINE
  8
CSLAYER1
  6
CONTINUOUS
 62
     6
 10
335.287881
 20
27.357111
 11
375.287881
 21
27.357111
  0
LINE
  8
CSLAYER1
  6
CONTINUOUS
 62
     6
 10
319.787897
 20
40.857111
 11
390.787881
 21
40.857111
  0
LINE
  8
CSLAYER1
  6
CONTINUOUS
 62
     6
 10
320.287881
 20
36.357111
 11
390.287881
 21
36.357111
  0
LINE
  8
CSLAYER1
  6
CONTINUOUS
 62
     6
 10
320.287881
 20
62.357111
 11
320.287881
 21
36.357111
  0
LINE
  8
CSLAYER1
  6
CONTINUOUS
 62
     6
 10
390.287881
 20
62.357111
 11
390.287881
 21
36.357111
  0
ARC
  8
CSLAYER1
  6
CONTINUOUS
 62
     6
 10
322.287881
 20
62.357111
 40
2.000000
 50
97.180831
 51
180.000000
  0
ARC
  8
CSLAYER1
  6
CONTINUOUS
 62
     6
 10
388.287881
 20
62.357111
 40
2.000000
 50
0.000000
 51
82.819169
  0
LINE
  8
CSLAYER1
  6
CONTINUOUS
 62
     6
 10
360.949282
 20
36.357111
 11
360.949282
 21
61.857111
  0
LINE
  8
CSLAYER1
  6
CONTINUOUS
 62
     6
 10
349.626480
 20
61.857111
 11
349.626480
 21
36.357111
  0
LINE
  8
CSLAYER1
  6
CONTINUOUS
 62
     6
 10
319.787897
 20
34.357085
 11
319.787897
 21
40.857111
  0
ARC
  8
CSLAYER1
  6
CONTINUOUS
 62
     6
 10
317.787897
 20
34.357085
 40
2.000000
 50
-90.000000
 51
0.000000
  0
LINE
  8
CSLAYER1
  6
CONTINUOUS
 62
     6
 10
333.287881
 20
33.357111
 11
333.287881
 21
29.357111
  0
LINE
  8
CSLAYER1
  6
CONTINUOUS
 62
     6
 10
377.287881
 20
33.357111
 11
377.287881
 21
29.357111
  0
LINE
  8
CSLAYER1
  6
CONTINUOUS
 62
     6
 10
383.287881
 20
29.357111
 11
383.287881
 21
36.357111
  0
LINE
  8
CSLAYER1
  6
CONTINUOUS
 62
     6
 10
385.287881
 20
27.357111
 11
393.287881
 21
27.357111
  0
ARC
  8
CSLAYER1
  6
CONTINUOUS
 62
     6
 10
385.287881
 20
29.357111
 40
2.000000
 50
180.000000
 51
270.000000
  0
ARC
  8
CSLAYER1
  6
CONTINUOUS
 62
     6
 10
375.287881
 20
29.357111
 40
2.000000
 50
270.000000
 51
360.000000
  0
ARC
  8
CSLAYER1
  6
CONTINUOUS
 62
     6
 10
335.287881
 20
29.357111
 40
2.000000
 50
180.000000
 51
270.000000
  0
ARC
  8
CSLAYER1
  6
CONTINUOUS
 62
     6
 10
380.287881
 20
33.357111
 40
3.000000
 50
90.000000
 51
180.000000
  0
ARC
  8
CSLAYER1
  6
CONTINUOUS
 62
     6
 10
330.287881
 20
33.357111
 40
3.000000
 50
-0.000000
 51
90.000000
  0
LINE
  8
CSLAYER1
  6
CONTINUOUS
 62
     6
 10
390.787881
 20
40.857111
 11
390.787881
 21
27.357111
  0
LINE
  8
CSLAYER1
  6
CONTINUOUS
 62
     6
 10
386.822365
 20
61.857111
 11
386.822365
 21
36.357111
  0
LINE
  8
CSLAYER1
  6
CONTINUOUS
 62
     6
 10
323.753397
 20
61.857111
 11
323.753397
 21
36.357111
  0
LINE
  8
CSLAYER1
  6
CONTINUOUS
 62
     6
 10
329.287881
 20
85.357111
 11
333.287881
 21
85.357111
  0
LINE
  8
CSLAYER1
  6
CONTINUOUS
 62
     6
 10
377.287881
 20
85.357111
 11
381.287881
 21
85.357111
  0
ARC
  8
CSLAYER1
  6
CONTINUOUS
 62
     6
 10
381.287881
 20
87.357111
 40
2.000000
 50
270.000000
 51
360.000000
  0
ARC
  8
CSLAYER1
  6
CONTINUOUS
 62
     6
 10
329.287881
 20
87.357111
 40
2.000000
 50
180.000000
 51
270.000000
  0
LINE
  8
CSLAYER1
  6
CENTER
 62
     3
 10
355.287881
 20
130.881176
 11
355.287881
 21
24.357111
  0
LINE
  8
CSLAYER1
  6
CONTINUOUS
 62
     6
 10
349.287881
 20
109.357111
 11
361.287881
 21
109.357111
  0
LINE
  8
CSLAYER1
  6
CONTINUOUS
 62
     6
 10
350.787881
 20
129.357111
 11
359.287881
 21
129.357111
  0
LINE
  8
CSLAYER1
  6
CONTINUOUS
 62
     6
 10
349.287881
 20
101.357111
 11
349.287881
 21
109.357111
  0
LINE
  8
CSLAYER1
  6
CONTINUOUS
 62
     6
 10
350.287881
 20
109.357111
 11
350.287881
 21
128.857111
  0
LINE
  8
CSLAYER1
  6
CONTINUOUS
 62
     6
 10
359.787881
 20
128.857111
 11
359.787881
 21
114.357111
  0
LINE
  8
CSLAYER1
  6
CONTINUOUS
 62
     6
 10
359.787881
 20
114.357111
 11
360.287881
 21
114.357111
  0
LINE
  8
CSLAYER1
  6
CONTINUOUS
 62
     6
 10
360.287881
 20
114.357111
 11
360.287881
 21
109.357111
  0
LINE
  8
CSLAYER1
  6
CONTINUOUS
 62
     6
 10
361.287881
 20
109.357111
 11
361.287881
 21
101.357111
  0
LINE
  8
CSLAYER1
  6
CONTINUOUS
 62
     6
 10
350.287881
 20
128.857111
 11
350.787881
 21
129.357111
  0
LINE
  8
CSLAYER1
  6
CONTINUOUS
 62
     6
 10
359.287881
 20
129.357111
 11
359.787881
 21
128.857111
  0
LINE
  8
CSLAYER1
  6
CONTINUOUS
 62
     6
 10
327.287881
 20
192.881146
 11
327.287881
 21
252.881177
  0
ARC
  8
CSLAYER1
  6
CONTINUOUS
 62
     6
 10
325.287881
 20
252.881177
 40
2.000000
 50
0.000000
 51
90.000000
  0
ARC
  8
CSLAYER1
  6
CONTINUOUS
 62
     6
 10
325.287881
 20
192.881146
 40
2.000000
 50
270.000000
 51
360.000000
  0
LINE
  8
CSLAYER1
  6
CENTER
 62
     3
 10
355.287881
 20
151.881177
 11
355.287881
 21
242.881161
  0
LINE
  8
CSLAYER1
  6
CONTINUOUS
 62
     6
 10
383.287881
 20
192.881146
 11
383.287881
 21
252.881177
  0
LINE
  8
CSLAYER1
  6
CONTINUOUS
 62
     6
 10
393.287881
 20
190.881146
 11
393.287881
 21
254.881177
  0
ARC
  8
CSLAYER1
  6
CONTINUOUS
 62
     6
 10
385.287881
 20
252.881177
 40
2.000000
 50
90.000000
 51
180.000000
  0
ARC
  8
CSLAYER1
  6
CONTINUOUS
 62
     6
 10
385.287881
 20
192.881146
 40
2.000000
 50
180.000000
 51
270.000000
  0
LINE
  8
CSLAYER1
  6
CONTINUOUS
 62
     6
 10
385.287881
 20
254.881177
 11
393.287881
 21
254.881177
  0
LINE
  8
CSLAYER1
  6
CONTINUOUS
 62
     6
 10
385.287881
 20
190.881146
 11
393.287881
 21
190.881146
  0
LINE
  8
CSLAYER1
  6
CONTINUOUS
 62
     6
 10
330.287881
 20
239.881163
 11
380.287881
 21
239.881158
  0
ARC
  8
CSLAYER1
  6
CONTINUOUS
 62
     6
 10
330.287881
 20
242.881163
 40
3.000000
 50
180.000000
 51
269.999994
  0
ARC
  8
CSLAYER1
  6
CONTINUOUS
 62
     6
 10
380.287881
 20
242.881158
 40
3.000000
 50
269.999994
 51
360.000000
  0
LINE
  8
CSLAYER1
  6
CENTER
 62
     3
 10
317.287881
 20
189.881165
 11
393.287865
 21
189.881156
  0
CIRCLE
  8
CSLAYER1
  6
CONTINUOUS
 62
     6
 10
355.287881
 20
189.881161
 40
16.000000
  0
CIRCLE
  8
CSLAYER1
  6
CONTINUOUS
 62
     6
 10
355.287881
 20
189.881161
 40
22.000000
  0
ARC
  8
CSLAYER1
  6
CONTINUOUS
 62
     6
 10
322.787876
 20
189.881141
 40
1.000000
 50
0.000025
 51
97.552469
  0
ARC
  8
CSLAYER1
  6
CONTINUOUS
 62
     6
 10
387.787886
 20
189.881157
 40
1.000000
 50
82.447531
 51
179.999975
  0
ARC
  8
CSLAYER1
  6
CONTINUOUS
 62
     6
 10
355.287881
 20
160.881177
 40
6.000000
 50
199.340533
 51
340.659467
  0
ARC
  8
CSLAYER1
  6
CONTINUOUS
 62
     6
 10
384.287865
 20
189.881161
 40
6.000000
 50
289.340533
 51
359.999964
  0
ARC
  8
CSLAYER1
  6
CONTINUOUS
 62
     6
 10
326.287897
 20
189.881161
 40
6.000000
 50
179.999964
 51
250.659467
  0
ARC
  8
CSLAYER1
  6
CONTINUOUS
 62
     6
 10
391.287865
 20
189.881146
 40
1.000000
 50
82.447531
 51
179.999975
  0
ARC
  8
CSLAYER1
  6
CONTINUOUS
 62
     6
 10
319.287897
 20
189.881164
 40
1.000000
 50
0.000025
 51
97.552469
  0
LINE
  8
CSLAYER1
  6
CENTER
 62
     3
 10
396.287881
 20
248.881156
 11
380.287881
 21
248.881156
  0
LINE
  8
CSLAYER1
  6
CENTER
 62
     3
 10
396.287881
 20
210.881156
 11
380.287881
 21
210.881156
  0
LINE
  8
CSLAYER1
  6
CONTINUOUS
 62
     6
 10
330.287880
 20
237.881163
 11
380.287880
 21
237.881158
  0
CIRCLE
  8
CSLAYER1
  6
CONTINUOUS
 62
     6
 10
355.287881
 20
189.881161
 40
5.000000
  0
CIRCLE
  8
CSLAYER1
  6
CONTINUOUS
 62
     6
 10
355.287881
 20
189.881161
 40
6.000000
  0
LINE
  8
CSLAYER1
  6
CONTINUOUS
 62
     6
 10
359.787881
 20
192.060610
 11
359.787881
 21
187.701711
  0
CIRCLE
  8
CSLAYER1
  6
CONTINUOUS
 62
     6
 10
362.212809
 20
177.852642
 40
1.454544
  0
ARC
  8
CSLAYER1
  6
CONTINUOUS
 62
     6
 10
362.212809
 20
177.852642
 40
3.117293
 50
50.235851
 51
203.481549
  0
LINE
  8
CSLAYER1
  6
CONTINUOUS
 62
     6
 10
359.353663
 20
176.610553
 11
359.974831
 21
174.583065
  0
CIRCLE
  8
CSLAYER1
  6
CONTINUOUS
 62
     6
 10
348.362943
 20
177.852642
 40
1.454544
  0
ARC
  8
CSLAYER1
  6
CONTINUOUS
 62
     6
 10
348.362943
 20
177.852642
 40
3.117293
 50
-23.481547
 51
129.764151
  0
LINE
  8
CSLAYER1
  6
CONTINUOUS
 62
     6
 10
351.222086
 20
176.610553
 11
350.600918
 21
174.583065
  0
ARC
  8
CSLAYER1
  6
CONTINUOUS
 62
     6
 10
355.287881
 20
189.035164
 40
13.936877
 50
-37.903067
 51
217.903051
  0
ARC
  8
CSLAYER1
  6
CONTINUOUS
 62
     6
 10
365.137075
 20
181.366949
 40
1.454544
 50
230.236329
 51
322.096590
  0
ARC
  8
CSLAYER1
  6
CONTINUOUS
 62
     6
 10
345.438675
 20
181.366949
 40
1.454544
 50
217.903413
 51
309.763730
  0
ARC
  8
CSLAYER1
  6
CONTINUOUS
 62
     6
 10
313.598237
 20
248.881171
 40
8.786224
 50
163.933744
 51
196.066255
  0
ARC
  8
CSLAYER1
  6
CONTINUOUS
 62
     6
 10
313.598237
 20
196.881161
 40
8.786224
 50
163.933744
 51
196.066255
  0
ARC
  8
CSLAYER1
  6
CONTINUOUS
 62
     6
 10
214.629037
 20
181.634429
 40
15.758816
 50
332.536202
 51
359.942691
  0
ARC
  8
CSLAYER1
  6
CONTINUOUS
 62
     6
 10
214.629037
 20
181.634429
 40
13.558834
 50
332.536202
 51
359.942691
  0
ARC
  8
CSLAYER1
  6
CONTINUOUS
 62
     6
 10
229.837869
 20
180.681838
 40
1.099999
 50
60.000350
 51
120.000345
  0
ARC
  8
CSLAYER1
  6
CONTINUOUS
 62
     6
 10
228.737870
 20
180.681822
 40
1.099999
 50
60.000350
 51
120.000345
  0
ARC
  8
CSLAYER1
  6
CONTINUOUS
 62
     6
 10
228.737863
 20
182.587081
 40
1.099999
 50
240.000362
 51
300.000350
  0
LINE
  8
CSLAYER1
  6
CONTINUOUS
 62
     6
 10
227.317437
 20
175.039473
 11
225.700280
 21
172.101401
  0
LINE
  8
CSLAYER1
  6
CONTINUOUS
 62
     6
 10
227.806359
 20
174.785338
 11
226.229577
 21
171.777922
  0
LINE
  8
CSLAYER1
  6
CONTINUOUS
 62
     6
 10
228.204492
 20
174.578383
 11
226.803002
 21
171.498580
  0
LINE
  8
CSLAYER1
  6
CONTINUOUS
 62
     6
 10
226.659814
 20
175.381270
 11
228.611871
 21
174.366652
  0
ARC
  8
CSLAYER1
  6
CONTINUOUS
 62
     6
 10
243.946725
 20
181.634429
 40
15.758816
 50
202.422068
 51
207.463868
  0
ARC
  8
CSLAYER1
  6
CONTINUOUS
 62
     6
 10
243.946725
 20
181.634429
 40
13.558834
 50
179.999978
 51
207.463868
  0
LINE
  8
CSLAYER1
  6
CONTINUOUS
 62
     6
 10
231.258325
 20
175.039443
 11
232.875497
 21
172.101386
  0
LINE
  8
CSLAYER1
  6
CONTINUOUS
 62
     6
 10
230.769403
 20
174.785323
 11
232.346185
 21
171.777922
  0
LINE
  8
CSLAYER1
  6
CONTINUOUS
 62
     6
 10
230.371270
 20
174.578383
 11
231.772775
 21
171.498564
  0
LINE
  8
CSLAYER1
  6
CONTINUOUS
 62
     6
 10
231.915948
 20
175.381255
 11
229.963891
 21
174.366637
  0
ARC
  8
CSLAYER1
  6
CONTINUOUS
 62
     6
 10
228.737893
 20
185.499297
 40
1.100006
 50
240.000007
 51
299.999995
  0
ARC
  8
CSLAYER1
  6
CONTINUOUS
 62
     6
 10
229.837899
 20
185.499297
 40
1.100006
 50
240.000007
 51
299.999995
  0
ARC
  8
CSLAYER1
  6
CONTINUOUS
 62
     6
 10
229.837899
 20
183.594023
 40
1.100006
 50
60.000002
 51
120.000003
  0
LINE
  8
CSLAYER1
  6
CONTINUOUS
 62
     6
 10
230.387887
 20
193.053983
 11
230.387887
 21
184.546660
  0
LINE
  8
CSLAYER1
  6
CONTINUOUS
 62
     6
 10
228.187890
 20
193.092389
 11
228.187890
 21
184.546660
  0
ARC
  8
CSLAYER1
  6
CONTINUOUS
 62
     6
 10
313.598237
 20
90.357109
 40
8.786224
 50
163.933744
 51
196.066255
  0
ARC
  8
CSLAYER1
  6
CONTINUOUS
 62
     6
 10
313.598237
 20
38.357100
 40
8.786224
 50
163.933744
 51
196.066255
  0
ARC
  8
CSLAYER1
  6
CONTINUOUS
 62
     6
 10
387.304513
 20
40.934070
 40
7.572785
 50
253.933744
 51
285.823637
  0
ARC
  8
CSLAYER1
  6
CONTINUOUS
 62
     6
 10
355.304513
 20
40.934070
 40
7.572785
 50
253.933744
 51
285.823637
  0
ARC
  8
CSLAYER1
  6
CONTINUOUS
 62
     6
 10
323.304513
 20
40.934070
 40
7.572785
 50
253.933744
 51
285.823637
  0
CIRCLE
  8
CSLAYER1
  6
CONTINUOUS
 62
     6
 10
355.287881
 20
222.881161
 40
3.448276
  0
CIRCLE
  8
CSLAYER1
  6
CONTINUOUS
 62
     6
 10
355.287881
 20
222.881161
 40
4.000000
  0
LINE
  8
CSLAYER1
  6
CONTINUOUS
 62
     6
 10
355.287881
 20
224.605298
 11
357.012019
 21
224.605298
  0
LINE
  8
CSLAYER1
  6
CONTINUOUS
 62
     6
 10
355.287881
 20
221.157023
 11
353.563743
 21
221.157023
  0
LINE
  8
CSLAYER1
  6
CONTINUOUS
 62
     6
 10
357.012019
 20
224.605298
 11
355.287881
 21
219.432885
  0
LINE
  8
CSLAYER1
  6
CONTINUOUS
 62
     6
 10
355.287881
 20
219.432885
 11
355.287881
 21
221.157023
  0
LINE
  8
CSLAYER1
  6
CONTINUOUS
 62
     6
 10
353.563743
 20
221.157023
 11
355.287881
 21
226.329436
  0
LINE
  8
CSLAYER1
  6
CONTINUOUS
 62
     6
 10
355.287881
 20
226.329436
 11
355.287881
 21
224.605298
  0
LINE
  8
CSLAYER1
  6
CONTINUOUS
 62
     3
 10
368.687881
 20
231.881160
 11
362.687881
 21
231.881160
  0
LINE
  8
CSLAYER1
  6
CONTINUOUS
 62
     3
 10
362.687881
 20
231.881160
 11
362.687881
 21
213.881160
  0
LINE
  8
CSLAYER1
  6
CONTINUOUS
 62
     3
 10
362.687881
 20
213.881160
 11
368.687881
 21
213.881160
  0
LINE
  8
CSLAYER1
  6
CONTINUOUS
 62
     3
 10
368.687881
 20
213.881160
 11
368.687881
 21
231.881160
  0
LINE
  8
CSLAYER1
  6
CONTINUOUS
 62
     3
 10
369.687881
 20
232.881160
 11
361.687881
 21
232.881160
  0
LINE
  8
CSLAYER1
  6
CONTINUOUS
 62
     3
 10
361.687881
 20
232.881160
 11
361.687881
 21
212.881160
  0
LINE
  8
CSLAYER1
  6
CONTINUOUS
 62
     3
 10
361.687881
 20
212.881160
 11
369.687881
 21
212.881160
  0
LINE
  8
CSLAYER1
  6
CONTINUOUS
 62
     3
 10
369.687881
 20
212.881160
 11
369.687881
 21
232.881160
  0
TEXT
  8
CSLAYER1
 62
     3
 10
367.687866
 20
214.581161
 40
4.000000
 41
0.547826
  1
SAWAMURA
 50
90.000000
 51
0.000000
  7
JX_FONT
 72
     5
 11
367.687866
 21
231.381161
  0
LINE
  8
CSLAYER1
  6
CONTINUOUS
 62
     6
 10
350.287881
 20
280.045356
 11
359.787881
 21
280.045356
  0
LINE
  8
CSLAYER1
  6
CONTINUOUS
 62
     6
 10
350.287881
 20
128.857111
 11
359.787881
 21
128.857111
  0
ARC
  8
CSLAYER1
  6
CONTINUOUS
 62
     6
 10
489.386868
 20
156.381155
 40
2.000000
 50
7.180756
 51
90.000000
  0
ARC
  8
CSLAYER1
  6
CONTINUOUS
 62
     6
 10
477.355495
 20
161.381155
 40
3.000000
 50
180.000000
 51
270.000000
  0
ARC
  8
CSLAYER1
  6
CONTINUOUS
 62
     6
 10
355.287881
 20
189.881161
 40
31.500005
 50
179.999994
 51
359.999994
  0
ARC
  8
CSLAYER1
  6
CONTINUOUS
 62
     6
 10
115.502738
 20
156.381155
 40
2.000000
 50
90.000000
 51
172.819036
  0
ARC
  8
CSLAYER1
  6
CONTINUOUS
 62
     6
 10
321.787876
 20
66.325738
 40
2.000000
 50
277.180831
 51
360.000000
  0
ARC
  8
CSLAYER1
  6
CONTINUOUS
 62
     6
 10
388.787886
 20
66.325738
 40
2.000000
 50
180.000000
 51
262.819169
  0
LINE
  8
CSLAYER1
  6
CONTINUOUS
 62
     6
 10
493.855495
 20
184.219754
 11
519.355495
 21
184.219754
  0
LINE
  8
CSLAYER1
  6
CONTINUOUS
 62
     6
 10
493.855495
 20
163.542557
 11
519.355495
 21
163.542557
  0
LINE
  8
CSLAYER1
  6
CONTINUOUS
 62
     6
 10
111.034112
 20
161.542571
 11
85.534112
 21
161.542571
  0
LINE
  8
CSLAYER1
  6
CONTINUOUS
 62
     6
 10
111.034112
 20
182.219768
 11
85.534112
 21
182.219768
  0
ARC
  8
CSLAYER1
  6
CONTINUOUS
 62
     6
 10
381.287881
 20
367.545356
 40
2.000000
 50
270.000000
 51
360.000000
  0
ARC
  8
CSLAYER1
  6
CONTINUOUS
 62
     6
 10
329.287881
 20
367.545356
 40
2.000000
 50
180.000000
 51
270.000000
  0
LINE
  8
CSLAYER1
  6
CENTER
 62
     3
 10
380.287881
 20
34.357111
 11
396.287881
 21
34.357111
  0
LINE
  8
CSLAYER1
  6
CENTER
 62
     3
 10
380.287881
 20
94.357111
 11
396.287881
 21
94.357111
  0
ARC
  8
CSLAYER1
  6
CONTINUOUS
 62
     6
 10
517.395248
 20
231.920907
 40
4.960248
 50
0.000000
 51
90.000000
  0
ARC
  8
CSLAYER1
  6
CONTINUOUS
 62
     6
 10
517.395248
 20
223.810003
 40
4.960248
 50
287.792389
 51
360.000000
  0
ARC
  8
CSLAYER1
  6
CONTINUOUS
 62
     6
 10
465.315743
 20
231.920907
 40
4.960248
 50
90.000000
 51
180.000000
  0
ARC
  8
CSLAYER1
  6
CONTINUOUS
 62
     6
 10
465.315743
 20
223.810003
 40
4.960248
 50
180.000000
 51
252.207611
  0
LINE
  8
CSLAYER1
  6
CENTER
 62
     3
 10
229.287881
 20
53.357111
 11
229.287881
 21
75.357111
  0
LINE
  8
CSLAYER1
  6
CONTINUOUS
 62
     6
 10
229.287881
 20
64.357111
 11
223.854409
 21
64.357111
  0
LINE
  8
CSLAYER1
  6
CONTINUOUS
 62
     6
 10
229.287881
 20
66.557108
 11
223.854409
 21
66.557108
  0
ARC
  8
CSLAYER1
  6
CONTINUOUS
 62
     6
 10
220.942178
 20
80.115962
 40
15.758816
 50
242.536193
 51
269.942682
  0
ARC
  8
CSLAYER1
  6
CONTINUOUS
 62
     6
 10
220.942178
 20
80.115962
 40
13.558834
 50
242.536193
 51
269.942682
  0
ARC
  8
CSLAYER1
  6
CONTINUOUS
 62
     6
 10
224.807046
 20
66.007105
 40
1.100006
 50
149.999997
 51
209.999999
  0
ARC
  8
CSLAYER1
  6
CONTINUOUS
 62
     6
 10
224.807046
 20
64.907099
 40
1.100006
 50
149.999997
 51
209.999999
  0
ARC
  8
CSLAYER1
  6
CONTINUOUS
 62
     6
 10
222.901773
 20
64.907099
 40
1.100006
 50
-30.000011
 51
29.999977
  0
ARC
  8
CSLAYER1
  6
CONTINUOUS
 62
     6
 10
220.942178
 20
48.598261
 40
13.558834
 50
89.999975
 51
117.463872
  0
ARC
  8
CSLAYER1
  6
CONTINUOUS
 62
     6
 10
220.942208
 20
48.598277
 40
15.758816
 50
90.000003
 51
117.463872
  0
ARC
  8
CSLAYER1
  6
CONTINUOUS
 62
     6
 10
224.807046
 20
63.807093
 40
1.100006
 50
149.999997
 51
209.999999
  0
ARC
  8
CSLAYER1
  6
CONTINUOUS
 62
     6
 10
224.807046
 20
62.707087
 40
1.100006
 50
149.999997
 51
209.999999
  0
ARC
  8
CSLAYER1
  6
CONTINUOUS
 62
     6
 10
222.901773
 20
62.707087
 40
1.100006
 50
-30.000011
 51
29.999977
  0
ARC
  8
CSLAYER1
  6
CONTINUOUS
 62
     6
 10
229.287881
 20
65.457118
 40
1.100006
 50
-89.999999
 51
90.000019
  0
ARC
  8
CSLAYER1
  6
CONTINUOUS
 62
     6
 10
229.287881
 20
63.257105
 40
1.100006
 50
-90.000027
 51
89.999992
  0
LINE
  8
CSLAYER1
  6
CONTINUOUS
 62
     6
 10
229.287881
 20
62.157115
 11
223.854409
 21
62.157115
  0
LINE
  8
CSLAYER1
  6
CONTINUOUS
 62
     6
 10
230.387918
 20
65.457118
 11
230.387918
 21
63.257105
  0
ARC
  8
CSLAYER1
  6
CONTINUOUS
 62
     6
 10
221.262811
 20
64.907145
 40
1.099999
 50
-29.999656
 51
30.000332
  0
ARC
  8
CSLAYER1
  6
CONTINUOUS
 62
     6
 10
221.262803
 20
66.007136
 40
1.099999
 50
-29.999656
 51
30.000332
  0
ARC
  8
CSLAYER1
  6
CONTINUOUS
 62
     6
 10
223.168054
 20
66.007151
 40
1.099999
 50
150.000353
 51
210.000354
  0
ARC
  8
CSLAYER1
  6
CONTINUOUS
 62
     6
 10
221.262811
 20
62.707133
 40
1.099999
 50
-29.999656
 51
30.000332
  0
ARC
  8
CSLAYER1
  6
CONTINUOUS
 62
     6
 10
221.262803
 20
63.807124
 40
1.099999
 50
-29.999656
 51
30.000332
  0
ARC
  8
CSLAYER1
  6
CONTINUOUS
 62
     6
 10
223.168054
 20
63.807139
 40
1.099999
 50
150.000353
 51
210.000354
  0
LINE
  8
CSLAYER1
  6
CONTINUOUS
 62
     6
 10
220.942239
 20
66.557124
 11
222.215432
 21
66.557124
  0
LINE
  8
CSLAYER1
  6
CONTINUOUS
 62
     6
 10
220.942208
 20
64.357096
 11
222.215432
 21
64.357096
  0
LINE
  8
CSLAYER1
  6
CONTINUOUS
 62
     6
 10
220.942239
 20
62.157130
 11
222.215432
 21
62.157130
  0
ARC
  8
CSLAYER1
  6
CONTINUOUS
 62
     6
 10
229.287881
 20
64.357111
 40
8.000000
 50
-164.038116
 51
164.037904
  0
LINE
  8
CSLAYER1
  6
CONTINUOUS
 62
     6
 10
214.347268
 20
67.427561
 11
211.409158
 21
69.044718
  0
LINE
  8
CSLAYER1
  6
CONTINUOUS
 62
     6
 10
214.689065
 20
68.085185
 11
213.674417
 21
66.133128
  0
LINE
  8
CSLAYER1
  6
CONTINUOUS
 62
     6
 10
214.347207
 20
61.286662
 11
211.409158
 21
59.669489
  0
LINE
  8
CSLAYER1
  6
CONTINUOUS
 62
     6
 10
214.689004
 20
60.629038
 11
213.674417
 21
62.581095
  0
LINE
  8
CSLAYER1
  6
CONTINUOUS
 62
     6
 10
214.093118
 20
66.938639
 11
212.085672
 21
68.515421
  0
LINE
  8
CSLAYER1
  6
CONTINUOUS
 62
     6
 10
213.886148
 20
66.540507
 11
211.806375
 21
67.941996
  0
LINE
  8
CSLAYER1
  6
CONTINUOUS
 62
     6
 10
214.093118
 20
61.775584
 11
212.085672
 21
60.198802
  0
LINE
  8
CSLAYER1
  6
CONTINUOUS
 62
     6
 10
213.886148
 20
62.173716
 11
211.806314
 21
60.772212
  0
LINE
  8
CSLAYER1
  6
CONTINUOUS
 62
     6
 10
240.287881
 20
95.357116
 11
240.287881
 21
33.357116
  0
LINE
  8
CSLAYER1
  6
CONTINUOUS
 62
     6
 10
209.287881
 20
35.898244
 11
209.287881
 21
92.816001
  0
LINE
  8
CSLAYER1
  6
CONTINUOUS
 62
     6
 10
210.287881
 20
34.880788
 11
210.287881
 21
93.833456
  0
LINE
  8
CSLAYER1
  6
CONTINUOUS
 62
     6
 10
210.287729
 20
93.833453
 11
240.287896
 21
94.357107
  0
LINE
  8
CSLAYER1
  6
CONTINUOUS
 62
     6
 10
240.287881
 20
34.357129
 11
210.287729
 21
34.880791
  0
LINE
  8
CSLAYER1
  6
CONTINUOUS
 62
     6
 10
209.287881
 20
35.898244
 11
210.287729
 21
34.880791
  0
LINE
  8
CSLAYER1
  6
CONTINUOUS
 62
     6
 10
210.287729
 20
93.833453
 11
209.287881
 21
92.816001
  0
ENDSEC
  0
EOF
