  0
SECTION
  2
HEADER
  9
$ACADVER
  1
AC1006
  9
$INSBASE
 10
0.000000
 20
0.000000
 30
0.0
  9
$EXTMIN
 10
0.000000
 20
0.000000
  9
$EXTMAX
 10
594.000000
 20
420.000000
  9
$LIMMIN
 10
0.000000
 20
0.000000
  9
$LIMMAX
 10
594.000000
 20
420.000000
  9
$VIEWCTR
 10
297.000000
 20
210.000000
  9
$VIEWSIZE
 40
420.000000
  9
$SNAPMODE
 70
     0
  9
$SNAPUNIT
 10
1.0
 20
1.0
  9
$SNAPBASE
 10
0.0
 20
0.0
  9
$SNAPANG
 50
0.0
  9
$SNAPSTYLE
 70
     0
  9
$SNAPISOPAIR
 70
     0
  9
$GRIDMODE
 70
     0
  9
$GRIDUNIT
 10
0.0
 20
0.0
  9
$ORTHOMODE
 70
     0
  9
$REGENMODE
 70
     1
  9
$FILLMODE
 70
     1
  9
$QTEXTMODE
 70
     0
  9
$DRAGMODE
 70
     2
  9
$LTSCALE
 40
15.000000
  9
$OSMODE
 70
     0
  9
$ATTMODE
 70
     1
  9
$TEXTSIZE
 40
0.2
  9
$TRACEWID
 40
0.05
  9
$TEXTSTYLE
  7
STANDARD
  9
$CLAYER
  8
CSLAYER1
  9
$CELTYPE
  6
BYLAYER
  9
$CECOLOR
 62
   256
  9
$DIMSCALE
 40
1.0
  9
$DIMASZ
 40
0.18
  9
$DIMEXO
 40
0.0625
  9
$DIMDLI
 40
0.38
  9
$DIMRND
 40
0.0
  9
$DIMDLE
 40
0.0
  9
$DIMEXE
 40
0.18
  9
$DIMTP
 40
0.0
  9
$DIMTM
 40
0.0
  9
$DIMTXT
 40
0.18
  9
$DIMCEN
 40
0.09
  9
$DIMTSZ
 40
0.0
  9
$DIMTOL
 70
     0
  9
$DIMLIM
 70
     0
  9
$DIMTIH
 70
     1
  9
$DIMTOH
 70
     1
  9
$DIMSE1
 70
     0
  9
$DIMSE2
 70
     0
  9
$DIMTAD
 70
     0
  9
$DIMZIN
 70
     0
  9
$DIMBLK
  1

  9
$LUNITS
 70
     2
  9
$LUPREC
 70
     4
  9
$AXISMODE
 70
     0
  9
$AXISUNIT
 10
0.0
 20
0.0
  9
$SKETCHINC
 40
0.1
  9
$FILLETRAD
 40
0.0
  9
$AUNITS
 70
     0
  9
$AUPREC
 70
     0
  9
$MENU
  1
ACAD
  9
$ELEVATION
 40
0.0
  9
$THICKNESS
 40
0.0
  9
$VIEWDIR
 10
0.0
 20
0.0
 30
1.0
  9
$LIMCHECK
 70
     0
  9
$BLIPMODE
 70
     1
  9
$CHAMFERA
 40
0.0
  9
$CHAMFERB
 40
0.0
  9
$FASTZOOM
 70
     1
  9
$SKPOLY
 70
     0
  9
$TDCREATE
 40
0.000000
  9
$TDUPDATE
 40
0.000000
  9
$TDINDWG
 40
0.0
  9
$TDUSRTIMER
 40
0.0
  9
$USRTIMER
 70
     1
  9
$ANGBASE
 50
0.0
  9
$ANGDIR
 70
     0
  9
$PDMODE
 70
     0
  9
$PDSIZE
 40
0.0
  9
$PLINEWID
 40
0.0
  9
$COORDS
 70
     0
  9
$USERI1
 70
     0
  9
$USERI2
 70
     0
  9
$USERI3
 70
     0
  9
$USERI4
 70
     0
  9
$USERI5
 70
     0
  9
$USERR1
 40
0.0
  9
$USERR2
 40
0.0
  9
$USERR3
 40
0.0
  9
$USERR4
 40
0.0
  9
$USERR5
 40
0.0
  0
ENDSEC
  0
SECTION
  2
TABLES
  0
TABLE
  2
LTYPE
 70
     9
  0
LTYPE
  2
CONTINUOUS
 70
    64
  3
Solid line
 72
    65
 73
     0
 40
0.0
  0
LTYPE
  2
DASHED
 70
    64
  3
__ __ __ __ __ __ __ __ __ __ __ __ __ __ __
 72
    65
 73
     2
 40
0.75
 49
0.5
 49
-0.25
  0
LTYPE
  2
HIDDEN
 70
    64
  3
_ _ _ _ _ _ _ _ _ _ _ _ _ _ _ _ _ _ _ _ _ _ _
 72
    65
 73
     2
 40
0.375
 49
0.25
 49
-0.125
  0
LTYPE
  2
DOT
 70
    64
  3
...............................................
 72
    65
 73
     2
 40
0.25
 49
0.0
 49
-0.25
  0
LTYPE
  2
DASHDOT
 70
    64
  3
__ . __ . __ . __ . __ . __ . __ . __ . __ . __
 72
    65
 73
     4
 40
1.0
 49
0.5
 49
-0.25
 49
0.0
 49
-0.25
  0
LTYPE
  2
DIVIDE
 70
    64
  3
__ . . __ . . __ . . __ . . __ . . __ . . __
 72
    65
 73
     6
 40
1.25
 49
0.5
 49
-0.25
 49
0.0
 49
-0.25
 49
0.0
 49
-0.25
  0
LTYPE
  2
CENTER
 70
    64
  3
____ _ ____ _ ____ _ ____ _ ____ _ ____ _ ____ 
 72
    65
 73
     4
 40
2.0
 49
1.25
 49
-0.25
 49
0.25
 49
-0.25
  0
LTYPE
  2
PHANTOM
 70
    64
  3
______  __  __  ______  __  __  ______  __  __ 
 72
    65
 73
     6
 40
2.5
 49
1.25
 49
-0.25
 49
0.25
 49
-0.25
 49
0.25
 49
-0.25
  0
LTYPE
  2
BORDER
 70
    64
  3
__ __ . __ __ . __ __ . __ __ . __ __ . __ __ .
 72
    65
 73
     6
 40
1.75
 49
0.5
 49
-0.25
 49
0.5
 49
-0.25
 49
0.0
 49
-0.25
  0
ENDTAB
  0
TABLE
  2
LAYER
 70
    16
  0
LAYER
  2
CSLAYER1
 70
    64
 62
     7
  6
CONTINUOUS
  0
LAYER
  2
CSLAYER2
 70
    64
 62
     7
  6
CONTINUOUS
  0
LAYER
  2
CSLAYER3
 70
    64
 62
     7
  6
CONTINUOUS
  0
LAYER
  2
CSLAYER4
 70
    64
 62
     7
  6
CONTINUOUS
  0
LAYER
  2
CSLAYER5
 70
    64
 62
     7
  6
CONTINUOUS
  0
LAYER
  2
CSLAYER6
 70
    64
 62
     7
  6
CONTINUOUS
  0
LAYER
  2
CSLAYER7
 70
    64
 62
     7
  6
CONTINUOUS
  0
LAYER
  2
CSLAYER8
 70
    64
 62
     7
  6
CONTINUOUS
  0
LAYER
  2
CSLAYER9
 70
    64
 62
     7
  6
CONTINUOUS
  0
LAYER
  2
CSLAYER10
 70
    64
 62
     7
  6
CONTINUOUS
  0
LAYER
  2
CSLAYER11
 70
    64
 62
     7
  6
CONTINUOUS
  0
LAYER
  2
CSLAYER12
 70
    64
 62
     7
  6
CONTINUOUS
  0
LAYER
  2
CSLAYER13
 70
    64
 62
     7
  6
CONTINUOUS
  0
LAYER
  2
CSLAYER14
 70
    64
 62
     7
  6
CONTINUOUS
  0
LAYER
  2
CSLAYER15
 70
    64
 62
     7
  6
CONTINUOUS
  0
LAYER
  2
CSLAYER16
 70
    64
 62
     7
  6
CONTINUOUS
  0
ENDTAB
  0
TABLE
  2
STYLE
 70
     1
  0
STYLE
  2
JX_FONT
 70
     0
 40
1.0
 41
1.0
 50
0.0
 71
     0
 42
1.0
  3
monotxt
  4
bigfont
  0
ENDTAB
  0
TABLE
  2
VIEW
 70
     0
  0
ENDTAB
  0
ENDSEC
  0
SECTION
  2
BLOCKS
  0
BLOCK
  8
CSLAYER1
  2
BLKF0000
 70
   64
 10
0.0
 20
0.0
 30
0.0
  0
LINE
  8
CSLAYER1
  6
CONTINUOUS
 62
     6
 10
290.717140
 20
318.491288
 11
256.617135
 21
318.491294
  0
LINE
  8
CSLAYER1
  6
CONTINUOUS
 62
     6
 10
298.717158
 20
399.691298
 11
298.717137
 21
326.482542
  0
LINE
  8
CSLAYER1
  6
CENTER
 62
     3
 10
258.717156
 20
390.491294
 11
258.717134
 21
315.491294
  0
ARC
  8
CSLAYER1
  6
CONTINUOUS
 62
     6
 10
290.717142
 20
326.491288
 40
8.000000
 50
269.999989
 51
359.999996
  0
LINE
  8
CSLAYER1
  6
CENTER
 62
     3
 10
282.503892
 20
348.491289
 11
205.717143
 21
348.491304
  0
LINE
  8
CSLAYER1
  6
CONTINUOUS
 62
     6
 10
288.717140
 20
336.691283
 11
288.717159
 21
400.691293
  0
LINE
  8
CSLAYER1
  6
CONTINUOUS
 62
     6
 10
278.717141
 20
338.691284
 11
278.717158
 21
398.691296
  0
LINE
  8
CSLAYER1
  6
CONTINUOUS
 62
     6
 10
272.217149
 20
367.691291
 11
272.217155
 21
386.491291
  0
LINE
  8
CSLAYER1
  6
CONTINUOUS
 62
     6
 10
269.217149
 20
367.691292
 11
269.217155
 21
386.491292
  0
LINE
  8
CSLAYER1
  6
CONTINUOUS
 62
     6
 10
266.217149
 20
367.691292
 11
266.217155
 21
386.491292
  0
LINE
  8
CSLAYER1
  6
CONTINUOUS
 62
     6
 10
263.217149
 20
367.691293
 11
263.217155
 21
386.491293
  0
LINE
  8
CSLAYER1
  6
CONTINUOUS
 62
     6
 10
260.217149
 20
367.691293
 11
260.217155
 21
386.491293
  0
LINE
  8
CSLAYER1
  6
CONTINUOUS
 62
     6
 10
257.217149
 20
367.691294
 11
257.217155
 21
386.491294
  0
LINE
  8
CSLAYER1
  6
CONTINUOUS
 62
     6
 10
253.150473
 20
384.492570
 11
253.117155
 21
387.491295
  0
LINE
  8
CSLAYER1
  6
CONTINUOUS
 62
     6
 10
280.717159
 20
400.691295
 11
288.717159
 21
400.691293
  0
ARC
  8
CSLAYER1
  6
CONTINUOUS
 62
     6
 10
280.717158
 20
398.691295
 40
2.000000
 50
89.999983
 51
179.999983
  0
LINE
  8
CSLAYER1
  6
CONTINUOUS
 62
     6
 10
276.795526
 20
385.415933
 11
272.217154
 21
385.236389
  0
LINE
  8
CSLAYER1
  6
CONTINUOUS
 62
     6
 10
259.217155
 20
387.491294
 11
258.217155
 21
387.491294
  0
ARC
  8
CSLAYER1
  6
CONTINUOUS
 62
     6
 10
271.217155
 20
386.491292
 40
1.000000
 50
-0.000017
 51
89.999989
  0
ARC
  8
CSLAYER1
  6
CONTINUOUS
 62
     6
 10
270.217155
 20
386.491292
 40
1.000000
 50
89.999989
 51
179.999983
  0
ARC
  8
CSLAYER1
  6
CONTINUOUS
 62
     6
 10
265.217155
 20
386.491293
 40
1.000000
 50
-0.000017
 51
89.999989
  0
ARC
  8
CSLAYER1
  6
CONTINUOUS
 62
     6
 10
264.217155
 20
386.491293
 40
1.000000
 50
89.999989
 51
179.999983
  0
ARC
  8
CSLAYER1
  6
CONTINUOUS
 62
     6
 10
259.217155
 20
386.491294
 40
1.000000
 50
-0.000017
 51
89.999989
  0
ARC
  8
CSLAYER1
  6
CONTINUOUS
 62
     6
 10
258.217155
 20
386.491294
 40
1.000000
 50
89.999989
 51
179.999983
  0
LINE
  8
CSLAYER1
  6
CONTINUOUS
 62
     6
 10
265.217155
 20
387.491293
 11
264.217155
 21
387.491293
  0
LINE
  8
CSLAYER1
  6
CONTINUOUS
 62
     6
 10
271.217155
 20
387.491292
 11
270.217155
 21
387.491292
  0
ARC
  8
CSLAYER1
  6
CONTINUOUS
 62
     6
 10
276.717155
 20
387.414396
 40
2.000000
 50
272.245732
 51
359.999983
  0
LINE
  8
CSLAYER1
  6
CONTINUOUS
 62
     6
 10
269.217154
 20
385.118743
 11
266.217154
 21
385.001096
  0
LINE
  8
CSLAYER1
  6
CONTINUOUS
 62
     6
 10
263.217154
 20
384.883450
 11
260.217154
 21
384.765803
  0
LINE
  8
CSLAYER1
  6
CONTINUOUS
 62
     6
 10
257.217154
 20
384.648157
 11
240.640691
 21
384.013958
  0
LINE
  8
CSLAYER1
  6
CONTINUOUS
 62
     6
 10
252.117155
 20
388.491295
 11
214.117155
 21
388.491302
  0
ARC
  8
CSLAYER1
  6
CONTINUOUS
 62
     6
 10
252.117155
 20
387.491295
 40
1.000000
 50
-0.000017
 51
89.999989
  0
LINE
  8
CSLAYER1
  6
CONTINUOUS
 62
     6
 10
250.717154
 20
384.399473
 11
250.717155
 21
387.491296
  0
LINE
  8
CSLAYER1
  6
CONTINUOUS
 62
     6
 10
244.717154
 20
384.169919
 11
244.717155
 21
387.491297
  0
ARC
  8
CSLAYER1
  6
CONTINUOUS
 62
     6
 10
214.117155
 20
387.491302
 40
1.000000
 50
89.999989
 51
179.999983
  0
LINE
  8
CSLAYER1
  6
CONTINUOUS
 62
     6
 10
215.717151
 20
375.491306
 11
215.717155
 21
387.491306
  0
LINE
  8
CSLAYER1
  6
CONTINUOUS
 62
     6
 10
221.717151
 20
375.491304
 11
221.717155
 21
387.491304
  0
LINE
  8
CSLAYER1
  6
CONTINUOUS
 62
     6
 10
238.717151
 20
373.491297
 11
210.617151
 21
373.491303
  0
LINE
  8
CSLAYER1
  6
CONTINUOUS
 62
     6
 10
208.217152
 20
348.991303
 11
208.217152
 21
347.979170
  0
LINE
  8
CSLAYER1
  6
CONTINUOUS
 62
     6
 10
237.717144
 20
349.991298
 11
209.217152
 21
349.991303
  0
LINE
  8
CSLAYER1
  6
CONTINUOUS
 62
     6
 10
239.882335
 20
346.991297
 11
209.217152
 21
346.991303
  0
ARC
  8
CSLAYER1
  6
CONTINUOUS
 62
     6
 10
209.217152
 20
348.991303
 40
1.000000
 50
89.999989
 51
179.999983
  0
ARC
  8
CSLAYER1
  6
CONTINUOUS
 62
     6
 10
209.217152
 20
347.991303
 40
1.000000
 50
179.999983
 51
269.999989
  0
LINE
  8
CSLAYER1
  6
CONTINUOUS
 62
     6
 10
209.617143
 20
346.491303
 11
209.617132
 21
309.491303
  0
ARC
  8
CSLAYER1
  6
CONTINUOUS
 62
     6
 10
210.617150
 20
372.491303
 40
1.000000
 50
89.999989
 51
179.999983
  0
LINE
  8
CSLAYER1
  6
CONTINUOUS
 62
     6
 10
255.617134
 20
308.491294
 11
210.617132
 21
308.491303
  0
ARC
  8
CSLAYER1
  6
CONTINUOUS
 62
     6
 10
210.617132
 20
309.491303
 40
1.000000
 50
179.999983
 51
269.999989
  0
ARC
  8
CSLAYER1
  6
CONTINUOUS
 62
     6
 10
212.117151
 20
374.491303
 40
1.000000
 50
269.999989
 51
359.999983
  0
LINE
  8
CSLAYER1
  6
CONTINUOUS
 62
     6
 10
212.717142
 20
344.991302
 11
212.717132
 21
309.491302
  0
ARC
  8
CSLAYER1
  6
CONTINUOUS
 62
     6
 10
213.717132
 20
309.491302
 40
1.000000
 50
179.999983
 51
269.999989
  0
LINE
  8
CSLAYER1
  6
CONTINUOUS
 62
     6
 10
253.217142
 20
328.560326
 11
253.217140
 21
309.491295
  0
ARC
  8
CSLAYER1
  6
CONTINUOUS
 62
     6
 10
252.217140
 20
309.491295
 40
1.000000
 50
269.999989
 51
359.999996
  0
LINE
  8
CSLAYER1
  6
CONTINUOUS
 62
     6
 10
256.617136
 20
330.614214
 11
256.617134
 21
309.491294
  0
ARC
  8
CSLAYER1
  6
CONTINUOUS
 62
     6
 10
255.617134
 20
309.491294
 40
1.000000
 50
269.999989
 51
359.999996
  0
LINE
  8
CSLAYER1
  6
CONTINUOUS
 62
     6
 10
245.717142
 20
332.578528
 11
245.717140
 21
309.991296
  0
LINE
  8
CSLAYER1
  6
CONTINUOUS
 62
     6
 10
220.717142
 20
344.991300
 11
220.717132
 21
309.991301
  0
LINE
  8
CSLAYER1
  6
CONTINUOUS
 62
     6
 10
213.117155
 20
387.491302
 11
213.117151
 21
374.491302
  0
LINE
  8
CSLAYER1
  6
CONTINUOUS
 62
     6
 10
209.617150
 20
372.491303
 11
209.617144
 21
350.491303
  0
ARC
  8
CSLAYER1
  6
CONTINUOUS
 62
     6
 10
209.117143
 20
346.491303
 40
0.500000
 50
-0.000017
 51
89.999989
  0
ARC
  8
CSLAYER1
  6
CONTINUOUS
 62
     6
 10
209.117144
 20
350.491303
 40
0.500000
 50
269.999989
 51
359.999983
  0
LINE
  8
CSLAYER1
  6
CONTINUOUS
 62
     6
 10
239.967131
 20
306.491297
 11
225.967162
 21
306.491301
  0
LINE
  8
CSLAYER1
  6
CONTINUOUS
 62
     6
 10
227.467153
 20
276.491300
 11
238.467092
 21
276.491297
  0
LINE
  8
CSLAYER1
  6
CONTINUOUS
 62
     6
 10
226.967162
 20
305.291288
 11
226.967153
 21
276.991300
  0
LINE
  8
CSLAYER1
  6
CONTINUOUS
 62
     6
 10
225.467162
 20
306.991301
 11
225.467163
 21
308.491301
  0
LINE
  8
CSLAYER1
  6
CONTINUOUS
 62
     6
 10
238.967131
 20
305.291285
 11
226.967162
 21
305.291288
  0
LINE
  8
CSLAYER1
  6
CONTINUOUS
 62
     6
 10
226.967153
 20
276.991300
 11
227.467153
 21
276.491300
  0
LINE
  8
CSLAYER1
  6
CONTINUOUS
 62
     6
 10
226.967153
 20
276.991300
 11
238.967092
 21
276.991297
  0
LINE
  8
CSLAYER1
  6
CONTINUOUS
 62
     6
 10
225.467162
 20
306.991301
 11
225.967162
 21
306.491301
  0
LINE
  8
CSLAYER1
  6
CONTINUOUS
 62
     6
 10
240.467131
 20
306.991296
 11
225.467162
 21
306.991301
  0
LINE
  8
CSLAYER1
  6
CONTINUOUS
 62
     6
 10
238.967131
 20
305.291285
 11
238.967092
 21
276.991297
  0
LINE
  8
CSLAYER1
  6
CONTINUOUS
 62
     6
 10
240.467131
 20
306.991296
 11
240.467132
 21
308.491296
  0
LINE
  8
CSLAYER1
  6
CONTINUOUS
 62
     6
 10
240.467131
 20
306.991296
 11
239.967131
 21
306.491297
  0
LINE
  8
CSLAYER1
  6
CONTINUOUS
 62
     6
 10
227.090422
 20
305.291288
 11
227.090422
 21
306.491300
  0
LINE
  8
CSLAYER1
  6
CONTINUOUS
 62
     6
 10
238.843901
 20
305.291285
 11
238.843901
 21
306.491297
  0
LINE
  8
CSLAYER1
  6
CONTINUOUS
 62
     6
 10
238.967091
 20
276.991297
 11
238.467091
 21
276.491297
  0
LINE
  8
CSLAYER1
  6
CENTER
 62
     3
 10
232.967156
 20
391.491299
 11
232.967121
 21
273.491299
  0
LINE
  8
CSLAYER1
  6
CONTINUOUS
 62
     6
 10
271.372568
 20
336.691285
 11
288.717147
 21
336.691283
  0
ARC
  8
CSLAYER1
  6
CONTINUOUS
 62
     6
 10
280.717147
 20
338.691284
 40
2.000000
 50
179.999996
 51
269.999996
  0
CIRCLE
  8
CSLAYER1
  6
CONTINUOUS
 62
     6
 10
258.717143
 20
348.491294
 40
17.000000
  0
ARC
  8
CSLAYER1
  6
CONTINUOUS
 62
     6
 10
258.717143
 20
348.491294
 40
18.000000
 50
60.489867
 51
63.018885
  0
CIRCLE
  8
CSLAYER1
  6
CONTINUOUS
 62
     6
 10
258.717143
 20
348.491294
 40
13.000000
  0
LINE
  8
CSLAYER1
  6
CONTINUOUS
 62
     6
 10
259.217149
 20
368.691294
 11
258.217149
 21
368.691294
  0
ARC
  8
CSLAYER1
  6
CONTINUOUS
 62
     6
 10
271.217149
 20
367.691292
 40
1.000000
 50
-0.000017
 51
89.999989
  0
ARC
  8
CSLAYER1
  6
CONTINUOUS
 62
     6
 10
270.217149
 20
367.691292
 40
1.000000
 50
89.999989
 51
179.999983
  0
ARC
  8
CSLAYER1
  6
CONTINUOUS
 62
     6
 10
265.217149
 20
367.691293
 40
1.000000
 50
-0.000017
 51
89.999989
  0
ARC
  8
CSLAYER1
  6
CONTINUOUS
 62
     6
 10
264.217149
 20
367.691293
 40
1.000000
 50
89.999989
 51
179.999983
  0
ARC
  8
CSLAYER1
  6
CONTINUOUS
 62
     6
 10
259.217149
 20
367.691294
 40
1.000000
 50
-0.000017
 51
89.999989
  0
ARC
  8
CSLAYER1
  6
CONTINUOUS
 62
     6
 10
258.217149
 20
367.691294
 40
1.000000
 50
89.999989
 51
179.999983
  0
LINE
  8
CSLAYER1
  6
CONTINUOUS
 62
     6
 10
265.217149
 20
368.691293
 11
264.217149
 21
368.691293
  0
LINE
  8
CSLAYER1
  6
CONTINUOUS
 62
     6
 10
271.217149
 20
368.691292
 11
270.217149
 21
368.691292
  0
LINE
  8
CSLAYER1
  6
CONTINUOUS
 62
     6
 10
257.141822
 20
366.253973
 11
257.217149
 21
367.691294
  0
LINE
  8
CSLAYER1
  6
CONTINUOUS
 62
     6
 10
260.292475
 20
366.253972
 11
260.217149
 21
367.691293
  0
LINE
  8
CSLAYER1
  6
CONTINUOUS
 62
     6
 10
263.134348
 20
366.111347
 11
263.217149
 21
367.691293
  0
LINE
  8
CSLAYER1
  6
CONTINUOUS
 62
     6
 10
266.399742
 20
364.207163
 11
266.217149
 21
367.691292
  0
LINE
  8
CSLAYER1
  6
CONTINUOUS
 62
     6
 10
269.015850
 20
363.850271
 11
269.217149
 21
367.691292
  0
LINE
  8
CSLAYER1
  6
CONTINUOUS
 62
     6
 10
272.703479
 20
358.411462
 11
272.217149
 21
367.691291
  0
ARC
  8
CSLAYER1
  6
CONTINUOUS
 62
     6
 10
268.017220
 20
363.902607
 40
1.000000
 50
238.890792
 51
357.000000
  0
ARC
  8
CSLAYER1
  6
CONTINUOUS
 62
     6
 10
267.398372
 20
364.259498
 40
1.000000
 50
182.999966
 51
241.164896
  0
ARC
  8
CSLAYER1
  6
CONTINUOUS
 62
     6
 10
262.135718
 20
366.163683
 40
1.000000
 50
259.051837
 51
357.000000
  0
ARC
  8
CSLAYER1
  6
CONTINUOUS
 62
     6
 10
261.291105
 20
366.306308
 40
1.000000
 50
182.999966
 51
261.778644
  0
ARC
  8
CSLAYER1
  6
CONTINUOUS
 62
     6
 10
256.143193
 20
366.306309
 40
1.000000
 50
278.221322
 51
357.000000
  0
ARC
  8
CSLAYER1
  6
CONTINUOUS
 62
     6
 10
273.702108
 20
358.463797
 40
1.000000
 50
182.999966
 51
213.643790
  0
ARC
  8
CSLAYER1
  6
CONTINUOUS
 62
     6
 10
258.717143
 20
348.491294
 40
18.000000
 50
79.472654
 51
82.376301
  0
ARC
  8
CSLAYER1
  6
CONTINUOUS
 62
     6
 10
258.717143
 20
348.491294
 40
18.000000
 50
97.623665
 51
317.647908
  0
ARC
  8
CSLAYER1
  6
CONTINUOUS
 62
     6
 10
268.076115
 20
365.026397
 40
1.000000
 50
240.489867
 51
357.000000
  0
ARC
  8
CSLAYER1
  6
CONTINUOUS
 62
     6
 10
267.337383
 20
365.423260
 40
1.000000
 50
182.999966
 51
243.018885
  0
ARC
  8
CSLAYER1
  6
CONTINUOUS
 62
     6
 10
262.188535
 20
367.171482
 40
1.000000
 50
259.472654
 51
357.000000
  0
ARC
  8
CSLAYER1
  6
CONTINUOUS
 62
     6
 10
261.237804
 20
367.323348
 40
1.000000
 50
182.999966
 51
262.376301
  0
ARC
  8
CSLAYER1
  6
CONTINUOUS
 62
     6
 10
256.196494
 20
367.323350
 40
1.000000
 50
277.623665
 51
357.000000
  0
LINE
  8
CSLAYER1
  6
CONTINUOUS
 62
     6
 10
276.465383
 20
350.491291
 11
277.717144
 21
350.491291
  0
LINE
  8
CSLAYER1
  6
CONTINUOUS
 62
     6
 10
276.465383
 20
346.491290
 11
277.717143
 21
346.491290
  0
ARC
  8
CSLAYER1
  6
CONTINUOUS
 62
     6
 10
272.758503
 20
335.691285
 40
1.000000
 50
89.999996
 51
137.647908
  0
ARC
  8
CSLAYER1
  6
CONTINUOUS
 62
     6
 10
271.372568
 20
335.691285
 40
1.000000
 50
89.999996
 51
134.674569
  0
ARC
  8
CSLAYER1
  6
CONTINUOUS
 62
     6
 10
276.465382
 20
345.491290
 40
1.000000
 50
89.999979
 51
170.405921
  0
ARC
  8
CSLAYER1
  6
CONTINUOUS
 62
     6
 10
276.465383
 20
351.491291
 40
1.000000
 50
189.594058
 51
270.000000
  0
ARC
  8
CSLAYER1
  6
CONTINUOUS
 62
     6
 10
277.717144
 20
351.491291
 40
1.000000
 50
270.000000
 51
359.999983
  0
ARC
  8
CSLAYER1
  6
CONTINUOUS
 62
     6
 10
277.717143
 20
345.491290
 40
1.000000
 50
-0.000017
 51
89.999979
  0
LINE
  8
CSLAYER1
  6
CONTINUOUS
 62
     6
 10
238.717143
 20
347.991298
 11
238.717153
 21
382.015420
  0
ARC
  8
CSLAYER1
  6
CONTINUOUS
 62
     6
 10
240.717153
 20
382.015420
 40
2.000000
 50
92.191012
 51
179.999983
  0
ARC
  8
CSLAYER1
  6
CONTINUOUS
 62
     6
 10
239.717143
 20
347.991297
 40
1.000000
 50
179.999983
 51
269.999989
  0
ARC
  8
CSLAYER1
  6
CONTINUOUS
 62
     6
 10
239.882335
 20
345.991297
 40
1.000000
 50
7.560833
 51
89.999989
  0
ARC
  8
CSLAYER1
  6
CONTINUOUS
 62
     6
 10
237.717144
 20
350.991298
 40
1.000000
 50
269.999989
 51
359.999983
  0
CIRCLE
  8
CSLAYER1
  6
CONTINUOUS
 62
     6
 10
268.490315
 20
354.117798
 40
1.181817
  0
ARC
  8
CSLAYER1
  6
CONTINUOUS
 62
     6
 10
268.490315
 20
354.117798
 40
2.532800
 50
140.235851
 51
293.481549
  0
LINE
  8
CSLAYER1
  6
CONTINUOUS
 62
     6
 10
269.499512
 20
351.794742
 11
271.146846
 21
352.299441
  0
CIRCLE
  8
CSLAYER1
  6
CONTINUOUS
 62
     6
 10
268.490315
 20
342.864782
 40
1.181817
  0
ARC
  8
CSLAYER1
  6
CONTINUOUS
 62
     6
 10
268.490315
 20
342.864782
 40
2.532800
 50
66.518453
 51
219.764151
  0
LINE
  8
CSLAYER1
  6
CONTINUOUS
 62
     6
 10
269.499512
 20
345.187835
 11
271.146846
 21
344.683136
  0
ARC
  8
CSLAYER1
  6
CONTINUOUS
 62
     6
 10
259.404516
 20
348.491294
 40
11.323712
 50
52.096933
 51
307.903051
  0
ARC
  8
CSLAYER1
  6
CONTINUOUS
 62
     6
 10
265.634940
 20
356.493764
 40
1.181817
 50
-39.763671
 51
52.096590
  0
ARC
  8
CSLAYER1
  6
CONTINUOUS
 62
     6
 10
265.634940
 20
340.488814
 40
1.181817
 50
-52.096587
 51
39.763730
  0
CIRCLE
  8
CSLAYER1
  6
CONTINUOUS
 62
     3
 10
290.717137
 20
326.491288
 40
4.000000
  0
CIRCLE
  8
CSLAYER1
  6
CONTINUOUS
 62
     6
 10
290.717137
 20
326.491288
 40
3.200000
  0
LINE
  8
CSLAYER1
  6
CENTER
 62
     3
 10
296.717137
 20
326.491286
 11
284.717137
 21
326.491290
  0
LINE
  8
CSLAYER1
  6
CENTER
 62
     3
 10
290.717139
 20
332.491288
 11
290.717135
 21
320.491288
  0
ENDBLK
  8
0
  0
BLOCK
  8
CSLAYER1
  2
BLKF0001
 70
   64
 10
0.0
 20
0.0
 30
0.0
  0
LINE
  8
CSLAYER1
  6
CONTINUOUS
 62
     6
 10
538.494611
 20
199.845677
 11
486.494595
 21
199.845639
  0
LINE
  8
CSLAYER1
  6
CONTINUOUS
 62
     6
 10
544.494608
 20
205.845679
 11
544.494585
 21
257.845679
  0
LINE
  8
CSLAYER1
  6
CONTINUOUS
 62
     6
 10
538.494583
 20
263.845677
 11
486.494567
 21
263.845654
  0
LINE
  8
CSLAYER1
  6
CONTINUOUS
 62
     6
 10
480.494585
 20
257.845651
 11
480.494588
 21
234.045675
  0
ARC
  8
CSLAYER1
  6
CONTINUOUS
 62
     6
 10
486.494592
 20
205.845639
 40
6.000000
 50
180.000026
 51
270.000065
  0
ARC
  8
CSLAYER1
  6
CONTINUOUS
 62
     6
 10
486.494585
 20
257.845654
 40
6.000000
 50
90.000045
 51
180.000026
  0
ARC
  8
CSLAYER1
  6
CONTINUOUS
 62
     6
 10
538.494585
 20
257.845677
 40
6.000000
 50
0.000006
 51
90.000045
  0
ARC
  8
CSLAYER1
  6
CONTINUOUS
 62
     6
 10
538.494608
 20
205.845677
 40
6.000000
 50
-89.999975
 51
0.000006
  0
LINE
  8
CSLAYER1
  6
CONTINUOUS
 62
     6
 10
480.494589
 20
229.645677
 11
480.494592
 21
205.845643
  0
ENDBLK
  8
0
  0
BLOCK
  8
CSLAYER1
  2
BLKF0002
 70
   64
 10
0.0
 20
0.0
 30
0.0
  0
LINE
  8
CSLAYER1
  6
CONTINUOUS
 62
     6
 10
440.294634
 20
196.345636
 11
420.294634
 21
196.345666
  0
ENDBLK
  8
0
  0
ENDSEC
  0
SECTION
  2
ENTITIES
  0
LINE
  8
CSLAYER1
  6
CENTER
 62
     3
 10
399.717109
 20
49.999988
 11
206.617109
 21
50.000009
  0
LINE
  8
CSLAYER1
  6
CENTER
 62
     3
 10
399.717101
 20
231.845632
 11
235.717109
 21
231.845650
  0
LINE
  8
CSLAYER1
  6
CONTINUOUS
 62
     6
 10
297.717109
 20
201.845632
 11
298.717109
 21
201.845632
  0
LINE
  8
CSLAYER1
  6
CONTINUOUS
 62
     6
 10
298.717109
 20
200.845632
 11
365.717109
 21
200.845632
  0
LINE
  8
CSLAYER1
  6
CONTINUOUS
 62
     6
 10
298.717109
 20
262.845632
 11
365.717109
 21
262.845632
  0
LINE
  8
CSLAYER1
  6
CONTINUOUS
 62
     6
 10
297.717124
 20
201.845617
 11
298.717124
 21
201.845617
  0
LINE
  8
CSLAYER1
  6
CONTINUOUS
 62
     6
 10
297.717131
 20
261.845670
 11
298.717131
 21
261.845670
  0
LINE
  8
CSLAYER1
  6
CONTINUOUS
 62
     6
 10
288.717109
 20
199.845632
 11
295.717109
 21
199.845632
  0
TEXT
  8
CSLAYER1
 62
     3
 10
330.602753
 20
31.933197
 40
3.500000
 41
1.125000
  1
N P
 50
270.000000
 51
10.000000
  7
JX_FONT
 72
     5
 11
330.602753
 21
21.433197
  0
LINE
  8
CSLAYER1
  6
CENTER
 62
     3
 10
399.717149
 20
368.691276
 11
206.617149
 21
368.691297
  0
TEXT
  8
CSLAYER1
 62
     3
 10
330.602814
 20
397.258087
 40
3.500000
 41
1.125000
  1
N P
 50
270.000000
 51
10.000000
  7
JX_FONT
 72
     5
 11
330.602814
 21
386.758087
  0
LINE
  8
CSLAYER1
  6
CONTINUOUS
 62
     6
 10
297.717156
 20
398.691298
 11
298.717156
 21
398.691298
  0
LINE
  8
CSLAYER1
  6
CONTINUOUS
 62
     6
 10
280.717156
 20
400.691302
 11
295.717156
 21
400.691299
  0
LINE
  8
CSLAYER1
  6
CONTINUOUS
 62
     6
 10
297.717171
 20
398.691314
 11
298.717171
 21
398.691314
  0
ARC
  8
CSLAYER1
  6
CONTINUOUS
 62
     6
 10
295.717156
 20
398.691299
 40
2.000000
 50
-0.000004
 51
89.999985
  0
LINE
  8
CSLAYER1
  6
CONTINUOUS
 62
     6
 10
297.717156
 20
398.691298
 11
297.717143
 21
338.696368
  0
LINE
  8
CSLAYER1
  6
CONTINUOUS
 62
     6
 10
273.087274
 20
336.691276
 11
295.717149
 21
336.691276
  0
ARC
  8
CSLAYER1
  6
CONTINUOUS
 62
     6
 10
295.717149
 20
338.691276
 40
2.000000
 50
270.000002
 51
359.999991
  0
LINE
  8
CSLAYER1
  6
CONTINUOUS
 62
     6
 10
297.717165
 20
338.691261
 11
298.717165
 21
338.691261
  0
LINE
  8
CSLAYER1
  6
CENTER
 62
     3
 10
185.644850
 20
201.845646
 11
67.644851
 21
201.845646
  0
LINE
  8
CSLAYER1
  6
CENTER
 62
     3
 10
90.444853
 20
266.366634
 11
90.444853
 21
195.149877
  0
LINE
  8
CSLAYER1
  6
CONTINUOUS
 62
     6
 10
182.644849
 20
196.845646
 11
182.644850
 21
207.345646
  0
LINE
  8
CSLAYER1
  6
CONTINUOUS
 62
     6
 10
162.644849
 20
195.845646
 11
162.644849
 21
196.345646
  0
LINE
  8
CSLAYER1
  6
CONTINUOUS
 62
     6
 10
152.644849
 20
194.845646
 11
152.644850
 21
208.845646
  0
LINE
  8
CSLAYER1
  6
CONTINUOUS
 62
     6
 10
150.644851
 20
209.345646
 11
152.144850
 21
209.345646
  0
LINE
  8
CSLAYER1
  6
CONTINUOUS
 62
     6
 10
150.644851
 20
194.345646
 11
152.144849
 21
194.345646
  0
LINE
  8
CSLAYER1
  6
CONTINUOUS
 62
     6
 10
153.844850
 20
207.845646
 11
182.144850
 21
207.845646
  0
LINE
  8
CSLAYER1
  6
CONTINUOUS
 62
     6
 10
153.844849
 20
195.845646
 11
162.644849
 21
195.845646
  0
LINE
  8
CSLAYER1
  6
CONTINUOUS
 62
     6
 10
162.644849
 20
196.345646
 11
182.144849
 21
196.345646
  0
LINE
  8
CSLAYER1
  6
CONTINUOUS
 62
     6
 10
182.144850
 20
207.845646
 11
182.644850
 21
207.345646
  0
LINE
  8
CSLAYER1
  6
CONTINUOUS
 62
     6
 10
182.144849
 20
196.345646
 11
182.144849
 21
207.845646
  0
LINE
  8
CSLAYER1
  6
CONTINUOUS
 62
     6
 10
152.144849
 20
194.345646
 11
152.644849
 21
194.845646
  0
LINE
  8
CSLAYER1
  6
CONTINUOUS
 62
     6
 10
152.144850
 20
209.345646
 11
152.644850
 21
208.845646
  0
LINE
  8
CSLAYER1
  6
CONTINUOUS
 62
     6
 10
152.144849
 20
194.345646
 11
152.144849
 21
209.345646
  0
LINE
  8
CSLAYER1
  6
CONTINUOUS
 62
     6
 10
153.844849
 20
195.845646
 11
153.844850
 21
207.845646
  0
LINE
  8
CSLAYER1
  6
CONTINUOUS
 62
     6
 10
152.644850
 20
207.645646
 11
153.844850
 21
207.645646
  0
LINE
  8
CSLAYER1
  6
CONTINUOUS
 62
     6
 10
152.644850
 20
196.045646
 11
153.844850
 21
196.045646
  0
LINE
  8
CSLAYER1
  6
CONTINUOUS
 62
     6
 10
70.644851
 20
182.845646
 11
70.644851
 21
220.845646
  0
LINE
  8
CSLAYER1
  6
CONTINUOUS
 62
     6
 10
140.644852
 20
163.845646
 11
80.644852
 21
163.845646
  0
LINE
  8
CSLAYER1
  6
CENTER
 62
     3
 10
131.644846
 20
231.845646
 11
55.644831
 21
231.845646
  0
LINE
  8
CSLAYER1
  6
CONTINUOUS
 62
     6
 10
116.444853
 20
263.845646
 11
64.444853
 21
263.845646
  0
LINE
  8
CSLAYER1
  6
CONTINUOUS
 62
     6
 10
58.444853
 20
205.845646
 11
58.444853
 21
257.845646
  0
LINE
  8
CSLAYER1
  6
CONTINUOUS
 62
     6
 10
150.644851
 20
179.343490
 11
150.644851
 21
224.345646
  0
ARC
  8
CSLAYER1
  6
CONTINUOUS
 62
     6
 10
64.444853
 20
257.845646
 40
6.000000
 50
90.000000
 51
180.000000
  0
ARC
  8
CSLAYER1
  6
CONTINUOUS
 62
     6
 10
116.444853
 20
257.845646
 40
6.000000
 50
0.000000
 51
90.000000
  0
LINE
  8
CSLAYER1
  6
CONTINUOUS
 62
     6
 10
64.444853
 20
199.845646
 11
70.644851
 21
199.845646
  0
ARC
  8
CSLAYER1
  6
CONTINUOUS
 62
     6
 10
64.444853
 20
205.845646
 40
6.000000
 50
180.000000
 51
270.000000
  0
LINE
  8
CSLAYER1
  6
CONTINUOUS
 62
     6
 10
128.644846
 20
248.954466
 11
128.644846
 21
227.345646
  0
ARC
  8
CSLAYER1
  6
CONTINUOUS
 62
     6
 10
90.644846
 20
231.845646
 40
16.000000
 50
90.000000
 51
206.387800
  0
ARC
  8
CSLAYER1
  6
CONTINUOUS
 62
     6
 10
90.644846
 20
231.845646
 40
18.000000
 50
95.739170
 51
212.757277
  0
LINE
  8
CSLAYER1
  6
CONTINUOUS
 62
     6
 10
92.644846
 20
256.845646
 11
126.644846
 21
256.845646
  0
LINE
  8
CSLAYER1
  6
CONTINUOUS
 62
     6
 10
122.444853
 20
256.845646
 11
122.444853
 21
257.845646
  0
LINE
  8
CSLAYER1
  6
CONTINUOUS
 62
     6
 10
127.644846
 20
255.845646
 11
127.644846
 21
250.686517
  0
ARC
  8
CSLAYER1
  6
CONTINUOUS
 62
     6
 10
126.644846
 20
255.845646
 40
1.000000
 50
0.000000
 51
90.000000
  0
ARC
  8
CSLAYER1
  6
CONTINUOUS
 62
     6
 10
127.644846
 20
248.954466
 40
1.000000
 50
0.000000
 51
60.000000
  0
ARC
  8
CSLAYER1
  6
CONTINUOUS
 62
     6
 10
128.644846
 20
250.686517
 40
1.000000
 50
180.000000
 51
240.000000
  0
LINE
  8
CSLAYER1
  6
CONTINUOUS
 62
     6
 10
90.644846
 20
254.845646
 11
90.644846
 21
251.745395
  0
LINE
  8
CSLAYER1
  6
CONTINUOUS
 62
     6
 10
112.144846
 20
246.845646
 11
112.144846
 21
225.845646
  0
LINE
  8
CSLAYER1
  6
CONTINUOUS
 62
     6
 10
111.144846
 20
247.845646
 11
90.644846
 21
247.845646
  0
ARC
  8
CSLAYER1
  6
CONTINUOUS
 62
     6
 10
111.144846
 20
246.845646
 40
1.000000
 50
0.000000
 51
90.000000
  0
LINE
  8
CSLAYER1
  6
CONTINUOUS
 62
     6
 10
93.644846
 20
255.845646
 11
93.644846
 21
252.194599
  0
LINE
  8
CSLAYER1
  6
CONTINUOUS
 62
     6
 10
92.644846
 20
250.462548
 11
92.644846
 21
247.845646
  0
ARC
  8
CSLAYER1
  6
CONTINUOUS
 62
     6
 10
94.644846
 20
255.845646
 40
1.000000
 50
90.000000
 51
180.000000
  0
LINE
  8
CSLAYER1
  6
CONTINUOUS
 62
     6
 10
127.144846
 20
249.820492
 11
93.644846
 21
249.820492
  0
ARC
  8
CSLAYER1
  6
CONTINUOUS
 62
     6
 10
92.644846
 20
252.194599
 40
1.000000
 50
300.000000
 51
360.000000
  0
ARC
  8
CSLAYER1
  6
CONTINUOUS
 62
     6
 10
93.644846
 20
250.462548
 40
1.000000
 50
120.000000
 51
180.000000
  0
ARC
  8
CSLAYER1
  6
CONTINUOUS
 62
     6
 10
92.644846
 20
254.845646
 40
2.000000
 50
90.000000
 51
180.000000
  0
ARC
  8
CSLAYER1
  6
CONTINUOUS
 62
     6
 10
88.644846
 20
251.745395
 40
2.000000
 50
275.739170
 51
360.000000
  0
LINE
  8
CSLAYER1
  6
CONTINUOUS
 62
     6
 10
83.961911
 20
221.845646
 11
71.644851
 21
221.845646
  0
LINE
  8
CSLAYER1
  6
CONTINUOUS
 62
     6
 10
108.730638
 20
225.345646
 11
87.394851
 21
225.345646
  0
ARC
  8
CSLAYER1
  6
CONTINUOUS
 62
     6
 10
74.520331
 20
223.845646
 40
2.000000
 50
-90.000000
 51
26.387800
  0
ARC
  8
CSLAYER1
  6
CONTINUOUS
 62
     6
 10
71.644851
 20
220.845646
 40
1.000000
 50
90.000000
 51
180.000000
  0
LINE
  8
CSLAYER1
  6
CONTINUOUS
 62
     6
 10
71.644851
 20
181.845646
 11
83.894851
 21
181.845646
  0
ARC
  8
CSLAYER1
  6
CONTINUOUS
 62
     6
 10
71.644851
 20
182.845646
 40
1.000000
 50
180.000000
 51
270.000000
  0
LINE
  8
CSLAYER1
  6
CONTINUOUS
 62
     6
 10
85.644851
 20
180.095646
 11
85.644851
 21
223.386029
  0
LINE
  8
CSLAYER1
  6
CONTINUOUS
 62
     6
 10
92.644851
 20
178.345646
 11
87.394851
 21
178.345646
  0
LINE
  8
CSLAYER1
  6
CENTER
 62
     3
 10
110.644852
 20
160.845646
 11
110.644852
 21
266.366634
  0
LINE
  8
CSLAYER1
  6
CONTINUOUS
 62
     6
 10
109.144852
 20
183.845646
 11
109.144852
 21
225.565598
  0
LINE
  8
CSLAYER1
  6
CONTINUOUS
 62
     6
 10
112.144852
 20
188.123601
 11
112.144852
 21
215.567689
  0
LINE
  8
CSLAYER1
  6
CONTINUOUS
 62
     6
 10
112.644846
 20
225.345646
 11
149.644853
 21
225.345646
  0
LINE
  8
CSLAYER1
  6
CONTINUOUS
 62
     6
 10
111.644846
 20
226.345646
 11
110.144852
 21
226.345646
  0
ARC
  8
CSLAYER1
  6
CONTINUOUS
 62
     6
 10
110.144852
 20
225.345646
 40
1.000000
 50
90.000000
 51
160.528779
  0
ARC
  8
CSLAYER1
  6
CONTINUOUS
 62
     6
 10
149.644853
 20
224.345646
 40
1.000000
 50
-0.000006
 51
90.000000
  0
LINE
  8
CSLAYER1
  6
CONTINUOUS
 62
     6
 10
128.644853
 20
178.345646
 11
149.644853
 21
178.345646
  0
ARC
  8
CSLAYER1
  6
CONTINUOUS
 62
     6
 10
149.644853
 20
179.345646
 40
1.000000
 50
-90.000000
 51
0.000006
  0
LINE
  8
CSLAYER1
  6
CONTINUOUS
 62
     6
 10
111.144852
 20
182.845646
 11
110.144852
 21
182.845646
  0
ARC
  8
CSLAYER1
  6
CONTINUOUS
 62
     6
 10
110.144852
 20
183.845646
 40
1.000000
 50
180.000000
 51
270.000000
  0
LINE
  8
CSLAYER1
  6
CONTINUOUS
 62
     6
 10
112.144852
 20
220.809633
 11
112.144852
 21
225.845646
  0
LINE
  8
CSLAYER1
  6
CONTINUOUS
 62
     6
 10
80.644852
 20
163.845646
 11
80.644852
 21
179.845646
  0
LINE
  8
CSLAYER1
  6
CONTINUOUS
 62
     6
 10
140.644852
 20
163.845646
 11
140.644852
 21
176.345646
  0
LINE
  8
CSLAYER1
  6
CONTINUOUS
 62
     6
 10
106.144852
 20
184.845646
 11
94.644852
 21
184.845646
  0
LINE
  8
CSLAYER1
  6
CONTINUOUS
 62
     6
 10
108.144852
 20
184.845646
 11
107.581021
 21
184.845646
  0
ARC
  8
CSLAYER1
  6
CONTINUOUS
 62
     6
 10
108.144852
 20
183.845646
 40
1.000000
 50
0.000000
 51
90.000000
  0
LINE
  8
CSLAYER1
  6
CONTINUOUS
 62
     6
 10
93.644851
 20
177.845646
 11
93.644851
 21
183.845646
  0
LINE
  8
CSLAYER1
  6
CONTINUOUS
 62
     6
 10
91.644851
 20
175.845646
 11
82.644852
 21
175.845646
  0
ARC
  8
CSLAYER1
  6
CONTINUOUS
 62
     6
 10
91.644851
 20
177.845646
 40
2.000000
 50
270.000000
 51
360.000000
  0
ARC
  8
CSLAYER1
  6
CONTINUOUS
 62
     6
 10
92.644851
 20
177.345646
 40
1.000000
 50
11.933510
 51
90.000000
  0
ARC
  8
CSLAYER1
  6
CONTINUOUS
 62
     6
 10
92.644851
 20
183.845646
 40
1.000000
 50
0.000000
 51
90.000000
  0
ARC
  8
CSLAYER1
  6
CONTINUOUS
 62
     6
 10
78.644852
 20
179.845646
 40
2.000000
 50
0.000000
 51
90.000000
  0
ARC
  8
CSLAYER1
  6
CONTINUOUS
 62
     6
 10
82.644852
 20
173.845646
 40
2.000000
 50
90.000000
 51
180.000000
  0
LINE
  8
CSLAYER1
  6
CONTINUOUS
 62
     6
 10
127.644853
 20
177.845646
 11
127.644853
 21
180.046933
  0
LINE
  8
CSLAYER1
  6
CONTINUOUS
 62
     6
 10
129.644853
 20
175.845646
 11
138.644852
 21
175.845646
  0
ARC
  8
CSLAYER1
  6
CONTINUOUS
 62
     6
 10
129.644853
 20
177.845646
 40
2.000000
 50
180.000000
 51
270.000000
  0
ARC
  8
CSLAYER1
  6
CONTINUOUS
 62
     6
 10
138.644852
 20
173.845646
 40
2.000000
 50
0.000000
 51
90.000000
  0
ARC
  8
CSLAYER1
  6
CONTINUOUS
 62
     6
 10
129.644853
 20
180.046933
 40
2.000000
 50
90.000000
 51
180.000000
  0
ARC
  8
CSLAYER1
  6
CONTINUOUS
 62
     6
 10
142.644852
 20
176.345646
 40
2.000000
 50
90.000000
 51
180.000000
  0
ARC
  8
CSLAYER1
  6
CONTINUOUS
 62
     6
 10
128.644853
 20
177.345646
 40
1.000000
 50
90.000000
 51
168.066490
  0
ARC
  8
CSLAYER1
  6
CONTINUOUS
 62
     6
 10
130.644846
 20
227.345646
 40
2.000000
 50
180.000000
 51
270.000000
  0
ARC
  8
CSLAYER1
  6
CONTINUOUS
 62
     6
 10
83.894851
 20
180.095646
 40
1.750000
 50
0.000000
 51
90.000000
  0
ARC
  8
CSLAYER1
  6
CONTINUOUS
 62
     6
 10
87.394851
 20
180.095646
 40
1.750000
 50
180.000000
 51
270.000000
  0
ARC
  8
CSLAYER1
  6
CONTINUOUS
 62
     6
 10
83.894851
 20
223.595646
 40
1.750000
 50
270.000000
 51
360.000000
  0
ARC
  8
CSLAYER1
  6
CONTINUOUS
 62
     6
 10
87.394851
 20
223.595646
 40
1.750000
 50
90.000000
 51
180.000000
  0
ARC
  8
CSLAYER1
  6
CONTINUOUS
 62
     6
 10
111.644846
 20
225.845646
 40
0.500000
 50
0.000000
 51
90.000000
  0
ARC
  8
CSLAYER1
  6
CONTINUOUS
 62
     6
 10
112.644846
 20
225.845646
 40
0.500000
 50
180.000000
 51
270.000000
  0
ARC
  8
CSLAYER1
  6
CONTINUOUS
 62
     6
 10
108.730638
 20
225.845646
 40
0.500000
 50
270.000000
 51
340.528779
  0
LINE
  8
CSLAYER1
  6
CENTER
 62
     3
 10
132.644852
 20
160.845646
 11
132.644852
 21
177.345646
  0
LINE
  8
CSLAYER1
  6
CENTER
 62
     3
 10
88.644852
 20
160.845646
 11
88.644852
 21
177.345646
  0
LINE
  8
CSLAYER1
  6
CONTINUOUS
 62
     6
 10
182.144849
 20
196.345646
 11
182.644849
 21
196.845646
  0
LINE
  8
CSLAYER1
  6
CONTINUOUS
 62
     3
 10
350.565334
 20
18.999988
 11
350.565334
 21
33.500019
  0
LINE
  8
CSLAYER1
  6
CONTINUOUS
 62
     3
 10
349.565334
 20
34.500019
 11
313.565350
 21
34.500019
  0
LINE
  8
CSLAYER1
  6
CONTINUOUS
 62
     3
 10
312.565350
 20
33.500019
 11
312.565350
 21
18.999988
  0
ARC
  8
CSLAYER1
  6
CONTINUOUS
 62
     3
 10
349.565334
 20
33.500019
 40
1.000000
 50
0.000005
 51
90.000001
  0
ARC
  8
CSLAYER1
  6
CONTINUOUS
 62
     3
 10
313.565350
 20
33.500019
 40
1.000000
 50
90.000001
 51
179.942691
  0
LINE
  8
CSLAYER1
  6
CENTER
 62
     3
 10
376.717109
 20
36.999977
 11
376.717109
 21
81.944618
  0
CIRCLE
  8
CSLAYER1
  6
CONTINUOUS
 62
     6
 10
376.717093
 20
49.999977
 40
8.000000
  0
CIRCLE
  8
CSLAYER1
  6
CONTINUOUS
 62
     6
 10
376.717093
 20
49.999977
 40
6.000000
  0
CIRCLE
  8
CSLAYER1
  6
CONTINUOUS
 62
     3
 10
376.717093
 20
49.999977
 40
5.500000
  0
LINE
  8
CSLAYER1
  6
CONTINUOUS
 62
     6
 10
373.967093
 20
49.199959
 11
379.467093
 21
49.199959
  0
LINE
  8
CSLAYER1
  6
CONTINUOUS
 62
     6
 10
373.967093
 20
50.799965
 11
379.467093
 21
50.799965
  0
LINE
  8
CSLAYER1
  6
CONTINUOUS
 62
     6
 10
379.467093
 20
49.199959
 11
379.467093
 21
50.799965
  0
LINE
  8
CSLAYER1
  6
CONTINUOUS
 62
     6
 10
373.967093
 20
49.199959
 11
373.967093
 21
50.799965
  0
LINE
  8
CSLAYER1
  6
CONTINUOUS
 62
     6
 10
396.717093
 20
78.476295
 11
396.717093
 21
21.523628
  0
LINE
  8
CSLAYER1
  6
CONTINUOUS
 62
     6
 10
395.717093
 20
79.476295
 11
395.717093
 21
20.523628
  0
LINE
  8
CSLAYER1
  6
CONTINUOUS
 62
     6
 10
395.717093
 20
20.523628
 11
396.717093
 21
21.523628
  0
LINE
  8
CSLAYER1
  6
CONTINUOUS
 62
     6
 10
395.717093
 20
79.476295
 11
396.717093
 21
78.476295
  0
ARC
  8
CSLAYER1
  6
CONTINUOUS
 62
     6
 10
391.375937
 20
88.435615
 40
15.758816
 50
152.536202
 51
179.942691
  0
ARC
  8
CSLAYER1
  6
CONTINUOUS
 62
     6
 10
391.375937
 20
88.435615
 40
13.558834
 50
152.536202
 51
180.000086
  0
ARC
  8
CSLAYER1
  6
CONTINUOUS
 62
     6
 10
376.167106
 20
89.388206
 40
1.099999
 50
240.000350
 51
300.000345
  0
ARC
  8
CSLAYER1
  6
CONTINUOUS
 62
     6
 10
377.267104
 20
89.388221
 40
1.099999
 50
240.000350
 51
300.000345
  0
ARC
  8
CSLAYER1
  6
CONTINUOUS
 62
     6
 10
377.267112
 20
87.482963
 40
1.099999
 50
60.000362
 51
120.000350
  0
LINE
  8
CSLAYER1
  6
CONTINUOUS
 62
     6
 10
378.687537
 20
95.030571
 11
380.304694
 21
97.968635
  0
LINE
  8
CSLAYER1
  6
CONTINUOUS
 62
     6
 10
378.198615
 20
95.284706
 11
379.775397
 21
98.292122
  0
LINE
  8
CSLAYER1
  6
CONTINUOUS
 62
     6
 10
377.800483
 20
95.491661
 11
379.201972
 21
98.571464
  0
LINE
  8
CSLAYER1
  6
CONTINUOUS
 62
     6
 10
379.345160
 20
94.688774
 11
377.393104
 21
95.703392
  0
ARC
  8
CSLAYER1
  6
CONTINUOUS
 62
     6
 10
362.058265
 20
88.435615
 40
15.758816
 50
21.534143
 51
27.463868
  0
ARC
  8
CSLAYER1
  6
CONTINUOUS
 62
     6
 10
362.058265
 20
88.435615
 40
13.558834
 50
-0.000022
 51
27.463868
  0
LINE
  8
CSLAYER1
  6
CONTINUOUS
 62
     6
 10
374.746650
 20
95.030601
 11
373.129478
 21
97.968651
  0
LINE
  8
CSLAYER1
  6
CONTINUOUS
 62
     6
 10
375.235572
 20
95.284721
 11
373.658790
 21
98.292122
  0
LINE
  8
CSLAYER1
  6
CONTINUOUS
 62
     6
 10
375.633704
 20
95.491661
 11
374.232200
 21
98.571480
  0
LINE
  8
CSLAYER1
  6
CONTINUOUS
 62
     6
 10
374.089026
 20
94.688789
 11
376.041083
 21
95.703407
  0
ARC
  8
CSLAYER1
  6
CONTINUOUS
 62
     6
 10
377.267081
 20
84.570747
 40
1.100006
 50
60.000007
 51
119.999995
  0
ARC
  8
CSLAYER1
  6
CONTINUOUS
 62
     6
 10
376.167075
 20
84.570747
 40
1.100006
 50
60.000007
 51
119.999995
  0
ARC
  8
CSLAYER1
  6
CONTINUOUS
 62
     6
 10
376.167075
 20
86.476021
 40
1.100006
 50
240.000002
 51
300.000003
  0
LINE
  8
CSLAYER1
  6
CONTINUOUS
 62
     6
 10
375.617087
 20
79.827141
 11
375.617087
 21
85.523384
  0
LINE
  8
CSLAYER1
  6
CONTINUOUS
 62
     6
 10
377.817084
 20
79.789848
 11
377.817084
 21
85.523384
  0
LINE
  8
CSLAYER1
  6
CONTINUOUS
 62
     6
 10
395.717132
 20
20.523674
 11
365.717124
 21
19.999992
  0
LINE
  8
CSLAYER1
  6
CONTINUOUS
 62
     6
 10
395.717132
 20
79.476310
 11
365.717124
 21
79.999992
  0
LINE
  8
CSLAYER1
  6
CONTINUOUS
 62
     6
 10
298.717109
 20
18.999988
 11
365.717109
 21
18.999988
  0
LINE
  8
CSLAYER1
  6
CONTINUOUS
 62
     6
 10
298.717109
 20
80.999988
 11
365.717109
 21
80.999988
  0
LINE
  8
CSLAYER1
  6
CONTINUOUS
 62
     6
 10
365.717109
 20
18.999988
 11
365.717109
 21
80.999988
  0
LINE
  8
CSLAYER1
  6
CENTER
 62
     3
 10
304.306890
 20
23.999992
 11
275.717109
 21
23.999999
  0
ARC
  8
CSLAYER1
  6
CONTINUOUS
 62
     6
 10
298.592109
 20
27.499994
 40
0.125000
 50
0.000005
 51
90.000055
  0
ARC
  8
CSLAYER1
  6
CONTINUOUS
 62
     6
 10
298.592109
 20
20.499994
 40
0.125000
 50
270.000009
 51
359.999991
  0
ARC
  8
CSLAYER1
  6
CONTINUOUS
 62
     6
 10
297.842109
 20
27.499994
 40
0.125000
 50
90.000055
 51
180.000010
  0
ARC
  8
CSLAYER1
  6
CONTINUOUS
 62
     6
 10
297.842109
 20
20.499994
 40
0.125000
 50
180.057346
 51
270.000009
  0
LINE
  8
CSLAYER1
  6
CONTINUOUS
 62
     6
 10
298.592109
 20
27.624994
 11
297.842109
 21
27.624994
  0
LINE
  8
CSLAYER1
  6
CONTINUOUS
 62
     6
 10
298.592109
 20
20.374994
 11
297.842109
 21
20.374994
  0
LINE
  8
CSLAYER1
  6
CONTINUOUS
 62
     6
 10
298.999763
 20
27.499017
 11
299.818519
 21
27.428461
  0
ARC
  8
CSLAYER1
  6
CONTINUOUS
 62
     6
 10
299.705237
 20
26.152094
 40
1.290623
 50
16.257221
 51
84.999920
  0
ARC
  8
CSLAYER1
  6
CONTINUOUS
 62
     6
 10
298.977118
 20
27.243768
 40
0.258129
 50
85.000302
 51
180.000010
  0
LINE
  8
CSLAYER1
  6
CONTINUOUS
 62
     6
 10
298.999763
 20
20.500971
 11
299.818519
 21
20.571527
  0
ARC
  8
CSLAYER1
  6
CONTINUOUS
 62
     6
 10
299.705237
 20
21.847894
 40
1.290623
 50
275.000090
 51
343.742830
  0
ARC
  8
CSLAYER1
  6
CONTINUOUS
 62
     6
 10
298.977118
 20
20.756220
 40
0.258129
 50
180.057346
 51
274.999762
  0
ARC
  8
CSLAYER1
  6
CONTINUOUS
 62
     6
 10
292.217109
 20
23.999994
 40
9.089782
 50
-16.029042
 51
16.034598
  0
LINE
  8
CSLAYER1
  6
CONTINUOUS
 62
     6
 10
297.717139
 20
23.255121
 11
298.717139
 21
23.809931
  0
LINE
  8
CSLAYER1
  6
CONTINUOUS
 62
     6
 10
297.717139
 20
23.880121
 11
298.717139
 21
24.434931
  0
LINE
  8
CSLAYER1
  6
CONTINUOUS
 62
     6
 10
297.717124
 20
19.999973
 11
298.717124
 21
19.999973
  0
LINE
  8
CSLAYER1
  6
CONTINUOUS
 62
     6
 10
295.717109
 20
17.999988
 11
280.717114
 21
17.999988
  0
ARC
  8
CSLAYER1
  6
CONTINUOUS
 62
     6
 10
295.717109
 20
19.999988
 40
2.000000
 50
270.000003
 51
359.999991
  0
LINE
  8
CSLAYER1
  6
CONTINUOUS
 62
     6
 10
297.717109
 20
19.999988
 11
297.717109
 21
44.127017
  0
LINE
  8
CSLAYER1
  6
CONTINUOUS
 62
     6
 10
297.717109
 20
19.999988
 11
298.717109
 21
19.999988
  0
LINE
  8
CSLAYER1
  6
CONTINUOUS
 62
     6
 10
365.717109
 20
200.845632
 11
365.717109
 21
262.845632
  0
LINE
  8
CSLAYER1
  6
CENTER
 62
     3
 10
304.306896
 20
257.845649
 11
275.717109
 21
257.845648
  0
ARC
  8
CSLAYER1
  6
CONTINUOUS
 62
     6
 10
298.592109
 20
261.345648
 40
0.125000
 50
0.000005
 51
90.000055
  0
ARC
  8
CSLAYER1
  6
CONTINUOUS
 62
     6
 10
298.592109
 20
254.345648
 40
0.125000
 50
270.000009
 51
359.999991
  0
ARC
  8
CSLAYER1
  6
CONTINUOUS
 62
     6
 10
297.842109
 20
261.345648
 40
0.125000
 50
90.000055
 51
180.000010
  0
ARC
  8
CSLAYER1
  6
CONTINUOUS
 62
     6
 10
297.842109
 20
254.345648
 40
0.125000
 50
180.057346
 51
270.000009
  0
LINE
  8
CSLAYER1
  6
CONTINUOUS
 62
     6
 10
298.592109
 20
261.470648
 11
297.842109
 21
261.470648
  0
LINE
  8
CSLAYER1
  6
CONTINUOUS
 62
     6
 10
298.592109
 20
254.220648
 11
297.842109
 21
254.220648
  0
LINE
  8
CSLAYER1
  6
CONTINUOUS
 62
     6
 10
298.999763
 20
261.344672
 11
299.818519
 21
261.274115
  0
ARC
  8
CSLAYER1
  6
CONTINUOUS
 62
     6
 10
299.705237
 20
259.997748
 40
1.290623
 50
16.257221
 51
84.999920
  0
ARC
  8
CSLAYER1
  6
CONTINUOUS
 62
     6
 10
298.977118
 20
261.089423
 40
0.258129
 50
85.000302
 51
180.000010
  0
LINE
  8
CSLAYER1
  6
CONTINUOUS
 62
     6
 10
298.999763
 20
254.346625
 11
299.818519
 21
254.417182
  0
ARC
  8
CSLAYER1
  6
CONTINUOUS
 62
     6
 10
299.705237
 20
255.693549
 40
1.290623
 50
275.000090
 51
343.742830
  0
ARC
  8
CSLAYER1
  6
CONTINUOUS
 62
     6
 10
298.977118
 20
254.601874
 40
0.258129
 50
180.057346
 51
274.999762
  0
ARC
  8
CSLAYER1
  6
CONTINUOUS
 62
     6
 10
292.217109
 20
257.845648
 40
9.089782
 50
-16.029042
 51
16.034598
  0
LINE
  8
CSLAYER1
  6
CONTINUOUS
 62
     6
 10
297.717139
 20
257.100775
 11
298.717139
 21
257.655585
  0
LINE
  8
CSLAYER1
  6
CONTINUOUS
 62
     6
 10
297.717139
 20
257.725775
 11
298.717139
 21
258.280585
  0
LINE
  8
CSLAYER1
  6
CENTER
 62
     3
 10
304.306890
 20
205.845637
 11
275.717109
 21
205.845643
  0
ARC
  8
CSLAYER1
  6
CONTINUOUS
 62
     6
 10
298.592109
 20
209.345638
 40
0.125000
 50
0.000005
 51
90.000055
  0
ARC
  8
CSLAYER1
  6
CONTINUOUS
 62
     6
 10
298.592109
 20
202.345638
 40
0.125000
 50
270.000009
 51
359.999991
  0
ARC
  8
CSLAYER1
  6
CONTINUOUS
 62
     6
 10
297.842109
 20
209.345638
 40
0.125000
 50
90.000055
 51
180.000010
  0
ARC
  8
CSLAYER1
  6
CONTINUOUS
 62
     6
 10
297.842109
 20
202.345638
 40
0.125000
 50
180.057346
 51
270.000009
  0
LINE
  8
CSLAYER1
  6
CONTINUOUS
 62
     6
 10
298.592109
 20
209.470638
 11
297.842109
 21
209.470638
  0
LINE
  8
CSLAYER1
  6
CONTINUOUS
 62
     6
 10
298.592109
 20
202.220638
 11
297.842109
 21
202.220638
  0
LINE
  8
CSLAYER1
  6
CONTINUOUS
 62
     6
 10
298.999763
 20
209.344662
 11
299.818519
 21
209.274105
  0
ARC
  8
CSLAYER1
  6
CONTINUOUS
 62
     6
 10
299.705237
 20
207.997738
 40
1.290623
 50
16.257221
 51
84.999920
  0
ARC
  8
CSLAYER1
  6
CONTINUOUS
 62
     6
 10
298.977118
 20
209.089413
 40
0.258129
 50
85.000302
 51
180.000010
  0
LINE
  8
CSLAYER1
  6
CONTINUOUS
 62
     6
 10
298.999763
 20
202.346615
 11
299.818519
 21
202.417171
  0
ARC
  8
CSLAYER1
  6
CONTINUOUS
 62
     6
 10
299.705237
 20
203.693539
 40
1.290623
 50
275.000090
 51
343.742830
  0
ARC
  8
CSLAYER1
  6
CONTINUOUS
 62
     6
 10
298.977118
 20
202.601864
 40
0.258129
 50
180.057346
 51
274.999762
  0
ARC
  8
CSLAYER1
  6
CONTINUOUS
 62
     6
 10
292.217109
 20
205.845638
 40
9.089782
 50
-16.029042
 51
16.034598
  0
LINE
  8
CSLAYER1
  6
CONTINUOUS
 62
     6
 10
297.717139
 20
205.100765
 11
298.717139
 21
205.655575
  0
LINE
  8
CSLAYER1
  6
CONTINUOUS
 62
     6
 10
297.717139
 20
205.725765
 11
298.717139
 21
206.280575
  0
LINE
  8
CSLAYER1
  6
CONTINUOUS
 62
     6
 10
298.717109
 20
200.845632
 11
298.717109
 21
262.845632
  0
ARC
  8
CSLAYER1
  6
CONTINUOUS
 62
     6
 10
295.717109
 20
201.845632
 40
2.000000
 50
270.000003
 51
359.999991
  0
LINE
  8
CSLAYER1
  6
CONTINUOUS
 62
     6
 10
297.717109
 20
201.845632
 11
297.717109
 21
261.845655
  0
ARC
  8
CSLAYER1
  6
CONTINUOUS
 62
     6
 10
295.717115
 20
261.845655
 40
2.000000
 50
-0.000004
 51
89.999985
  0
LINE
  8
CSLAYER1
  6
CONTINUOUS
 62
     6
 10
295.717116
 20
263.845655
 11
288.717109
 21
263.845656
  0
TEXT
  8
CSLAYER1
 62
     3
 10
330.602753
 20
237.742371
 40
3.500000
 41
1.125000
  1
N P
 50
270.000000
 51
10.000000
  7
JX_FONT
 72
     5
 11
330.602753
 21
227.242371
  0
LINE
  8
CSLAYER1
  6
DASHED
 62
     3
 10
350.565334
 20
208.345637
 11
350.565334
 21
255.345637
  0
LINE
  8
CSLAYER1
  6
DASHED
 62
     3
 10
312.565350
 20
208.345641
 11
312.565350
 21
255.345641
  0
LINE
  8
CSLAYER1
  6
DASHED
 62
     3
 10
349.565334
 20
256.345637
 11
313.565350
 21
256.345641
  0
LINE
  8
CSLAYER1
  6
DASHED
 62
     3
 10
349.565334
 20
207.345637
 11
313.565349
 21
207.345641
  0
ARC
  8
CSLAYER1
  6
DASHED
 62
     3
 10
313.565350
 20
255.345641
 40
1.000000
 50
89.999994
 51
180.000000
  0
ARC
  8
CSLAYER1
  6
DASHED
 62
     3
 10
349.565334
 20
255.345637
 40
1.000000
 50
0.000000
 51
89.999994
  0
ARC
  8
CSLAYER1
  6
DASHED
 62
     3
 10
313.565350
 20
208.345641
 40
1.000000
 50
180.000000
 51
269.999994
  0
ARC
  8
CSLAYER1
  6
DASHED
 62
     3
 10
349.565334
 20
208.345637
 40
1.000000
 50
269.999994
 51
360.000000
  0
LINE
  8
CSLAYER1
  6
CONTINUOUS
 62
     3
 10
350.565382
 20
399.691287
 11
350.565378
 21
385.191256
  0
LINE
  8
CSLAYER1
  6
CONTINUOUS
 62
     3
 10
349.565378
 20
384.191257
 11
313.565394
 21
384.191264
  0
LINE
  8
CSLAYER1
  6
CONTINUOUS
 62
     3
 10
312.565394
 20
385.191265
 11
312.565397
 21
399.691295
  0
ARC
  8
CSLAYER1
  6
CONTINUOUS
 62
     3
 10
349.565378
 20
385.191257
 40
1.000000
 50
269.999987
 51
359.999983
  0
ARC
  8
CSLAYER1
  6
CONTINUOUS
 62
     3
 10
313.565394
 20
385.191264
 40
1.000000
 50
180.057296
 51
269.999987
  0
LINE
  8
CSLAYER1
  6
CENTER
 62
     3
 10
376.717152
 20
381.691293
 11
376.717142
 21
336.746651
  0
CIRCLE
  8
CSLAYER1
  6
CONTINUOUS
 62
     6
 10
376.717134
 20
368.691293
 40
8.000000
  0
CIRCLE
  8
CSLAYER1
  6
CONTINUOUS
 62
     6
 10
376.717134
 20
368.691293
 40
6.000000
  0
CIRCLE
  8
CSLAYER1
  6
CONTINUOUS
 62
     3
 10
376.717134
 20
368.691293
 40
5.500000
  0
LINE
  8
CSLAYER1
  6
CONTINUOUS
 62
     6
 10
373.967134
 20
369.491312
 11
379.467134
 21
369.491310
  0
LINE
  8
CSLAYER1
  6
CONTINUOUS
 62
     6
 10
373.967134
 20
367.891305
 11
379.467134
 21
367.891304
  0
LINE
  8
CSLAYER1
  6
CONTINUOUS
 62
     6
 10
379.467134
 20
369.491310
 11
379.467134
 21
367.891304
  0
LINE
  8
CSLAYER1
  6
CONTINUOUS
 62
     6
 10
373.967134
 20
369.491312
 11
373.967134
 21
367.891305
  0
LINE
  8
CSLAYER1
  6
CONTINUOUS
 62
     6
 10
396.717128
 20
340.214970
 11
396.717140
 21
397.167637
  0
LINE
  8
CSLAYER1
  6
CONTINUOUS
 62
     6
 10
395.717128
 20
339.214970
 11
395.717140
 21
398.167637
  0
LINE
  8
CSLAYER1
  6
CONTINUOUS
 62
     6
 10
395.717140
 20
398.167637
 11
396.717140
 21
397.167637
  0
LINE
  8
CSLAYER1
  6
CONTINUOUS
 62
     6
 10
395.717128
 20
339.214970
 11
396.717128
 21
340.214970
  0
ARC
  8
CSLAYER1
  6
CONTINUOUS
 62
     6
 10
391.375970
 20
330.255651
 40
15.758816
 50
180.057296
 51
207.463786
  0
ARC
  8
CSLAYER1
  6
CONTINUOUS
 62
     6
 10
391.375970
 20
330.255651
 40
13.558834
 50
179.999902
 51
207.463786
  0
ARC
  8
CSLAYER1
  6
CONTINUOUS
 62
     6
 10
376.167138
 20
329.303063
 40
1.099999
 50
59.999643
 51
119.999638
  0
ARC
  8
CSLAYER1
  6
CONTINUOUS
 62
     6
 10
377.267136
 20
329.303048
 40
1.099999
 50
59.999643
 51
119.999638
  0
ARC
  8
CSLAYER1
  6
CONTINUOUS
 62
     6
 10
377.267144
 20
331.208306
 40
1.099999
 50
239.999638
 51
299.999626
  0
LINE
  8
CSLAYER1
  6
CONTINUOUS
 62
     6
 10
378.687568
 20
323.660698
 11
380.304724
 21
320.722633
  0
LINE
  8
CSLAYER1
  6
CONTINUOUS
 62
     6
 10
378.198646
 20
323.406563
 11
379.775427
 21
320.399147
  0
LINE
  8
CSLAYER1
  6
CONTINUOUS
 62
     6
 10
377.800513
 20
323.199608
 11
379.202002
 21
320.119805
  0
LINE
  8
CSLAYER1
  6
CONTINUOUS
 62
     6
 10
379.345191
 20
324.002495
 11
377.393134
 21
322.987878
  0
ARC
  8
CSLAYER1
  6
CONTINUOUS
 62
     6
 10
362.058297
 20
330.255657
 40
15.758816
 50
332.536120
 51
338.465844
  0
ARC
  8
CSLAYER1
  6
CONTINUOUS
 62
     6
 10
362.058297
 20
330.255657
 40
13.558834
 50
-27.463880
 51
0.000010
  0
LINE
  8
CSLAYER1
  6
CONTINUOUS
 62
     6
 10
374.746681
 20
323.660669
 11
373.129508
 21
320.722620
  0
LINE
  8
CSLAYER1
  6
CONTINUOUS
 62
     6
 10
375.235603
 20
323.406549
 11
373.658820
 21
320.399148
  0
LINE
  8
CSLAYER1
  6
CONTINUOUS
 62
     6
 10
375.633735
 20
323.199609
 11
374.232230
 21
320.119790
  0
LINE
  8
CSLAYER1
  6
CONTINUOUS
 62
     6
 10
374.089057
 20
324.002481
 11
376.041114
 21
322.987863
  0
ARC
  8
CSLAYER1
  6
CONTINUOUS
 62
     6
 10
377.267114
 20
334.120522
 40
1.100006
 50
239.999993
 51
299.999981
  0
ARC
  8
CSLAYER1
  6
CONTINUOUS
 62
     6
 10
376.167108
 20
334.120522
 40
1.100006
 50
239.999993
 51
299.999981
  0
ARC
  8
CSLAYER1
  6
CONTINUOUS
 62
     6
 10
376.167108
 20
332.215249
 40
1.100006
 50
59.999984
 51
119.999986
  0
LINE
  8
CSLAYER1
  6
CONTINUOUS
 62
     6
 10
375.617121
 20
338.864129
 11
375.617120
 21
333.167886
  0
LINE
  8
CSLAYER1
  6
CONTINUOUS
 62
     6
 10
377.817118
 20
338.901421
 11
377.817117
 21
333.167885
  0
LINE
  8
CSLAYER1
  6
CONTINUOUS
 62
     6
 10
395.717179
 20
398.167592
 11
365.717171
 21
398.691280
  0
LINE
  8
CSLAYER1
  6
CONTINUOUS
 62
     6
 10
395.717166
 20
339.214955
 11
365.717158
 21
338.691280
  0
LINE
  8
CSLAYER1
  6
CONTINUOUS
 62
     6
 10
298.717156
 20
399.691298
 11
365.717156
 21
399.691284
  0
LINE
  8
CSLAYER1
  6
CONTINUOUS
 62
     6
 10
298.717143
 20
337.691298
 11
365.717143
 21
337.691284
  0
LINE
  8
CSLAYER1
  6
CONTINUOUS
 62
     6
 10
365.717156
 20
399.691284
 11
365.717143
 21
337.691284
  0
LINE
  8
CSLAYER1
  6
CENTER
 62
     3
 10
304.306937
 20
394.691293
 11
275.717155
 21
394.691292
  0
ARC
  8
CSLAYER1
  6
CONTINUOUS
 62
     6
 10
298.592154
 20
391.191292
 40
0.125000
 50
269.999932
 51
359.999983
  0
ARC
  8
CSLAYER1
  6
CONTINUOUS
 62
     6
 10
298.592156
 20
398.191292
 40
0.125000
 50
-0.000004
 51
89.999978
  0
ARC
  8
CSLAYER1
  6
CONTINUOUS
 62
     6
 10
297.842154
 20
391.191293
 40
0.125000
 50
179.999978
 51
269.999932
  0
ARC
  8
CSLAYER1
  6
CONTINUOUS
 62
     6
 10
297.842156
 20
398.191293
 40
0.125000
 50
89.999978
 51
179.942641
  0
LINE
  8
CSLAYER1
  6
CONTINUOUS
 62
     6
 10
298.592154
 20
391.066292
 11
297.842154
 21
391.066293
  0
LINE
  8
CSLAYER1
  6
CONTINUOUS
 62
     6
 10
298.592156
 20
398.316292
 11
297.842156
 21
398.316293
  0
LINE
  8
CSLAYER1
  6
CONTINUOUS
 62
     6
 10
298.999808
 20
391.192269
 11
299.818564
 21
391.262825
  0
ARC
  8
CSLAYER1
  6
CONTINUOUS
 62
     6
 10
299.705283
 20
392.539193
 40
1.290623
 50
275.000068
 51
343.742766
  0
ARC
  8
CSLAYER1
  6
CONTINUOUS
 62
     6
 10
298.977164
 20
391.447518
 40
0.258129
 50
179.999978
 51
274.999685
  0
LINE
  8
CSLAYER1
  6
CONTINUOUS
 62
     6
 10
298.999810
 20
398.190316
 11
299.818566
 21
398.119759
  0
ARC
  8
CSLAYER1
  6
CONTINUOUS
 62
     6
 10
299.705284
 20
396.843392
 40
1.290623
 50
16.257158
 51
84.999897
  0
ARC
  8
CSLAYER1
  6
CONTINUOUS
 62
     6
 10
298.977165
 20
397.935067
 40
0.258129
 50
85.000225
 51
179.942641
  0
ARC
  8
CSLAYER1
  6
CONTINUOUS
 62
     6
 10
292.217155
 20
394.691294
 40
9.089782
 50
-16.034611
 51
16.029030
  0
LINE
  8
CSLAYER1
  6
CONTINUOUS
 62
     6
 10
297.717186
 20
393.946420
 11
298.717186
 21
394.501229
  0
LINE
  8
CSLAYER1
  6
CONTINUOUS
 62
     6
 10
297.717186
 20
394.571420
 11
298.717185
 21
395.126229
  0
CIRCLE
  8
CSLAYER1
  6
CONTINUOUS
 62
     3
 10
64.444853
 20
257.845646
 40
2.000000
  0
CIRCLE
  8
CSLAYER1
  6
CONTINUOUS
 62
     6
 10
64.444853
 20
257.845646
 40
1.600000
  0
LINE
  8
CSLAYER1
  6
CENTER
 62
     3
 10
64.444853
 20
253.845646
 11
64.444853
 21
261.845646
  0
LINE
  8
CSLAYER1
  6
CENTER
 62
     3
 10
60.444853
 20
257.845646
 11
68.444853
 21
257.845646
  0
ARC
  8
CSLAYER1
  6
CONTINUOUS
 62
     3
 10
116.444883
 20
257.845646
 40
2.000000
 50
-30.000000
 51
210.000000
  0
ARC
  8
CSLAYER1
  6
CONTINUOUS
 62
     6
 10
116.444883
 20
257.845646
 40
1.600000
 50
-38.682187
 51
218.682187
  0
LINE
  8
CSLAYER1
  6
CENTER
 62
     3
 10
112.444883
 20
257.845646
 11
120.444883
 21
257.845646
  0
LINE
  8
CSLAYER1
  6
CENTER
 62
     3
 10
304.306931
 20
342.691280
 11
275.717144
 21
342.691287
  0
ARC
  8
CSLAYER1
  6
CONTINUOUS
 62
     6
 10
298.592149
 20
346.191282
 40
0.125000
 50
0.000005
 51
90.000055
  0
ARC
  8
CSLAYER1
  6
CONTINUOUS
 62
     6
 10
298.592149
 20
339.191282
 40
0.125000
 50
270.000009
 51
359.999991
  0
ARC
  8
CSLAYER1
  6
CONTINUOUS
 62
     6
 10
297.842149
 20
346.191282
 40
0.125000
 50
90.000055
 51
180.000010
  0
ARC
  8
CSLAYER1
  6
CONTINUOUS
 62
     6
 10
297.842149
 20
339.191282
 40
0.125000
 50
180.057346
 51
270.000009
  0
LINE
  8
CSLAYER1
  6
CONTINUOUS
 62
     6
 10
298.592149
 20
346.316282
 11
297.842149
 21
346.316282
  0
LINE
  8
CSLAYER1
  6
CONTINUOUS
 62
     6
 10
298.592149
 20
339.066282
 11
297.842149
 21
339.066282
  0
LINE
  8
CSLAYER1
  6
CONTINUOUS
 62
     6
 10
298.999803
 20
346.190306
 11
299.818559
 21
346.119749
  0
ARC
  8
CSLAYER1
  6
CONTINUOUS
 62
     6
 10
299.705278
 20
344.843382
 40
1.290623
 50
16.257221
 51
84.999920
  0
ARC
  8
CSLAYER1
  6
CONTINUOUS
 62
     6
 10
298.977159
 20
345.935057
 40
0.258129
 50
85.000302
 51
180.000010
  0
LINE
  8
CSLAYER1
  6
CONTINUOUS
 62
     6
 10
298.999803
 20
339.192259
 11
299.818559
 21
339.262815
  0
ARC
  8
CSLAYER1
  6
CONTINUOUS
 62
     6
 10
299.705278
 20
340.539182
 40
1.290623
 50
275.000090
 51
343.742830
  0
ARC
  8
CSLAYER1
  6
CONTINUOUS
 62
     6
 10
298.977159
 20
339.447508
 40
0.258129
 50
180.057346
 51
274.999762
  0
ARC
  8
CSLAYER1
  6
CONTINUOUS
 62
     6
 10
292.217149
 20
342.691282
 40
9.089782
 50
-16.029042
 51
16.034598
  0
LINE
  8
CSLAYER1
  6
CONTINUOUS
 62
     6
 10
297.717180
 20
341.946409
 11
298.717180
 21
342.501219
  0
LINE
  8
CSLAYER1
  6
CONTINUOUS
 62
     6
 10
297.717180
 20
342.571409
 11
298.717180
 21
343.126219
  0
LINE
  8
CSLAYER1
  6
CENTER
 62
     3
 10
304.306896
 20
76.000005
 11
296.004069
 21
76.000004
  0
LINE
  8
CSLAYER1
  6
CONTINUOUS
 62
     6
 10
298.999763
 20
79.499028
 11
299.818519
 21
79.428471
  0
ARC
  8
CSLAYER1
  6
CONTINUOUS
 62
     6
 10
299.705237
 20
78.152104
 40
1.290623
 50
16.257221
 51
84.999920
  0
ARC
  8
CSLAYER1
  6
CONTINUOUS
 62
     6
 10
298.977118
 20
79.243779
 40
0.258129
 50
85.000302
 51
180.000010
  0
LINE
  8
CSLAYER1
  6
CONTINUOUS
 62
     6
 10
298.999763
 20
72.500981
 11
299.818519
 21
72.571538
  0
ARC
  8
CSLAYER1
  6
CONTINUOUS
 62
     6
 10
299.705237
 20
73.847905
 40
1.290623
 50
275.000090
 51
343.742830
  0
ARC
  8
CSLAYER1
  6
CONTINUOUS
 62
     6
 10
298.977118
 20
72.756230
 40
0.258129
 50
180.057346
 51
274.999762
  0
ARC
  8
CSLAYER1
  6
CONTINUOUS
 62
     6
 10
292.217109
 20
76.000004
 40
9.089782
 50
-16.029042
 51
16.034598
  0
LINE
  8
CSLAYER1
  6
CENTER
 62
     3
 10
376.717109
 20
220.845636
 11
376.717109
 21
242.845636
  0
LINE
  8
CSLAYER1
  6
CONTINUOUS
 62
     6
 10
376.717109
 20
231.845636
 11
382.150580
 21
231.845636
  0
LINE
  8
CSLAYER1
  6
CONTINUOUS
 62
     6
 10
376.717109
 20
234.045633
 11
382.150580
 21
234.045633
  0
ARC
  8
CSLAYER1
  6
CONTINUOUS
 62
     6
 10
385.062812
 20
247.604486
 40
15.758816
 50
270.057318
 51
297.463807
  0
ARC
  8
CSLAYER1
  6
CONTINUOUS
 62
     6
 10
385.062812
 20
247.604486
 40
13.558834
 50
270.057318
 51
297.463807
  0
ARC
  8
CSLAYER1
  6
CONTINUOUS
 62
     6
 10
381.197944
 20
233.495630
 40
1.100006
 50
-29.999999
 51
30.000003
  0
ARC
  8
CSLAYER1
  6
CONTINUOUS
 62
     6
 10
381.197944
 20
232.395624
 40
1.100006
 50
-29.999999
 51
30.000003
  0
ARC
  8
CSLAYER1
  6
CONTINUOUS
 62
     6
 10
383.103217
 20
232.395624
 40
1.100006
 50
150.000023
 51
210.000011
  0
ARC
  8
CSLAYER1
  6
CONTINUOUS
 62
     6
 10
385.062812
 20
216.086786
 40
13.558834
 50
62.536128
 51
90.000025
  0
ARC
  8
CSLAYER1
  6
CONTINUOUS
 62
     6
 10
385.062781
 20
216.086801
 40
15.758816
 50
62.536128
 51
89.999997
  0
ARC
  8
CSLAYER1
  6
CONTINUOUS
 62
     6
 10
381.197944
 20
231.295618
 40
1.100006
 50
-29.999999
 51
30.000003
  0
ARC
  8
CSLAYER1
  6
CONTINUOUS
 62
     6
 10
381.197944
 20
230.195612
 40
1.100006
 50
-29.999999
 51
30.000003
  0
ARC
  8
CSLAYER1
  6
CONTINUOUS
 62
     6
 10
383.103217
 20
230.195612
 40
1.100006
 50
150.000023
 51
210.000011
  0
ARC
  8
CSLAYER1
  6
CONTINUOUS
 62
     6
 10
376.717109
 20
232.945642
 40
1.100006
 50
89.999981
 51
269.999999
  0
ARC
  8
CSLAYER1
  6
CONTINUOUS
 62
     6
 10
376.717109
 20
230.745630
 40
1.100006
 50
90.000008
 51
270.000027
  0
LINE
  8
CSLAYER1
  6
CONTINUOUS
 62
     6
 10
376.717109
 20
229.645639
 11
382.150580
 21
229.645639
  0
LINE
  8
CSLAYER1
  6
CONTINUOUS
 62
     6
 10
375.617072
 20
232.945642
 11
375.617072
 21
230.745630
  0
ARC
  8
CSLAYER1
  6
CONTINUOUS
 62
     6
 10
384.742179
 20
232.395669
 40
1.099999
 50
149.999668
 51
209.999656
  0
ARC
  8
CSLAYER1
  6
CONTINUOUS
 62
     6
 10
384.742187
 20
233.495660
 40
1.099999
 50
149.999668
 51
209.999656
  0
ARC
  8
CSLAYER1
  6
CONTINUOUS
 62
     6
 10
382.836936
 20
233.495676
 40
1.099999
 50
-30.000354
 51
29.999647
  0
ARC
  8
CSLAYER1
  6
CONTINUOUS
 62
     6
 10
384.742179
 20
230.195657
 40
1.099999
 50
149.999668
 51
209.999656
  0
ARC
  8
CSLAYER1
  6
CONTINUOUS
 62
     6
 10
384.742187
 20
231.295648
 40
1.099999
 50
149.999668
 51
209.999656
  0
ARC
  8
CSLAYER1
  6
CONTINUOUS
 62
     6
 10
382.836936
 20
231.295663
 40
1.099999
 50
-30.000354
 51
29.999647
  0
LINE
  8
CSLAYER1
  6
CONTINUOUS
 62
     6
 10
385.062751
 20
234.045648
 11
383.789557
 21
234.045648
  0
LINE
  8
CSLAYER1
  6
CONTINUOUS
 62
     6
 10
385.062781
 20
231.845621
 11
383.789557
 21
231.845621
  0
LINE
  8
CSLAYER1
  6
CONTINUOUS
 62
     6
 10
385.062751
 20
229.645654
 11
383.789557
 21
229.645654
  0
ARC
  8
CSLAYER1
  6
CONTINUOUS
 62
     6
 10
376.717109
 20
231.845636
 40
8.000000
 50
15.962096
 51
344.038116
  0
LINE
  8
CSLAYER1
  6
CONTINUOUS
 62
     6
 10
391.657722
 20
234.916086
 11
394.595832
 21
236.533243
  0
LINE
  8
CSLAYER1
  6
CONTINUOUS
 62
     6
 10
391.315925
 20
235.573709
 11
392.330573
 21
233.621652
  0
LINE
  8
CSLAYER1
  6
CONTINUOUS
 62
     6
 10
391.657783
 20
228.775186
 11
394.595832
 21
227.158014
  0
LINE
  8
CSLAYER1
  6
CONTINUOUS
 62
     6
 10
391.315986
 20
228.117563
 11
392.330573
 21
230.069620
  0
LINE
  8
CSLAYER1
  6
CONTINUOUS
 62
     6
 10
391.911872
 20
234.427164
 11
393.919318
 21
236.003946
  0
LINE
  8
CSLAYER1
  6
CONTINUOUS
 62
     6
 10
392.118842
 20
234.029031
 11
394.198615
 21
235.430521
  0
LINE
  8
CSLAYER1
  6
CONTINUOUS
 62
     6
 10
391.911872
 20
229.264108
 11
393.919318
 21
227.687326
  0
LINE
  8
CSLAYER1
  6
CONTINUOUS
 62
     6
 10
392.118842
 20
229.662241
 11
394.198676
 21
228.260736
  0
LINE
  8
CSLAYER1
  6
CONTINUOUS
 62
     6
 10
396.717109
 20
203.386768
 11
396.717109
 21
260.304525
  0
LINE
  8
CSLAYER1
  6
CONTINUOUS
 62
     6
 10
395.717109
 20
202.369313
 11
395.717109
 21
261.321980
  0
LINE
  8
CSLAYER1
  6
CONTINUOUS
 62
     6
 10
395.717261
 20
261.321977
 11
365.717093
 21
261.845631
  0
LINE
  8
CSLAYER1
  6
CONTINUOUS
 62
     6
 10
365.717109
 20
201.845654
 11
395.717261
 21
202.369316
  0
LINE
  8
CSLAYER1
  6
CONTINUOUS
 62
     6
 10
396.717109
 20
203.386768
 11
395.717261
 21
202.369316
  0
LINE
  8
CSLAYER1
  6
CONTINUOUS
 62
     6
 10
395.717261
 20
261.321977
 11
396.717109
 21
260.304525
  0
LINE
  8
CSLAYER1
  6
CENTER
 62
     3
 10
116.444883
 20
253.845646
 11
116.444883
 21
261.845646
  0
CIRCLE
  8
CSLAYER1
  6
CONTINUOUS
 62
     3
 10
64.444853
 20
205.845646
 40
2.000000
  0
CIRCLE
  8
CSLAYER1
  6
CONTINUOUS
 62
     6
 10
64.444853
 20
205.845646
 40
1.600000
  0
LINE
  8
CSLAYER1
  6
CENTER
 62
     3
 10
64.444853
 20
209.845646
 11
64.444853
 21
201.845646
  0
LINE
  8
CSLAYER1
  6
CENTER
 62
     3
 10
60.444853
 20
205.845646
 11
68.444853
 21
205.845646
  0
ARC
  8
CSLAYER1
  6
CONTINUOUS
 62
     6
 10
149.644851
 20
220.693775
 40
1.000000
 50
0.000001
 51
89.999982
  0
LINE
  8
CSLAYER1
  6
CONTINUOUS
 62
     6
 10
149.644851
 20
221.693775
 11
113.148833
 21
221.693775
  0
LINE
  8
CSLAYER1
  6
CONTINUOUS
 62
     6
 10
148.620406
 20
214.743203
 11
112.975794
 21
214.743203
  0
ARC
  8
CSLAYER1
  6
CONTINUOUS
 62
     6
 10
111.587554
 20
214.175059
 40
1.500000
 50
22.257062
 51
83.850254
  0
ARC
  8
CSLAYER1
  6
CONTINUOUS
 62
     6
 10
111.759521
 20
222.259295
 40
1.500000
 50
271.221738
 51
337.851172
  0
LINE
  8
CSLAYER1
  6
CONTINUOUS
 62
     6
 10
111.748245
 20
215.666427
 11
110.017914
 21
215.666427
  0
LINE
  8
CSLAYER1
  6
CONTINUOUS
 62
     6
 10
111.791504
 20
220.759631
 11
109.931396
 21
220.759631
  0
ARC
  8
CSLAYER1
  6
CONTINUOUS
 62
     6
 10
111.587557
 20
189.516232
 40
1.500000
 50
276.149748
 51
337.742940
  0
LINE
  8
CSLAYER1
  6
CONTINUOUS
 62
     6
 10
111.748247
 20
188.024869
 11
110.017916
 21
188.024869
  0
LINE
  8
CSLAYER1
  6
CONTINUOUS
 62
     6
 10
148.620406
 20
188.948088
 11
112.975798
 21
188.948088
  0
LINE
  8
CSLAYER1
  6
CONTINUOUS
 62
     6
 10
149.644851
 20
182.046933
 11
113.148833
 21
182.046933
  0
ARC
  8
CSLAYER1
  6
CONTINUOUS
 62
     6
 10
149.644851
 20
183.046933
 40
1.000000
 50
-89.999980
 51
0.000001
  0
LINE
  8
CSLAYER1
  6
CONTINUOUS
 62
     6
 10
84.165923
 20
212.645633
 11
72.313232
 21
212.645633
  0
LINE
  8
CSLAYER1
  6
CONTINUOUS
 62
     6
 10
71.644851
 20
218.545658
 11
84.165923
 21
218.545658
  0
ARC
  8
CSLAYER1
  6
CONTINUOUS
 62
     6
 10
71.644851
 20
217.545658
 40
1.000000
 50
90.000000
 51
179.999981
  0
LINE
  8
CSLAYER1
  6
CONTINUOUS
 62
     6
 10
71.644851
 20
185.145633
 11
84.165923
 21
185.145633
  0
ARC
  8
CSLAYER1
  6
CONTINUOUS
 62
     6
 10
71.644851
 20
186.145633
 40
1.000000
 50
180.000039
 51
270.000020
  0
LINE
  8
CSLAYER1
  6
CONTINUOUS
 62
     6
 10
84.165923
 20
191.045658
 11
72.313232
 21
191.045658
  0
INSERT
  8
CSLAYER1
  2
BLKF0000
 10
0.0
 20
0.0
 30
0.0
  0
LINE
  8
CSLAYER1
  6
CONTINUOUS
 62
     6
 10
288.717109
 20
263.845656
 11
288.717109
 21
199.845610
  0
LINE
  8
CSLAYER1
  6
CENTER
 62
     3
 10
258.717109
 20
259.845614
 11
258.717109
 21
160.845610
  0
LINE
  8
CSLAYER1
  6
CENTER
 62
     3
 10
263.475682
 20
201.845643
 11
205.617118
 21
201.845648
  0
LINE
  8
CSLAYER1
  6
CONTINUOUS
 62
     6
 10
274.717124
 20
256.845614
 11
242.717109
 21
256.845615
  0
LINE
  8
CSLAYER1
  6
CONTINUOUS
 62
     6
 10
241.717109
 20
255.845615
 11
241.717109
 21
250.345615
  0
LINE
  8
CSLAYER1
  6
CONTINUOUS
 62
     6
 10
276.449180
 20
255.845614
 11
277.717124
 21
255.845614
  0
LINE
  8
CSLAYER1
  6
CONTINUOUS
 62
     6
 10
250.717109
 20
175.845617
 11
296.717109
 21
175.845610
  0
LINE
  8
CSLAYER1
  6
CONTINUOUS
 62
     6
 10
298.717109
 20
173.845610
 11
298.717109
 21
163.845610
  0
LINE
  8
CSLAYER1
  6
CONTINUOUS
 62
     6
 10
218.717124
 20
163.845648
 11
218.717124
 21
180.170355
  0
LINE
  8
CSLAYER1
  6
CONTINUOUS
 62
     6
 10
240.717109
 20
249.345615
 11
240.717109
 21
226.534912
  0
LINE
  8
CSLAYER1
  6
CONTINUOUS
 62
     6
 10
238.717109
 20
246.845573
 11
238.717109
 21
228.331481
  0
ARC
  8
CSLAYER1
  6
CONTINUOUS
 62
     6
 10
242.717109
 20
255.845615
 40
1.000000
 50
90.000019
 51
180.000000
  0
ARC
  8
CSLAYER1
  6
CONTINUOUS
 62
     6
 10
274.717124
 20
255.845614
 40
1.000000
 50
29.999918
 51
90.000001
  0
ARC
  8
CSLAYER1
  6
CONTINUOUS
 62
     6
 10
239.717109
 20
246.845573
 40
1.000000
 50
90.000019
 51
180.000000
  0
ARC
  8
CSLAYER1
  6
CONTINUOUS
 62
     6
 10
239.717109
 20
248.845573
 40
1.000000
 50
-90.000019
 51
0.000020
  0
ARC
  8
CSLAYER1
  6
CONTINUOUS
 62
     6
 10
241.217109
 20
249.345615
 40
0.500000
 50
90.000019
 51
180.000000
  0
ARC
  8
CSLAYER1
  6
CONTINUOUS
 62
     6
 10
241.217109
 20
250.345615
 40
0.500000
 50
-90.000019
 51
0.000020
  0
ARC
  8
CSLAYER1
  6
CONTINUOUS
 62
     6
 10
289.717109
 20
177.845610
 40
2.000000
 50
180.000000
 51
269.999981
  0
ARC
  8
CSLAYER1
  6
CONTINUOUS
 62
     6
 10
296.717109
 20
173.845610
 40
2.000000
 50
0.000020
 51
90.000001
  0
ARC
  8
CSLAYER1
  6
CONTINUOUS
 62
     6
 10
216.717124
 20
180.170355
 40
2.000000
 50
0.000020
 51
69.766713
  0
LINE
  8
CSLAYER1
  6
CONTINUOUS
 62
     6
 10
288.717109
 20
263.845613
 11
280.717124
 21
263.845614
  0
ARC
  8
CSLAYER1
  6
CONTINUOUS
 62
     6
 10
280.717124
 20
261.845614
 40
2.000000
 50
90.000019
 51
180.000000
  0
ARC
  8
CSLAYER1
  6
CONTINUOUS
 62
     6
 10
288.717109
 20
198.845610
 40
1.000000
 50
90.000019
 51
180.000000
  0
LINE
  8
CSLAYER1
  6
CONTINUOUS
 62
     6
 10
287.717109
 20
198.845610
 11
287.717109
 21
177.845610
  0
ARC
  8
CSLAYER1
  6
CONTINUOUS
 62
     6
 10
276.449180
 20
256.845614
 40
1.000000
 50
210.000127
 51
269.999981
  0
ARC
  8
CSLAYER1
  6
CONTINUOUS
 62
     6
 10
277.717124
 20
256.845614
 40
1.000000
 50
-90.000019
 51
0.000020
  0
LINE
  8
CSLAYER1
  6
CENTER
 62
     3
 10
232.967100
 20
160.845610
 11
232.967100
 21
229.345648
  0
CIRCLE
  8
CSLAYER1
  6
CONTINUOUS
 62
     6
 10
232.967115
 20
201.845648
 40
17.500000
  0
CIRCLE
  8
CSLAYER1
  6
CONTINUOUS
 62
     6
 10
232.967115
 20
201.845648
 40
7.500000
  0
LINE
  8
CSLAYER1
  6
CONTINUOUS
 62
     6
 10
248.717109
 20
177.845617
 11
248.717109
 21
180.626587
  0
LINE
  8
CSLAYER1
  6
CONTINUOUS
 62
     6
 10
229.889379
 20
175.845617
 11
220.717124
 21
175.845617
  0
ARC
  8
CSLAYER1
  6
CONTINUOUS
 62
     6
 10
220.717124
 20
173.845617
 40
2.000000
 50
90.000019
 51
180.000000
  0
ARC
  8
CSLAYER1
  6
CONTINUOUS
 62
     6
 10
250.717109
 20
177.845617
 40
2.000000
 50
180.000000
 51
269.999981
  0
ARC
  8
CSLAYER1
  6
CONTINUOUS
 62
     6
 10
250.717109
 20
180.626587
 40
2.000000
 50
113.139206
 51
180.000000
  0
LINE
  8
CSLAYER1
  6
CONTINUOUS
 62
     6
 10
276.717124
 20
249.845614
 11
241.217109
 21
249.845615
  0
LINE
  8
CSLAYER1
  6
CONTINUOUS
 62
     6
 10
275.583152
 20
256.345614
 11
275.583152
 21
251.426607
  0
LINE
  8
CSLAYER1
  6
CONTINUOUS
 62
     6
 10
288.717109
 20
199.845610
 11
280.717124
 21
199.845617
  0
LINE
  8
CSLAYER1
  6
CONTINUOUS
 62
     6
 10
273.745887
 20
208.845675
 11
277.217124
 21
208.845675
  0
LINE
  8
CSLAYER1
  6
CONTINUOUS
 62
     6
 10
275.717124
 20
200.345678
 11
275.717124
 21
207.345675
  0
ARC
  8
CSLAYER1
  6
CONTINUOUS
 62
     6
 10
280.717124
 20
201.845617
 40
2.000000
 50
180.000000
 51
269.999981
  0
ARC
  8
CSLAYER1
  6
CONTINUOUS
 62
     6
 10
277.217124
 20
207.345675
 40
1.500000
 50
0.000020
 51
180.000000
  0
ARC
  8
CSLAYER1
  6
CONTINUOUS
 62
     6
 10
277.217124
 20
200.345678
 40
1.500000
 50
-180.000000
 51
0.000020
  0
ARC
  8
CSLAYER1
  6
CONTINUOUS
 62
     6
 10
276.717124
 20
251.845614
 40
2.000000
 50
-90.000019
 51
0.000020
  0
LINE
  8
CSLAYER1
  6
CONTINUOUS
 62
     6
 10
272.640693
 20
210.298586
 11
271.990577
 21
248.395174
  0
LINE
  8
CSLAYER1
  6
CONTINUOUS
 62
     6
 10
278.717124
 20
207.345675
 11
278.717124
 21
200.345678
  0
LINE
  8
CSLAYER1
  6
CONTINUOUS
 62
     6
 10
278.717124
 20
251.845614
 11
278.717124
 21
261.845614
  0
LINE
  8
CSLAYER1
  6
CENTER
 62
     3
 10
290.717124
 20
177.845611
 11
290.717124
 21
161.845610
  0
LINE
  8
CSLAYER1
  6
CENTER
 62
     3
 10
226.717094
 20
177.845617
 11
226.717094
 21
161.845610
  0
LINE
  8
CSLAYER1
  6
CONTINUOUS
 62
     6
 10
298.717109
 20
163.845610
 11
218.717109
 21
163.845610
  0
ARC
  8
CSLAYER1
  6
CONTINUOUS
 62
     6
 10
229.889379
 20
177.191312
 40
1.345695
 50
-90.000000
 51
82.884221
  0
ARC
  8
CSLAYER1
  6
CONTINUOUS
 62
     6
 10
232.967100
 20
201.845645
 40
23.350000
 50
148.651159
 51
211.348830
  0
ARC
  8
CSLAYER1
  6
CONTINUOUS
 62
     6
 10
232.967100
 20
201.845645
 40
24.749992
 50
81.941317
 51
125.337769
  0
ARC
  8
CSLAYER1
  6
CONTINUOUS
 62
     6
 10
211.145653
 20
186.373526
 40
2.000000
 50
5.105070
 51
35.337888
  0
ARC
  8
CSLAYER1
  6
CONTINUOUS
 62
     6
 10
232.967100
 20
201.845645
 40
24.749992
 50
144.662101
 51
215.337888
  0
ARC
  8
CSLAYER1
  6
CONTINUOUS
 62
     6
 10
211.145656
 20
217.317769
 40
2.000000
 50
324.662101
 51
354.894920
  0
ARC
  8
CSLAYER1
  6
CONTINUOUS
 62
     6
 10
236.717109
 20
228.331481
 40
2.000000
 50
261.941317
 51
360.000000
  0
ARC
  8
CSLAYER1
  6
CONTINUOUS
 62
     6
 10
211.317801
 20
188.657380
 40
2.000000
 50
-13.726210
 51
31.348830
  0
ARC
  8
CSLAYER1
  6
CONTINUOUS
 62
     6
 10
232.967100
 20
201.845645
 40
23.350000
 50
58.651276
 51
121.348711
  0
ARC
  8
CSLAYER1
  6
CONTINUOUS
 62
     6
 10
238.717109
 20
226.534912
 40
2.000000
 50
256.889794
 51
360.000000
  0
ARC
  8
CSLAYER1
  6
CONTINUOUS
 62
     6
 10
232.967100
 20
201.845645
 40
23.350000
 50
-31.348799
 51
31.348788
  0
ARC
  8
CSLAYER1
  6
CONTINUOUS
 62
     6
 10
232.967100
 20
201.845645
 40
23.350000
 50
238.651278
 51
301.348714
  0
ARC
  8
CSLAYER1
  6
CONTINUOUS
 62
     6
 10
246.155325
 20
223.494969
 40
2.000000
 50
238.651276
 51
283.726431
  0
CIRCLE
  8
CSLAYER1
  6
CONTINUOUS
 62
     6
 10
232.967115
 20
201.845648
 40
6.000000
  0
LINE
  8
CSLAYER1
  6
CONTINUOUS
 62
     6
 10
235.365025
 20
196.345652
 11
230.569188
 21
196.345652
  0
CIRCLE
  8
CSLAYER1
  6
CONTINUOUS
 62
     6
 10
240.691273
 20
188.689456
 40
1.590907
  0
ARC
  8
CSLAYER1
  6
CONTINUOUS
 62
     6
 10
240.691273
 20
188.689456
 40
3.409539
 50
50.235851
 51
203.481549
  0
LINE
  8
CSLAYER1
  6
CONTINUOUS
 62
     6
 10
237.564082
 20
187.330920
 11
238.243485
 21
185.113355
  0
CIRCLE
  8
CSLAYER1
  6
CONTINUOUS
 62
     6
 10
225.542982
 20
188.689456
 40
1.590907
  0
ARC
  8
CSLAYER1
  6
CONTINUOUS
 62
     6
 10
225.542982
 20
188.689456
 40
3.409539
 50
-23.481547
 51
129.764151
  0
LINE
  8
CSLAYER1
  6
CONTINUOUS
 62
     6
 10
228.670169
 20
187.330920
 11
227.990767
 21
185.113355
  0
ARC
  8
CSLAYER1
  6
CONTINUOUS
 62
     6
 10
233.117133
 20
200.920339
 40
15.243459
 50
-37.903067
 51
217.903051
  0
ARC
  8
CSLAYER1
  6
CONTINUOUS
 62
     6
 10
243.889688
 20
192.533229
 40
1.590907
 50
230.236329
 51
322.096590
  0
ARC
  8
CSLAYER1
  6
CONTINUOUS
 62
     6
 10
222.344563
 20
192.533229
 40
1.590907
 50
217.903413
 51
309.763730
  0
ARC
  8
CSLAYER1
  6
CONTINUOUS
 62
     6
 10
218.117888
 20
216.694891
 40
5.000000
 50
76.273671
 51
193.726199
  0
ARC
  8
CSLAYER1
  6
CONTINUOUS
 62
     6
 10
247.816329
 20
216.694891
 40
5.000000
 50
-13.726367
 51
103.726431
  0
ARC
  8
CSLAYER1
  6
CONTINUOUS
 62
     6
 10
218.117886
 20
186.996403
 40
5.000000
 50
166.273790
 51
283.726318
  0
ARC
  8
CSLAYER1
  6
CONTINUOUS
 62
     6
 10
247.816326
 20
186.996397
 40
5.000000
 50
-103.726441
 51
13.726356
  0
ARC
  8
CSLAYER1
  6
CONTINUOUS
 62
     6
 10
217.495026
 20
223.667125
 40
2.000000
 50
275.104951
 51
305.337769
  0
ARC
  8
CSLAYER1
  6
CONTINUOUS
 62
     6
 10
211.317803
 20
215.033914
 40
2.000000
 50
-31.348841
 51
13.726199
  0
ARC
  8
CSLAYER1
  6
CONTINUOUS
 62
     6
 10
219.778880
 20
223.494972
 40
2.000000
 50
256.273671
 51
301.348711
  0
ARC
  8
CSLAYER1
  6
CONTINUOUS
 62
     6
 10
254.616409
 20
215.033894
 40
2.000000
 50
166.273633
 51
211.348788
  0
ARC
  8
CSLAYER1
  6
CONTINUOUS
 62
     6
 10
254.616407
 20
188.657392
 40
2.000000
 50
148.651201
 51
193.726356
  0
ARC
  8
CSLAYER1
  6
CONTINUOUS
 62
     6
 10
246.155321
 20
180.196319
 40
2.000000
 50
76.273559
 51
121.348714
  0
ARC
  8
CSLAYER1
  6
CONTINUOUS
 62
     6
 10
219.778876
 20
180.196321
 40
2.000000
 50
58.651278
 51
103.726318
  0
ARC
  8
CSLAYER1
  6
CONTINUOUS
 62
     6
 10
280.717114
 20
19.999988
 40
2.000000
 50
180.000006
 51
270.000000
  0
LINE
  8
CSLAYER1
  6
CONTINUOUS
 62
     6
 10
290.717111
 20
39.999999
 11
226.707661
 21
39.999999
  0
LINE
  8
CSLAYER1
  6
CONTINUOUS
 62
     6
 10
290.717111
 20
99.999999
 11
226.717100
 21
99.999999
  0
LINE
  8
CSLAYER1
  6
CONTINUOUS
 62
     6
 10
298.717114
 20
18.999988
 11
298.717106
 21
92.008744
  0
LINE
  8
CSLAYER1
  6
CONTINUOUS
 62
     6
 10
218.717111
 20
48.016048
 11
218.717106
 21
91.999991
  0
LINE
  8
CSLAYER1
  6
CENTER
 62
     3
 10
258.717113
 20
27.999999
 11
258.717105
 21
102.999999
  0
ARC
  8
CSLAYER1
  6
CONTINUOUS
 62
     6
 10
290.717111
 20
47.999999
 40
8.000000
 50
-90.000000
 51
0.000006
  0
ARC
  8
CSLAYER1
  6
CONTINUOUS
 62
     6
 10
290.717111
 20
91.999999
 40
8.000000
 50
-0.000006
 51
90.000000
  0
ARC
  8
CSLAYER1
  6
CONTINUOUS
 62
     6
 10
226.717111
 20
47.999992
 40
8.000000
 50
180.000006
 51
270.000012
  0
ARC
  8
CSLAYER1
  6
CONTINUOUS
 62
     6
 10
226.717102
 20
91.999992
 40
8.000000
 50
90.000012
 51
180.000006
  0
CIRCLE
  8
CSLAYER1
  6
CONTINUOUS
 62
     6
 10
258.717109
 20
69.999999
 40
15.000000
  0
ARC
  8
CSLAYER1
  6
CONTINUOUS
 62
     6
 10
258.717109
 20
69.999999
 40
20.000000
 50
-24.032839
 51
24.032839
  0
ARC
  8
CSLAYER1
  6
CONTINUOUS
 62
     6
 10
280.919152
 20
45.999999
 40
2.000000
 50
-90.000000
 51
11.536959
  0
ARC
  8
CSLAYER1
  6
CONTINUOUS
 62
     6
 10
292.717110
 20
57.797958
 40
2.000000
 50
-101.536953
 51
0.000006
  0
LINE
  8
CSLAYER1
  6
CENTER
 62
     3
 10
301.717109
 20
69.999999
 11
205.717109
 21
69.999999
  0
ARC
  8
CSLAYER1
  6
CONTINUOUS
 62
     6
 10
236.515070
 20
45.999999
 40
2.000000
 50
168.463041
 51
270.000000
  0
ARC
  8
CSLAYER1
  6
CONTINUOUS
 62
     6
 10
224.717110
 20
57.797958
 40
2.000000
 50
180.000006
 51
281.536965
  0
ARC
  8
CSLAYER1
  6
CONTINUOUS
 62
     6
 10
224.717107
 20
82.202041
 40
2.000000
 50
78.463019
 51
180.000006
  0
ARC
  8
CSLAYER1
  6
CONTINUOUS
 62
     6
 10
236.515070
 20
93.999999
 40
2.000000
 50
90.000000
 51
191.536959
  0
ARC
  8
CSLAYER1
  6
CONTINUOUS
 62
     6
 10
280.919152
 20
93.999999
 40
2.000000
 50
-11.536959
 51
90.000000
  0
ARC
  8
CSLAYER1
  6
CONTINUOUS
 62
     6
 10
292.717107
 20
82.202039
 40
2.000000
 50
0.000006
 51
101.536937
  0
LINE
  8
CSLAYER1
  6
CONTINUOUS
 62
     6
 10
294.717110
 20
57.797959
 11
294.717107
 21
82.202040
  0
LINE
  8
CSLAYER1
  6
CONTINUOUS
 62
     6
 10
280.919152
 20
43.999999
 11
236.515070
 21
43.999999
  0
LINE
  8
CSLAYER1
  6
CONTINUOUS
 62
     6
 10
222.717110
 20
57.797958
 11
222.717107
 21
82.202041
  0
LINE
  8
CSLAYER1
  6
CONTINUOUS
 62
     6
 10
280.919152
 20
95.999999
 11
236.515070
 21
95.999999
  0
ARC
  8
CSLAYER1
  6
CONTINUOUS
 62
     6
 10
290.717111
 20
47.999999
 40
8.000000
 50
78.463047
 51
191.536959
  0
ARC
  8
CSLAYER1
  6
CONTINUOUS
 62
     6
 10
226.717111
 20
47.999999
 40
8.000000
 50
-11.536959
 51
101.536965
  0
ARC
  8
CSLAYER1
  6
CONTINUOUS
 62
     6
 10
226.717111
 20
91.999999
 40
8.000000
 50
-101.536981
 51
11.536959
  0
ARC
  8
CSLAYER1
  6
CONTINUOUS
 62
     6
 10
290.717111
 20
91.999999
 40
8.000000
 50
168.463041
 51
281.536937
  0
LINE
  8
CSLAYER1
  6
CONTINUOUS
 62
     6
 10
284.297700
 20
54.840405
 11
277.676919
 21
59.392191
  0
LINE
  8
CSLAYER1
  6
CONTINUOUS
 62
     6
 10
282.031584
 20
51.544237
 11
275.410804
 21
56.096024
  0
ARC
  8
CSLAYER1
  6
CONTINUOUS
 62
     6
 10
285.430757
 20
56.488489
 40
2.000000
 50
235.491479
 51
301.913301
  0
ARC
  8
CSLAYER1
  6
CONTINUOUS
 62
     6
 10
280.898527
 20
49.896154
 40
2.000000
 50
-10.930343
 51
55.491479
  0
ARC
  8
CSLAYER1
  6
CONTINUOUS
 62
     6
 10
274.277746
 20
54.447940
 40
2.000000
 50
55.491479
 51
135.015797
  0
ARC
  8
CSLAYER1
  6
CONTINUOUS
 62
     6
 10
278.809977
 20
61.040275
 40
2.000000
 50
155.967161
 51
235.491479
  0
LINE
  8
CSLAYER1
  6
CONTINUOUS
 62
     6
 10
233.136521
 20
54.840400
 11
239.757301
 21
59.392187
  0
LINE
  8
CSLAYER1
  6
CONTINUOUS
 62
     6
 10
235.402637
 20
51.544232
 11
242.023416
 21
56.096020
  0
ARC
  8
CSLAYER1
  6
CONTINUOUS
 62
     6
 10
232.003463
 20
56.488483
 40
2.000000
 50
238.086712
 51
304.508533
  0
ARC
  8
CSLAYER1
  6
CONTINUOUS
 62
     6
 10
243.156474
 20
54.447936
 40
2.000000
 50
44.984215
 51
124.508533
  0
ARC
  8
CSLAYER1
  6
CONTINUOUS
 62
     6
 10
238.624243
 20
61.040271
 40
2.000000
 50
-55.491467
 51
24.032852
  0
ARC
  8
CSLAYER1
  6
CONTINUOUS
 62
     6
 10
258.717109
 20
69.999999
 40
20.000000
 50
224.984215
 51
315.015797
  0
ARC
  8
CSLAYER1
  6
CONTINUOUS
 62
     6
 10
236.535689
 20
49.896155
 40
2.000000
 50
124.508517
 51
190.930338
  0
LINE
  8
CSLAYER1
  6
CONTINUOUS
 62
     6
 10
284.297700
 20
85.159593
 11
277.676919
 21
80.607807
  0
LINE
  8
CSLAYER1
  6
CONTINUOUS
 62
     6
 10
282.031584
 20
88.455761
 11
275.410804
 21
83.903975
  0
ARC
  8
CSLAYER1
  6
CONTINUOUS
 62
     6
 10
285.430757
 20
83.511509
 40
2.000000
 50
58.086699
 51
124.508521
  0
ARC
  8
CSLAYER1
  6
CONTINUOUS
 62
     6
 10
280.898527
 20
90.103845
 40
2.000000
 50
-55.491479
 51
10.930343
  0
ARC
  8
CSLAYER1
  6
CONTINUOUS
 62
     6
 10
274.277746
 20
85.552059
 40
2.000000
 50
224.984203
 51
304.508521
  0
ARC
  8
CSLAYER1
  6
CONTINUOUS
 62
     6
 10
278.809977
 20
78.959723
 40
2.000000
 50
124.508521
 51
204.032839
  0
ARC
  8
CSLAYER1
  6
CONTINUOUS
 62
     6
 10
258.717109
 20
69.999999
 40
20.000000
 50
44.984203
 51
135.015785
  0
LINE
  8
CSLAYER1
  6
CONTINUOUS
 62
     6
 10
233.136521
 20
85.159599
 11
239.757301
 21
80.607811
  0
LINE
  8
CSLAYER1
  6
CONTINUOUS
 62
     6
 10
235.402637
 20
88.455766
 11
242.023416
 21
83.903978
  0
ARC
  8
CSLAYER1
  6
CONTINUOUS
 62
     6
 10
232.003463
 20
83.511515
 40
2.000000
 50
55.491467
 51
121.913288
  0
ARC
  8
CSLAYER1
  6
CONTINUOUS
 62
     6
 10
243.156474
 20
85.552062
 40
2.000000
 50
235.491467
 51
315.015785
  0
ARC
  8
CSLAYER1
  6
CONTINUOUS
 62
     6
 10
238.624243
 20
78.959727
 40
2.000000
 50
-24.032852
 51
55.491467
  0
ARC
  8
CSLAYER1
  6
CONTINUOUS
 62
     6
 10
236.535689
 20
90.103843
 40
2.000000
 50
169.069662
 51
235.491483
  0
ARC
  8
CSLAYER1
  6
CONTINUOUS
 62
     6
 10
258.717109
 20
69.999999
 40
20.000000
 50
155.967148
 51
204.032852
  0
LINE
  8
CSLAYER1
  6
CONTINUOUS
 62
     6
 10
244.717111
 20
45.999999
 11
244.717110
 21
55.717141
  0
ARC
  8
CSLAYER1
  6
CONTINUOUS
 62
     6
 10
242.717111
 20
45.999999
 40
2.000000
 50
-90.000000
 51
0.000006
  0
LINE
  8
CSLAYER1
  6
CONTINUOUS
 62
     6
 10
244.717111
 20
93.999999
 11
244.717110
 21
84.282858
  0
ARC
  8
CSLAYER1
  6
CONTINUOUS
 62
     6
 10
242.717111
 20
93.999999
 40
2.000000
 50
-0.000006
 51
90.000000
  0
CIRCLE
  8
CSLAYER1
  6
CONTINUOUS
 62
     6
 10
252.224988
 20
81.276734
 40
1.363635
  0
ARC
  8
CSLAYER1
  6
CONTINUOUS
 62
     6
 10
252.224988
 20
81.276734
 40
2.922462
 50
-129.764143
 51
23.481555
  0
LINE
  8
CSLAYER1
  6
CONTINUOUS
 62
     6
 10
254.905436
 20
82.441194
 11
254.323091
 21
84.341964
  0
CIRCLE
  8
CSLAYER1
  6
CONTINUOUS
 62
     6
 10
265.209237
 20
81.276736
 40
1.363635
  0
ARC
  8
CSLAYER1
  6
CONTINUOUS
 62
     6
 10
265.209237
 20
81.276736
 40
2.922462
 50
156.518459
 51
309.764158
  0
LINE
  8
CSLAYER1
  6
CONTINUOUS
 62
     6
 10
262.528790
 20
82.441195
 11
263.111135
 21
84.341965
  0
ARC
  8
CSLAYER1
  6
CONTINUOUS
 62
     6
 10
258.717109
 20
70.793121
 40
13.065822
 50
-217.903060
 51
37.903057
  0
ARC
  8
CSLAYER1
  6
CONTINUOUS
 62
     6
 10
249.483489
 20
77.982071
 40
1.363635
 50
50.236335
 51
142.096596
  0
ARC
  8
CSLAYER1
  6
CONTINUOUS
 62
     6
 10
267.950739
 20
77.982073
 40
1.363635
 50
37.903419
 51
129.763737
  0
CIRCLE
  8
CSLAYER1
  6
CONTINUOUS
 62
     3
 10
290.717111
 20
47.999999
 40
4.000000
  0
CIRCLE
  8
CSLAYER1
  6
CONTINUOUS
 62
     6
 10
290.717111
 20
47.999999
 40
3.200000
  0
LINE
  8
CSLAYER1
  6
CENTER
 62
     3
 10
296.717111
 20
48.000000
 11
284.717111
 21
47.999998
  0
LINE
  8
CSLAYER1
  6
CENTER
 62
     3
 10
290.717112
 20
41.999999
 11
290.717110
 21
53.999999
  0
CIRCLE
  8
CSLAYER1
  6
CONTINUOUS
 62
     3
 10
290.717106
 20
91.999999
 40
4.000000
  0
CIRCLE
  8
CSLAYER1
  6
CONTINUOUS
 62
     6
 10
290.717106
 20
91.999999
 40
3.200000
  0
LINE
  8
CSLAYER1
  6
CENTER
 62
     3
 10
296.717106
 20
92.000000
 11
284.717106
 21
91.999998
  0
LINE
  8
CSLAYER1
  6
CENTER
 62
     3
 10
290.717107
 20
85.999999
 11
290.717106
 21
97.999999
  0
CIRCLE
  8
CSLAYER1
  6
CONTINUOUS
 62
     3
 10
226.717106
 20
91.999999
 40
4.000000
  0
CIRCLE
  8
CSLAYER1
  6
CONTINUOUS
 62
     6
 10
226.717106
 20
91.999999
 40
3.200000
  0
LINE
  8
CSLAYER1
  6
CENTER
 62
     3
 10
232.717106
 20
92.000000
 11
220.717106
 21
91.999998
  0
LINE
  8
CSLAYER1
  6
CENTER
 62
     3
 10
226.717107
 20
85.999999
 11
226.717106
 21
97.999999
  0
CIRCLE
  8
CSLAYER1
  6
CONTINUOUS
 62
     3
 10
226.717111
 20
47.999999
 40
4.000000
  0
CIRCLE
  8
CSLAYER1
  6
CONTINUOUS
 62
     6
 10
226.717111
 20
47.999999
 40
3.200000
  0
LINE
  8
CSLAYER1
  6
CENTER
 62
     3
 10
232.717111
 20
48.000000
 11
220.717111
 21
47.999998
  0
LINE
  8
CSLAYER1
  6
CENTER
 62
     3
 10
226.717112
 20
41.999999
 11
226.717110
 21
53.999999
  0
LINE
  8
CSLAYER1
  6
CONTINUOUS
 62
     6
 10
239.967104
 20
112.000000
 11
225.967135
 21
111.999998
  0
LINE
  8
CSLAYER1
  6
CONTINUOUS
 62
     6
 10
235.365019
 20
121.999999
 11
230.569187
 21
121.999999
  0
LINE
  8
CSLAYER1
  6
CONTINUOUS
 62
     6
 10
227.467132
 20
141.999999
 11
238.467071
 21
142.000000
  0
LINE
  8
CSLAYER1
  6
CONTINUOUS
 62
     6
 10
226.967135
 20
113.200010
 11
226.967132
 21
141.499998
  0
LINE
  8
CSLAYER1
  6
CONTINUOUS
 62
     6
 10
225.467135
 20
111.499998
 11
225.467135
 21
109.999998
  0
LINE
  8
CSLAYER1
  6
CONTINUOUS
 62
     6
 10
238.967104
 20
113.200012
 11
226.967135
 21
113.200010
  0
LINE
  8
CSLAYER1
  6
CONTINUOUS
 62
     6
 10
226.967132
 20
141.499998
 11
227.467132
 21
141.999999
  0
LINE
  8
CSLAYER1
  6
CONTINUOUS
 62
     6
 10
226.967132
 20
141.499998
 11
230.569185
 21
141.499999
  0
LINE
  8
CSLAYER1
  6
CONTINUOUS
 62
     6
 10
225.467135
 20
111.499998
 11
225.967135
 21
111.999998
  0
LINE
  8
CSLAYER1
  6
CONTINUOUS
 62
     6
 10
240.467104
 20
111.500000
 11
225.467135
 21
111.499998
  0
LINE
  8
CSLAYER1
  6
CONTINUOUS
 62
     6
 10
238.967104
 20
113.200012
 11
238.967071
 21
141.500000
  0
LINE
  8
CSLAYER1
  6
CONTINUOUS
 62
     6
 10
240.467104
 20
111.500000
 11
240.467104
 21
110.000000
  0
LINE
  8
CSLAYER1
  6
CONTINUOUS
 62
     6
 10
240.467104
 20
111.500000
 11
239.967104
 21
112.000000
  0
LINE
  8
CSLAYER1
  6
CONTINUOUS
 62
     6
 10
227.090395
 20
113.200010
 11
227.090395
 21
111.999998
  0
LINE
  8
CSLAYER1
  6
CONTINUOUS
 62
     6
 10
238.843874
 20
113.200012
 11
238.843874
 21
112.000000
  0
LINE
  8
CSLAYER1
  6
CONTINUOUS
 62
     6
 10
230.569185
 20
141.999999
 11
230.569187
 21
121.999999
  0
LINE
  8
CSLAYER1
  6
CONTINUOUS
 62
     6
 10
235.365017
 20
141.999999
 11
235.365019
 21
121.999999
  0
LINE
  8
CSLAYER1
  6
CONTINUOUS
 62
     6
 10
235.365017
 20
141.499999
 11
238.967071
 21
141.500000
  0
LINE
  8
CSLAYER1
  6
CONTINUOUS
 62
     6
 10
238.967070
 20
141.500000
 11
238.467070
 21
142.000000
  0
LINE
  8
CSLAYER1
  6
CONTINUOUS
 62
     3
 10
230.569187
 20
121.999999
 11
235.365017
 21
141.999999
  0
LINE
  8
CSLAYER1
  6
CONTINUOUS
 62
     3
 10
235.365019
 20
121.999999
 11
230.569185
 21
141.999999
  0
LINE
  8
CSLAYER1
  6
CENTER
 62
     3
 10
232.967113
 20
26.999999
 11
232.967101
 21
144.999999
  0
LINE
  8
CSLAYER1
  6
CONTINUOUS
 62
     6
 10
288.717112
 20
39.999999
 11
288.717114
 21
17.999988
  0
LINE
  8
CSLAYER1
  6
CONTINUOUS
 62
     6
 10
278.717112
 20
39.999999
 11
278.717114
 21
19.999988
  0
LINE
  8
CSLAYER1
  6
CONTINUOUS
 62
     6
 10
272.217112
 20
39.999999
 11
272.217113
 21
31.999999
  0
LINE
  8
CSLAYER1
  6
CONTINUOUS
 62
     6
 10
269.217112
 20
39.999999
 11
269.217113
 21
31.999999
  0
LINE
  8
CSLAYER1
  6
CONTINUOUS
 62
     6
 10
266.217112
 20
39.999999
 11
266.217113
 21
31.999999
  0
LINE
  8
CSLAYER1
  6
CONTINUOUS
 62
     6
 10
263.217112
 20
39.999999
 11
263.217113
 21
31.999999
  0
LINE
  8
CSLAYER1
  6
CONTINUOUS
 62
     6
 10
260.217112
 20
39.999999
 11
260.217113
 21
31.999999
  0
LINE
  8
CSLAYER1
  6
CONTINUOUS
 62
     6
 10
257.217112
 20
39.999999
 11
257.217113
 21
31.999999
  0
LINE
  8
CSLAYER1
  6
CONTINUOUS
 62
     6
 10
253.217112
 20
39.999999
 11
253.117113
 21
30.999999
  0
LINE
  8
CSLAYER1
  6
CONTINUOUS
 62
     6
 10
276.795484
 20
33.075357
 11
272.217113
 21
33.254901
  0
LINE
  8
CSLAYER1
  6
CONTINUOUS
 62
     6
 10
259.217113
 20
30.999999
 11
258.217113
 21
30.999999
  0
ARC
  8
CSLAYER1
  6
CONTINUOUS
 62
     6
 10
271.217113
 20
31.999999
 40
1.000000
 50
-90.000000
 51
0.000006
  0
ARC
  8
CSLAYER1
  6
CONTINUOUS
 62
     6
 10
270.217113
 20
31.999999
 40
1.000000
 50
180.000006
 51
270.000000
  0
ARC
  8
CSLAYER1
  6
CONTINUOUS
 62
     6
 10
265.217113
 20
31.999999
 40
1.000000
 50
-90.000000
 51
0.000006
  0
ARC
  8
CSLAYER1
  6
CONTINUOUS
 62
     6
 10
264.217113
 20
31.999999
 40
1.000000
 50
180.000006
 51
270.000000
  0
ARC
  8
CSLAYER1
  6
CONTINUOUS
 62
     6
 10
259.217113
 20
31.999999
 40
1.000000
 50
-90.000000
 51
0.000006
  0
ARC
  8
CSLAYER1
  6
CONTINUOUS
 62
     6
 10
258.217113
 20
31.999999
 40
1.000000
 50
180.000006
 51
270.000000
  0
LINE
  8
CSLAYER1
  6
CONTINUOUS
 62
     6
 10
265.217113
 20
30.999999
 11
264.217113
 21
30.999999
  0
LINE
  8
CSLAYER1
  6
CONTINUOUS
 62
     6
 10
271.217113
 20
30.999999
 11
270.217113
 21
30.999999
  0
ARC
  8
CSLAYER1
  6
CONTINUOUS
 62
     6
 10
276.717113
 20
31.076893
 40
2.000000
 50
0.000006
 51
87.754257
  0
LINE
  8
CSLAYER1
  6
CONTINUOUS
 62
     6
 10
269.217113
 20
33.372548
 11
266.217113
 21
33.490195
  0
LINE
  8
CSLAYER1
  6
CONTINUOUS
 62
     6
 10
263.217113
 20
33.607842
 11
260.217113
 21
33.725489
  0
LINE
  8
CSLAYER1
  6
CONTINUOUS
 62
     6
 10
257.217113
 20
33.843136
 11
253.117113
 21
33.999999
  0
LINE
  8
CSLAYER1
  6
CONTINUOUS
 62
     6
 10
252.117113
 20
29.999999
 11
214.117113
 21
29.999999
  0
ARC
  8
CSLAYER1
  6
CONTINUOUS
 62
     6
 10
252.117113
 20
30.999999
 40
1.000000
 50
-90.000000
 51
0.000006
  0
LINE
  8
CSLAYER1
  6
CONTINUOUS
 62
     6
 10
250.717112
 20
39.999999
 11
250.717113
 21
30.999999
  0
LINE
  8
CSLAYER1
  6
CONTINUOUS
 62
     6
 10
244.717112
 20
39.999999
 11
244.717113
 21
30.999998
  0
ARC
  8
CSLAYER1
  6
CONTINUOUS
 62
     6
 10
214.117113
 20
30.999999
 40
1.000000
 50
180.000006
 51
270.000000
  0
LINE
  8
CSLAYER1
  6
CONTINUOUS
 62
     6
 10
215.717111
 20
42.999995
 11
215.717113
 21
30.999995
  0
LINE
  8
CSLAYER1
  6
CONTINUOUS
 62
     6
 10
221.717112
 20
39.999996
 11
221.717113
 21
30.999996
  0
LINE
  8
CSLAYER1
  6
CONTINUOUS
 62
     6
 10
219.330403
 20
44.999999
 11
210.617111
 21
44.999999
  0
LINE
  8
CSLAYER1
  6
CONTINUOUS
 62
     6
 10
208.217117
 20
69.499999
 11
208.217117
 21
70.512132
  0
LINE
  8
CSLAYER1
  6
CONTINUOUS
 62
     6
 10
218.717109
 20
68.499999
 11
209.217117
 21
68.499999
  0
LINE
  8
CSLAYER1
  6
CONTINUOUS
 62
     6
 10
218.717109
 20
71.499999
 11
209.217117
 21
71.499999
  0
ARC
  8
CSLAYER1
  6
CONTINUOUS
 62
     6
 10
209.217117
 20
69.499999
 40
1.000000
 50
180.000006
 51
270.000000
  0
ARC
  8
CSLAYER1
  6
CONTINUOUS
 62
     6
 10
209.217117
 20
70.499999
 40
1.000000
 50
90.000000
 51
180.000006
  0
LINE
  8
CSLAYER1
  6
CONTINUOUS
 62
     6
 10
209.617109
 20
71.999999
 11
209.617104
 21
108.999999
  0
ARC
  8
CSLAYER1
  6
CONTINUOUS
 62
     6
 10
210.617111
 20
45.999999
 40
1.000000
 50
180.000006
 51
270.000000
  0
LINE
  8
CSLAYER1
  6
CONTINUOUS
 62
     6
 10
255.617106
 20
109.999999
 11
210.617104
 21
109.999999
  0
ARC
  8
CSLAYER1
  6
CONTINUOUS
 62
     6
 10
210.617104
 20
108.999999
 40
1.000000
 50
90.000000
 51
180.000006
  0
ARC
  8
CSLAYER1
  6
CONTINUOUS
 62
     6
 10
212.117112
 20
43.999999
 40
1.000000
 50
0.000006
 51
90.000000
  0
LINE
  8
CSLAYER1
  6
CONTINUOUS
 62
     6
 10
212.717108
 20
73.499999
 11
212.717104
 21
108.999999
  0
ARC
  8
CSLAYER1
  6
CONTINUOUS
 62
     6
 10
213.717104
 20
108.999999
 40
1.000000
 50
90.000000
 51
180.000006
  0
LINE
  8
CSLAYER1
  6
CONTINUOUS
 62
     6
 10
253.217112
 20
99.999999
 11
253.217113
 21
108.999999
  0
ARC
  8
CSLAYER1
  6
CONTINUOUS
 62
     6
 10
252.217113
 20
108.999999
 40
1.000000
 50
-0.000006
 51
90.000000
  0
LINE
  8
CSLAYER1
  6
CONTINUOUS
 62
     6
 10
256.617105
 20
99.999999
 11
256.617106
 21
108.999999
  0
ARC
  8
CSLAYER1
  6
CONTINUOUS
 62
     6
 10
255.617106
 20
108.999999
 40
1.000000
 50
-0.000006
 51
90.000000
  0
LINE
  8
CSLAYER1
  6
CONTINUOUS
 62
     6
 10
245.717112
 20
99.999999
 11
245.717113
 21
108.499999
  0
LINE
  8
CSLAYER1
  6
CONTINUOUS
 62
     6
 10
220.717106
 20
97.291500
 11
220.717105
 21
108.499999
  0
LINE
  8
CSLAYER1
  6
CONTINUOUS
 62
     6
 10
213.117113
 20
30.999999
 11
213.117112
 21
43.999999
  0
LINE
  8
CSLAYER1
  6
CONTINUOUS
 62
     6
 10
209.617111
 20
45.999999
 11
209.617109
 21
67.999999
  0
ARC
  8
CSLAYER1
  6
CONTINUOUS
 62
     6
 10
209.117109
 20
71.999999
 40
0.500000
 50
-90.000000
 51
0.000006
  0
ARC
  8
CSLAYER1
  6
CONTINUOUS
 62
     6
 10
209.117109
 20
67.999999
 40
0.500000
 50
0.000006
 51
90.000000
  0
LINE
  8
CSLAYER1
  6
CENTER
 62
     3
 10
477.494584
 20
231.845637
 11
547.494598
 21
231.845680
  0
LINE
  8
CSLAYER1
  6
CENTER
 62
     3
 10
512.494582
 20
193.509689
 11
512.494550
 21
266.845665
  0
INSERT
  8
CSLAYER1
  2
BLKF0001
 10
0.0
 20
0.0
 30
0.0
  0
LINE
  8
CSLAYER1
  6
CENTER
 62
     3
 10
417.294628
 20
201.845622
 11
534.851121
 21
201.845622
  0
LINE
  8
CSLAYER1
  6
CONTINUOUS
 62
     6
 10
450.294633
 20
194.845622
 11
450.294639
 21
208.845591
  0
LINE
  8
CSLAYER1
  6
CONTINUOUS
 62
     6
 10
440.294634
 20
195.845636
 11
440.294634
 21
196.345636
  0
LINE
  8
CSLAYER1
  6
CONTINUOUS
 62
     6
 10
420.294639
 20
207.345605
 11
420.294634
 21
196.345666
  0
LINE
  8
CSLAYER1
  6
CONTINUOUS
 62
     6
 10
449.094627
 20
207.845592
 11
420.794639
 21
207.845604
  0
LINE
  8
CSLAYER1
  6
CONTINUOUS
 62
     6
 10
450.794639
 20
209.345591
 11
452.294639
 21
209.345591
  0
LINE
  8
CSLAYER1
  6
CONTINUOUS
 62
     6
 10
449.094622
 20
195.845623
 11
449.094627
 21
207.845592
  0
LINE
  8
CSLAYER1
  6
CONTINUOUS
 62
     6
 10
420.794639
 20
207.845604
 11
420.294639
 21
207.345605
  0
LINE
  8
CSLAYER1
  6
CONTINUOUS
 62
     6
 10
420.794639
 20
207.845604
 11
420.794634
 21
196.345665
  0
LINE
  8
CSLAYER1
  6
CONTINUOUS
 62
     6
 10
450.794639
 20
209.345591
 11
450.294639
 21
208.845591
  0
LINE
  8
CSLAYER1
  6
CONTINUOUS
 62
     6
 10
450.794633
 20
194.345622
 11
450.794639
 21
209.345591
  0
LINE
  8
CSLAYER1
  6
CONTINUOUS
 62
     6
 10
449.094622
 20
195.845623
 11
440.294634
 21
195.845636
  0
LINE
  8
CSLAYER1
  6
CONTINUOUS
 62
     6
 10
450.794633
 20
194.345622
 11
452.294633
 21
194.345622
  0
LINE
  8
CSLAYER1
  6
CONTINUOUS
 62
     6
 10
450.794633
 20
194.345622
 11
450.294633
 21
194.845622
  0
LINE
  8
CSLAYER1
  6
CONTINUOUS
 62
     6
 10
449.094627
 20
207.722332
 11
450.294639
 21
207.722331
  0
LINE
  8
CSLAYER1
  6
CONTINUOUS
 62
     6
 10
449.094622
 20
195.968853
 11
450.294634
 21
195.968852
  0
INSERT
  8
CSLAYER1
  2
BLKF0002
 10
0.0
 20
0.0
 30
0.0
  0
LINE
  8
CSLAYER1
  6
CONTINUOUS
 62
     6
 10
462.294621
 20
163.845622
 11
522.294621
 21
163.845622
  0
LINE
  8
CSLAYER1
  6
CONTINUOUS
 62
     6
 10
522.294621
 20
179.845622
 11
522.294621
 21
163.845622
  0
LINE
  8
CSLAYER1
  6
CONTINUOUS
 62
     6
 10
532.294621
 20
182.845622
 11
532.294621
 21
199.845672
  0
ARC
  8
CSLAYER1
  6
CONTINUOUS
 62
     6
 10
520.294621
 20
173.845622
 40
2.000000
 50
0.000019
 51
90.000000
  0
LINE
  8
CSLAYER1
  6
CONTINUOUS
 62
     6
 10
464.294621
 20
175.845622
 11
520.294621
 21
175.845622
  0
LINE
  8
CSLAYER1
  6
CONTINUOUS
 62
     6
 10
462.294621
 20
178.345617
 11
462.294621
 21
163.845622
  0
ARC
  8
CSLAYER1
  6
CONTINUOUS
 62
     6
 10
464.294621
 20
173.845622
 40
2.000000
 50
90.000018
 51
179.999999
  0
ARC
  8
CSLAYER1
  6
CONTINUOUS
 62
     6
 10
472.294562
 20
177.845621
 40
2.000000
 50
269.999980
 51
359.999961
  0
LINE
  8
CSLAYER1
  6
CONTINUOUS
 62
     6
 10
531.294621
 20
185.145609
 11
518.773549
 21
185.145609
  0
LINE
  8
CSLAYER1
  6
CONTINUOUS
 62
     6
 10
519.294748
 20
181.845622
 11
531.294621
 21
181.845622
  0
ARC
  8
CSLAYER1
  6
CONTINUOUS
 62
     6
 10
531.294621
 20
182.845622
 40
1.000000
 50
269.999980
 51
359.999961
  0
ARC
  8
CSLAYER1
  6
CONTINUOUS
 62
     6
 10
531.294621
 20
186.145609
 40
1.000000
 50
269.999980
 51
359.999961
  0
LINE
  8
CSLAYER1
  6
CONTINUOUS
 62
     6
 10
518.773549
 20
191.045634
 11
530.626240
 21
191.045634
  0
ARC
  8
CSLAYER1
  6
CONTINUOUS
 62
     6
 10
524.294621
 20
179.845622
 40
2.000000
 50
90.000018
 51
179.999999
  0
LINE
  8
CSLAYER1
  6
CONTINUOUS
 62
     6
 10
452.294629
 20
224.345622
 11
452.294644
 21
179.339772
  0
LINE
  8
CSLAYER1
  6
CONTINUOUS
 62
     6
 10
480.494585
 20
256.845644
 11
476.294528
 21
256.845643
  0
LINE
  8
CSLAYER1
  6
CONTINUOUS
 62
     6
 10
480.494586
 20
249.845644
 11
475.924337
 21
249.845643
  0
LINE
  8
CSLAYER1
  6
CONTINUOUS
 62
     6
 10
475.294531
 20
250.577697
 11
475.294528
 21
255.845642
  0
LINE
  8
CSLAYER1
  6
CONTINUOUS
 62
     6
 10
474.294562
 20
177.845622
 11
474.294540
 21
229.645686
  0
ARC
  8
CSLAYER1
  6
CONTINUOUS
 62
     6
 10
475.294531
 20
248.845642
 40
1.000000
 50
119.999941
 51
180.000024
  0
ARC
  8
CSLAYER1
  6
CONTINUOUS
 62
     6
 10
476.294528
 20
255.845643
 40
1.000000
 50
90.000042
 51
180.000024
  0
ARC
  8
CSLAYER1
  6
CONTINUOUS
 62
     6
 10
472.294541
 20
227.345641
 40
2.000000
 50
-89.999995
 51
0.000044
  0
ARC
  8
CSLAYER1
  6
CONTINUOUS
 62
     6
 10
474.294531
 20
250.577697
 40
1.000000
 50
-60.000039
 51
0.000044
  0
LINE
  8
CSLAYER1
  6
CONTINUOUS
 62
     6
 10
453.294646
 20
225.345621
 11
472.294541
 21
225.345613
  0
ARC
  8
CSLAYER1
  6
CONTINUOUS
 62
     6
 10
453.294644
 20
220.693750
 40
1.000000
 50
89.999993
 51
179.999974
  0
ARC
  8
CSLAYER1
  6
CONTINUOUS
 62
     6
 10
453.294646
 20
224.345621
 40
1.000000
 50
89.999993
 51
179.999974
  0
LINE
  8
CSLAYER1
  6
CONTINUOUS
 62
     6
 10
453.294626
 20
178.345621
 11
472.294541
 21
178.345613
  0
ARC
  8
CSLAYER1
  6
CONTINUOUS
 62
     6
 10
453.294628
 20
183.046908
 40
1.000000
 50
179.999974
 51
269.999955
  0
ARC
  8
CSLAYER1
  6
CONTINUOUS
 62
     6
 10
453.294626
 20
179.345621
 40
1.000000
 50
179.999974
 51
269.999955
  0
LINE
  8
CSLAYER1
  6
CONTINUOUS
 62
     6
 10
453.294644
 20
221.693750
 11
472.294542
 21
221.693741
  0
LINE
  8
CSLAYER1
  6
CONTINUOUS
 62
     6
 10
454.319087
 20
214.743177
 11
472.294539
 21
214.743169
  0
LINE
  8
CSLAYER1
  6
CONTINUOUS
 62
     6
 10
454.319076
 20
188.948063
 11
472.294528
 21
188.948055
  0
LINE
  8
CSLAYER1
  6
CONTINUOUS
 62
     6
 10
453.294627
 20
182.046908
 11
472.294542
 21
182.046900
  0
ARC
  8
CSLAYER1
  6
CONTINUOUS
 62
     6
 10
472.294542
 20
223.693769
 40
2.000000
 50
-89.999995
 51
0.000044
  0
ARC
  8
CSLAYER1
  6
CONTINUOUS
 62
     6
 10
472.294541
 20
176.345602
 40
2.000000
 50
33.626331
 51
89.999995
  0
ARC
  8
CSLAYER1
  6
CONTINUOUS
 62
     6
 10
472.294542
 20
180.046900
 40
2.000000
 50
33.626498
 51
89.999995
  0
LINE
  8
CSLAYER1
  6
CONTINUOUS
 62
     6
 10
517.294740
 20
197.845662
 11
517.294749
 21
177.845621
  0
ARC
  8
CSLAYER1
  6
CONTINUOUS
 62
     6
 10
519.294740
 20
197.845663
 40
2.000000
 50
90.000041
 51
180.000025
  0
ARC
  8
CSLAYER1
  6
CONTINUOUS
 62
     6
 10
519.294749
 20
177.845622
 40
2.000000
 50
180.000025
 51
270.000000
  0
ARC
  8
CSLAYER1
  6
CONTINUOUS
 62
     6
 10
519.294748
 20
179.845622
 40
2.000000
 50
90.000000
 51
180.000025
  0
LINE
  8
CSLAYER1
  6
CONTINUOUS
 62
     6
 10
493.794734
 20
197.845645
 11
493.794742
 21
177.845621
  0
LINE
  8
CSLAYER1
  6
CONTINUOUS
 62
     6
 10
490.794735
 20
197.845642
 11
490.794744
 21
177.845622
  0
LINE
  8
CSLAYER1
  6
CENTER
 62
     3
 10
492.294593
 20
161.845612
 11
492.294548
 21
266.845657
  0
ARC
  8
CSLAYER1
  6
CONTINUOUS
 62
     6
 10
495.794742
 20
177.845622
 40
2.000000
 50
180.000025
 51
270.000000
  0
ARC
  8
CSLAYER1
  6
CONTINUOUS
 62
     6
 10
488.794744
 20
177.845622
 40
2.000000
 50
-90.000000
 51
0.000025
  0
ARC
  8
CSLAYER1
  6
CONTINUOUS
 62
     6
 10
495.794734
 20
197.845646
 40
2.000000
 50
90.000041
 51
180.000025
  0
ARC
  8
CSLAYER1
  6
CONTINUOUS
 62
     6
 10
488.794735
 20
197.845641
 40
2.000000
 50
0.000025
 51
90.000041
  0
LINE
  8
CSLAYER1
  6
CENTER
 62
     3
 10
481.994532
 20
257.845643
 11
490.994532
 21
257.845651
  0
LINE
  8
CSLAYER1
  6
CENTER
 62
     3
 10
486.494529
 20
262.345663
 11
486.494536
 21
253.345663
  0
LINE
  8
CSLAYER1
  6
CENTER
 62
     3
 10
546.494579
 20
205.845653
 11
533.994579
 21
205.845647
  0
LINE
  8
CSLAYER1
  6
CENTER
 62
     3
 10
538.494581
 20
201.345633
 11
538.494577
 21
210.345633
  0
LINE
  8
CSLAYER1
  6
CENTER
 62
     3
 10
546.494556
 20
257.845683
 11
533.994556
 21
257.845677
  0
LINE
  8
CSLAYER1
  6
CENTER
 62
     3
 10
538.494554
 20
262.345695
 11
538.494558
 21
253.345695
  0
LINE
  8
CSLAYER1
  6
CENTER
 62
     3
 10
481.994574
 20
205.845613
 11
490.994574
 21
205.845621
  0
LINE
  8
CSLAYER1
  6
CENTER
 62
     3
 10
486.494578
 20
201.345601
 11
486.494571
 21
210.345601
  0
CIRCLE
  8
CSLAYER1
  6
CONTINUOUS
 62
     6
 10
512.494558
 20
231.845643
 40
30.000000
  0
ARC
  8
CSLAYER1
  6
CONTINUOUS
 62
     6
 10
512.494550
 20
231.845666
 40
31.000000
 50
-175.930444
 51
175.930414
  0
LINE
  8
CSLAYER1
  6
CONTINUOUS
 62
     6
 10
474.160054
 20
229.645686
 11
482.575330
 21
229.645674
  0
LINE
  8
CSLAYER1
  6
CONTINUOUS
 62
     6
 10
474.160056
 20
234.045684
 11
482.575331
 21
234.045672
  0
LINE
  8
CSLAYER1
  6
CONTINUOUS
 62
     6
 10
474.160055
 20
231.845691
 11
482.575330
 21
231.845671
  0
ARC
  8
CSLAYER1
  6
CONTINUOUS
 62
     6
 10
471.247901
 20
216.086663
 40
15.759004
 50
90.000210
 51
117.463963
  0
ARC
  8
CSLAYER1
  6
CONTINUOUS
 62
     6
 10
471.247901
 20
216.086663
 40
13.559023
 50
90.000284
 51
117.463982
  0
ARC
  8
CSLAYER1
  6
CONTINUOUS
 62
     6
 10
475.112677
 20
231.295664
 40
1.099999
 50
149.999846
 51
209.999834
  0
ARC
  8
CSLAYER1
  6
CONTINUOUS
 62
     6
 10
475.112676
 20
230.195666
 40
1.099999
 50
149.999846
 51
209.999834
  0
ARC
  8
CSLAYER1
  6
CONTINUOUS
 62
     6
 10
473.207433
 20
230.195674
 40
1.099999
 50
-30.000166
 51
29.999829
  0
ARC
  8
CSLAYER1
  6
CONTINUOUS
 62
     6
 10
470.295192
 20
230.195685
 40
1.099999
 50
-30.000309
 51
29.999692
  0
ARC
  8
CSLAYER1
  6
CONTINUOUS
 62
     6
 10
470.295208
 20
231.295684
 40
1.099999
 50
-30.000309
 51
29.999692
  0
ARC
  8
CSLAYER1
  6
CONTINUOUS
 62
     6
 10
472.200466
 20
231.295675
 40
1.099999
 50
149.999709
 51
209.999697
  0
LINE
  8
CSLAYER1
  6
CONTINUOUS
 62
     6
 10
464.740962
 20
228.605607
 11
461.719963
 21
226.828764
  0
LINE
  8
CSLAYER1
  6
CONTINUOUS
 62
     6
 10
464.487315
 20
229.093623
 11
461.381757
 21
227.479447
  0
LINE
  8
CSLAYER1
  6
CONTINUOUS
 62
     6
 10
464.233662
 20
229.581636
 11
461.043551
 21
228.130130
  0
LINE
  8
CSLAYER1
  6
CONTINUOUS
 62
     6
 10
464.994617
 20
228.117595
 11
463.980000
 21
230.069644
  0
ARC
  8
CSLAYER1
  6
CONTINUOUS
 62
     6
 10
471.247742
 20
247.604646
 40
15.758933
 50
242.536515
 51
270.000373
  0
ARC
  8
CSLAYER1
  6
CONTINUOUS
 62
     6
 10
471.247742
 20
247.604646
 40
13.558951
 50
242.536613
 51
270.000393
  0
ARC
  8
CSLAYER1
  6
CONTINUOUS
 62
     6
 10
475.112678
 20
233.495707
 40
1.099999
 50
150.000174
 51
210.000162
  0
ARC
  8
CSLAYER1
  6
CONTINUOUS
 62
     6
 10
475.112677
 20
232.395709
 40
1.099999
 50
150.000174
 51
210.000162
  0
ARC
  8
CSLAYER1
  6
CONTINUOUS
 62
     6
 10
473.207434
 20
232.395702
 40
1.099999
 50
-29.999838
 51
30.000157
  0
ARC
  8
CSLAYER1
  6
CONTINUOUS
 62
     6
 10
470.295224
 20
232.395690
 40
1.099999
 50
-29.999674
 51
30.000321
  0
ARC
  8
CSLAYER1
  6
CONTINUOUS
 62
     6
 10
470.295209
 20
233.495688
 40
1.099999
 50
-29.999674
 51
30.000321
  0
ARC
  8
CSLAYER1
  6
CONTINUOUS
 62
     6
 10
472.200467
 20
233.495699
 40
1.099999
 50
150.000338
 51
210.000326
  0
CIRCLE
  8
CSLAYER1
  6
CONTINUOUS
 62
     6
 10
512.494550
 20
231.845674
 40
6.818180
  0
CIRCLE
  8
CSLAYER1
  6
CONTINUOUS
 62
     6
 10
512.494550
 20
231.845674
 40
7.909089
  0
LINE
  8
CSLAYER1
  6
CONTINUOUS
 62
     6
 10
512.494553
 20
238.663854
 11
509.085461
 21
228.436587
  0
LINE
  8
CSLAYER1
  6
CONTINUOUS
 62
     6
 10
509.085461
 20
228.436587
 11
512.494549
 21
228.394891
  0
LINE
  8
CSLAYER1
  6
CONTINUOUS
 62
     6
 10
512.494549
 20
228.394891
 11
512.494548
 21
225.027490
  0
LINE
  8
CSLAYER1
  6
CONTINUOUS
 62
     6
 10
515.903640
 20
235.254761
 11
512.494552
 21
235.231626
  0
LINE
  8
CSLAYER1
  6
CONTINUOUS
 62
     6
 10
512.494552
 20
235.231626
 11
512.494553
 21
238.663854
  0
TEXT
  8
CSLAYER1
 62
     6
 10
510.526459
 20
246.678482
 40
3.409090
 41
1.200000
  1
S
 50
191.999969
 51
3.000000
  7
JX_FONT
 72
     5
 11
507.858784
 21
246.111452
  0
TEXT
  8
CSLAYER1
 62
     6
 10
507.485565
 20
245.945145
 40
3.409090
 41
1.200000
  1
A
 50
204.000000
 51
3.000000
  7
JX_FONT
 72
     5
 11
504.994078
 21
244.835863
  0
TEXT
  8
CSLAYER1
 62
     6
 10
504.663544
 20
244.595596
 40
3.409090
 41
1.596000
  1
W
 50
216.000000
 51
3.000000
  7
JX_FONT
 72
     5
 11
501.729019
 21
242.463539
  0
TEXT
  8
CSLAYER1
 62
     6
 10
502.183807
 20
242.688858
 40
3.409090
 41
1.200000
  1
A
 50
227.999969
 51
3.000000
  7
JX_FONT
 72
     5
 11
500.358905
 21
240.662101
  0
TEXT
  8
CSLAYER1
 62
     6
 10
500.154755
 20
240.308243
 40
3.409090
 41
1.200000
  1
M
 50
239.999969
 51
3.000000
  7
JX_FONT
 72
     5
 11
498.791117
 21
237.946357
  0
TEXT
  8
CSLAYER1
 62
     6
 10
498.664948
 20
237.557693
 40
3.409090
 41
1.200000
  1
U
 50
251.999969
 51
3.000000
  7
JX_FONT
 72
     5
 11
497.822173
 21
234.963904
  0
TEXT
  8
CSLAYER1
 62
     6
 10
497.779572
 20
234.557510
 40
3.409090
 41
1.200000
  1
R
 50
263.999939
 51
3.000000
  7
JX_FONT
 72
     5
 11
497.494491
 21
231.845179
  0
TEXT
  8
CSLAYER1
 62
     6
 10
497.537323
 20
231.438858
 40
3.409090
 41
1.200000
  1
A
 50
275.999969
 51
3.000000
  7
JX_FONT
 72
     5
 11
497.822399
 21
228.726526
  0
TEXT
  8
CSLAYER1
 62
     6
 10
505.368256
 20
218.688980
 40
3.409090
 41
1.200000
  1
K
 50
336.000031
 51
3.000000
  7
JX_FONT
 72
     5
 11
507.859743
 21
217.579700
  0
TEXT
  8
CSLAYER1
 62
     6
 10
508.259430
 20
217.494827
 40
3.409090
 41
0.792000
  1
I
 50
347.999969
 51
3.000000
  7
JX_FONT
 72
     5
 11
510.020095
 21
217.120585
  0
TEXT
  8
CSLAYER1
 62
     6
 10
500.633026
 20
222.724869
 40
3.409090
 41
1.200000
  1
E
 50
311.999939
 51
3.000000
  7
JX_FONT
 72
     5
 11
502.457925
 21
220.698109
  0
TEXT
  8
CSLAYER1
 62
     6
 10
502.788544
 20
220.458084
 40
3.409090
 41
1.200000
  1
N
 50
324.000031
 51
3.000000
  7
JX_FONT
 72
     5
 11
504.994954
 21
218.855035
  0
TEXT
  8
CSLAYER1
 62
     6
 10
513.653259
 20
246.763504
 40
3.410000
 41
1.200000
  1
*
 50
179.999969
 51
3.000000
  7
JX_FONT
 72
     5
 11
510.925259
 21
246.763505
  0
TEXT
  8
CSLAYER1
 62
     6
 10
526.324097
 20
226.133621
 40
3.409090
 41
1.200000
  1
U
 50
71.999969
 51
3.000000
  7
JX_FONT
 72
     5
 11
527.166871
 21
228.727411
  0
TEXT
  8
CSLAYER1
 62
     6
 10
527.209473
 20
229.133804
 40
3.409090
 41
1.200000
  1
R
 50
83.999954
 51
3.000000
  7
JX_FONT
 72
     5
 11
527.494552
 21
231.846136
  0
TEXT
  8
CSLAYER1
 62
     6
 10
527.451782
 20
232.252457
 40
3.409090
 41
1.200000
  1
A
 50
95.999985
 51
3.000000
  7
JX_FONT
 72
     5
 11
527.166705
 21
234.964788
  0
TEXT
  8
CSLAYER1
 62
     6
 10
519.620789
 20
245.002396
 40
3.409090
 41
1.200000
  1
K
 50
156.000031
 51
3.000000
  7
JX_FONT
 72
     5
 11
517.129301
 21
246.111676
  0
TEXT
  8
CSLAYER1
 62
     6
 10
516.729675
 20
246.196487
 40
3.409090
 41
0.792000
  1
I
 50
167.999969
 51
3.000000
  7
JX_FONT
 72
     5
 11
514.969010
 21
246.570729
  0
TEXT
  8
CSLAYER1
 62
     6
 10
525.993164
 20
238.300980
 40
3.409090
 41
1.200000
  1
D
 50
120.000015
 51
3.000000
  7
JX_FONT
 72
     5
 11
524.629527
 21
240.662866
  0
TEXT
  8
CSLAYER1
 62
     6
 10
524.356079
 20
240.966385
 40
3.409090
 41
1.200000
  1
E
 50
131.999939
 51
3.000000
  7
JX_FONT
 72
     5
 11
522.531180
 21
242.993145
  0
TEXT
  8
CSLAYER1
 62
     6
 10
522.200500
 20
243.233231
 40
3.409090
 41
1.200000
  1
N
 50
144.000031
 51
3.000000
  7
JX_FONT
 72
     5
 11
519.994090
 21
244.836280
  0
TEXT
  8
CSLAYER1
 62
     6
 10
514.462585
 20
217.012833
 40
3.409090
 41
1.200000
  1
S
 50
11.999977
 51
3.000000
  7
JX_FONT
 72
     5
 11
517.130260
 21
217.579863
  0
TEXT
  8
CSLAYER1
 62
     6
 10
517.503479
 20
217.746170
 40
3.409090
 41
1.200000
  1
A
 50
24.000023
 51
3.000000
  7
JX_FONT
 72
     5
 11
519.994966
 21
218.855453
  0
TEXT
  8
CSLAYER1
 62
     6
 10
520.325500
 20
219.095718
 40
3.409090
 41
1.596000
  1
W
 50
36.000008
 51
3.000000
  7
JX_FONT
 72
     5
 11
523.260025
 21
221.227776
  0
TEXT
  8
CSLAYER1
 62
     6
 10
522.805237
 20
221.002457
 40
3.409090
 41
1.200000
  1
A
 50
48.000000
 51
3.000000
  7
JX_FONT
 72
     5
 11
524.630138
 21
223.029215
  0
TEXT
  8
CSLAYER1
 62
     6
 10
524.834351
 20
223.383133
 40
3.409090
 41
1.200000
  1
M
 50
59.999985
 51
3.000000
  7
JX_FONT
 72
     5
 11
526.197987
 21
225.745019
  0
TEXT
  8
CSLAYER1
 62
     6
 10
511.335785
 20
216.927811
 40
3.410000
 41
1.200000
  1
*
 50
359.999969
 51
3.000000
  7
JX_FONT
 72
     5
 11
514.063785
 21
216.927809
  0
CIRCLE
  8
CSLAYER1
  6
CONTINUOUS
 62
     6
 10
512.494550
 20
231.845674
 40
16.000000
  0
CIRCLE
  8
CSLAYER1
  6
CONTINUOUS
 62
     6
 10
512.494550
 20
231.845674
 40
17.000000
  0
LINE
  8
CSLAYER1
  6
CONTINUOUS
 62
     6
 10
512.494550
 20
225.027498
 11
515.903640
 21
235.254761
  0
LINE
  8
CSLAYER1
  6
CONTINUOUS
 62
     6
 10
512.494567
 20
235.231626
 11
512.494552
 21
235.231626
  0
LINE
  8
CSLAYER1
  6
CONTINUOUS
 62
     6
 10
464.740964
 20
235.085730
 11
461.719965
 21
236.862575
  0
LINE
  8
CSLAYER1
  6
CONTINUOUS
 62
     6
 10
464.487316
 20
234.597714
 11
461.381759
 21
236.211892
  0
LINE
  8
CSLAYER1
  6
CONTINUOUS
 62
     6
 10
464.233663
 20
234.109702
 11
461.043553
 21
235.561208
  0
LINE
  8
CSLAYER1
  6
CONTINUOUS
 62
     6
 10
464.994602
 20
235.573711
 11
463.979987
 21
233.621667
  0
LINE
  8
CSLAYER1
  6
CENTER
 62
     3
 10
486.494579
 20
264.345678
 11
486.494574
 21
251.412420
  0
CIRCLE
  8
CSLAYER1
  6
CONTINUOUS
 62
     6
 10
486.494585
 20
257.845684
 40
3.500000
  0
ARC
  8
CSLAYER1
  6
CONTINUOUS
 62
     6
 10
486.494572
 20
257.845685
 40
1.944444
 50
163.398391
 51
196.601553
  0
ARC
  8
CSLAYER1
  6
CONTINUOUS
 62
     6
 10
486.494572
 20
257.845685
 40
1.944444
 50
253.398397
 51
286.601559
  0
ARC
  8
CSLAYER1
  6
CONTINUOUS
 62
     6
 10
486.494572
 20
257.845685
 40
1.944444
 50
-16.601586
 51
16.601548
  0
ARC
  8
CSLAYER1
  6
CONTINUOUS
 62
     6
 10
486.494572
 20
257.845685
 40
1.944444
 50
73.398382
 51
106.601571
  0
LINE
  8
CSLAYER1
  6
CONTINUOUS
 62
     6
 10
487.605697
 20
257.290122
 11
488.357953
 21
257.290122
  0
LINE
  8
CSLAYER1
  6
CONTINUOUS
 62
     6
 10
485.383447
 20
257.290123
 11
484.631191
 21
257.290123
  0
LINE
  8
CSLAYER1
  6
CONTINUOUS
 62
     6
 10
487.605697
 20
258.401247
 11
488.357954
 21
258.401247
  0
LINE
  8
CSLAYER1
  6
CONTINUOUS
 62
     6
 10
485.383448
 20
258.401248
 11
484.631191
 21
258.401248
  0
LINE
  8
CSLAYER1
  6
CONTINUOUS
 62
     6
 10
485.939009
 20
256.734589
 11
485.939009
 21
255.982275
  0
LINE
  8
CSLAYER1
  6
CONTINUOUS
 62
     6
 10
485.939010
 20
258.956781
 11
485.939011
 21
259.709096
  0
LINE
  8
CSLAYER1
  6
CONTINUOUS
 62
     6
 10
487.050134
 20
256.734589
 11
487.050134
 21
255.982275
  0
LINE
  8
CSLAYER1
  6
CONTINUOUS
 62
     6
 10
487.050135
 20
258.956781
 11
487.050135
 21
259.709095
  0
ARC
  8
CSLAYER1
  6
CONTINUOUS
 62
     6
 10
487.605697
 20
256.734589
 40
0.555556
 50
89.999976
 51
179.942667
  0
ARC
  8
CSLAYER1
  6
CONTINUOUS
 62
     6
 10
487.605698
 20
258.956780
 40
0.555556
 50
179.999986
 51
269.999992
  0
ARC
  8
CSLAYER1
  6
CONTINUOUS
 62
     6
 10
485.383448
 20
258.956781
 40
0.555556
 50
269.999992
 51
359.999981
  0
ARC
  8
CSLAYER1
  6
CONTINUOUS
 62
     6
 10
485.383447
 20
256.734590
 40
0.555556
 50
-0.000019
 51
89.942630
  0
LINE
  8
CSLAYER1
  6
CENTER
 62
     3
 10
479.994568
 20
257.845672
 11
492.994585
 21
257.845667
  0
LINE
  8
CSLAYER1
  6
CENTER
 62
     3
 10
538.494566
 20
264.345667
 11
538.494566
 21
251.412409
  0
CIRCLE
  8
CSLAYER1
  6
CONTINUOUS
 62
     6
 10
538.494557
 20
257.845673
 40
3.500000
  0
ARC
  8
CSLAYER1
  6
CONTINUOUS
 62
     6
 10
538.494570
 20
257.845674
 40
1.944444
 50
-16.601577
 51
16.601584
  0
ARC
  8
CSLAYER1
  6
CONTINUOUS
 62
     6
 10
538.494570
 20
257.845674
 40
1.944444
 50
253.398417
 51
286.601578
  0
ARC
  8
CSLAYER1
  6
CONTINUOUS
 62
     6
 10
538.494570
 20
257.845674
 40
1.944444
 50
163.398428
 51
196.601562
  0
ARC
  8
CSLAYER1
  6
CONTINUOUS
 62
     6
 10
538.494570
 20
257.845674
 40
1.944444
 50
73.398405
 51
106.601594
  0
LINE
  8
CSLAYER1
  6
CONTINUOUS
 62
     6
 10
537.383445
 20
257.290112
 11
536.631189
 21
257.290112
  0
LINE
  8
CSLAYER1
  6
CONTINUOUS
 62
     6
 10
539.605695
 20
257.290112
 11
540.357951
 21
257.290112
  0
LINE
  8
CSLAYER1
  6
CONTINUOUS
 62
     6
 10
537.383445
 20
258.401236
 11
536.631189
 21
258.401236
  0
LINE
  8
CSLAYER1
  6
CONTINUOUS
 62
     6
 10
539.605695
 20
258.401236
 11
540.357951
 21
258.401236
  0
LINE
  8
CSLAYER1
  6
CONTINUOUS
 62
     6
 10
539.050133
 20
256.734578
 11
539.050133
 21
255.982264
  0
LINE
  8
CSLAYER1
  6
CONTINUOUS
 62
     6
 10
539.050133
 20
258.956770
 11
539.050133
 21
259.709084
  0
LINE
  8
CSLAYER1
  6
CONTINUOUS
 62
     6
 10
537.939008
 20
256.734578
 11
537.939008
 21
255.982264
  0
LINE
  8
CSLAYER1
  6
CONTINUOUS
 62
     6
 10
537.939008
 20
258.956770
 11
537.939008
 21
259.709084
  0
ARC
  8
CSLAYER1
  6
CONTINUOUS
 62
     6
 10
537.383445
 20
256.734578
 40
0.555556
 50
0.057309
 51
89.999999
  0
ARC
  8
CSLAYER1
  6
CONTINUOUS
 62
     6
 10
537.383445
 20
258.956770
 40
0.555556
 50
269.999984
 51
359.999990
  0
ARC
  8
CSLAYER1
  6
CONTINUOUS
 62
     6
 10
539.605695
 20
258.956770
 40
0.555556
 50
179.999995
 51
269.999984
  0
ARC
  8
CSLAYER1
  6
CONTINUOUS
 62
     6
 10
539.605695
 20
256.734578
 40
0.555556
 50
90.057346
 51
179.999995
  0
LINE
  8
CSLAYER1
  6
CENTER
 62
     3
 10
544.994574
 20
257.845658
 11
531.994557
 21
257.845658
  0
LINE
  8
CSLAYER1
  6
CENTER
 62
     3
 10
486.494552
 20
199.345661
 11
486.494557
 21
212.278919
  0
CIRCLE
  8
CSLAYER1
  6
CONTINUOUS
 62
     6
 10
486.494563
 20
205.845654
 40
3.500000
  0
ARC
  8
CSLAYER1
  6
CONTINUOUS
 62
     6
 10
486.494550
 20
205.845654
 40
1.944444
 50
163.398399
 51
196.601560
  0
ARC
  8
CSLAYER1
  6
CONTINUOUS
 62
     6
 10
486.494550
 20
205.845654
 40
1.944444
 50
73.398392
 51
106.601554
  0
ARC
  8
CSLAYER1
  6
CONTINUOUS
 62
     6
 10
486.494550
 20
205.845654
 40
1.944444
 50
-16.601596
 51
16.601538
  0
ARC
  8
CSLAYER1
  6
CONTINUOUS
 62
     6
 10
486.494550
 20
205.845654
 40
1.944444
 50
253.398381
 51
286.601569
  0
LINE
  8
CSLAYER1
  6
CONTINUOUS
 62
     6
 10
487.605675
 20
206.401216
 11
488.357932
 21
206.401215
  0
LINE
  8
CSLAYER1
  6
CONTINUOUS
 62
     6
 10
485.383426
 20
206.401217
 11
484.631169
 21
206.401217
  0
LINE
  8
CSLAYER1
  6
CONTINUOUS
 62
     6
 10
487.605675
 20
205.290091
 11
488.357931
 21
205.290091
  0
LINE
  8
CSLAYER1
  6
CONTINUOUS
 62
     6
 10
485.383425
 20
205.290092
 11
484.631169
 21
205.290092
  0
LINE
  8
CSLAYER1
  6
CONTINUOUS
 62
     6
 10
485.938988
 20
206.956750
 11
485.938989
 21
207.709064
  0
LINE
  8
CSLAYER1
  6
CONTINUOUS
 62
     6
 10
485.938987
 20
204.734558
 11
485.938987
 21
203.982244
  0
LINE
  8
CSLAYER1
  6
CONTINUOUS
 62
     6
 10
487.050113
 20
206.956749
 11
487.050113
 21
207.709064
  0
LINE
  8
CSLAYER1
  6
CONTINUOUS
 62
     6
 10
487.050112
 20
204.734558
 11
487.050112
 21
203.982243
  0
ARC
  8
CSLAYER1
  6
CONTINUOUS
 62
     6
 10
487.605675
 20
206.956749
 40
0.555556
 50
180.057285
 51
269.999975
  0
ARC
  8
CSLAYER1
  6
CONTINUOUS
 62
     6
 10
487.605675
 20
204.734557
 40
0.555556
 50
89.999960
 51
179.999966
  0
ARC
  8
CSLAYER1
  6
CONTINUOUS
 62
     6
 10
485.383425
 20
204.734558
 40
0.555556
 50
-0.000029
 51
89.999960
  0
ARC
  8
CSLAYER1
  6
CONTINUOUS
 62
     6
 10
485.383426
 20
206.956750
 40
0.555556
 50
270.057321
 51
359.999971
  0
LINE
  8
CSLAYER1
  6
CENTER
 62
     3
 10
479.994546
 20
205.845672
 11
492.994563
 21
205.845667
  0
LINE
  8
CSLAYER1
  6
CENTER
 62
     3
 10
538.494538
 20
199.345628
 11
538.494549
 21
212.278885
  0
CIRCLE
  8
CSLAYER1
  6
CONTINUOUS
 62
     6
 10
538.494535
 20
205.845621
 40
3.500000
  0
ARC
  8
CSLAYER1
  6
CONTINUOUS
 62
     6
 10
538.494548
 20
205.845621
 40
1.944444
 50
-16.601633
 51
16.601529
  0
ARC
  8
CSLAYER1
  6
CONTINUOUS
 62
     6
 10
538.494548
 20
205.845621
 40
1.944444
 50
73.398373
 51
106.601535
  0
ARC
  8
CSLAYER1
  6
CONTINUOUS
 62
     6
 10
538.494548
 20
205.845621
 40
1.944444
 50
163.398389
 51
196.601524
  0
ARC
  8
CSLAYER1
  6
CONTINUOUS
 62
     6
 10
538.494548
 20
205.845621
 40
1.944444
 50
253.398358
 51
286.601547
  0
LINE
  8
CSLAYER1
  6
CONTINUOUS
 62
     6
 10
537.383424
 20
206.401184
 11
536.631167
 21
206.401185
  0
LINE
  8
CSLAYER1
  6
CONTINUOUS
 62
     6
 10
539.605673
 20
206.401182
 11
540.357930
 21
206.401182
  0
LINE
  8
CSLAYER1
  6
CONTINUOUS
 62
     6
 10
537.383423
 20
205.290059
 11
536.631166
 21
205.290060
  0
LINE
  8
CSLAYER1
  6
CONTINUOUS
 62
     6
 10
539.605672
 20
205.290057
 11
540.357929
 21
205.290057
  0
LINE
  8
CSLAYER1
  6
CONTINUOUS
 62
     6
 10
539.050111
 20
206.956716
 11
539.050112
 21
207.709031
  0
LINE
  8
CSLAYER1
  6
CONTINUOUS
 62
     6
 10
539.050110
 20
204.734524
 11
539.050109
 21
203.982210
  0
LINE
  8
CSLAYER1
  6
CONTINUOUS
 62
     6
 10
537.938987
 20
206.956717
 11
537.938987
 21
207.709031
  0
LINE
  8
CSLAYER1
  6
CONTINUOUS
 62
     6
 10
537.938985
 20
204.734525
 11
537.938984
 21
203.982211
  0
ARC
  8
CSLAYER1
  6
CONTINUOUS
 62
     6
 10
537.383424
 20
206.956717
 40
0.555556
 50
269.999952
 51
359.942643
  0
ARC
  8
CSLAYER1
  6
CONTINUOUS
 62
     6
 10
537.383422
 20
204.734526
 40
0.555556
 50
-0.000039
 51
89.999968
  0
ARC
  8
CSLAYER1
  6
CONTINUOUS
 62
     6
 10
539.605672
 20
204.734524
 40
0.555556
 50
89.999968
 51
179.999956
  0
ARC
  8
CSLAYER1
  6
CONTINUOUS
 62
     6
 10
539.605674
 20
206.956716
 40
0.555556
 50
179.999956
 51
269.942606
  0
LINE
  8
CSLAYER1
  6
CENTER
 62
     3
 10
544.994552
 20
205.845631
 11
531.994535
 21
205.845642
  0
LINE
  8
CSLAYER1
  6
CONTINUOUS
 62
     6
 10
474.294538
 20
234.045684
 11
474.294531
 21
248.845642
  0
LINE
  8
CSLAYER1
  6
CENTER
 62
     3
 10
470.294592
 20
160.845622
 11
470.294592
 21
177.345622
  0
LINE
  8
CSLAYER1
  6
CENTER
 62
     3
 10
514.294592
 20
160.845622
 11
514.294592
 21
177.345622
  0
ENDSEC
  0
EOF
