  0
SECTION
  2
HEADER
  9
$ACADVER
  1
AC1015
  9
$ACADMAINTVER
 70
     6
  9
$DWGCODEPAGE
  3
ANSI_932
  9
$INSBASE
 10
0.0
 20
0.0
 30
0.0
  9
$EXTMIN
 10
0.0
 20
0.0
 30
0.0
  9
$EXTMAX
 10
420.0
 20
297.0
 30
0.0
  9
$LIMMIN
 10
0.0
 20
0.0
  9
$LIMMAX
 10
420.0
 20
297.0
  9
$ORTHOMODE
 70
     0
  9
$REGENMODE
 70
     1
  9
$FILLMODE
 70
     1
  9
$QTEXTMODE
 70
     0
  9
$MIRRTEXT
 70
     1
  9
$LTSCALE
 40
1.0
  9
$ATTMODE
 70
     1
  9
$TEXTSIZE
 40
0.2
  9
$TRACEWID
 40
1.0
  9
$TEXTSTYLE
  7
FX_VECTOR
  9
$CLAYER
  8
0
  9
$CELTYPE
  6
ByLayer
  9
$CECOLOR
 62
   256
  9
$CELTSCALE
 40
1.0
  9
$DISPSILH
 70
     0
  9
$DIMSCALE
 40
1.0
  9
$DIMASZ
 40
3.0
  9
$DIMEXO
 40
1.0
  9
$DIMDLI
 40
8.0
  9
$DIMRND
 40
0.0
  9
$DIMDLE
 40
6.0
  9
$DIMEXE
 40
1.0
  9
$DIMTP
 40
0.0
  9
$DIMTM
 40
0.0
  9
$DIMTXT
 40
3.5
  9
$DIMCEN
 40
2.5
  9
$DIMTSZ
 40
0.0
  9
$DIMTOL
 70
     0
  9
$DIMLIM
 70
     0
  9
$DIMTIH
 70
     0
  9
$DIMTOH
 70
     0
  9
$DIMSE1
 70
     0
  9
$DIMSE2
 70
     0
  9
$DIMTAD
 70
     1
  9
$DIMZIN
 70
     8
  9
$DIMBLK
  1

  9
$DIMASO
 70
     1
  9
$DIMSHO
 70
     1
  9
$DIMPOST
  1

  9
$DIMAPOST
  1

  9
$DIMALT
 70
     0
  9
$DIMALTD
 70
     3
  9
$DIMALTF
 40
0.03937
  9
$DIMLFAC
 40
1.0
  9
$DIMTOFL
 70
     1
  9
$DIMTVP
 40
0.0
  9
$DIMTIX
 70
     0
  9
$DIMSOXD
 70
     0
  9
$DIMSAH
 70
     1
  9
$DIMBLK1
  1
FXTIP_ARROW_S
  9
$DIMBLK2
  1
FXTIP_ARROW_E
  9
$DIMSTYLE
  2
FX_DIMINFO
  9
$DIMCLRD
 70
     7
  9
$DIMCLRE
 70
     7
  9
$DIMCLRT
 70
     7
  9
$DIMTFAC
 40
1.0
  9
$DIMGAP
 40
0.5
  9
$DIMJUST
 70
     0
  9
$DIMSD1
 70
     0
  9
$DIMSD2
 70
     0
  9
$DIMTOLJ
 70
     1
  9
$DIMTZIN
 70
     8
  9
$DIMALTZ
 70
     0
  9
$DIMALTTZ
 70
     0
  9
$DIMUPT
 70
     0
  9
$DIMDEC
 70
     4
  9
$DIMTDEC
 70
     2
  9
$DIMALTU
 70
     2
  9
$DIMALTTD
 70
     3
  9
$DIMTXSTY
  7
FX_VECTOR
  9
$DIMAUNIT
 70
     0
  9
$DIMADEC
 70
     4
  9
$DIMALTRND
 40
0.0
  9
$DIMAZIN
 70
     2
  9
$DIMDSEP
 70
    46
  9
$DIMATFIT
 70
     3
  9
$DIMFRAC
 70
     0
  9
$DIMLDRBLK
  1
FXTIP_ARROW_S
  9
$DIMLUNIT
 70
     2
  9
$DIMLWD
 70
    -2
  9
$DIMLWE
 70
    -2
  9
$DIMTMOVE
 70
     0
  9
$LUNITS
 70
     2
  9
$LUPREC
 70
     4
  9
$SKETCHINC
 40
1.0
  9
$FILLETRAD
 40
10.0
  9
$AUNITS
 70
     0
  9
$AUPREC
 70
     0
  9
$MENU
  1
.
  9
$ELEVATION
 40
0.0
  9
$PELEVATION
 40
0.0
  9
$THICKNESS
 40
0.0
  9
$LIMCHECK
 70
     0
  9
$CHAMFERA
 40
10.0
  9
$CHAMFERB
 40
10.0
  9
$CHAMFERC
 40
20.0
  9
$CHAMFERD
 40
0.0
  9
$SKPOLY
 70
     0
  9
$TDCREATE
 40
2456268.346645231
  9
$TDUCREATE
 40
2456267.971645231
  9
$TDUPDATE
 40
2456268.346653044
  9
$TDUUPDATE
 40
2456267.971653044
  9
$TDINDWG
 40
0.0000000116
  9
$TDUSRTIMER
 40
0.0000000116
  9
$USRTIMER
 70
     1
  9
$ANGBASE
 50
0.0
  9
$ANGDIR
 70
     0
  9
$PDMODE
 70
     0
  9
$PDSIZE
 40
0.0
  9
$PLINEWID
 40
0.0
  9
$SPLFRAME
 70
     0
  9
$SPLINETYPE
 70
     6
  9
$SPLINESEGS
 70
     8
  9
$HANDSEED
  5
3E0
  9
$SURFTAB1
 70
     6
  9
$SURFTAB2
 70
     6
  9
$SURFTYPE
 70
     6
  9
$SURFU
 70
     6
  9
$SURFV
 70
     6
  9
$UCSBASE
  2

  9
$UCSNAME
  2

  9
$UCSORG
 10
0.0
 20
0.0
 30
0.0
  9
$UCSXDIR
 10
1.0
 20
0.0
 30
0.0
  9
$UCSYDIR
 10
0.0
 20
1.0
 30
0.0
  9
$UCSORTHOREF
  2

  9
$UCSORTHOVIEW
 70
     0
  9
$UCSORGTOP
 10
0.0
 20
0.0
 30
0.0
  9
$UCSORGBOTTOM
 10
0.0
 20
0.0
 30
0.0
  9
$UCSORGLEFT
 10
0.0
 20
0.0
 30
0.0
  9
$UCSORGRIGHT
 10
0.0
 20
0.0
 30
0.0
  9
$UCSORGFRONT
 10
0.0
 20
0.0
 30
0.0
  9
$UCSORGBACK
 10
0.0
 20
0.0
 30
0.0
  9
$PUCSBASE
  2

  9
$PUCSNAME
  2

  9
$PUCSORG
 10
0.0
 20
0.0
 30
0.0
  9
$PUCSXDIR
 10
1.0
 20
0.0
 30
0.0
  9
$PUCSYDIR
 10
0.0
 20
1.0
 30
0.0
  9
$PUCSORTHOREF
  2

  9
$PUCSORTHOVIEW
 70
     0
  9
$PUCSORGTOP
 10
0.0
 20
0.0
 30
0.0
  9
$PUCSORGBOTTOM
 10
0.0
 20
0.0
 30
0.0
  9
$PUCSORGLEFT
 10
0.0
 20
0.0
 30
0.0
  9
$PUCSORGRIGHT
 10
0.0
 20
0.0
 30
0.0
  9
$PUCSORGFRONT
 10
0.0
 20
0.0
 30
0.0
  9
$PUCSORGBACK
 10
0.0
 20
0.0
 30
0.0
  9
$USERI1
 70
     0
  9
$USERI2
 70
     0
  9
$USERI3
 70
     0
  9
$USERI4
 70
     0
  9
$USERI5
 70
     0
  9
$USERR1
 40
0.0
  9
$USERR2
 40
0.0
  9
$USERR3
 40
0.0
  9
$USERR4
 40
0.0
  9
$USERR5
 40
0.0
  9
$WORLDVIEW
 70
     1
  9
$SHADEDGE
 70
     3
  9
$SHADEDIF
 70
    70
  9
$TILEMODE
 70
     1
  9
$MAXACTVP
 70
    64
  9
$PINSBASE
 10
0.0
 20
0.0
 30
0.0
  9
$PLIMCHECK
 70
     0
  9
$PEXTMIN
 10
1.000000000000000E+20
 20
1.000000000000000E+20
 30
1.000000000000000E+20
  9
$PEXTMAX
 10
-1.000000000000000E+20
 20
-1.000000000000000E+20
 30
-1.000000000000000E+20
  9
$PLIMMIN
 10
0.0
 20
0.0
  9
$PLIMMAX
 10
420.0
 20
297.0
  9
$UNITMODE
 70
     0
  9
$VISRETAIN
 70
     1
  9
$PLINEGEN
 70
     0
  9
$PSLTSCALE
 70
     1
  9
$TREEDEPTH
 70
  3020
  9
$CMLSTYLE
  2
Standard
  9
$CMLJUST
 70
     0
  9
$CMLSCALE
 40
20.0
  9
$PROXYGRAPHICS
 70
     1
  9
$MEASUREMENT
 70
     1
  9
$CELWEIGHT
370
    -1
  9
$ENDCAPS
280
     0
  9
$JOINSTYLE
280
     0
  9
$LWDISPLAY
290
     0
  9
$INSUNITS
 70
     4
  9
$HYPERLINKBASE
  1

  9
$STYLESHEET
  1

  9
$XEDIT
290
     1
  9
$CEPSNTYPE
380
     0
  9
$PSTYLEMODE
290
     1
  9
$FINGERPRINTGUID
  2
{B9A994CE-A4F0-4FA6-A29B-9221A0B0064C}
  9
$VERSIONGUID
  2
{FAEB1C32-E019-11D5-929B-00C0DF256EC4}
  9
$EXTNAMES
290
     1
  9
$PSVPSCALE
 40
0.0
  9
$OLESTARTUP
290
     0
  0
ENDSEC
  0
SECTION
  2
CLASSES
  0
CLASS
  1
ACDBDICTIONARYWDFLT
  2
AcDbDictionaryWithDefault
  3
ObjectDBX Classes
 90
        0
280
     0
281
     0
  0
CLASS
  1
VISUALSTYLE
  2
AcDbVisualStyle
  3
ObjectDBX Classes
 90
     4095
280
     0
281
     0
  0
CLASS
  1
MATERIAL
  2
AcDbMaterial
  3
ObjectDBX Classes
 90
     1153
280
     0
281
     0
  0
CLASS
  1
SUN
  2
AcDbSun
  3
SCENEOE
 90
     1024
280
     0
281
     0
  0
CLASS
  1
DICTIONARYVAR
  2
AcDbDictionaryVar
  3
ObjectDBX Classes
 90
        0
280
     0
281
     0
  0
CLASS
  1
ACDBPLACEHOLDER
  2
AcDbPlaceHolder
  3
ObjectDBX Classes
 90
        0
280
     0
281
     0
  0
CLASS
  1
LAYOUT
  2
AcDbLayout
  3
ObjectDBX Classes
 90
        0
280
     0
281
     0
  0
ENDSEC
  0
SECTION
  2
TABLES
  0
TABLE
  2
VPORT
  5
8
330
0
100
AcDbSymbolTable
 70
     1
  0
VPORT
  5
29
330
8
100
AcDbSymbolTableRecord
100
AcDbViewportTableRecord
  2
*Active
 70
     0
 10
0.0
 20
0.0
 11
1.0
 21
1.0
 12
210.0
 22
148.5
 13
0.0
 23
0.0
 14
10.0
 24
10.0
 15
10.0
 25
10.0
 16
0.0
 26
0.0
 36
1.0
 17
0.0
 27
0.0
 37
0.0
 40
297.0
 41
1.414141414141414
 42
50.0
 43
0.0
 44
0.0
 50
0.0
 51
0.0
 71
     0
 72
   100
 73
     1
 74
     3
 75
     0
 76
     0
 77
     0
 78
     0
281
     0
 65
     1
110
0.0
120
0.0
130
0.0
111
1.0
121
0.0
131
0.0
112
0.0
122
1.0
132
0.0
 79
     0
146
0.0
  0
ENDTAB
  0
TABLE
  2
LTYPE
  5
5
330
0
100
AcDbSymbolTable
 70
     6
  0
LTYPE
  5
14
330
5
100
AcDbSymbolTableRecord
100
AcDbLinetypeTableRecord
  2
ByBlock
 70
     0
  3

 72
    65
 73
     0
 40
0.0
  0
LTYPE
  5
15
330
5
100
AcDbSymbolTableRecord
100
AcDbLinetypeTableRecord
  2
ByLayer
 70
     0
  3

 72
    65
 73
     0
 40
0.0
  0
LTYPE
  5
16
330
5
100
AcDbSymbolTableRecord
100
AcDbLinetypeTableRecord
  2
Continuous
 70
     0
  3
Continuous ___________________________________
 72
    65
 73
     0
 40
0.0
  0
LTYPE
  5
40
330
5
100
AcDbSymbolTableRecord
100
AcDbLinetypeTableRecord
  2
DASHDOT
 70
     0
  3
Dash dot __ . __ . __ . __ . __ . __ . __ . __
 72
    65
 73
     4
 40
13.0
 49
10.0
 74
     0
 49
-1.0
 74
     0
 49
1.0
 74
     0
 49
-1.0
 74
     0
  0
LTYPE
  5
43
330
5
100
AcDbSymbolTableRecord
100
AcDbLinetypeTableRecord
  2
DASHED
 70
     0
  3
Dashed __ __ __ __ __ __ __ __ __ __ __ __ __ _
 72
    65
 73
     2
 40
4.0
 49
3.0
 74
     0
 49
-1.0
 74
     0
  0
LTYPE
  5
194
330
5
100
AcDbSymbolTableRecord
100
AcDbLinetypeTableRecord
  2
補助線
 70
     0
  3

 72
    65
 73
     2
 40
1.1
 49
0.1
 74
     0
 49
-1.0
 74
     0
  0
ENDTAB
  0
TABLE
  2
LAYER
  5
2
330
0
100
AcDbSymbolTable
 70
     9
  0
LAYER
  5
10
330
2
100
AcDbSymbolTableRecord
100
AcDbLayerTableRecord
  2
0
 70
     0
 62
     7
  6
Continuous
370
    -3
390
F
  0
LAYER
  5
B1
330
2
100
AcDbSymbolTableRecord
100
AcDbLayerTableRecord
  2
Defpoints
 70
     0
 62
     7
  6
Continuous
290
     0
370
    -3
390
F
  0
LAYER
  5
B3
330
2
100
AcDbSymbolTableRecord
100
AcDbLayerTableRecord
  2
基準ﾚｲﾔｸﾞﾙｰﾌﾟ_01
 70
     0
 62
     7
  6
Continuous
370
    -3
390
F
  0
LAYER
  5
1A7
330
2
100
AcDbSymbolTableRecord
100
AcDbLayerTableRecord
  2
寸法
 70
     0
 62
     7
  6
Continuous
370
    -3
390
F
  0
LAYER
  5
1AA
330
2
100
AcDbSymbolTableRecord
100
AcDbLayerTableRecord
  2
作図レイヤ
 70
     0
 62
     7
  6
Continuous
370
    -3
390
F
  0
LAYER
  5
1E6
330
2
100
AcDbSymbolTableRecord
100
AcDbLayerTableRecord
  2
仕様
 70
     0
 62
     7
  6
Continuous
370
    -3
390
F
  0
LAYER
  5
2B0
330
2
100
AcDbSymbolTableRecord
100
AcDbLayerTableRecord
  2
GR1_01
 70
     0
 62
     7
  6
Continuous
370
    -3
390
F
  0
ENDTAB
  0
TABLE
  2
STYLE
  5
3
330
0
100
AcDbSymbolTable
 70
     4
  0
STYLE
  5
11
330
3
100
AcDbSymbolTableRecord
100
AcDbTextStyleTableRecord
  2
Standard
 70
     0
 40
0.0
 41
1.0
 50
0.0
 71
     0
 42
2.5
  3
txt
  4

  0
STYLE
  5
46
330
3
100
AcDbSymbolTableRecord
100
AcDbTextStyleTableRecord
  2
FX_VECTOR
 70
     0
 40
0.0
 41
1.0
 50
0.0
 71
     0
 42
0.2
  3
MONOTXT.SHX
  4
BigFont.shx
1001
ACAD
1000

1071
    32770
  0
STYLE
  5
B2
330
3
100
AcDbSymbolTableRecord
100
AcDbTextStyleTableRecord
  2
DEFAULT
 70
     0
 40
0.0
 41
1.0
 50
0.0
 71
     0
 42
0.2
  3

  4

1001
ACAD
1000
ＭＳ ゴシック
1071
    32817
  0
STYLE
  5
164
330
3
100
AcDbSymbolTableRecord
100
AcDbTextStyleTableRecord
  2
ＭＳ ゴシック
 70
     0
 40
0.0
 41
1.0
 50
0.0
 71
     0
 42
0.2
  3

  4

1001
ACAD
1000
ＭＳ ゴシック
1071
    32817
  0
ENDTAB
  0
TABLE
  2
VIEW
  5
6
330
0
100
AcDbSymbolTable
 70
     0
  0
ENDTAB
  0
TABLE
  2
UCS
  5
7
330
0
100
AcDbSymbolTable
 70
     0
  0
ENDTAB
  0
TABLE
  2
APPID
  5
9
330
0
100
AcDbSymbolTable
 70
     1
  0
APPID
  5
12
330
9
100
AcDbSymbolTableRecord
100
AcDbRegAppTableRecord
  2
ACAD
 70
     0
  0
ENDTAB
  0
TABLE
  2
DIMSTYLE
  5
A
330
0
100
AcDbSymbolTable
 70
     2
100
AcDbDimStyleTable
  0
DIMSTYLE
105
27
330
A
100
AcDbSymbolTableRecord
100
AcDbDimStyleTableRecord
  2
ISO-25
 70
     0
 41
2.5
 42
0.625
 43
3.75
 44
1.25
 73
     0
 74
     0
 77
     1
 78
     8
140
2.5
141
2.5
143
0.03937007874016
147
0.625
171
     3
172
     1
178
     0
271
     2
272
     2
274
     3
278
    44
283
     0
284
     8
340
11
  0
DIMSTYLE
105
B0
330
A
100
AcDbSymbolTableRecord
100
AcDbDimStyleTableRecord
  2
FX_DIMINFO
 70
     0
 41
3.0
 42
1.0
 43
8.0
 44
1.0
 46
6.0
 73
     0
 74
     0
 77
     1
 78
     8
 79
     2
140
3.5
141
2.5
143
0.03937
147
0.5
171
     3
172
     1
173
     1
176
     7
177
     7
178
     7
179
     4
272
     2
274
     3
284
     8
340
46
341
4A
343
4A
344
50
  0
ENDTAB
  0
TABLE
  2
BLOCK_RECORD
  5
1
330
0
100
AcDbSymbolTable
 70
    53
  0
BLOCK_RECORD
  5
1F
330
1
100
AcDbSymbolTableRecord
100
AcDbBlockTableRecord
  2
*Model_Space
340
22
  0
BLOCK_RECORD
  5
1B
330
1
100
AcDbSymbolTableRecord
100
AcDbBlockTableRecord
  2
*Paper_Space
340
1E
  0
BLOCK_RECORD
  5
23
330
1
100
AcDbSymbolTableRecord
100
AcDbBlockTableRecord
  2
*Paper_Space0
340
26
  0
BLOCK_RECORD
  5
47
330
1
100
AcDbSymbolTableRecord
100
AcDbBlockTableRecord
  2
FXTIP_NONE
340
0
  0
BLOCK_RECORD
  5
4A
330
1
100
AcDbSymbolTableRecord
100
AcDbBlockTableRecord
  2
FXTIP_ARROW_S
340
0
102
{BLKREFS
331
1E1
331
1ED
331
1F3
331
1F7
331
1FD
331
207
331
20D
331
211
331
216
331
21B
331
243
331
249
331
250
331
256
331
306
331
30C
331
312
331
319
102
}
  0
BLOCK_RECORD
  5
50
330
1
100
AcDbSymbolTableRecord
100
AcDbBlockTableRecord
  2
FXTIP_ARROW_E
340
0
102
{BLKREFS
331
1E2
331
1EE
331
1FE
331
208
331
20E
331
212
331
217
331
21C
331
244
331
24A
331
251
331
257
331
307
331
30D
331
313
331
31A
102
}
  0
BLOCK_RECORD
  5
56
330
1
100
AcDbSymbolTableRecord
100
AcDbBlockTableRecord
  2
FXTIP_BLACKDOT_S
340
0
  0
BLOCK_RECORD
  5
5C
330
1
100
AcDbSymbolTableRecord
100
AcDbBlockTableRecord
  2
FXTIP_BLACKDOT_E
340
0
  0
BLOCK_RECORD
  5
62
330
1
100
AcDbSymbolTableRecord
100
AcDbBlockTableRecord
  2
FXTIP_TRIANGLE_S
340
0
  0
BLOCK_RECORD
  5
69
330
1
100
AcDbSymbolTableRecord
100
AcDbBlockTableRecord
  2
FXTIP_TRIANGLE_E
340
0
  0
BLOCK_RECORD
  5
70
330
1
100
AcDbSymbolTableRecord
100
AcDbBlockTableRecord
  2
FXTIP_ARCHITECT_S
340
0
  0
BLOCK_RECORD
  5
76
330
1
100
AcDbSymbolTableRecord
100
AcDbBlockTableRecord
  2
FXTIP_ARCHITECT_E
340
0
  0
BLOCK_RECORD
  5
7C
330
1
100
AcDbSymbolTableRecord
100
AcDbBlockTableRecord
  2
FXTIP_CIVIL_S
340
0
  0
BLOCK_RECORD
  5
82
330
1
100
AcDbSymbolTableRecord
100
AcDbBlockTableRecord
  2
FXTIP_CIVIL_E
340
0
  0
BLOCK_RECORD
  5
88
330
1
100
AcDbSymbolTableRecord
100
AcDbBlockTableRecord
  2
FXTIP_WHITEDOT_S
340
0
  0
BLOCK_RECORD
  5
8D
330
1
100
AcDbSymbolTableRecord
100
AcDbBlockTableRecord
  2
FXTIP_WHITEDOT_E
340
0
  0
BLOCK_RECORD
  5
92
330
1
100
AcDbSymbolTableRecord
100
AcDbBlockTableRecord
  2
FXTIP_UPARROW_S
340
0
  0
BLOCK_RECORD
  5
97
330
1
100
AcDbSymbolTableRecord
100
AcDbBlockTableRecord
  2
FXTIP_UPARROW_E
340
0
  0
BLOCK_RECORD
  5
9C
330
1
100
AcDbSymbolTableRecord
100
AcDbBlockTableRecord
  2
FXTIP_DOWNARROW_S
340
0
  0
BLOCK_RECORD
  5
A1
330
1
100
AcDbSymbolTableRecord
100
AcDbBlockTableRecord
  2
FXTIP_DOWNARROW_E
340
0
  0
BLOCK_RECORD
  5
A6
330
1
100
AcDbSymbolTableRecord
100
AcDbBlockTableRecord
  2
FXTIP_BLACKTRIANGLE_S
340
0
  0
BLOCK_RECORD
  5
AB
330
1
100
AcDbSymbolTableRecord
100
AcDbBlockTableRecord
  2
FXTIP_BLACKTRIANGLE_E
340
0
  0
BLOCK_RECORD
  5
B7
330
1
100
AcDbSymbolTableRecord
100
AcDbBlockTableRecord
  2
BLKF023
340
0
102
{BLKREFS
331
BA
102
}
  0
BLOCK_RECORD
  5
E5
330
1
100
AcDbSymbolTableRecord
100
AcDbBlockTableRecord
  2
BLKF024
340
0
102
{BLKREFS
331
E8
102
}
  0
BLOCK_RECORD
  5
104
330
1
100
AcDbSymbolTableRecord
100
AcDbBlockTableRecord
  2
BLKF025
340
0
102
{BLKREFS
331
107
102
}
  0
BLOCK_RECORD
  5
10C
330
1
100
AcDbSymbolTableRecord
100
AcDbBlockTableRecord
  2
BLKF026
340
0
102
{BLKREFS
331
10F
102
}
  0
BLOCK_RECORD
  5
114
330
1
100
AcDbSymbolTableRecord
100
AcDbBlockTableRecord
  2
BLKF027
340
0
102
{BLKREFS
331
117
102
}
  0
BLOCK_RECORD
  5
11C
330
1
100
AcDbSymbolTableRecord
100
AcDbBlockTableRecord
  2
BLKF028
340
0
102
{BLKREFS
331
11F
102
}
  0
BLOCK_RECORD
  5
124
330
1
100
AcDbSymbolTableRecord
100
AcDbBlockTableRecord
  2
BLKF029
340
0
102
{BLKREFS
331
127
102
}
  0
BLOCK_RECORD
  5
12C
330
1
100
AcDbSymbolTableRecord
100
AcDbBlockTableRecord
  2
BLKF030
340
0
102
{BLKREFS
331
12F
102
}
  0
BLOCK_RECORD
  5
138
330
1
100
AcDbSymbolTableRecord
100
AcDbBlockTableRecord
  2
BLKF031
340
0
102
{BLKREFS
331
13B
102
}
  0
BLOCK_RECORD
  5
142
330
1
100
AcDbSymbolTableRecord
100
AcDbBlockTableRecord
  2
BLKF032
340
0
102
{BLKREFS
331
145
102
}
  0
BLOCK_RECORD
  5
191
330
1
100
AcDbSymbolTableRecord
100
AcDbBlockTableRecord
  2
BLKF033
340
0
102
{BLKREFS
331
0
102
}
  0
BLOCK_RECORD
  5
196
330
1
100
AcDbSymbolTableRecord
100
AcDbBlockTableRecord
  2
BLKF034
340
0
102
{BLKREFS
331
199
102
}
  0
BLOCK_RECORD
  5
19F
330
1
100
AcDbSymbolTableRecord
100
AcDbBlockTableRecord
  2
BLKF035
340
0
102
{BLKREFS
331
1A2
102
}
  0
BLOCK_RECORD
  5
1AE
330
1
100
AcDbSymbolTableRecord
100
AcDbBlockTableRecord
  2
BLKF036
340
0
102
{BLKREFS
331
1B1
102
}
  0
BLOCK_RECORD
  5
1BB
330
1
100
AcDbSymbolTableRecord
100
AcDbBlockTableRecord
  2
BLKF037
340
0
102
{BLKREFS
331
1BE
102
}
  0
BLOCK_RECORD
  5
1C5
330
1
100
AcDbSymbolTableRecord
100
AcDbBlockTableRecord
  2
BLKF038
340
0
102
{BLKREFS
331
1C8
102
}
  0
BLOCK_RECORD
  5
1CD
330
1
100
AcDbSymbolTableRecord
100
AcDbBlockTableRecord
  2
BLKF039
340
0
102
{BLKREFS
331
1D0
102
}
  0
BLOCK_RECORD
  5
26C
330
1
100
AcDbSymbolTableRecord
100
AcDbBlockTableRecord
  2
BLKF040
340
0
102
{BLKREFS
331
26F
102
}
  0
BLOCK_RECORD
  5
285
330
1
100
AcDbSymbolTableRecord
100
AcDbBlockTableRecord
  2
BLKF041
340
0
102
{BLKREFS
331
288
102
}
  0
BLOCK_RECORD
  5
28F
330
1
100
AcDbSymbolTableRecord
100
AcDbBlockTableRecord
  2
BLKF042
340
0
102
{BLKREFS
331
292
102
}
  0
BLOCK_RECORD
  5
298
330
1
100
AcDbSymbolTableRecord
100
AcDbBlockTableRecord
  2
BLKF043
340
0
102
{BLKREFS
331
29B
102
}
  0
BLOCK_RECORD
  5
2C9
330
1
100
AcDbSymbolTableRecord
100
AcDbBlockTableRecord
  2
BLKF044
340
0
102
{BLKREFS
331
2CC
102
}
  0
BLOCK_RECORD
  5
2D8
330
1
100
AcDbSymbolTableRecord
100
AcDbBlockTableRecord
  2
BLKF045
340
0
102
{BLKREFS
331
2DB
102
}
  0
BLOCK_RECORD
  5
2E8
330
1
100
AcDbSymbolTableRecord
100
AcDbBlockTableRecord
  2
BLKF046
340
0
102
{BLKREFS
331
2EB
102
}
  0
BLOCK_RECORD
  5
31C
330
1
100
AcDbSymbolTableRecord
100
AcDbBlockTableRecord
  2
BLKF047
340
0
102
{BLKREFS
331
31F
102
}
  0
BLOCK_RECORD
  5
331
330
1
100
AcDbSymbolTableRecord
100
AcDbBlockTableRecord
  2
BLKF048
340
0
102
{BLKREFS
331
334
102
}
  0
BLOCK_RECORD
  5
344
330
1
100
AcDbSymbolTableRecord
100
AcDbBlockTableRecord
  2
BLKF049
340
0
102
{BLKREFS
331
347
102
}
  0
BLOCK_RECORD
  5
357
330
1
100
AcDbSymbolTableRecord
100
AcDbBlockTableRecord
  2
BLKF050
340
0
102
{BLKREFS
331
35A
102
}
  0
BLOCK_RECORD
  5
363
330
1
100
AcDbSymbolTableRecord
100
AcDbBlockTableRecord
  2
BLKF051
340
0
102
{BLKREFS
331
366
102
}
  0
BLOCK_RECORD
  5
36F
330
1
100
AcDbSymbolTableRecord
100
AcDbBlockTableRecord
  2
BLKF052
340
0
102
{BLKREFS
331
372
102
}
  0
BLOCK_RECORD
  5
37B
330
1
100
AcDbSymbolTableRecord
100
AcDbBlockTableRecord
  2
BLKF053
340
0
102
{BLKREFS
331
37E
102
}
  0
BLOCK_RECORD
  5
38F
330
1
100
AcDbSymbolTableRecord
100
AcDbBlockTableRecord
  2
BLKF054
340
0
102
{BLKREFS
331
392
102
}
  0
BLOCK_RECORD
  5
3A1
330
1
100
AcDbSymbolTableRecord
100
AcDbBlockTableRecord
  2
BLKF055
340
0
102
{BLKREFS
331
3A4
102
}
  0
ENDTAB
  0
ENDSEC
  0
SECTION
  2
BLOCKS
  0
BLOCK
  5
20
330
1F
100
AcDbEntity
  8
0
100
AcDbBlockBegin
  2
*Model_Space
 70
     0
 10
0.0
 20
0.0
 30
0.0
  3
*Model_Space
  1

  0
ENDBLK
  5
21
330
1F
100
AcDbEntity
  8
0
100
AcDbBlockEnd
  0
BLOCK
  5
1C
330
1B
100
AcDbEntity
 67
     1
  8
0
100
AcDbBlockBegin
  2
*Paper_Space
 70
     0
 10
0.0
 20
0.0
 30
0.0
  3
*Paper_Space
  1

  0
ENDBLK
  5
1D
330
1B
100
AcDbEntity
 67
     1
  8
0
100
AcDbBlockEnd
  0
BLOCK
  5
24
330
23
100
AcDbEntity
  8
0
100
AcDbBlockBegin
  2
*Paper_Space0
 70
     0
 10
0.0
 20
0.0
 30
0.0
  3
*Paper_Space0
  1

  0
ENDBLK
  5
25
330
23
100
AcDbEntity
  8
0
100
AcDbBlockEnd
  0
BLOCK
  5
48
330
47
100
AcDbEntity
  8
0
100
AcDbBlockBegin
  2
FXTIP_NONE
 70
     0
 10
0.0
 20
0.0
 30
0.0
  3
FXTIP_NONE
  1

  0
ENDBLK
  5
49
330
47
100
AcDbEntity
  8
0
100
AcDbBlockEnd
  0
BLOCK
  5
4B
330
4A
100
AcDbEntity
  8
0
100
AcDbBlockBegin
  2
FXTIP_ARROW_S
 70
     0
 10
0.0
 20
0.0
 30
0.0
  3
FXTIP_ARROW_S
  1

  0
LINE
  5
4D
330
4A
100
AcDbEntity
  8
0
  6
Continuous
 62
     0
370
    -2
100
AcDbLine
 10
0.0
 20
0.0
 30
0.0
 11
-1.0
 21
0.0000000000000001
 31
0.0
  0
LINE
  5
4E
330
4A
100
AcDbEntity
  8
0
  6
Continuous
 62
     0
370
    -2
100
AcDbLine
 10
0.0
 20
0.0
 30
0.0
 11
-0.9914448613738104
 21
-0.1305261922200515
 31
0.0
  0
LINE
  5
4F
330
4A
100
AcDbEntity
  8
0
  6
Continuous
 62
     0
370
    -2
100
AcDbLine
 10
0.0
 20
0.0
 30
0.0
 11
-0.9914448613738104
 21
0.1305261922200517
 31
0.0
  0
ENDBLK
  5
4C
330
4A
100
AcDbEntity
  8
0
100
AcDbBlockEnd
  0
BLOCK
  5
51
330
50
100
AcDbEntity
  8
0
100
AcDbBlockBegin
  2
FXTIP_ARROW_E
 70
     0
 10
0.0
 20
0.0
 30
0.0
  3
FXTIP_ARROW_E
  1

  0
LINE
  5
53
330
50
100
AcDbEntity
  8
0
  6
Continuous
 62
     0
370
    -2
100
AcDbLine
 10
0.0
 20
0.0
 30
0.0
 11
-1.0
 21
0.0
 31
0.0
  0
LINE
  5
54
330
50
100
AcDbEntity
  8
0
  6
Continuous
 62
     0
370
    -2
100
AcDbLine
 10
0.0
 20
0.0
 30
0.0
 11
-0.9914448613738104
 21
0.1305261922200516
 31
0.0
  0
LINE
  5
55
330
50
100
AcDbEntity
  8
0
  6
Continuous
 62
     0
370
    -2
100
AcDbLine
 10
0.0
 20
0.0
 30
0.0
 11
-0.9914448613738104
 21
-0.1305261922200516
 31
0.0
  0
ENDBLK
  5
52
330
50
100
AcDbEntity
  8
0
100
AcDbBlockEnd
  0
BLOCK
  5
57
330
56
100
AcDbEntity
  8
0
100
AcDbBlockBegin
  2
FXTIP_BLACKDOT_S
 70
     0
 10
0.0
 20
0.0
 30
0.0
  3
FXTIP_BLACKDOT_S
  1

  0
LINE
  5
59
330
56
100
AcDbEntity
  8
0
  6
Continuous
 62
     0
370
    -2
100
AcDbLine
 10
0.0
 20
0.0
 30
0.0
 11
-1.0
 21
0.0000000000000001
 31
0.0
  0
LWPOLYLINE
  5
5A
330
56
100
AcDbEntity
  8
0
  6
Continuous
 62
     0
370
    -2
100
AcDbPolyline
 90
        2
 70
     1
 10
-0.0833333333333333
 20
0.0
 40
0.1666666666666667
 41
0.1666666666666667
 42
1.0
 10
0.0833333333333333
 20
0.0
 40
0.1666666666666667
 41
0.1666666666666667
 42
1.0
  0
CIRCLE
  5
5B
330
56
100
AcDbEntity
  8
0
  6
Continuous
 62
     0
370
    -2
100
AcDbCircle
 10
0.0
 20
0.0
 30
0.0
 40
0.1666666666666667
  0
ENDBLK
  5
58
330
56
100
AcDbEntity
  8
0
100
AcDbBlockEnd
  0
BLOCK
  5
5D
330
5C
100
AcDbEntity
  8
0
100
AcDbBlockBegin
  2
FXTIP_BLACKDOT_E
 70
     0
 10
0.0
 20
0.0
 30
0.0
  3
FXTIP_BLACKDOT_E
  1

  0
LINE
  5
5F
330
5C
100
AcDbEntity
  8
0
  6
Continuous
 62
     0
370
    -2
100
AcDbLine
 10
0.0
 20
0.0
 30
0.0
 11
-1.0
 21
0.0
 31
0.0
  0
LWPOLYLINE
  5
60
330
5C
100
AcDbEntity
  8
0
  6
Continuous
 62
     0
370
    -2
100
AcDbPolyline
 90
        2
 70
     1
 10
-0.0833333333333333
 20
0.0
 40
0.1666666666666667
 41
0.1666666666666667
 42
1.0
 10
0.0833333333333333
 20
0.0
 40
0.1666666666666667
 41
0.1666666666666667
 42
1.0
  0
CIRCLE
  5
61
330
5C
100
AcDbEntity
  8
0
  6
Continuous
 62
     0
370
    -2
100
AcDbCircle
 10
0.0
 20
0.0
 30
0.0
 40
0.1666666666666667
  0
ENDBLK
  5
5E
330
5C
100
AcDbEntity
  8
0
100
AcDbBlockEnd
  0
BLOCK
  5
63
330
62
100
AcDbEntity
  8
0
100
AcDbBlockBegin
  2
FXTIP_TRIANGLE_S
 70
     0
 10
0.0
 20
0.0
 30
0.0
  3
FXTIP_TRIANGLE_S
  1

  0
LINE
  5
65
330
62
100
AcDbEntity
  8
0
  6
Continuous
 62
     0
370
    -2
100
AcDbLine
 10
0.0
 20
0.0
 30
0.0
 11
-1.0
 21
0.0000000000000001
 31
0.0
  0
LINE
  5
66
330
62
100
AcDbEntity
  8
0
  6
Continuous
 62
     0
370
    -2
100
AcDbLine
 10
0.0
 20
0.0
 30
0.0
 11
-0.9914448613738104
 21
-0.1305261922200515
 31
0.0
  0
LINE
  5
67
330
62
100
AcDbEntity
  8
0
  6
Continuous
 62
     0
370
    -2
100
AcDbLine
 10
0.0
 20
0.0
 30
0.0
 11
-0.9914448613738104
 21
0.1305261922200517
 31
0.0
  0
LINE
  5
68
330
62
100
AcDbEntity
  8
0
  6
Continuous
 62
     0
370
    -2
100
AcDbLine
 10
-0.9914448613738104
 20
-0.1305261922200515
 30
0.0
 11
-0.9914448613738104
 21
0.1305261922200517
 31
0.0
  0
ENDBLK
  5
64
330
62
100
AcDbEntity
  8
0
100
AcDbBlockEnd
  0
BLOCK
  5
6A
330
69
100
AcDbEntity
  8
0
100
AcDbBlockBegin
  2
FXTIP_TRIANGLE_E
 70
     0
 10
0.0
 20
0.0
 30
0.0
  3
FXTIP_TRIANGLE_E
  1

  0
LINE
  5
6C
330
69
100
AcDbEntity
  8
0
  6
Continuous
 62
     0
370
    -2
100
AcDbLine
 10
0.0
 20
0.0
 30
0.0
 11
-1.0
 21
0.0
 31
0.0
  0
LINE
  5
6D
330
69
100
AcDbEntity
  8
0
  6
Continuous
 62
     0
370
    -2
100
AcDbLine
 10
0.0
 20
0.0
 30
0.0
 11
-0.9914448613738104
 21
0.1305261922200516
 31
0.0
  0
LINE
  5
6E
330
69
100
AcDbEntity
  8
0
  6
Continuous
 62
     0
370
    -2
100
AcDbLine
 10
0.0
 20
0.0
 30
0.0
 11
-0.9914448613738104
 21
-0.1305261922200516
 31
0.0
  0
LINE
  5
6F
330
69
100
AcDbEntity
  8
0
  6
Continuous
 62
     0
370
    -2
100
AcDbLine
 10
-0.9914448613738104
 20
0.1305261922200516
 30
0.0
 11
-0.9914448613738104
 21
-0.1305261922200516
 31
0.0
  0
ENDBLK
  5
6B
330
69
100
AcDbEntity
  8
0
100
AcDbBlockEnd
  0
BLOCK
  5
71
330
70
100
AcDbEntity
  8
0
100
AcDbBlockBegin
  2
FXTIP_ARCHITECT_S
 70
     0
 10
0.0
 20
0.0
 30
0.0
  3
FXTIP_ARCHITECT_S
  1

  0
LINE
  5
73
330
70
100
AcDbEntity
  8
0
  6
Continuous
 62
     0
370
    -2
100
AcDbLine
 10
0.0
 20
0.0
 30
0.0
 11
-1.0
 21
0.0000000000000001
 31
0.0
  0
LINE
  5
74
330
70
100
AcDbEntity
  8
0
  6
Continuous
 62
     0
370
    -2
100
AcDbLine
 10
0.0
 20
0.0
 30
0.0
 11
-0.7071067811865476
 21
-0.7071067811865474
 31
0.0
  0
LINE
  5
75
330
70
100
AcDbEntity
  8
0
  6
Continuous
 62
     0
370
    -2
100
AcDbLine
 10
0.0
 20
0.0
 30
0.0
 11
0.7071067811865476
 21
0.7071067811865474
 31
0.0
  0
ENDBLK
  5
72
330
70
100
AcDbEntity
  8
0
100
AcDbBlockEnd
  0
BLOCK
  5
77
330
76
100
AcDbEntity
  8
0
100
AcDbBlockBegin
  2
FXTIP_ARCHITECT_E
 70
     0
 10
0.0
 20
0.0
 30
0.0
  3
FXTIP_ARCHITECT_E
  1

  0
LINE
  5
79
330
76
100
AcDbEntity
  8
0
  6
Continuous
 62
     0
370
    -2
100
AcDbLine
 10
0.0
 20
0.0
 30
0.0
 11
-1.0
 21
0.0
 31
0.0
  0
LINE
  5
7A
330
76
100
AcDbEntity
  8
0
  6
Continuous
 62
     0
370
    -2
100
AcDbLine
 10
0.0
 20
0.0
 30
0.0
 11
0.7071067811865475
 21
0.7071067811865475
 31
0.0
  0
LINE
  5
7B
330
76
100
AcDbEntity
  8
0
  6
Continuous
 62
     0
370
    -2
100
AcDbLine
 10
0.0
 20
0.0
 30
0.0
 11
-0.7071067811865475
 21
-0.7071067811865475
 31
0.0
  0
ENDBLK
  5
78
330
76
100
AcDbEntity
  8
0
100
AcDbBlockEnd
  0
BLOCK
  5
7D
330
7C
100
AcDbEntity
  8
0
100
AcDbBlockBegin
  2
FXTIP_CIVIL_S
 70
     0
 10
0.0
 20
0.0
 30
0.0
  3
FXTIP_CIVIL_S
  1

  0
LINE
  5
7F
330
7C
100
AcDbEntity
  8
0
  6
Continuous
 62
     0
370
    -2
100
AcDbLine
 10
0.0
 20
0.0
 30
0.0
 11
-1.0
 21
0.0000000000000001
 31
0.0
  0
LINE
  5
80
330
7C
100
AcDbEntity
  8
0
  6
Continuous
 62
     0
370
    -2
100
AcDbLine
 10
0.0
 20
-0.0833333333333333
 30
0.0
 11
-1.0
 21
-0.0833333333333332
 31
0.0
  0
LINE
  5
81
330
7C
100
AcDbEntity
  8
0
  6
Continuous
 62
     0
370
    -2
100
AcDbLine
 10
0.0
 20
-0.1666666666666667
 30
0.0
 11
-1.0
 21
-0.1666666666666666
 31
0.0
  0
ENDBLK
  5
7E
330
7C
100
AcDbEntity
  8
0
100
AcDbBlockEnd
  0
BLOCK
  5
83
330
82
100
AcDbEntity
  8
0
100
AcDbBlockBegin
  2
FXTIP_CIVIL_E
 70
     0
 10
0.0
 20
0.0
 30
0.0
  3
FXTIP_CIVIL_E
  1

  0
LINE
  5
85
330
82
100
AcDbEntity
  8
0
  6
Continuous
 62
     0
370
    -2
100
AcDbLine
 10
0.0
 20
0.0
 30
0.0
 11
-1.0
 21
0.0
 31
0.0
  0
LINE
  5
86
330
82
100
AcDbEntity
  8
0
  6
Continuous
 62
     0
370
    -2
100
AcDbLine
 10
0.0
 20
0.0833333333333333
 30
0.0
 11
-1.0
 21
0.0833333333333333
 31
0.0
  0
LINE
  5
87
330
82
100
AcDbEntity
  8
0
  6
Continuous
 62
     0
370
    -2
100
AcDbLine
 10
0.0
 20
0.1666666666666667
 30
0.0
 11
-1.0
 21
0.1666666666666667
 31
0.0
  0
ENDBLK
  5
84
330
82
100
AcDbEntity
  8
0
100
AcDbBlockEnd
  0
BLOCK
  5
89
330
88
100
AcDbEntity
  8
0
100
AcDbBlockBegin
  2
FXTIP_WHITEDOT_S
 70
     0
 10
0.0
 20
0.0
 30
0.0
  3
FXTIP_WHITEDOT_S
  1

  0
LINE
  5
8B
330
88
100
AcDbEntity
  8
0
  6
Continuous
 62
     0
370
    -2
100
AcDbLine
 10
0.0
 20
0.0
 30
0.0
 11
-1.0
 21
0.0000000000000001
 31
0.0
  0
CIRCLE
  5
8C
330
88
100
AcDbEntity
  8
0
  6
Continuous
 62
     0
370
    -2
100
AcDbCircle
 10
0.0
 20
0.0
 30
0.0
 40
0.1666666666666667
  0
ENDBLK
  5
8A
330
88
100
AcDbEntity
  8
0
100
AcDbBlockEnd
  0
BLOCK
  5
8E
330
8D
100
AcDbEntity
  8
0
100
AcDbBlockBegin
  2
FXTIP_WHITEDOT_E
 70
     0
 10
0.0
 20
0.0
 30
0.0
  3
FXTIP_WHITEDOT_E
  1

  0
LINE
  5
90
330
8D
100
AcDbEntity
  8
0
  6
Continuous
 62
     0
370
    -2
100
AcDbLine
 10
0.0
 20
0.0
 30
0.0
 11
-1.0
 21
0.0
 31
0.0
  0
CIRCLE
  5
91
330
8D
100
AcDbEntity
  8
0
  6
Continuous
 62
     0
370
    -2
100
AcDbCircle
 10
0.0
 20
0.0
 30
0.0
 40
0.1666666666666667
  0
ENDBLK
  5
8F
330
8D
100
AcDbEntity
  8
0
100
AcDbBlockEnd
  0
BLOCK
  5
93
330
92
100
AcDbEntity
  8
0
100
AcDbBlockBegin
  2
FXTIP_UPARROW_S
 70
     0
 10
0.0
 20
0.0
 30
0.0
  3
FXTIP_UPARROW_S
  1

  0
LINE
  5
95
330
92
100
AcDbEntity
  8
0
  6
Continuous
 62
     0
370
    -2
100
AcDbLine
 10
0.0
 20
0.0
 30
0.0
 11
-1.0
 21
0.0000000000000001
 31
0.0
  0
LINE
  5
96
330
92
100
AcDbEntity
  8
0
  6
Continuous
 62
     0
370
    -2
100
AcDbLine
 10
0.0
 20
0.0
 30
0.0
 11
-0.9914448613738104
 21
-0.1305261922200515
 31
0.0
  0
ENDBLK
  5
94
330
92
100
AcDbEntity
  8
0
100
AcDbBlockEnd
  0
BLOCK
  5
98
330
97
100
AcDbEntity
  8
0
100
AcDbBlockBegin
  2
FXTIP_UPARROW_E
 70
     0
 10
0.0
 20
0.0
 30
0.0
  3
FXTIP_UPARROW_E
  1

  0
LINE
  5
9A
330
97
100
AcDbEntity
  8
0
  6
Continuous
 62
     0
370
    -2
100
AcDbLine
 10
0.0
 20
0.0
 30
0.0
 11
-1.0
 21
0.0
 31
0.0
  0
LINE
  5
9B
330
97
100
AcDbEntity
  8
0
  6
Continuous
 62
     0
370
    -2
100
AcDbLine
 10
0.0
 20
0.0
 30
0.0
 11
-0.9914448613738104
 21
0.1305261922200516
 31
0.0
  0
ENDBLK
  5
99
330
97
100
AcDbEntity
  8
0
100
AcDbBlockEnd
  0
BLOCK
  5
9D
330
9C
100
AcDbEntity
  8
0
100
AcDbBlockBegin
  2
FXTIP_DOWNARROW_S
 70
     0
 10
0.0
 20
0.0
 30
0.0
  3
FXTIP_DOWNARROW_S
  1

  0
LINE
  5
9F
330
9C
100
AcDbEntity
  8
0
  6
Continuous
 62
     0
370
    -2
100
AcDbLine
 10
0.0
 20
0.0
 30
0.0
 11
-1.0
 21
0.0000000000000001
 31
0.0
  0
LINE
  5
A0
330
9C
100
AcDbEntity
  8
0
  6
Continuous
 62
     0
370
    -2
100
AcDbLine
 10
0.0
 20
0.0
 30
0.0
 11
-0.9914448613738104
 21
0.1305261922200517
 31
0.0
  0
ENDBLK
  5
9E
330
9C
100
AcDbEntity
  8
0
100
AcDbBlockEnd
  0
BLOCK
  5
A2
330
A1
100
AcDbEntity
  8
0
100
AcDbBlockBegin
  2
FXTIP_DOWNARROW_E
 70
     0
 10
0.0
 20
0.0
 30
0.0
  3
FXTIP_DOWNARROW_E
  1

  0
LINE
  5
A4
330
A1
100
AcDbEntity
  8
0
  6
Continuous
 62
     0
370
    -2
100
AcDbLine
 10
0.0
 20
0.0
 30
0.0
 11
-1.0
 21
0.0
 31
0.0
  0
LINE
  5
A5
330
A1
100
AcDbEntity
  8
0
  6
Continuous
 62
     0
370
    -2
100
AcDbLine
 10
0.0
 20
0.0
 30
0.0
 11
-0.9914448613738104
 21
-0.1305261922200516
 31
0.0
  0
ENDBLK
  5
A3
330
A1
100
AcDbEntity
  8
0
100
AcDbBlockEnd
  0
BLOCK
  5
A7
330
A6
100
AcDbEntity
  8
0
100
AcDbBlockBegin
  2
FXTIP_BLACKTRIANGLE_S
 70
     0
 10
0.0
 20
0.0
 30
0.0
  3
FXTIP_BLACKTRIANGLE_S
  1

  0
LINE
  5
A9
330
A6
100
AcDbEntity
  8
0
  6
Continuous
 62
     0
370
    -2
100
AcDbLine
 10
0.0
 20
0.0
 30
0.0
 11
-1.0
 21
0.0000000000000001
 31
0.0
  0
SOLID
  5
AA
330
A6
100
AcDbEntity
  8
0
  6
Continuous
 62
     0
370
    -2
100
AcDbTrace
 10
0.0
 20
0.0
 30
0.0
 11
-0.9914448613738104
 21
-0.1305261922200515
 31
0.0
 12
-0.9914448613738104
 22
0.1305261922200517
 32
0.0
 13
-0.9914448613738104
 23
0.1305261922200517
 33
0.0
  0
ENDBLK
  5
A8
330
A6
100
AcDbEntity
  8
0
100
AcDbBlockEnd
  0
BLOCK
  5
AC
330
AB
100
AcDbEntity
  8
0
100
AcDbBlockBegin
  2
FXTIP_BLACKTRIANGLE_E
 70
     0
 10
0.0
 20
0.0
 30
0.0
  3
FXTIP_BLACKTRIANGLE_E
  1

  0
LINE
  5
AE
330
AB
100
AcDbEntity
  8
0
  6
Continuous
 62
     0
370
    -2
100
AcDbLine
 10
0.0
 20
0.0
 30
0.0
 11
-1.0
 21
0.0
 31
0.0
  0
SOLID
  5
AF
330
AB
100
AcDbEntity
  8
0
  6
Continuous
 62
     0
370
    -2
100
AcDbTrace
 10
0.0
 20
0.0
 30
0.0
 11
-0.9914448613738104
 21
0.1305261922200516
 31
0.0
 12
-0.9914448613738104
 22
-0.1305261922200516
 32
0.0
 13
-0.9914448613738104
 23
-0.1305261922200516
 33
0.0
  0
ENDBLK
  5
AD
330
AB
100
AcDbEntity
  8
0
100
AcDbBlockEnd
  0
BLOCK
  5
B8
330
B7
100
AcDbEntity
  8
0
100
AcDbBlockBegin
  2
BLKF023
 70
     0
 10
0.0
 20
0.0
 30
0.0
  3
BLKF023
  1

  0
LINE
  5
BB
330
B7
100
AcDbEntity
  8
基準ﾚｲﾔｸﾞﾙｰﾌﾟ_01
  6
Continuous
 62
     3
370
    35
100
AcDbLine
 10
20.9999999999999
 20
8.0
 30
0.0
 11
20.9999999999999
 21
291.0
 31
0.0
  0
LINE
  5
BC
330
B7
100
AcDbEntity
  8
基準ﾚｲﾔｸﾞﾙｰﾌﾟ_01
  6
Continuous
 62
     3
370
    35
100
AcDbLine
 10
413.0
 20
8.0
 30
0.0
 11
413.0
 21
291.0
 31
0.0
  0
LINE
  5
BD
330
B7
100
AcDbEntity
  8
基準ﾚｲﾔｸﾞﾙｰﾌﾟ_01
  6
Continuous
 62
     3
370
    35
100
AcDbLine
 10
20.9999999999999
 20
8.0
 30
0.0
 11
413.0
 21
8.0
 31
0.0
  0
LINE
  5
BE
330
B7
100
AcDbEntity
  8
基準ﾚｲﾔｸﾞﾙｰﾌﾟ_01
  6
Continuous
 62
     3
370
    35
100
AcDbLine
 10
20.9999999999999
 20
291.0
 30
0.0
 11
413.0
 21
291.0
 31
0.0
  0
LINE
  5
BF
330
B7
100
AcDbEntity
  8
基準ﾚｲﾔｸﾞﾙｰﾌﾟ_01
  6
Continuous
 62
     3
370
    35
100
AcDbLine
 10
0.0
 20
149.5
 30
0.0
 11
21.0
 21
149.5
 31
0.0
  0
LINE
  5
C0
330
B7
100
AcDbEntity
  8
基準ﾚｲﾔｸﾞﾙｰﾌﾟ_01
  6
Continuous
 62
     3
370
    35
100
AcDbLine
 10
230.0
 20
283.0
 30
0.0
 11
413.0
 21
283.0
 31
0.0
  0
LINE
  5
C1
330
B7
100
AcDbEntity
  8
基準ﾚｲﾔｸﾞﾙｰﾌﾟ_01
  6
Continuous
 62
     7
370
    13
100
AcDbLine
 10
373.0
 20
291.0
 30
0.0
 11
373.0
 21
283.0
 31
0.0
  0
LINE
  5
C2
330
B7
100
AcDbEntity
  8
基準ﾚｲﾔｸﾞﾙｰﾌﾟ_01
  6
Continuous
 62
     7
370
    13
100
AcDbLine
 10
377.0
 20
291.0
 30
0.0
 11
377.0
 21
283.0
 31
0.0
  0
TEXT
  5
C3
330
B7
100
AcDbEntity
  8
基準ﾚｲﾔｸﾞﾙｰﾌﾟ_01
  6
Continuous
 62
     7
370
    13
100
AcDbText
 10
373.7000122070312
 20
287.0
 30
0.0
 40
3.0
  1
記
 41
1.4
  7
FX_VECTOR
 72
     5
 11
376.7000122070312
 21
287.0
 31
0.0
100
AcDbText
  0
TEXT
  5
C4
330
B7
100
AcDbEntity
  8
基準ﾚｲﾔｸﾞﾙｰﾌﾟ_01
  6
Continuous
 62
     7
370
    13
100
AcDbText
 10
373.7000122070312
 20
283.7000122070312
 30
0.0
 40
3.0
  1
事
 41
1.4
  7
FX_VECTOR
 72
     5
 11
376.7000122070312
 21
283.7000122070312
 31
0.0
100
AcDbText
  0
LINE
  5
C5
330
B7
100
AcDbEntity
  8
基準ﾚｲﾔｸﾞﾙｰﾌﾟ_01
  6
Continuous
 62
     3
370
    35
100
AcDbLine
 10
413.0
 20
149.5
 30
0.0
 11
418.0
 21
149.5
 31
0.0
  0
LINE
  5
C6
330
B7
100
AcDbEntity
  8
基準ﾚｲﾔｸﾞﾙｰﾌﾟ_01
  6
Continuous
 62
     3
370
    35
100
AcDbLine
 10
210.0
 20
291.0
 30
0.0
 11
210.0
 21
296.0
 31
0.0
  0
LINE
  5
C7
330
B7
100
AcDbEntity
  8
基準ﾚｲﾔｸﾞﾙｰﾌﾟ_01
  6
Continuous
 62
     3
370
    35
100
AcDbLine
 10
210.0
 20
3.0
 30
0.0
 11
210.0
 21
8.0
 31
0.0
  0
LINE
  5
C8
330
B7
100
AcDbEntity
  8
基準ﾚｲﾔｸﾞﾙｰﾌﾟ_01
  6
Continuous
 62
     7
370
    13
100
AcDbLine
 10
239.9
 20
291.0
 30
0.0
 11
239.9
 21
283.0
 31
0.0
  0
LINE
  5
C9
330
B7
100
AcDbEntity
  8
基準ﾚｲﾔｸﾞﾙｰﾌﾟ_01
  6
Continuous
 62
     7
370
    13
100
AcDbLine
 10
256.95
 20
291.0
 30
0.0
 11
256.95
 21
283.0
 31
0.0
  0
LINE
  5
CA
330
B7
100
AcDbEntity
  8
基準ﾚｲﾔｸﾞﾙｰﾌﾟ_01
  6
Continuous
 62
     7
370
    13
100
AcDbLine
 10
282.8
 20
291.0
 30
0.0
 11
282.8
 21
283.0
 31
0.0
  0
LINE
  5
CB
330
B7
100
AcDbEntity
  8
基準ﾚｲﾔｸﾞﾙｰﾌﾟ_01
  6
Continuous
 62
     7
370
    13
100
AcDbLine
 10
290.5
 20
291.0
 30
0.0
 11
290.5
 21
283.0
 31
0.0
  0
LINE
  5
CC
330
B7
100
AcDbEntity
  8
基準ﾚｲﾔｸﾞﾙｰﾌﾟ_01
  6
Continuous
 62
     7
370
    13
100
AcDbLine
 10
309.2
 20
291.0
 30
0.0
 11
309.2
 21
283.0
 31
0.0
  0
LINE
  5
CD
330
B7
100
AcDbEntity
  8
基準ﾚｲﾔｸﾞﾙｰﾌﾟ_01
  6
Continuous
 62
     7
370
    13
100
AcDbLine
 10
316.9
 20
291.0
 30
0.0
 11
316.9
 21
283.0
 31
0.0
  0
LINE
  5
CE
330
B7
100
AcDbEntity
  8
基準ﾚｲﾔｸﾞﾙｰﾌﾟ_01
  6
Continuous
 62
     3
370
    35
100
AcDbLine
 10
344.3
 20
291.0
 30
0.0
 11
344.3
 21
283.0
 31
0.0
  0
LINE
  5
CF
330
B7
100
AcDbEntity
  8
基準ﾚｲﾔｸﾞﾙｰﾌﾟ_01
  6
Continuous
 62
     7
370
    13
100
AcDbLine
 10
239.9
 20
287.0
 30
0.0
 11
344.3
 21
287.0
 31
0.0
  0
LINE
  5
D0
330
B7
100
AcDbEntity
  8
基準ﾚｲﾔｸﾞﾙｰﾌﾟ_01
  6
Continuous
 62
     7
370
    13
100
AcDbLine
 10
265.2
 20
291.0
 30
0.0
 11
265.2
 21
283.0
 31
0.0
  0
TEXT
  5
D1
330
B7
100
AcDbEntity
  8
基準ﾚｲﾔｸﾞﾙｰﾌﾟ_01
  6
Continuous
 62
     7
370
    13
100
AcDbText
 10
231.5500030517578
 20
287.1000061035156
 30
0.0
 40
3.0
  1
普通
 41
1.272727272727273
  7
FX_VECTOR
 72
     5
 11
237.5500030517578
 21
287.1000061035156
 31
0.0
100
AcDbText
  0
TEXT
  5
D2
330
B7
100
AcDbEntity
  8
基準ﾚｲﾔｸﾞﾙｰﾌﾟ_01
  6
Continuous
 62
     7
370
    13
100
AcDbText
 10
231.5500030517578
 20
283.2999877929688
 30
0.0
 40
3.0
  1
公差
 41
1.272727272727273
  7
FX_VECTOR
 72
     5
 11
237.5500030517578
 21
283.2999877929688
 31
0.0
100
AcDbText
  0
TEXT
  5
D3
330
B7
100
AcDbEntity
  8
基準ﾚｲﾔｸﾞﾙｰﾌﾟ_01
  6
Continuous
 62
     7
370
    13
100
AcDbText
 10
257.5
 20
287.5
 30
0.0
 40
2.5
  1
±０．１
 41
0.7636363636363638
  7
FX_VECTOR
 72
     5
 11
264.5
 21
287.5
 31
0.0
100
AcDbText
  0
TEXT
  5
D4
330
B7
100
AcDbEntity
  8
基準ﾚｲﾔｸﾞﾙｰﾌﾟ_01
  6
Continuous
 62
     7
370
    13
100
AcDbText
 10
240.6699981689453
 20
283.5
 30
0.0
 40
2.5
  1
　　　　３以下
 41
0.99024388615678
  7
FX_VECTOR
 72
     5
 11
255.1699979305267
 21
283.5
 31
0.0
100
AcDbText
  0
TEXT
  5
D5
330
B7
100
AcDbEntity
  8
基準ﾚｲﾔｸﾞﾙｰﾌﾟ_01
  6
Continuous
 62
     7
370
    13
100
AcDbText
 10
265.2000122070312
 20
287.5
 30
0.0
 40
2.5
  1
　３をこえ６以下
 41
0.8578723176996759
  7
FX_VECTOR
 72
     5
 11
279.6000118255615
 21
287.5
 31
0.0
100
AcDbText
  0
TEXT
  5
D6
330
B7
100
AcDbEntity
  8
基準ﾚｲﾔｸﾞﾙｰﾌﾟ_01
  6
Continuous
 62
     7
370
    13
100
AcDbText
 10
265.2000122070312
 20
283.5
 30
0.0
 40
2.5
  1
　６をこえ３０以下
 41
0.8505660578889668
  7
FX_VECTOR
 72
     5
 11
281.300012588501
 21
283.5
 31
0.0
100
AcDbText
  0
TEXT
  5
D7
330
B7
100
AcDbEntity
  8
基準ﾚｲﾔｸﾞﾙｰﾌﾟ_01
  6
Continuous
 62
     7
370
    13
100
AcDbText
 10
257.5
 20
283.5
 30
0.0
 40
2.5
  1
±０．２
 41
0.7909090909090911
  7
FX_VECTOR
 72
     5
 11
264.75
 21
283.5
 31
0.0
100
AcDbText
  0
TEXT
  5
D8
330
B7
100
AcDbEntity
  8
基準ﾚｲﾔｸﾞﾙｰﾌﾟ_01
  6
Continuous
 62
     7
370
    13
100
AcDbText
 10
290.5
 20
283.5
 30
0.0
 40
2.5
  1
１２０をこえ４００以下
 41
0.7538461692516621
  7
FX_VECTOR
 72
     5
 11
308.0000003576279
 21
283.5
 31
0.0
100
AcDbText
  0
TEXT
  5
D9
330
B7
100
AcDbEntity
  8
基準ﾚｲﾔｸﾞﾙｰﾌﾟ_01
  6
Continuous
 62
     7
370
    13
100
AcDbText
 10
282.7999877929688
 20
283.5
 30
0.0
 40
2.5
  1
±０．５
 41
0.7909090909090911
  7
FX_VECTOR
 72
     5
 11
290.0499877929688
 21
283.5
 31
0.0
100
AcDbText
  0
TEXT
  5
DA
330
B7
100
AcDbEntity
  8
基準ﾚｲﾔｸﾞﾙｰﾌﾟ_01
  6
Continuous
 62
     7
370
    13
100
AcDbText
 10
291.6000061035156
 20
287.5
 30
0.0
 40
2.5
  1
３０をこえ１２０以下
 41
0.7593220452130852
  7
FX_VECTOR
 72
     5
 11
307.6000063419342
 21
287.5
 31
0.0
100
AcDbText
  0
TEXT
  5
DB
330
B7
100
AcDbEntity
  8
基準ﾚｲﾔｸﾞﾙｰﾌﾟ_01
  6
Continuous
 62
     7
370
    13
100
AcDbText
 10
282.7999877929688
 20
287.5
 30
0.0
 40
2.5
  1
±０．３
 41
0.7909090909090911
  7
FX_VECTOR
 72
     5
 11
290.0499877929688
 21
287.5
 31
0.0
100
AcDbText
  0
TEXT
  5
DC
330
B7
100
AcDbEntity
  8
基準ﾚｲﾔｸﾞﾙｰﾌﾟ_01
  6
Continuous
 62
     7
370
    13
100
AcDbText
 10
309.2000122070312
 20
283.5
 30
0.0
 40
2.5
  1
±１．２
 41
0.7909090909090911
  7
FX_VECTOR
 72
     5
 11
316.4500122070312
 21
283.5
 31
0.0
100
AcDbText
  0
TEXT
  5
DD
330
B7
100
AcDbEntity
  8
基準ﾚｲﾔｸﾞﾙｰﾌﾟ_01
  6
Continuous
 62
     7
370
    13
100
AcDbText
 10
309.2000122070312
 20
287.5
 30
0.0
 40
2.5
  1
±０．８
 41
0.7909090909090911
  7
FX_VECTOR
 72
     5
 11
316.4500122070312
 21
287.5
 31
0.0
100
AcDbText
  0
TEXT
  5
DE
330
B7
100
AcDbEntity
  8
基準ﾚｲﾔｸﾞﾙｰﾌﾟ_01
  6
Continuous
 62
     7
370
    13
100
AcDbText
 10
240.6699981689453
 20
287.5
 30
0.0
 40
2.5
  1
（０．５以下）
 41
0.9048780732038545
  7
FX_VECTOR
 72
     5
 11
253.9199985265732
 21
287.5
 31
0.0
100
AcDbText
  0
TEXT
  5
DF
330
B7
100
AcDbEntity
  8
基準ﾚｲﾔｸﾞﾙｰﾌﾟ_01
  6
Continuous
 62
     7
370
    13
100
AcDbText
 10
318.7000122070312
 20
287.5
 30
0.0
 40
2.5
  1
４００をこえる場合
 41
0.8505660578889668
  7
FX_VECTOR
 72
     5
 11
334.800012588501
 21
287.5
 31
0.0
100
AcDbText
  0
TEXT
  5
E0
330
B7
100
AcDbEntity
  8
基準ﾚｲﾔｸﾞﾙｰﾌﾟ_01
  6
Continuous
 62
     7
370
    13
100
AcDbText
 10
336.8250122070312
 20
287.5
 30
0.0
 40
2.5
  1
±２．０
 41
0.7909090909090911
  7
FX_VECTOR
 72
     5
 11
344.0750122070312
 21
287.5
 31
0.0
100
AcDbText
  0
TEXT
  5
E1
330
B7
100
AcDbEntity
  8
基準ﾚｲﾔｸﾞﾙｰﾌﾟ_01
  6
Continuous
 62
     7
370
    13
100
AcDbText
 10
317.1312255859375
 20
283.5472717285156
 30
0.0
 40
2.5
  1
鋳造部
 41
0.8666062831878663
  7
FX_VECTOR
 72
     5
 11
322.3927637338638
 21
283.5472717285156
 31
0.0
100
AcDbText
  0
LINE
  5
E2
330
B7
100
AcDbEntity
  8
基準ﾚｲﾔｸﾞﾙｰﾌﾟ_01
  6
Continuous
 62
     7
370
    13
100
AcDbLine
 10
336.6
 20
291.0
 30
0.0
 11
336.6
 21
287.0
 31
0.0
  0
LINE
  5
E3
330
B7
100
AcDbEntity
  8
基準ﾚｲﾔｸﾞﾙｰﾌﾟ_01
  6
Continuous
 62
     3
370
    35
100
AcDbLine
 10
230.0
 20
291.0
 30
0.0
 11
230.0
 21
283.0
 31
0.0
  0
TEXT
  5
E4
330
B7
100
AcDbEntity
  8
基準ﾚｲﾔｸﾞﾙｰﾌﾟ_01
  6
Continuous
 62
     7
370
    13
100
AcDbText
 10
323.1302795410156
 20
283.5322570800781
 30
0.0
 40
2.5
  1
ＪＩＳ　Ｂ　０４０３－ＣＴ１０
 41
0.6521726322977731
  7
FX_VECTOR
 72
     5
 11
343.8600524961948
 21
283.5322570800781
 31
0.0
100
AcDbText
  0
ENDBLK
  5
B9
330
B7
100
AcDbEntity
  8
0
100
AcDbBlockEnd
  0
BLOCK
  5
E6
330
E5
100
AcDbEntity
  8
0
100
AcDbBlockBegin
  2
BLKF024
 70
     0
 10
0.0
 20
0.0
 30
0.0
  3
BLKF024
  1

  0
LINE
  5
E9
330
E5
100
AcDbEntity
  8
基準ﾚｲﾔｸﾞﾙｰﾌﾟ_01
  6
Continuous
 62
     7
370
    13
100
AcDbLine
 10
20.9999999999999
 20
67.99999999999999
 30
0.0
 11
8.999999999999847
 21
67.99999999999999
 31
0.0
  0
LINE
  5
EA
330
E5
100
AcDbEntity
  8
基準ﾚｲﾔｸﾞﾙｰﾌﾟ_01
  6
Continuous
 62
     7
370
    13
100
AcDbLine
 10
8.999999999999847
 20
67.99999999999999
 30
0.0
 11
8.999999999999847
 21
8.0
 31
0.0
  0
LINE
  5
EB
330
E5
100
AcDbEntity
  8
基準ﾚｲﾔｸﾞﾙｰﾌﾟ_01
  6
Continuous
 62
     7
370
    13
100
AcDbLine
 10
8.999999999999847
 20
8.0
 30
0.0
 11
20.9999999999999
 21
8.0
 31
0.0
  0
LINE
  5
EC
330
E5
100
AcDbEntity
  8
基準ﾚｲﾔｸﾞﾙｰﾌﾟ_01
  6
Continuous
 62
     7
370
    13
100
AcDbLine
 10
8.999999999999847
 20
61.99999999999999
 30
0.0
 11
20.9999999999999
 21
61.99999999999999
 31
0.0
  0
LINE
  5
ED
330
E5
100
AcDbEntity
  8
基準ﾚｲﾔｸﾞﾙｰﾌﾟ_01
  6
Continuous
 62
     7
370
    13
100
AcDbLine
 10
14.9999999999998
 20
67.99999999999999
 30
0.0
 11
14.9999999999998
 21
7.999999999999999
 31
0.0
  0
LINE
  5
EE
330
E5
100
AcDbEntity
  8
基準ﾚｲﾔｸﾞﾙｰﾌﾟ_01
  6
Continuous
 62
     7
370
    13
100
AcDbLine
 10
8.999999999999847
 20
56.0
 30
0.0
 11
20.9999999999999
 21
56.0
 31
0.0
  0
LINE
  5
EF
330
E5
100
AcDbEntity
  8
基準ﾚｲﾔｸﾞﾙｰﾌﾟ_01
  6
Continuous
 62
     7
370
    13
100
AcDbLine
 10
8.999999999999847
 20
49.99999999999999
 30
0.0
 11
20.9999999999999
 21
49.99999999999999
 31
0.0
  0
LINE
  5
F0
330
E5
100
AcDbEntity
  8
基準ﾚｲﾔｸﾞﾙｰﾌﾟ_01
  6
Continuous
 62
     7
370
    13
100
AcDbLine
 10
8.999999999999847
 20
44.0
 30
0.0
 11
20.9999999999999
 21
44.0
 31
0.0
  0
LINE
  5
F1
330
E5
100
AcDbEntity
  8
基準ﾚｲﾔｸﾞﾙｰﾌﾟ_01
  6
Continuous
 62
     7
370
    13
100
AcDbLine
 10
8.999999999999847
 20
38.00000000000001
 30
0.0
 11
20.9999999999999
 21
38.00000000000001
 31
0.0
  0
LINE
  5
F2
330
E5
100
AcDbEntity
  8
基準ﾚｲﾔｸﾞﾙｰﾌﾟ_01
  6
Continuous
 62
     7
370
    13
100
AcDbLine
 10
8.999999999999847
 20
32.0
 30
0.0
 11
20.9999999999999
 21
32.0
 31
0.0
  0
LINE
  5
F3
330
E5
100
AcDbEntity
  8
基準ﾚｲﾔｸﾞﾙｰﾌﾟ_01
  6
Continuous
 62
     7
370
    13
100
AcDbLine
 10
8.999999999999847
 20
26.00000000000001
 30
0.0
 11
20.9999999999999
 21
26.00000000000001
 31
0.0
  0
LINE
  5
F4
330
E5
100
AcDbEntity
  8
基準ﾚｲﾔｸﾞﾙｰﾌﾟ_01
  6
Continuous
 62
     7
370
    13
100
AcDbLine
 10
8.999999999999847
 20
20.00000000000001
 30
0.0
 11
20.9999999999999
 21
20.00000000000001
 31
0.0
  0
LINE
  5
F5
330
E5
100
AcDbEntity
  8
基準ﾚｲﾔｸﾞﾙｰﾌﾟ_01
  6
Continuous
 62
     7
370
    13
100
AcDbLine
 10
8.999999999999847
 20
14.00000000000001
 30
0.0
 11
20.9999999999999
 21
14.00000000000001
 31
0.0
  0
TEXT
  5
F6
330
E5
100
AcDbEntity
  8
基準ﾚｲﾔｸﾞﾙｰﾌﾟ_01
  6
Continuous
 62
     7
370
    13
100
AcDbText
 10
10.25
 20
9.0
 30
0.0
 40
3.5
  1
計
 41
1.4
 51
10.0
  7
FX_VECTOR
 72
     5
 11
13.75
 21
9.0
 31
0.0
100
AcDbText
  0
TEXT
  5
F7
330
E5
100
AcDbEntity
  8
基準ﾚｲﾔｸﾞﾙｰﾌﾟ_01
  6
Continuous
 62
     7
370
    13
100
AcDbText
 10
10.25
 20
63.0
 30
0.0
 40
3.5
  1
配
 41
1.4
 51
10.0
  7
FX_VECTOR
 72
     5
 11
13.75
 21
63.0
 31
0.0
100
AcDbText
  0
TEXT
  5
F8
330
E5
100
AcDbEntity
  8
基準ﾚｲﾔｸﾞﾙｰﾌﾟ_01
  6
Continuous
 62
     7
370
    13
100
AcDbText
 10
16.25
 20
63.0
 30
0.0
 40
3.5
  1
枚
 41
1.4
 51
10.0
  7
FX_VECTOR
 72
     5
 11
19.75
 21
63.0
 31
0.0
100
AcDbText
  0
TEXT
  5
F9
330
E5
100
AcDbEntity
  8
基準ﾚｲﾔｸﾞﾙｰﾌﾟ_01
  6
Continuous
 62
     7
370
    13
100
AcDbText
 10
10.25
 20
57.0
 30
0.0
 40
3.5
  1
営
 41
1.4
 51
10.0
  7
FX_VECTOR
 72
     5
 11
13.75
 21
57.0
 31
0.0
100
AcDbText
  0
TEXT
  5
FA
330
E5
100
AcDbEntity
  8
基準ﾚｲﾔｸﾞﾙｰﾌﾟ_01
  6
Continuous
 62
     7
370
    13
100
AcDbText
 10
10.25
 20
51.0
 30
0.0
 40
3.5
  1
生
 41
1.4
 51
10.0
  7
FX_VECTOR
 72
     5
 11
13.75
 21
51.0
 31
0.0
100
AcDbText
  0
TEXT
  5
FB
330
E5
100
AcDbEntity
  8
基準ﾚｲﾔｸﾞﾙｰﾌﾟ_01
  6
Continuous
 62
     7
370
    13
100
AcDbText
 10
10.25
 20
45.0
 30
0.0
 40
3.5
  1
製
 41
1.4
 51
10.0
  7
FX_VECTOR
 72
     5
 11
13.75
 21
45.0
 31
0.0
100
AcDbText
  0
TEXT
  5
FC
330
E5
100
AcDbEntity
  8
基準ﾚｲﾔｸﾞﾙｰﾌﾟ_01
  6
Continuous
 62
     7
370
    13
100
AcDbText
 10
10.25
 20
39.0
 30
0.0
 40
3.5
  1
品
 41
1.4
 51
10.0
  7
FX_VECTOR
 72
     5
 11
13.75
 21
39.0
 31
0.0
100
AcDbText
  0
TEXT
  5
FD
330
E5
100
AcDbEntity
  8
基準ﾚｲﾔｸﾞﾙｰﾌﾟ_01
  6
Continuous
 62
     7
370
    13
100
AcDbText
 10
10.25
 20
33.0
 30
0.0
 40
3.5
  1
技
 41
1.4
 51
10.0
  7
FX_VECTOR
 72
     5
 11
13.75
 21
33.0
 31
0.0
100
AcDbText
  0
TEXT
  5
FE
330
E5
100
AcDbEntity
  8
基準ﾚｲﾔｸﾞﾙｰﾌﾟ_01
  6
Continuous
 62
     7
370
    13
100
AcDbText
 10
10.25
 20
27.0
 30
0.0
 40
3.5
  1
設
 41
1.4
 51
10.0
  7
FX_VECTOR
 72
     5
 11
13.75
 21
27.0
 31
0.0
100
AcDbText
  0
ENDBLK
  5
E7
330
E5
100
AcDbEntity
  8
0
100
AcDbBlockEnd
  0
BLOCK
  5
105
330
104
100
AcDbEntity
  8
0
100
AcDbBlockBegin
  2
BLKF025
 70
     0
 10
0.0
 20
0.0
 30
0.0
  3
BLKF025
  1

  0
LINE
  5
108
330
104
100
AcDbEntity
  8
基準ﾚｲﾔｸﾞﾙｰﾌﾟ_01
  6
Continuous
 62
     7
370
    13
100
AcDbLine
 10
212.9
 20
16.24855715851498
 30
0.0
 11
210.4
 21
12.35144284148501
 31
0.0
  0
LINE
  5
109
330
104
100
AcDbEntity
  8
基準ﾚｲﾔｸﾞﾙｰﾌﾟ_01
  6
Continuous
 62
     7
370
    13
100
AcDbLine
 10
210.4
 20
12.35144284148501
 30
0.0
 11
215.4
 21
12.35144284148501
 31
0.0
  0
LINE
  5
10A
330
104
100
AcDbEntity
  8
基準ﾚｲﾔｸﾞﾙｰﾌﾟ_01
  6
Continuous
 62
     7
370
    13
100
AcDbLine
 10
215.4
 20
12.35144284148501
 30
0.0
 11
212.9
 21
16.24855715851498
 31
0.0
  0
TEXT
  5
10B
330
104
100
AcDbEntity
  8
基準ﾚｲﾔｸﾞﾙｰﾌﾟ_01
  6
Continuous
 62
     7
370
    13
100
AcDbText
 10
211.6290588378906
 20
12.54898262023926
 30
0.0
 40
2.299999952316284
  1
１
 41
1.4
  7
FX_VECTOR
 72
     5
 11
213.9290587902069
 21
12.54898262023926
 31
0.0
100
AcDbText
  0
ENDBLK
  5
106
330
104
100
AcDbEntity
  8
0
100
AcDbBlockEnd
  0
BLOCK
  5
10D
330
10C
100
AcDbEntity
  8
0
100
AcDbBlockBegin
  2
BLKF026
 70
     0
 10
0.0
 20
0.0
 30
0.0
  3
BLKF026
  1

  0
LINE
  5
110
330
10C
100
AcDbEntity
  8
基準ﾚｲﾔｸﾞﾙｰﾌﾟ_01
  6
Continuous
 62
     7
370
    13
100
AcDbLine
 10
212.9
 20
20.84855715851498
 30
0.0
 11
210.4
 21
16.951442841485
 31
0.0
  0
LINE
  5
111
330
10C
100
AcDbEntity
  8
基準ﾚｲﾔｸﾞﾙｰﾌﾟ_01
  6
Continuous
 62
     7
370
    13
100
AcDbLine
 10
210.4
 20
16.951442841485
 30
0.0
 11
215.4
 21
16.951442841485
 31
0.0
  0
LINE
  5
112
330
10C
100
AcDbEntity
  8
基準ﾚｲﾔｸﾞﾙｰﾌﾟ_01
  6
Continuous
 62
     7
370
    13
100
AcDbLine
 10
215.4
 20
16.951442841485
 30
0.0
 11
212.9
 21
20.84855715851498
 31
0.0
  0
TEXT
  5
113
330
10C
100
AcDbEntity
  8
基準ﾚｲﾔｸﾞﾙｰﾌﾟ_01
  6
Continuous
 62
     7
370
    13
100
AcDbText
 10
211.6290588378906
 20
17.14898300170898
 30
0.0
 40
2.299999952316284
  1
２
 41
1.4
  7
FX_VECTOR
 72
     5
 11
213.9290587902069
 21
17.14898300170898
 31
0.0
100
AcDbText
  0
ENDBLK
  5
10E
330
10C
100
AcDbEntity
  8
0
100
AcDbBlockEnd
  0
BLOCK
  5
115
330
114
100
AcDbEntity
  8
0
100
AcDbBlockBegin
  2
BLKF027
 70
     0
 10
0.0
 20
0.0
 30
0.0
  3
BLKF027
  1

  0
LINE
  5
118
330
114
100
AcDbEntity
  8
基準ﾚｲﾔｸﾞﾙｰﾌﾟ_01
  6
Continuous
 62
     7
370
    13
100
AcDbLine
 10
212.9
 20
25.44855715851498
 30
0.0
 11
210.4
 21
21.551442841485
 31
0.0
  0
LINE
  5
119
330
114
100
AcDbEntity
  8
基準ﾚｲﾔｸﾞﾙｰﾌﾟ_01
  6
Continuous
 62
     7
370
    13
100
AcDbLine
 10
210.4
 20
21.551442841485
 30
0.0
 11
215.4
 21
21.551442841485
 31
0.0
  0
LINE
  5
11A
330
114
100
AcDbEntity
  8
基準ﾚｲﾔｸﾞﾙｰﾌﾟ_01
  6
Continuous
 62
     7
370
    13
100
AcDbLine
 10
215.4
 20
21.551442841485
 30
0.0
 11
212.9
 21
25.44855715851498
 31
0.0
  0
TEXT
  5
11B
330
114
100
AcDbEntity
  8
基準ﾚｲﾔｸﾞﾙｰﾌﾟ_01
  6
Continuous
 62
     7
370
    13
100
AcDbText
 10
211.6290588378906
 20
21.74898147583008
 30
0.0
 40
2.299999952316284
  1
３
 41
1.4
  7
FX_VECTOR
 72
     5
 11
213.9290587902069
 21
21.74898147583008
 31
0.0
100
AcDbText
  0
ENDBLK
  5
116
330
114
100
AcDbEntity
  8
0
100
AcDbBlockEnd
  0
BLOCK
  5
11D
330
11C
100
AcDbEntity
  8
0
100
AcDbBlockBegin
  2
BLKF028
 70
     0
 10
0.0
 20
0.0
 30
0.0
  3
BLKF028
  1

  0
LINE
  5
120
330
11C
100
AcDbEntity
  8
基準ﾚｲﾔｸﾞﾙｰﾌﾟ_01
  6
Continuous
 62
     7
370
    13
100
AcDbLine
 10
212.9
 20
30.04855715851498
 30
0.0
 11
210.4
 21
26.151442841485
 31
0.0
  0
LINE
  5
121
330
11C
100
AcDbEntity
  8
基準ﾚｲﾔｸﾞﾙｰﾌﾟ_01
  6
Continuous
 62
     7
370
    13
100
AcDbLine
 10
210.4
 20
26.151442841485
 30
0.0
 11
215.4
 21
26.151442841485
 31
0.0
  0
LINE
  5
122
330
11C
100
AcDbEntity
  8
基準ﾚｲﾔｸﾞﾙｰﾌﾟ_01
  6
Continuous
 62
     7
370
    13
100
AcDbLine
 10
215.4
 20
26.151442841485
 30
0.0
 11
212.9
 21
30.04855715851498
 31
0.0
  0
TEXT
  5
123
330
11C
100
AcDbEntity
  8
基準ﾚｲﾔｸﾞﾙｰﾌﾟ_01
  6
Continuous
 62
     7
370
    13
100
AcDbText
 10
211.6290588378906
 20
26.3489818572998
 30
0.0
 40
2.299999952316284
  1
４
 41
1.4
  7
FX_VECTOR
 72
     5
 11
213.9290587902069
 21
26.3489818572998
 31
0.0
100
AcDbText
  0
ENDBLK
  5
11E
330
11C
100
AcDbEntity
  8
0
100
AcDbBlockEnd
  0
BLOCK
  5
125
330
124
100
AcDbEntity
  8
0
100
AcDbBlockBegin
  2
BLKF029
 70
     0
 10
0.0
 20
0.0
 30
0.0
  3
BLKF029
  1

  0
LINE
  5
128
330
124
100
AcDbEntity
  8
基準ﾚｲﾔｸﾞﾙｰﾌﾟ_01
  6
Continuous
 62
     7
370
    13
100
AcDbLine
 10
212.9
 20
34.64855715851498
 30
0.0
 11
210.4
 21
30.751442841485
 31
0.0
  0
LINE
  5
129
330
124
100
AcDbEntity
  8
基準ﾚｲﾔｸﾞﾙｰﾌﾟ_01
  6
Continuous
 62
     7
370
    13
100
AcDbLine
 10
210.4
 20
30.751442841485
 30
0.0
 11
215.4
 21
30.751442841485
 31
0.0
  0
LINE
  5
12A
330
124
100
AcDbEntity
  8
基準ﾚｲﾔｸﾞﾙｰﾌﾟ_01
  6
Continuous
 62
     7
370
    13
100
AcDbLine
 10
215.4
 20
30.751442841485
 30
0.0
 11
212.9
 21
34.64855715851498
 31
0.0
  0
TEXT
  5
12B
330
124
100
AcDbEntity
  8
基準ﾚｲﾔｸﾞﾙｰﾌﾟ_01
  6
Continuous
 62
     7
370
    13
100
AcDbText
 10
211.6290588378906
 20
30.94898223876953
 30
0.0
 40
2.299999952316284
  1
５
 41
1.4
  7
FX_VECTOR
 72
     5
 11
213.9290587902069
 21
30.94898223876953
 31
0.0
100
AcDbText
  0
ENDBLK
  5
126
330
124
100
AcDbEntity
  8
0
100
AcDbBlockEnd
  0
BLOCK
  5
12D
330
12C
100
AcDbEntity
  8
0
100
AcDbBlockBegin
  2
BLKF030
 70
     0
 10
0.0
 20
0.0
 30
0.0
  3
BLKF030
  1

  0
LINE
  5
130
330
12C
100
AcDbEntity
  8
基準ﾚｲﾔｸﾞﾙｰﾌﾟ_01
  6
Continuous
 62
     7
370
    13
100
AcDbLine
 10
393.1731842231842
 20
41.36498917748917
 30
0.0
 11
396.1507275132275
 21
41.36498917748917
 31
0.0
  0
LINE
  5
131
330
12C
100
AcDbEntity
  8
基準ﾚｲﾔｸﾞﾙｰﾌﾟ_01
  6
Continuous
 62
     7
370
    13
100
AcDbLine
 10
396.9007275132275
 20
41.36498917748917
 30
0.0
 11
397.9007275132275
 21
41.36498917748917
 31
0.0
  0
LINE
  5
132
330
12C
100
AcDbEntity
  8
基準ﾚｲﾔｸﾞﾙｰﾌﾟ_01
  6
Continuous
 62
     7
370
    13
100
AcDbLine
 10
398.6507275132275
 20
41.36498917748917
 30
0.0
 11
403.9705240595155
 21
41.36498917748917
 31
0.0
  0
LINE
  5
133
330
12C
100
AcDbEntity
  8
基準ﾚｲﾔｸﾞﾙｰﾌﾟ_01
  6
Continuous
 62
     7
370
    13
100
AcDbLine
 10
404.7205240595155
 20
41.36498917748917
 30
0.0
 11
405.7205240595155
 21
41.36498917748917
 31
0.0
  0
LINE
  5
134
330
12C
100
AcDbEntity
  8
基準ﾚｲﾔｸﾞﾙｰﾌﾟ_01
  6
Continuous
 62
     7
370
    13
100
AcDbLine
 10
406.4705240595155
 20
41.36498917748917
 30
0.0
 11
409.6709568626509
 21
41.36498917748917
 31
0.0
  0
LINE
  5
135
330
12C
100
AcDbEntity
  8
基準ﾚｲﾔｸﾞﾙｰﾌﾟ_01
  6
Continuous
 62
     7
370
    13
100
AcDbLine
 10
397.4007275132275
 20
45.59190121142563
 30
0.0
 11
397.4007275132275
 21
42.61498917748917
 31
0.0
  0
LINE
  5
136
330
12C
100
AcDbEntity
  8
基準ﾚｲﾔｸﾞﾙｰﾌﾟ_01
  6
Continuous
 62
     7
370
    13
100
AcDbLine
 10
397.4007275132275
 20
41.86498917748917
 30
0.0
 11
397.4007275132275
 21
40.86498917748917
 31
0.0
  0
LINE
  5
137
330
12C
100
AcDbEntity
  8
基準ﾚｲﾔｸﾞﾙｰﾌﾟ_01
  6
Continuous
 62
     7
370
    13
100
AcDbLine
 10
397.4007275132275
 20
40.11498917748917
 30
0.0
 11
397.4007275132275
 21
37.29376533729637
 31
0.0
  0
INSERT
  5
13B
330
12C
100
AcDbEntity
  8
基準ﾚｲﾔｸﾞﾙｰﾌﾟ_01
  6
Continuous
 62
     3
370
    35
100
AcDbBlockReference
  2
BLKF031
 10
0.0
 20
0.0
 30
0.0
  0
ENDBLK
  5
12E
330
12C
100
AcDbEntity
  8
0
100
AcDbBlockEnd
  0
BLOCK
  5
139
330
138
100
AcDbEntity
  8
0
100
AcDbBlockBegin
  2
BLKF031
 70
     0
 10
0.0
 20
0.0
 30
0.0
  3
BLKF031
  1

  0
CIRCLE
  5
13C
330
138
100
AcDbEntity
  8
基準ﾚｲﾔｸﾞﾙｰﾌﾟ_01
  6
Continuous
 62
     3
370
    35
100
AcDbCircle
 10
397.4007275132275
 20
41.36498917748917
 30
0.0
 40
3.0
  0
CIRCLE
  5
13D
330
138
100
AcDbEntity
  8
基準ﾚｲﾔｸﾞﾙｰﾌﾟ_01
  6
Continuous
 62
     3
370
    35
100
AcDbCircle
 10
397.4007275132275
 20
41.36498917748917
 30
0.0
 40
1.8
  0
LINE
  5
13E
330
138
100
AcDbEntity
  8
基準ﾚｲﾔｸﾞﾙｰﾌﾟ_01
  6
Continuous
 62
     3
370
    35
100
AcDbLine
 10
402.2007275132275
 20
43.16498917748915
 30
0.0
 11
402.2007275132275
 21
39.56498917748916
 31
0.0
  0
LINE
  5
13F
330
138
100
AcDbEntity
  8
基準ﾚｲﾔｸﾞﾙｰﾌﾟ_01
  6
Continuous
 62
     3
370
    35
100
AcDbLine
 10
408.2007275132275
 20
44.36498917748917
 30
0.0
 11
408.2007275132275
 21
38.36498917748917
 31
0.0
  0
LINE
  5
140
330
138
100
AcDbEntity
  8
基準ﾚｲﾔｸﾞﾙｰﾌﾟ_01
  6
Continuous
 62
     3
370
    35
100
AcDbLine
 10
402.2007275132275
 20
43.16498917748915
 30
0.0
 11
408.2007275132275
 21
44.36498917748917
 31
0.0
  0
LINE
  5
141
330
138
100
AcDbEntity
  8
基準ﾚｲﾔｸﾞﾙｰﾌﾟ_01
  6
Continuous
 62
     3
370
    35
100
AcDbLine
 10
402.2007275132275
 20
39.56498917748916
 30
0.0
 11
408.2007275132275
 21
38.36498917748917
 31
0.0
  0
ENDBLK
  5
13A
330
138
100
AcDbEntity
  8
0
100
AcDbBlockEnd
  0
BLOCK
  5
143
330
142
100
AcDbEntity
  8
0
100
AcDbBlockBegin
  2
BLKF032
 70
     0
 10
0.0
 20
0.0
 30
0.0
  3
BLKF032
  1

  0
LINE
  5
146
330
142
100
AcDbEntity
  8
基準ﾚｲﾔｸﾞﾙｰﾌﾟ_01
  6
Continuous
 62
     3
370
    35
100
AcDbLine
 10
299.0
 20
12.0
 30
0.0
 11
210.0
 21
12.0
 31
0.0
  0
LINE
  5
147
330
142
100
AcDbEntity
  8
基準ﾚｲﾔｸﾞﾙｰﾌﾟ_01
  6
Continuous
 62
     7
370
    13
100
AcDbLine
 10
210.0
 20
30.39999999999999
 30
0.0
 11
299.0
 21
30.39999999999999
 31
0.0
  0
LINE
  5
148
330
142
100
AcDbEntity
  8
基準ﾚｲﾔｸﾞﾙｰﾌﾟ_01
  6
Continuous
 62
     7
370
    13
100
AcDbLine
 10
210.0
 20
25.8
 30
0.0
 11
299.0
 21
25.8
 31
0.0
  0
LINE
  5
149
330
142
100
AcDbEntity
  8
基準ﾚｲﾔｸﾞﾙｰﾌﾟ_01
  6
Continuous
 62
     7
370
    13
100
AcDbLine
 10
210.0
 20
21.2
 30
0.0
 11
299.0
 21
21.2
 31
0.0
  0
LINE
  5
14A
330
142
100
AcDbEntity
  8
基準ﾚｲﾔｸﾞﾙｰﾌﾟ_01
  6
Continuous
 62
     7
370
    13
100
AcDbLine
 10
210.0
 20
16.59999999999999
 30
0.0
 11
299.0
 21
16.59999999999999
 31
0.0
  0
LINE
  5
14B
330
142
100
AcDbEntity
  8
基準ﾚｲﾔｸﾞﾙｰﾌﾟ_01
  6
Continuous
 62
     7
370
    13
100
AcDbLine
 10
359.0
 20
16.0
 30
0.0
 11
413.0
 21
16.0
 31
0.0
  0
LINE
  5
14C
330
142
100
AcDbEntity
  8
基準ﾚｲﾔｸﾞﾙｰﾌﾟ_01
  6
Continuous
 62
     3
370
    35
100
AcDbLine
 10
210.0
 20
34.99999999999999
 30
0.0
 11
413.0
 21
34.99999999999999
 31
0.0
  0
LINE
  5
14D
330
142
100
AcDbEntity
  8
基準ﾚｲﾔｸﾞﾙｰﾌﾟ_01
  6
Continuous
 62
     7
370
    13
100
AcDbLine
 10
299.0
 20
35.0
 30
0.0
 11
299.0
 21
8.0
 31
0.0
  0
LINE
  5
14E
330
142
100
AcDbEntity
  8
基準ﾚｲﾔｸﾞﾙｰﾌﾟ_01
  6
Continuous
 62
     7
370
    13
100
AcDbLine
 10
216.0
 20
34.99999999999999
 30
0.0
 11
216.0
 21
8.0
 31
0.0
  0
LINE
  5
14F
330
142
100
AcDbEntity
  8
基準ﾚｲﾔｸﾞﾙｰﾌﾟ_01
  6
Continuous
 62
     7
370
    13
100
AcDbLine
 10
231.9999999999999
 20
34.99999999999999
 30
0.0
 11
231.9999999999999
 21
8.0
 31
0.0
  0
LINE
  5
150
330
142
100
AcDbEntity
  8
基準ﾚｲﾔｸﾞﾙｰﾌﾟ_01
  6
Continuous
 62
     7
370
    13
100
AcDbLine
 10
293.0
 20
34.99999999999999
 30
0.0
 11
293.0
 21
8.0
 31
0.0
  0
LINE
  5
151
330
142
100
AcDbEntity
  8
基準ﾚｲﾔｸﾞﾙｰﾌﾟ_01
  6
Continuous
 62
     7
370
    13
100
AcDbLine
 10
287.0
 20
34.99999999999999
 30
0.0
 11
287.0
 21
8.0
 31
0.0
  0
LINE
  5
152
330
142
100
AcDbEntity
  8
基準ﾚｲﾔｸﾞﾙｰﾌﾟ_01
  6
Continuous
 62
     7
370
    13
100
AcDbLine
 10
299.0
 20
26.99999999999999
 30
0.0
 11
413.0
 21
27.0
 31
0.0
  0
LINE
  5
153
330
142
100
AcDbEntity
  8
基準ﾚｲﾔｸﾞﾙｰﾌﾟ_01
  6
Continuous
 62
     7
370
    13
100
AcDbLine
 10
299.0
 20
22.99999999999999
 30
0.0
 11
359.0
 21
22.99999999999999
 31
0.0
  0
LINE
  5
154
330
142
100
AcDbEntity
  8
基準ﾚｲﾔｸﾞﾙｰﾌﾟ_01
  6
Continuous
 62
     7
370
    13
100
AcDbLine
 10
299.0
 20
18.99999999999999
 30
0.0
 11
359.0
 21
18.99999999999999
 31
0.0
  0
LINE
  5
155
330
142
100
AcDbEntity
  8
基準ﾚｲﾔｸﾞﾙｰﾌﾟ_01
  6
Continuous
 62
     7
370
    13
100
AcDbLine
 10
347.0
 20
34.99999999999999
 30
0.0
 11
347.0
 21
8.0
 31
0.0
  0
LINE
  5
156
330
142
100
AcDbEntity
  8
基準ﾚｲﾔｸﾞﾙｰﾌﾟ_01
  6
Continuous
 62
     7
370
    13
100
AcDbLine
 10
351.0
 20
34.99999999999998
 30
0.0
 11
351.0
 21
26.99999999999999
 31
0.0
  0
LINE
  5
157
330
142
100
AcDbEntity
  8
基準ﾚｲﾔｸﾞﾙｰﾌﾟ_01
  6
Continuous
 62
     7
370
    13
100
AcDbLine
 10
359.0
 20
26.99999999999999
 30
0.0
 11
359.0
 21
8.0
 31
0.0
  0
LINE
  5
158
330
142
100
AcDbEntity
  8
基準ﾚｲﾔｸﾞﾙｰﾌﾟ_01
  6
Continuous
 62
     7
370
    13
100
AcDbLine
 10
363.0
 20
26.99999999999999
 30
0.0
 11
363.0
 21
8.0
 31
0.0
  0
TEXT
  5
159
330
142
100
AcDbEntity
  8
基準ﾚｲﾔｸﾞﾙｰﾌﾟ_01
  6
Continuous
 62
     7
370
    13
100
AcDbText
 10
363.4789428710938
 20
9.89869213104248
 30
0.0
 40
4.0
  1
ＳＤＫ－
 41
0.8521738985310431
 51
10.0
  7
FX_VECTOR
 72
     5
 11
374.6789426803589
 21
9.89869213104248
 31
0.0
100
AcDbText
  0
TEXT
  5
15A
330
142
100
AcDbEntity
  8
基準ﾚｲﾔｸﾞﾙｰﾌﾟ_01
  6
Continuous
 62
     7
370
    13
100
AcDbText
 10
359.5
 20
12.0986499786377
 30
0.0
 40
3.0
  1
図
 41
1.4
  7
FX_VECTOR
 72
     5
 11
362.5
 21
12.0986499786377
 31
0.0
100
AcDbText
  0
TEXT
  5
15B
330
142
100
AcDbEntity
  8
基準ﾚｲﾔｸﾞﾙｰﾌﾟ_01
  6
Continuous
 62
     7
370
    13
100
AcDbText
 10
359.5
 20
8.42890739440918
 30
0.0
 40
3.0
  1
番
 41
1.4
  7
FX_VECTOR
 72
     5
 11
362.5
 21
8.42890739440918
 31
0.0
100
AcDbText
  0
TEXT
  5
15C
330
142
100
AcDbEntity
  8
基準ﾚｲﾔｸﾞﾙｰﾌﾟ_01
  6
Continuous
 62
     7
370
    13
100
AcDbText
 10
359.5
 20
21.82609748840332
 30
0.0
 40
3.0
  1
名
 41
1.4
  7
FX_VECTOR
 72
     5
 11
362.5
 21
21.82609748840332
 31
0.0
100
AcDbText
  0
TEXT
  5
15D
330
142
100
AcDbEntity
  8
基準ﾚｲﾔｸﾞﾙｰﾌﾟ_01
  6
Continuous
 62
     7
370
    13
100
AcDbText
 10
359.5
 20
17.10677909851074
 30
0.0
 40
3.0
  1
称
 41
1.4
  7
FX_VECTOR
 72
     5
 11
362.5
 21
17.10677909851074
 31
0.0
100
AcDbText
  0
TEXT
  5
15E
330
142
100
AcDbEntity
  8
基準ﾚｲﾔｸﾞﾙｰﾌﾟ_01
  6
Continuous
 62
     7
370
    13
100
AcDbText
 10
347.5
 20
31.14675331115723
 30
0.0
 40
3.0
  1
形
 41
1.4
  7
FX_VECTOR
 72
     5
 11
350.5
 21
31.14675331115723
 31
0.0
100
AcDbText
  0
TEXT
  5
15F
330
142
100
AcDbEntity
  8
基準ﾚｲﾔｸﾞﾙｰﾌﾟ_01
  6
Continuous
 62
     7
370
    13
100
AcDbText
 10
347.5
 20
27.41062545776367
 30
0.0
 40
3.0
  1
式
 41
1.4
  7
FX_VECTOR
 72
     5
 11
350.5
 21
27.41062545776367
 31
0.0
100
AcDbText
  0
LINE
  5
160
330
142
100
AcDbEntity
  8
基準ﾚｲﾔｸﾞﾙｰﾌﾟ_01
  6
Continuous
 62
     7
370
    13
100
AcDbLine
 10
349.3058362286313
 20
13.5
 30
0.0
 11
356.7812374938185
 21
13.5
 31
0.0
  0
LINE
  5
161
330
142
100
AcDbEntity
  8
基準ﾚｲﾔｸﾞﾙｰﾌﾟ_01
  6
Continuous
 62
     7
370
    13
100
AcDbLine
 10
335.0
 20
22.99999999999999
 30
0.0
 11
335.0
 21
8.0
 31
0.0
  0
LINE
  5
162
330
142
100
AcDbEntity
  8
基準ﾚｲﾔｸﾞﾙｰﾌﾟ_01
  6
Continuous
 62
     7
370
    13
100
AcDbLine
 10
323.0
 20
22.99999999999999
 30
0.0
 11
323.0
 21
8.0
 31
0.0
  0
LINE
  5
163
330
142
100
AcDbEntity
  8
基準ﾚｲﾔｸﾞﾙｰﾌﾟ_01
  6
Continuous
 62
     7
370
    13
100
AcDbLine
 10
311.0
 20
22.99999999999999
 30
0.0
 11
311.0
 21
8.0
 31
0.0
  0
TEXT
  5
165
330
142
100
AcDbEntity
  8
基準ﾚｲﾔｸﾞﾙｰﾌﾟ_01
  6
Continuous
 62
     3
370
    25
100
AcDbText
 10
307.1053161621094
 20
29.35627316561612
 30
0.0
 40
3.409090909090909
  1
澤村電気工業株式会社
 41
0.8574358866764948
  7
ＭＳ ゴシック
 11
307.1053161621094
 21
28.73352813720703
 31
0.0
100
AcDbText
 73
     1
  0
LINE
  5
166
330
142
100
AcDbEntity
  8
基準ﾚｲﾔｸﾞﾙｰﾌﾟ_01
  6
Continuous
 62
     7
370
    13
100
AcDbLine
 10
305.0
 20
30.99999999999996
 30
0.0
 11
304.0
 21
30.99999999999996
 31
0.0
  0
CIRCLE
  5
167
330
142
100
AcDbEntity
  8
基準ﾚｲﾔｸﾞﾙｰﾌﾟ_01
  6
Continuous
 62
     7
370
    13
100
AcDbCircle
 10
303.0
 20
30.99999999999996
 30
0.0
 40
2.0
  0
CIRCLE
  5
168
330
142
100
AcDbEntity
  8
基準ﾚｲﾔｸﾞﾙｰﾌﾟ_01
  6
Continuous
 62
     7
370
    13
100
AcDbCircle
 10
303.0
 20
30.99999999999996
 30
0.0
 40
2.32
  0
LINE
  5
169
330
142
100
AcDbEntity
  8
基準ﾚｲﾔｸﾞﾙｰﾌﾟ_01
  6
Continuous
 62
     7
370
    13
100
AcDbLine
 10
302.0
 20
30.99999999999996
 30
0.0
 11
302.0
 21
31.99999999999996
 31
0.0
  0
LINE
  5
16A
330
142
100
AcDbEntity
  8
基準ﾚｲﾔｸﾞﾙｰﾌﾟ_01
  6
Continuous
 62
     7
370
    13
100
AcDbLine
 10
304.0
 20
29.99999999999996
 30
0.0
 11
304.0
 21
30.99999999999996
 31
0.0
  0
LINE
  5
16B
330
142
100
AcDbEntity
  8
基準ﾚｲﾔｸﾞﾙｰﾌﾟ_01
  6
Continuous
 62
     7
370
    13
100
AcDbLine
 10
305.0
 20
30.99999999999996
 30
0.0
 11
302.0
 21
31.99999999999996
 31
0.0
  0
LINE
  5
16C
330
142
100
AcDbEntity
  8
基準ﾚｲﾔｸﾞﾙｰﾌﾟ_01
  6
Continuous
 62
     7
370
    13
100
AcDbLine
 10
301.0
 20
30.99999999999996
 30
0.0
 11
304.0
 21
29.99999999999996
 31
0.0
  0
LINE
  5
16D
330
142
100
AcDbEntity
  8
基準ﾚｲﾔｸﾞﾙｰﾌﾟ_01
  6
Continuous
 62
     7
370
    13
100
AcDbLine
 10
302.0
 20
30.99999999999996
 30
0.0
 11
301.0
 21
30.99999999999996
 31
0.0
  0
HATCH
  5
16E
330
142
100
AcDbEntity
  8
基準ﾚｲﾔｸﾞﾙｰﾌﾟ_01
  6
Continuous
 62
     7
370
    -3
100
AcDbHatch
 10
0.0
 20
0.0
 30
0.0
210
0.0
220
0.0
230
1.0
  2
SOLID
 70
     1
 71
     1
 91
        3
 92
        0
 93
        6
 72
     1
 10
304.0000000000001
 20
30.99999999999996
 11
305.0
 21
30.99999999999996
 72
     1
 10
305.0
 20
30.99999999999996
 11
302.0000000000001
 21
31.99999999999996
 72
     1
 10
302.0
 20
31.99999999999996
 11
302.0
 21
30.99999999999996
 72
     1
 10
302.0
 20
30.99999999999996
 11
301.0
 21
30.99999999999996
 72
     1
 10
301.0
 20
30.99999999999996
 11
304.0000000000001
 21
29.99999999999996
 72
     1
 10
304.0
 20
29.99999999999996
 11
304.0000000000001
 21
30.99999999999996
 97
        0
 92
        0
 93
        1
 72
     2
 10
303.0
 20
30.99999999999996
 40
2.32
 50
0.0
 51
360.0
 73
     1
 97
        0
 92
        0
 93
        1
 72
     2
 10
303.0
 20
30.99999999999996
 40
2.0
 50
0.0
 51
360.0
 73
     1
 97
        0
 75
     0
 76
     1
 98
        0
  0
TEXT
  5
16F
330
142
100
AcDbEntity
  8
基準ﾚｲﾔｸﾞﾙｰﾌﾟ_01
  6
Continuous
 62
     7
370
    13
100
AcDbText
 10
312.6295166015625
 20
23.37472915649414
 30
0.0
 40
3.0
  1
年　　月　　日
 41
1.195121951219512
  7
FX_VECTOR
 72
     5
 11
333.6295166015625
 21
23.37472915649414
 31
0.0
100
AcDbText
  0
TEXT
  5
170
330
142
100
AcDbEntity
  8
基準ﾚｲﾔｸﾞﾙｰﾌﾟ_01
  6
Continuous
 62
     7
370
    13
100
AcDbText
 10
336.9027709960938
 20
23.30051422119141
 30
0.0
 40
3.299999952316284
  1
作成
 41
1.272727272727273
  7
FX_VECTOR
 72
     5
 11
343.5027709007263
 21
23.30051422119141
 31
0.0
100
AcDbText
  0
TEXT
  5
171
330
142
100
AcDbEntity
  8
基準ﾚｲﾔｸﾞﾙｰﾌﾟ_01
  6
Continuous
 62
     7
370
    13
100
AcDbText
 10
349.5266723632812
 20
19.28826141357422
 30
0.0
 40
3.299999952316284
  1
尺度
 41
1.465564741078437
  7
FX_VECTOR
 72
     5
 11
357.1266722679138
 21
19.28826141357422
 31
0.0
100
AcDbText
  0
TEXT
  5
172
330
142
100
AcDbEntity
  8
基準ﾚｲﾔｸﾞﾙｰﾌﾟ_01
  6
Continuous
 62
     7
370
    13
100
AcDbText
 10
337.5266723632812
 20
19.28826141357422
 30
0.0
 40
3.299999952316284
  1
製図
 41
1.465564741078437
  7
FX_VECTOR
 72
     5
 11
345.1266722679138
 21
19.28826141357422
 31
0.0
100
AcDbText
  0
TEXT
  5
173
330
142
100
AcDbEntity
  8
基準ﾚｲﾔｸﾞﾙｰﾌﾟ_01
  6
Continuous
 62
     7
370
    13
100
AcDbText
 10
325.5266723632812
 20
19.28826141357422
 30
0.0
 40
3.299999952316284
  1
設計
 41
1.465564741078437
  7
FX_VECTOR
 72
     5
 11
333.1266722679138
 21
19.28826141357422
 31
0.0
100
AcDbText
  0
TEXT
  5
174
330
142
100
AcDbEntity
  8
基準ﾚｲﾔｸﾞﾙｰﾌﾟ_01
  6
Continuous
 62
     7
370
    13
100
AcDbText
 10
313.5266723632812
 20
19.28826141357422
 30
0.0
 40
3.299999952316284
  1
検図
 41
1.465564741078437
  7
FX_VECTOR
 72
     5
 11
321.1266722679138
 21
19.28826141357422
 31
0.0
100
AcDbText
  0
TEXT
  5
175
330
142
100
AcDbEntity
  8
基準ﾚｲﾔｸﾞﾙｰﾌﾟ_01
  6
Continuous
 62
     7
370
    13
100
AcDbText
 10
301.5266723632812
 20
19.28826141357422
 30
0.0
 40
3.299999952316284
  1
承認
 41
1.465564741078437
  7
FX_VECTOR
 72
     5
 11
309.1266722679138
 21
19.28826141357422
 31
0.0
100
AcDbText
  0
TEXT
  5
176
330
142
100
AcDbEntity
  8
基準ﾚｲﾔｸﾞﾙｰﾌﾟ_01
  6
Continuous
 62
     7
370
    13
100
AcDbText
 10
293.5
 20
8.857329368591309
 30
0.0
 40
2.5
  1
担当
 41
1.272727272727273
  7
FX_VECTOR
 72
     5
 11
298.5
 21
8.857329368591309
 31
0.0
100
AcDbText
  0
TEXT
  5
177
330
142
100
AcDbEntity
  8
基準ﾚｲﾔｸﾞﾙｰﾌﾟ_01
  6
Continuous
 62
     7
370
    13
100
AcDbText
 10
253.0
 20
8.857329368591309
 30
0.0
 40
2.5
  1
変更理由
 41
1.582608695652174
  7
FX_VECTOR
 72
     5
 11
266.0
 21
8.857329368591309
 31
0.0
100
AcDbText
  0
TEXT
  5
178
330
142
100
AcDbEntity
  8
基準ﾚｲﾔｸﾞﾙｰﾌﾟ_01
  6
Continuous
 62
     7
370
    13
100
AcDbText
 10
217.75
 20
8.857329368591309
 30
0.0
 40
2.5
  1
変更発行日
 41
1.206896551724138
  7
FX_VECTOR
 72
     5
 11
230.25
 21
8.857329368591309
 31
0.0
100
AcDbText
  0
TEXT
  5
179
330
142
100
AcDbEntity
  8
基準ﾚｲﾔｸﾞﾙｰﾌﾟ_01
  6
Continuous
 62
     7
370
    13
100
AcDbText
 10
210.5
 20
8.857329368591309
 30
0.0
 40
2.5
  1
番号
 41
1.272727272727273
  7
FX_VECTOR
 72
     5
 11
215.5
 21
8.857329368591309
 31
0.0
100
AcDbText
  0
TEXT
  5
17A
330
142
100
AcDbEntity
  8
基準ﾚｲﾔｸﾞﾙｰﾌﾟ_01
  6
Continuous
 62
     7
370
    13
100
AcDbText
 10
287.5
 20
8.857329368591309
 30
0.0
 40
2.5
  1
確認
 41
1.272727272727273
  7
FX_VECTOR
 72
     5
 11
292.5
 21
8.857329368591309
 31
0.0
100
AcDbText
  0
LINE
  5
17B
330
142
100
AcDbEntity
  8
基準ﾚｲﾔｸﾞﾙｰﾌﾟ_01
  6
Continuous
 62
     7
370
    13
100
AcDbLine
 10
299.0
 20
8.0
 30
0.0
 11
311.0
 21
18.99999999999999
 31
0.0
  0
CIRCLE
  5
17C
330
142
100
AcDbEntity
  8
基準ﾚｲﾔｸﾞﾙｰﾌﾟ_01
  6
Continuous
 62
     3
370
    35
100
AcDbCircle
 10
221.3666666666667
 20
32.30855715851497
 30
0.0
 40
0.15
  0
CIRCLE
  5
17D
330
142
100
AcDbEntity
  8
基準ﾚｲﾔｸﾞﾙｰﾌﾟ_01
  6
Continuous
 62
     3
370
    35
100
AcDbCircle
 10
226.7333333333333
 20
32.30855715851497
 30
0.0
 40
0.15
  0
CIRCLE
  5
17E
330
142
100
AcDbEntity
  8
基準ﾚｲﾔｸﾞﾙｰﾌﾟ_01
  6
Continuous
 62
     3
370
    35
100
AcDbCircle
 10
221.3666666666667
 20
27.70855715851498
 30
0.0
 40
0.15
  0
CIRCLE
  5
17F
330
142
100
AcDbEntity
  8
基準ﾚｲﾔｸﾞﾙｰﾌﾟ_01
  6
Continuous
 62
     3
370
    35
100
AcDbCircle
 10
226.7333333333333
 20
27.70855715851498
 30
0.0
 40
0.15
  0
CIRCLE
  5
180
330
142
100
AcDbEntity
  8
基準ﾚｲﾔｸﾞﾙｰﾌﾟ_01
  6
Continuous
 62
     3
370
    35
100
AcDbCircle
 10
221.3666666666667
 20
23.10855715851498
 30
0.0
 40
0.15
  0
CIRCLE
  5
181
330
142
100
AcDbEntity
  8
基準ﾚｲﾔｸﾞﾙｰﾌﾟ_01
  6
Continuous
 62
     3
370
    35
100
AcDbCircle
 10
226.7333333333333
 20
23.10855715851498
 30
0.0
 40
0.15
  0
CIRCLE
  5
182
330
142
100
AcDbEntity
  8
基準ﾚｲﾔｸﾞﾙｰﾌﾟ_01
  6
Continuous
 62
     3
370
    35
100
AcDbCircle
 10
221.3666666666667
 20
18.50855715851498
 30
0.0
 40
0.15
  0
CIRCLE
  5
183
330
142
100
AcDbEntity
  8
基準ﾚｲﾔｸﾞﾙｰﾌﾟ_01
  6
Continuous
 62
     3
370
    35
100
AcDbCircle
 10
226.7333333333333
 20
18.50855715851498
 30
0.0
 40
0.15
  0
CIRCLE
  5
184
330
142
100
AcDbEntity
  8
基準ﾚｲﾔｸﾞﾙｰﾌﾟ_01
  6
Continuous
 62
     3
370
    35
100
AcDbCircle
 10
221.3666666666667
 20
13.90855715851498
 30
0.0
 40
0.15
  0
CIRCLE
  5
185
330
142
100
AcDbEntity
  8
基準ﾚｲﾔｸﾞﾙｰﾌﾟ_01
  6
Continuous
 62
     3
370
    35
100
AcDbCircle
 10
226.7333333333333
 20
13.90855715851498
 30
0.0
 40
0.15
  0
LINE
  5
186
330
142
100
AcDbEntity
  8
基準ﾚｲﾔｸﾞﾙｰﾌﾟ_01
  6
Continuous
 62
     3
370
    35
100
AcDbLine
 10
210.0
 20
34.99999999999999
 30
0.0
 11
210.0
 21
8.0
 31
0.0
  0
ENDBLK
  5
144
330
142
100
AcDbEntity
  8
0
100
AcDbBlockEnd
  0
BLOCK
  5
192
330
191
100
AcDbEntity
  8
0
100
AcDbBlockBegin
  2
BLKF033
 70
     0
 10
0.0
 20
0.0
 30
0.0
  3
BLKF033
  1

  0
ENDBLK
  5
193
330
191
100
AcDbEntity
  8
0
100
AcDbBlockEnd
  0
BLOCK
  5
197
330
196
100
AcDbEntity
  8
0
100
AcDbBlockBegin
  2
BLKF034
 70
     0
 10
0.0
 20
0.0
 30
0.0
  3
BLKF034
  1

  0
TEXT
  5
19A
330
196
100
AcDbEntity
  8
基準ﾚｲﾔｸﾞﾙｰﾌﾟ_01
  6
Continuous
 62
     7
370
    13
100
AcDbText
 10
217.2086639404297
 20
-5.416652202606201
 30
0.0
 40
2.5
  1
１０
 41
1.018181818181818
  7
FX_VECTOR
 72
     5
 11
221.2086639404297
 21
-5.416652202606201
 31
0.0
100
AcDbText
  0
TEXT
  5
19B
330
196
100
AcDbEntity
  8
基準ﾚｲﾔｸﾞﾙｰﾌﾟ_01
  6
Continuous
 62
     7
370
    13
100
AcDbText
 10
232.6903839111328
 20
-5.416652202606201
 30
0.0
 40
3.0
  1
－－－－－－
 41
1.0
  7
FX_VECTOR
 72
     5
 11
247.6903839111328
 21
-5.416652202606201
 31
0.0
100
AcDbText
  0
TEXT
  5
19C
330
196
100
AcDbEntity
  8
基準ﾚｲﾔｸﾞﾙｰﾌﾟ_01
  6
Continuous
 62
     7
370
    13
100
AcDbText
 10
222.1555023193359
 20
-5.370845317840576
 30
0.0
 40
2.5
  1
００
 41
1.018181818181818
  7
FX_VECTOR
 72
     5
 11
226.1555023193359
 21
-5.370845317840576
 31
0.0
100
AcDbText
  0
TEXT
  5
19D
330
196
100
AcDbEntity
  8
基準ﾚｲﾔｸﾞﾙｰﾌﾟ_01
  6
Continuous
 62
     7
370
    13
100
AcDbText
 10
227.4679107666016
 20
-5.325038433074951
 30
0.0
 40
2.5
  1
００
 41
1.018181818181818
  7
FX_VECTOR
 72
     5
 11
231.4679107666016
 21
-5.325038433074951
 31
0.0
100
AcDbText
  0
TEXT
  5
19E
330
196
100
AcDbEntity
  8
基準ﾚｲﾔｸﾞﾙｰﾌﾟ_01
  6
Continuous
 62
     7
370
    13
100
AcDbText
 10
216.4758148193359
 20
-4.546382904052734
 30
0.0
 40
2.5
  1
’
 41
1.12
  7
FX_VECTOR
 72
     5
 11
218.4758148193359
 21
-4.546382904052734
 31
0.0
100
AcDbText
  0
ENDBLK
  5
198
330
196
100
AcDbEntity
  8
0
100
AcDbBlockEnd
  0
BLOCK
  5
1A0
330
19F
100
AcDbEntity
  8
0
100
AcDbBlockBegin
  2
BLKF035
 70
     0
 10
0.0
 20
0.0
 30
0.0
  3
BLKF035
  1

  0
TEXT
  5
1A3
330
19F
100
AcDbEntity
  8
基準ﾚｲﾔｸﾞﾙｰﾌﾟ_01
  6
Continuous
 62
     7
370
    13
100
AcDbText
 10
203.9418487548828
 20
-4.732243061065674
 30
0.0
 40
2.5
  1
１
 41
1.12
  7
FX_VECTOR
 72
     5
 11
205.9418487548828
 21
-4.732243061065674
 31
0.0
100
AcDbText
  0
LINE
  5
1A4
330
19F
100
AcDbEntity
  8
基準ﾚｲﾔｸﾞﾙｰﾌﾟ_01
  6
Continuous
 62
     7
370
    13
100
AcDbLine
 10
204.9728205267745
 20
-1.169729371554618
 30
0.0
 11
202.7228205267745
 21
-5.066843688584592
 31
0.0
  0
LINE
  5
1A5
330
19F
100
AcDbEntity
  8
基準ﾚｲﾔｸﾞﾙｰﾌﾟ_01
  6
Continuous
 62
     7
370
    13
100
AcDbLine
 10
204.9728205267745
 20
-1.169729371554618
 30
0.0
 11
207.2228205267745
 21
-5.066843688584592
 31
0.0
  0
LINE
  5
1A6
330
19F
100
AcDbEntity
  8
基準ﾚｲﾔｸﾞﾙｰﾌﾟ_01
  6
Continuous
 62
     7
370
    13
100
AcDbLine
 10
202.7228205267745
 20
-5.066843688584592
 30
0.0
 11
207.2228205267745
 21
-5.066843688584592
 31
0.0
  0
ENDBLK
  5
1A1
330
19F
100
AcDbEntity
  8
0
100
AcDbBlockEnd
  0
BLOCK
  5
1AF
330
1AE
100
AcDbEntity
  8
0
100
AcDbBlockBegin
  2
BLKF036
 70
     0
 10
0.0
 20
0.0
 30
0.0
  3
BLKF036
  1

  0
LINE
  5
1B2
330
1AE
100
AcDbEntity
  8
作図レイヤ
  6
Continuous
 62
     3
370
    35
100
AcDbLine
 10
160.4640009610612
 20
164.3811830802424
 30
0.0
 11
160.4640009610612
 21
226.3811830851422
 31
0.0
  0
LINE
  5
1B3
330
1AE
100
AcDbEntity
  8
作図レイヤ
  6
Continuous
 62
     3
370
    35
100
AcDbLine
 10
163.9640009610612
 20
156.381171729569
 30
0.0
 11
163.9640009610612
 21
234.3811717295695
 31
0.0
  0
LINE
  5
1B4
330
1AE
100
AcDbEntity
  8
作図レイヤ
  6
Continuous
 62
     3
370
    35
100
AcDbLine
 10
170.4640009610612
 20
155.3811711322498
 30
0.0
 11
170.4640009610612
 21
235.3811718381729
 31
0.0
  0
ARC
  5
1B5
330
1AE
100
AcDbEntity
  8
作図レイヤ
  6
Continuous
 62
     3
370
    35
100
AcDbCircle
 10
164.9640009610612
 20
234.3811717295695
 30
0.0
 40
1.0
100
AcDbArc
 50
89.99999377747773
 51
180.0
  0
ARC
  5
1B6
330
1AE
100
AcDbEntity
  8
作図レイヤ
  6
Continuous
 62
     3
370
    35
100
AcDbCircle
 10
164.9640009610612
 20
156.381171729569
 30
0.0
 40
1.0
100
AcDbArc
 50
180.0
 51
269.9999937774777
  0
LINE
  5
1B7
330
1AE
100
AcDbEntity
  8
作図レイヤ
  6
Continuous
 62
     3
370
    35
100
AcDbLine
 10
170.4640009610612
 20
235.3811711322503
 30
0.0
 11
164.9640010696647
 21
235.3811711322503
 31
0.0
  0
LINE
  5
1B8
330
1AE
100
AcDbEntity
  8
作図レイヤ
  6
Continuous
 62
     3
370
    35
100
AcDbLine
 10
170.4640009610612
 20
155.3811711322498
 30
0.0
 11
164.9640008524577
 21
155.3811711322498
 31
0.0
  0
LINE
  5
1B9
330
1AE
100
AcDbEntity
  8
作図レイヤ
  6
Continuous
 62
     3
370
    35
100
AcDbLine
 10
160.4640009610612
 20
226.3811830861131
 30
0.0
 11
160.9595155461936
 21
226.3811830851422
 31
0.0
  0
LINE
  5
1BA
330
1AE
100
AcDbEntity
  8
作図レイヤ
  6
Continuous
 62
     3
370
    35
100
AcDbLine
 10
160.4640009610612
 20
164.3811830812599
 30
0.0
 11
160.959513218154
 21
164.3811830802424
 31
0.0
  0
ENDBLK
  5
1B0
330
1AE
100
AcDbEntity
  8
0
100
AcDbBlockEnd
  0
BLOCK
  5
1BC
330
1BB
100
AcDbEntity
  8
0
100
AcDbBlockBegin
  2
BLKF037
 70
     0
 10
0.0
 20
0.0
 30
0.0
  3
BLKF037
  1

  0
LINE
  5
1BF
330
1BB
100
AcDbEntity
  8
作図レイヤ
  6
Continuous
 62
     7
370
    13
100
AcDbLine
 10
118.7140009610607
 20
226.3811773097942
 30
0.0
 11
118.7140009610607
 21
216.3075853457171
 31
0.0
  0
LINE
  5
1C0
330
1BB
100
AcDbEntity
  8
作図レイヤ
  6
Continuous
 62
     7
370
    13
100
AcDbLine
 10
119.7140009610607
 20
215.3075853457171
 30
0.0
 11
149.7140162198507
 21
215.3075853457171
 31
0.0
  0
LINE
  5
1C1
330
1BB
100
AcDbEntity
  8
作図レイヤ
  6
Continuous
 62
     7
370
    13
100
AcDbLine
 10
150.7140162198507
 20
216.3075853457171
 30
0.0
 11
150.7140009610607
 21
226.3811773097942
 31
0.0
  0
ARC
  5
1C2
330
1BB
100
AcDbEntity
  8
作図レイヤ
  6
Continuous
 62
     7
370
    13
100
AcDbCircle
 10
119.7140009610607
 20
216.3075853457171
 30
0.0
 40
1.0
100
AcDbArc
 50
180.00001866933
 51
270.0000280039999
  0
ARC
  5
1C3
330
1BB
100
AcDbEntity
  8
作図レイヤ
  6
Continuous
 62
     7
370
    13
100
AcDbCircle
 10
149.7140162198507
 20
216.3075853457171
 30
0.0
 40
1.0
100
AcDbArc
 50
270.0000280039999
 51
359.9426910704
  0
TEXT
  5
1C4
330
1BB
100
AcDbEntity
  8
作図レイヤ
  6
Continuous
 62
     7
370
    13
100
AcDbText
 10
132.6979675292969
 20
224.3443603515625
 30
0.0
 40
3.5
  1
ＮＰ
 50
270.0000076293945
 41
1.272727272727274
 51
10.0
  7
FX_VECTOR
 72
     5
 11
132.6979684614033
 21
217.3443603515626
 31
0.0
100
AcDbText
  0
ENDBLK
  5
1BD
330
1BB
100
AcDbEntity
  8
0
100
AcDbBlockEnd
  0
BLOCK
  5
1C6
330
1C5
100
AcDbEntity
  8
0
100
AcDbBlockBegin
  2
BLKF038
 70
     0
 10
0.0
 20
0.0
 30
0.0
  3
BLKF038
  1

  0
LINE
  5
1C9
330
1C5
100
AcDbEntity
  8
作図レイヤ
  6
Continuous
 62
     3
370
    35
100
AcDbLine
 10
108.4640009610622
 20
226.3811831879989
 30
0.0
 11
108.4640009610622
 21
164.3811831880355
 31
0.0
  0
LINE
  5
1CA
330
1C5
100
AcDbEntity
  8
作図レイヤ
  6
Continuous
 62
     3
370
    35
100
AcDbLine
 10
108.4640009610622
 20
226.3811831879989
 30
0.0
 11
160.4640009610612
 21
226.3811830861131
 31
0.0
  0
LINE
  5
1CB
330
1C5
100
AcDbEntity
  8
作図レイヤ
  6
Continuous
 62
     3
370
    35
100
AcDbLine
 10
108.4640009610622
 20
164.3811831880355
 30
0.0
 11
160.4640009610612
 21
164.3811830812599
 31
0.0
  0
LINE
  5
1CC
330
1C5
100
AcDbEntity
  8
作図レイヤ
  6
Continuous
 62
     3
370
    35
100
AcDbLine
 10
160.4640009610612
 20
226.3811830861131
 30
0.0
 11
160.4640009610612
 21
164.3811830812598
 31
0.0
  0
ENDBLK
  5
1C7
330
1C5
100
AcDbEntity
  8
0
100
AcDbBlockEnd
  0
BLOCK
  5
1CE
330
1CD
100
AcDbEntity
  8
0
100
AcDbBlockBegin
  2
BLKF039
 70
     0
 10
0.0
 20
0.0
 30
0.0
  3
BLKF039
  1

  0
LINE
  5
1D1
330
1CD
100
AcDbEntity
  8
作図レイヤ
  6
Continuous
 62
     3
370
    35
100
AcDbLine
 10
108.4639944448551
 20
165.3811913273344
 30
0.0
 11
78.46399455859547
 21
165.9048487002415
 31
0.0
  0
LINE
  5
1D2
330
1CD
100
AcDbEntity
  8
作図レイヤ
  6
Continuous
 62
     3
370
    35
100
AcDbLine
 10
78.46400096106119
 20
224.857516805407
 30
0.0
 11
108.4640162198522
 21
225.381167928447
 31
0.0
  0
LINE
  5
1D3
330
1CD
100
AcDbEntity
  8
作図レイヤ
  6
Continuous
 62
     3
370
    35
100
AcDbLine
 10
78.46400096106119
 20
224.857516805407
 30
0.0
 11
77.46400096106119
 21
223.857516805407
 31
0.0
  0
LINE
  5
1D4
330
1CD
100
AcDbEntity
  8
作図レイヤ
  6
Continuous
 62
     3
370
    35
100
AcDbLine
 10
78.46400096106119
 20
165.904849569077
 30
0.0
 11
77.46400096106119
 21
166.904849569077
 31
0.0
  0
LINE
  5
1D5
330
1CD
100
AcDbEntity
  8
作図レイヤ
  6
Continuous
 62
     3
370
    35
100
AcDbLine
 10
77.46400096106119
 20
166.904849569077
 30
0.0
 11
77.46400096106119
 21
223.857516805407
 31
0.0
  0
LINE
  5
1D6
330
1CD
100
AcDbEntity
  8
作図レイヤ
  6
Continuous
 62
     3
370
    35
100
AcDbLine
 10
78.46400096106119
 20
165.9048485884848
 30
0.0
 11
78.46400096106119
 21
224.857516805407
 31
0.0
  0
LINE
  5
1D7
330
1CD
100
AcDbEntity
  8
作図レイヤ
  6
DASHDOT
 62
     7
370
    13
100
AcDbLine
 10
97.46400096106215
 20
208.3811836285737
 30
0.0
 11
97.46400096106215
 21
141.773229404155
 31
0.0
  0
CIRCLE
  5
1D8
330
1CD
100
AcDbEntity
  8
作図レイヤ
  6
Continuous
 62
     3
370
    35
100
AcDbCircle
 10
97.46400096106215
 20
195.3811836285738
 30
0.0
 40
8.0
  0
CIRCLE
  5
1D9
330
1CD
100
AcDbEntity
  8
作図レイヤ
  6
Continuous
 62
     3
370
    35
100
AcDbCircle
 10
97.46400096106215
 20
195.3811836285738
 30
0.0
 40
6.0
  0
CIRCLE
  5
1DA
330
1CD
100
AcDbEntity
  8
作図レイヤ
  6
Continuous
 62
     7
370
    13
100
AcDbCircle
 10
97.46400096106215
 20
195.3811836285738
 30
0.0
 40
5.5
  0
LINE
  5
1DB
330
1CD
100
AcDbEntity
  8
作図レイヤ
  6
Continuous
 62
     3
370
    35
100
AcDbLine
 10
100.2140009610622
 20
196.1811866803338
 30
0.0
 11
94.71400096106215
 21
196.1811866803338
 31
0.0
  0
LINE
  5
1DC
330
1CD
100
AcDbEntity
  8
作図レイヤ
  6
Continuous
 62
     3
370
    35
100
AcDbLine
 10
100.2140009610622
 20
194.5811805768137
 30
0.0
 11
94.71400096106215
 21
194.5811805768137
 31
0.0
  0
LINE
  5
1DD
330
1CD
100
AcDbEntity
  8
作図レイヤ
  6
Continuous
 62
     3
370
    35
100
AcDbLine
 10
94.71400096106215
 20
196.1811866803338
 30
0.0
 11
94.71400096106215
 21
194.5811805768137
 31
0.0
  0
LINE
  5
1DE
330
1CD
100
AcDbEntity
  8
作図レイヤ
  6
Continuous
 62
     3
370
    35
100
AcDbLine
 10
100.2140009610622
 20
196.1811866803338
 30
0.0
 11
100.2140009610622
 21
194.5811805768137
 31
0.0
  0
ENDBLK
  5
1CF
330
1CD
100
AcDbEntity
  8
0
100
AcDbBlockEnd
  0
BLOCK
  5
26D
330
26C
100
AcDbEntity
  8
0
100
AcDbBlockBegin
  2
BLKF040
 70
     0
 10
0.0
 20
0.0
 30
0.0
  3
BLKF040
  1

  0
TEXT
  5
270
330
26C
100
AcDbEntity
  8
作図レイヤ
  6
Continuous
 62
     7
370
    13
100
AcDbText
 10
86.22409057617188
 20
88.86952209472656
 30
0.0
 40
4.0
  1
青
 41
1.4
  7
FX_VECTOR
 72
     5
 11
90.22409057617188
 21
88.86952209472656
 31
0.0
100
AcDbText
  0
TEXT
  5
271
330
26C
100
AcDbEntity
  8
作図レイヤ
  6
Continuous
 62
     7
370
    13
100
AcDbText
 10
114.55419921875
 20
88.81063842773438
 30
0.0
 40
4.0
  1
赤
 41
1.4
  7
FX_VECTOR
 72
     5
 11
118.55419921875
 21
88.81063842773438
 31
0.0
100
AcDbText
  0
LINE
  5
272
330
26C
100
AcDbEntity
  8
作図レイヤ
  6
DASHED
 62
     3
370
    35
100
AcDbLine
 10
91.2493294720617
 20
96.89386201533215
 30
0.0
 11
113.2493294720617
 21
96.89386201533209
 31
0.0
  0
LINE
  5
273
330
26C
100
AcDbEntity
  8
作図レイヤ
  6
DASHED
 62
     3
370
    35
100
AcDbLine
 10
114.2493294720617
 20
97.89386201533212
 30
0.0
 11
114.2493294720617
 21
117.7164780153322
 31
0.0
  0
LINE
  5
274
330
26C
100
AcDbEntity
  8
作図レイヤ
  6
DASHED
 62
     3
370
    35
100
AcDbLine
 10
113.2493294720617
 20
118.7164780153322
 30
0.0
 11
91.2493294720617
 21
118.7164780153322
 31
0.0
  0
LINE
  5
275
330
26C
100
AcDbEntity
  8
作図レイヤ
  6
DASHED
 62
     3
370
    35
100
AcDbLine
 10
90.2493294720617
 20
117.7164780153322
 30
0.0
 11
90.2493294720617
 21
97.89386201533215
 31
0.0
  0
LINE
  5
276
330
26C
100
AcDbEntity
  8
作図レイヤ
  6
Continuous
 62
     3
370
    35
100
AcDbLine
 10
94.25198447206171
 20
92.89386201533212
 30
0.0
 11
94.25198447206171
 21
108.7477590153321
 31
0.0
  0
LINE
  5
277
330
26C
100
AcDbEntity
  8
作図レイヤ
  6
Continuous
 62
     3
370
    35
100
AcDbLine
 10
94.25198447206171
 20
108.7477590153321
 30
0.0
 11
97.45199647206172
 21
108.7477590153321
 31
0.0
  0
LINE
  5
278
330
26C
100
AcDbEntity
  8
作図レイヤ
  6
Continuous
 62
     3
370
    35
100
AcDbLine
 10
97.45199647206172
 20
109.5477460153321
 30
0.0
 11
98.30313691282893
 21
109.5477460153321
 31
0.0
  0
LINE
  5
279
330
26C
100
AcDbEntity
  8
作図レイヤ
  6
Continuous
 62
     3
370
    35
100
AcDbLine
 10
97.45199647206172
 20
109.5477460153321
 30
0.0
 11
97.45199647206172
 21
107.9477560153321
 31
0.0
  0
LINE
  5
27A
330
26C
100
AcDbEntity
  8
作図レイヤ
  6
Continuous
 62
     3
370
    35
100
AcDbLine
 10
97.45199647206172
 20
107.9477560153321
 30
0.0
 11
98.36282931938402
 21
107.9477560153321
 31
0.0
  0
CIRCLE
  5
27B
330
26C
100
AcDbEntity
  8
作図レイヤ
  6
Continuous
 62
     3
370
    35
100
AcDbCircle
 10
102.2493294720617
 20
108.8938620153321
 30
0.0
 40
4.0
  0
LINE
  5
27C
330
26C
100
AcDbEntity
  8
作図レイヤ
  6
Continuous
 62
     3
370
    35
100
AcDbLine
 10
106.1685124481412
 20
109.6938650153321
 30
0.0
 11
107.0493324720617
 21
109.6938650153321
 31
0.0
  0
LINE
  5
27D
330
26C
100
AcDbEntity
  8
作図レイヤ
  6
Continuous
 62
     3
370
    35
100
AcDbLine
 10
107.0493324720617
 20
109.6938650153321
 30
0.0
 11
107.0493324720617
 21
108.0938580153321
 31
0.0
  0
LINE
  5
27E
330
26C
100
AcDbEntity
  8
作図レイヤ
  6
Continuous
 62
     3
370
    35
100
AcDbLine
 10
107.0493324720617
 20
108.0938580153321
 30
0.0
 11
106.1685122440161
 21
108.0938580153321
 31
0.0
  0
LINE
  5
27F
330
26C
100
AcDbEntity
  8
作図レイヤ
  6
Continuous
 62
     3
370
    35
100
AcDbLine
 10
107.0493324720617
 20
108.8938620153321
 30
0.0
 11
110.2493294720617
 21
108.8938620153321
 31
0.0
  0
LINE
  5
280
330
26C
100
AcDbEntity
  8
作図レイヤ
  6
Continuous
 62
     3
370
    35
100
AcDbLine
 10
110.2493294720617
 20
108.8938620153321
 30
0.0
 11
110.2493294720617
 21
92.89386201533212
 31
0.0
  0
ARC
  5
281
330
26C
100
AcDbEntity
  8
作図レイヤ
  6
DASHED
 62
     3
370
    35
100
AcDbCircle
 10
91.2493294720617
 20
117.7164780153322
 30
0.0
 40
1.0
100
AcDbArc
 50
90.0
 51
180.0
  0
ARC
  5
282
330
26C
100
AcDbEntity
  8
作図レイヤ
  6
DASHED
 62
     3
370
    35
100
AcDbCircle
 10
113.2493294720617
 20
117.7164780153322
 30
0.0
 40
1.0
100
AcDbArc
 50
0.0
 51
90.0
  0
ARC
  5
283
330
26C
100
AcDbEntity
  8
作図レイヤ
  6
DASHED
 62
     3
370
    35
100
AcDbCircle
 10
113.2493294720617
 20
97.89386201533212
 30
0.0
 40
1.0
100
AcDbArc
 50
270.0
 51
0.0
  0
ARC
  5
284
330
26C
100
AcDbEntity
  8
作図レイヤ
  6
DASHED
 62
     3
370
    35
100
AcDbCircle
 10
91.2493294720617
 20
97.89386201533215
 30
0.0
 40
1.0
100
AcDbArc
 50
180.0
 51
269.9999999999998
  0
INSERT
  5
288
330
26C
100
AcDbEntity
  8
作図レイヤ
  6
Continuous
 62
     3
370
    35
100
AcDbBlockReference
  2
BLKF041
 10
0.0
 20
0.0
 30
0.0
  0
CIRCLE
  5
28C
330
26C
100
AcDbEntity
  8
作図レイヤ
  6
Continuous
 62
     3
370
    35
100
AcDbCircle
 10
94.2486574720617
 20
90.89386201533212
 30
0.0
 40
2.0
  0
LINE
  5
28D
330
26C
100
AcDbEntity
  8
作図レイヤ
  6
Continuous
 62
     3
370
    35
100
AcDbLine
 10
93.0486574720617
 20
90.89386201533212
 30
0.0
 11
95.44865747206174
 21
90.89386201533212
 31
0.0
  0
ENDBLK
  5
26E
330
26C
100
AcDbEntity
  8
0
100
AcDbBlockEnd
  0
BLOCK
  5
286
330
285
100
AcDbEntity
  8
0
100
AcDbBlockBegin
  2
BLKF041
 70
     0
 10
0.0
 20
0.0
 30
0.0
  3
BLKF041
  1

  0
CIRCLE
  5
289
330
285
100
AcDbEntity
  8
作図レイヤ
  6
Continuous
 62
     3
370
    35
100
AcDbCircle
 10
110.2493294720617
 20
90.89386201533212
 30
0.0
 40
2.0
  0
LINE
  5
28A
330
285
100
AcDbEntity
  8
作図レイヤ
  6
Continuous
 62
     3
370
    35
100
AcDbLine
 10
109.0493294720617
 20
90.89386201533212
 30
0.0
 11
111.4493294720617
 21
90.89386201533212
 31
0.0
  0
LINE
  5
28B
330
285
100
AcDbEntity
  8
作図レイヤ
  6
Continuous
 62
     3
370
    35
100
AcDbLine
 10
110.2493294720617
 20
89.69386201533213
 30
0.0
 11
110.2493294720617
 21
92.0938620153321
 31
0.0
  0
ENDBLK
  5
287
330
285
100
AcDbEntity
  8
0
100
AcDbBlockEnd
  0
BLOCK
  5
290
330
28F
100
AcDbEntity
  8
0
100
AcDbBlockBegin
  2
BLKF042
 70
     0
 10
0.0
 20
0.0
 30
0.0
  3
BLKF042
  1

  0
LINE
  5
293
330
28F
100
AcDbEntity
  8
基準ﾚｲﾔｸﾞﾙｰﾌﾟ_01
  6
Continuous
 62
     7
370
    13
100
AcDbLine
 10
100.5357975735273
 20
157.057761217849
 30
0.0
 11
98.53579757352732
 21
157.0577611221689
 31
0.0
  0
LINE
  5
294
330
28F
100
AcDbEntity
  8
基準ﾚｲﾔｸﾞﾙｰﾌﾟ_01
  6
Continuous
 62
     7
370
    13
100
AcDbLine
 10
96.39220403407835
 20
157.0577610196191
 30
0.0
 11
96.92810232326038
 21
159.0577610452565
 31
0.0
  0
LINE
  5
295
330
28F
100
AcDbEntity
  8
基準ﾚｲﾔｸﾞﾙｰﾌﾟ_01
  6
Continuous
 62
     7
370
    13
100
AcDbLine
 10
97.99989928434515
 20
155.0577610965314
 30
0.0
 11
96.92810232326035
 21
159.0577610452565
 31
0.0
  0
LINE
  5
296
330
28F
100
AcDbEntity
  8
基準ﾚｲﾔｸﾞﾙｰﾌﾟ_01
  6
Continuous
 62
     7
370
    13
100
AcDbLine
 10
98.53579757352732
 20
157.0577611221689
 30
0.0
 11
97.9998992843452
 21
155.0577610965314
 31
0.0
  0
LINE
  5
297
330
28F
100
AcDbEntity
  8
基準ﾚｲﾔｸﾞﾙｰﾌﾟ_01
  6
Continuous
 62
     7
370
    13
100
AcDbLine
 10
96.39220403407832
 20
157.0577610196191
 30
0.0
 11
94.96321603805647
 21
157.0577609512563
 31
0.0
  0
ENDBLK
  5
291
330
28F
100
AcDbEntity
  8
0
100
AcDbBlockEnd
  0
BLOCK
  5
299
330
298
100
AcDbEntity
  8
0
100
AcDbBlockBegin
  2
BLKF043
 70
     0
 10
0.0
 20
0.0
 30
0.0
  3
BLKF043
  1

  0
LINE
  5
29C
330
298
100
AcDbEntity
  8
基準ﾚｲﾔｸﾞﾙｰﾌﾟ_01
  6
Continuous
 62
     7
370
    13
100
AcDbLine
 10
100.5360750671123
 20
154.1319770198884
 30
0.0
 11
98.53607506711235
 21
154.1319769242082
 31
0.0
  0
LINE
  5
29D
330
298
100
AcDbEntity
  8
基準ﾚｲﾔｸﾞﾙｰﾌﾟ_01
  6
Continuous
 62
     7
370
    13
100
AcDbLine
 10
96.39248152766338
 20
154.1319768216585
 30
0.0
 11
96.9283798168454
 21
156.1319768472958
 31
0.0
  0
LINE
  5
29E
330
298
100
AcDbEntity
  8
基準ﾚｲﾔｸﾞﾙｰﾌﾟ_01
  6
Continuous
 62
     7
370
    13
100
AcDbLine
 10
98.00017677793024
 20
152.1319768985708
 30
0.0
 11
96.92837981684552
 21
156.131976847296
 31
0.0
  0
LINE
  5
29F
330
298
100
AcDbEntity
  8
基準ﾚｲﾔｸﾞﾙｰﾌﾟ_01
  6
Continuous
 62
     7
370
    13
100
AcDbLine
 10
98.53607506711232
 20
154.1319769242082
 30
0.0
 11
98.00017677793029
 21
152.1319768985708
 31
0.0
  0
LINE
  5
2A0
330
298
100
AcDbEntity
  8
基準ﾚｲﾔｸﾞﾙｰﾌﾟ_01
  6
Continuous
 62
     7
370
    13
100
AcDbLine
 10
96.39248152766335
 20
154.1319768216585
 30
0.0
 11
94.39248152766335
 21
154.1319767259784
 31
0.0
  0
ENDBLK
  5
29A
330
298
100
AcDbEntity
  8
0
100
AcDbBlockEnd
  0
BLOCK
  5
2CA
330
2C9
100
AcDbEntity
  8
0
100
AcDbBlockBegin
  2
BLKF044
 70
     0
 10
0.0
 20
0.0
 30
0.0
  3
BLKF044
  1

  0
CIRCLE
  5
2CD
330
2C9
100
AcDbEntity
  8
GR1_01
  6
Continuous
 62
     3
370
    35
100
AcDbCircle
 10
349.944180673936
 20
164.3811659192823
 30
0.0
 40
3.5
  0
LINE
  5
2CE
330
2C9
100
AcDbEntity
  8
GR1_01
  6
Continuous
 62
     3
370
    35
100
AcDbLine
 10
349.444180673936
 20
166.4811659192823
 30
0.0
 11
350.444180673936
 21
166.4811659192823
 31
0.0
  0
LINE
  5
2CF
330
2C9
100
AcDbEntity
  8
GR1_01
  6
Continuous
 62
     3
370
    35
100
AcDbLine
 10
352.0441806739361
 20
164.8811659192823
 30
0.0
 11
352.0441806739361
 21
163.8811659192823
 31
0.0
  0
LINE
  5
2D0
330
2C9
100
AcDbEntity
  8
GR1_01
  6
Continuous
 62
     3
370
    35
100
AcDbLine
 10
349.444180673936
 20
162.2811659192823
 30
0.0
 11
350.444180673936
 21
162.2811659192823
 31
0.0
  0
LINE
  5
2D1
330
2C9
100
AcDbEntity
  8
GR1_01
  6
Continuous
 62
     3
370
    35
100
AcDbLine
 10
347.844180673936
 20
164.8811659192823
 30
0.0
 11
347.844180673936
 21
163.8811659192823
 31
0.0
  0
ARC
  5
2D2
330
2C9
100
AcDbEntity
  8
GR1_01
  6
Continuous
 62
     3
370
    35
100
AcDbCircle
 10
352.0441806739361
 20
166.4811659192823
 30
0.0
 40
1.600000000000023
100
AcDbArc
 50
180.0
 51
270.0
  0
ARC
  5
2D3
330
2C9
100
AcDbEntity
  8
GR1_01
  6
Continuous
 62
     3
370
    35
100
AcDbCircle
 10
347.844180673936
 20
166.4811659192823
 30
0.0
 40
1.600000000000023
100
AcDbArc
 50
270.0
 51
0.0
  0
ARC
  5
2D4
330
2C9
100
AcDbEntity
  8
GR1_01
  6
Continuous
 62
     3
370
    35
100
AcDbCircle
 10
347.844180673936
 20
162.2811659192823
 30
0.0
 40
1.600000000000023
100
AcDbArc
 50
0.0
 51
90.0
  0
ARC
  5
2D5
330
2C9
100
AcDbEntity
  8
GR1_01
  6
Continuous
 62
     3
370
    35
100
AcDbCircle
 10
352.0441806739361
 20
162.2811659192823
 30
0.0
 40
1.600000000000023
100
AcDbArc
 50
90.0
 51
180.0
  0
ENDBLK
  5
2CB
330
2C9
100
AcDbEntity
  8
0
100
AcDbBlockEnd
  0
BLOCK
  5
2D9
330
2D8
100
AcDbEntity
  8
0
100
AcDbBlockBegin
  2
BLKF045
 70
     0
 10
0.0
 20
0.0
 30
0.0
  3
BLKF045
  1

  0
CIRCLE
  5
2DC
330
2D8
100
AcDbEntity
  8
GR1_01
  6
Continuous
 62
     3
370
    35
100
AcDbCircle
 10
376.7909681912537
 20
210.8811659192822
 30
0.0
 40
3.5
  0
LINE
  5
2DD
330
2D8
100
AcDbEntity
  8
GR1_01
  6
Continuous
 62
     3
370
    35
100
AcDbLine
 10
375.2223148433064
 20
209.39815321739
 30
0.0
 11
374.7223148433064
 21
210.2641786211744
 31
0.0
  0
LINE
  5
2DE
330
2D8
100
AcDbEntity
  8
GR1_01
  6
Continuous
 62
     3
370
    35
100
AcDbLine
 10
375.3079554893615
 20
212.4498192672295
 30
0.0
 11
376.1739808931459
 21
212.9498192672295
 31
0.0
  0
LINE
  5
2DF
330
2D8
100
AcDbEntity
  8
GR1_01
  6
Continuous
 62
     3
370
    35
100
AcDbLine
 10
378.859621539201
 20
211.49815321739
 30
0.0
 11
378.359621539201
 21
212.3641786211744
 31
0.0
  0
LINE
  5
2E0
330
2D8
100
AcDbEntity
  8
GR1_01
  6
Continuous
 62
     3
370
    35
100
AcDbLine
 10
377.4079554893615
 20
208.8125125713348
 30
0.0
 11
378.2739808931459
 21
209.3125125713348
 31
0.0
  0
ARC
  5
2E1
330
2D8
100
AcDbEntity
  8
GR1_01
  6
Continuous
 62
     3
370
    35
100
AcDbCircle
 10
373.9223148433064
 20
211.6498192672296
 30
0.0
 40
1.600000000000023
100
AcDbArc
 50
300.0
 51
30.00000000000002
  0
ARC
  5
2E2
330
2D8
100
AcDbEntity
  8
GR1_01
  6
Continuous
 62
     3
370
    35
100
AcDbCircle
 10
376.0223148433064
 20
208.0125125713349
 30
0.0
 40
1.600000000000023
100
AcDbArc
 50
30.0
 51
120.0
  0
ARC
  5
2E3
330
2D8
100
AcDbEntity
  8
GR1_01
  6
Continuous
 62
     3
370
    35
100
AcDbCircle
 10
379.659621539201
 20
210.1125125713349
 30
0.0
 40
1.600000000000023
100
AcDbArc
 50
120.0
 51
210.0
  0
ARC
  5
2E4
330
2D8
100
AcDbEntity
  8
GR1_01
  6
Continuous
 62
     3
370
    35
100
AcDbCircle
 10
377.559621539201
 20
213.7498192672296
 30
0.0
 40
1.600000000000023
100
AcDbArc
 50
210.0
 51
300.0
  0
ENDBLK
  5
2DA
330
2D8
100
AcDbEntity
  8
0
100
AcDbBlockEnd
  0
BLOCK
  5
2E9
330
2E8
100
AcDbEntity
  8
0
100
AcDbBlockBegin
  2
BLKF046
 70
     0
 10
0.0
 20
0.0
 30
0.0
  3
BLKF046
  1

  0
CIRCLE
  5
2EC
330
2E8
100
AcDbEntity
  8
GR1_01
  6
Continuous
 62
     3
370
    35
100
AcDbCircle
 10
323.0973931566185
 20
210.8811659192822
 30
0.0
 40
3.5
  0
LINE
  5
2ED
330
2E8
100
AcDbEntity
  8
GR1_01
  6
Continuous
 62
     3
370
    35
100
AcDbLine
 10
324.6660465045658
 20
209.39815321739
 30
0.0
 11
325.1660465045658
 21
210.2641786211744
 31
0.0
  0
LINE
  5
2EE
330
2E8
100
AcDbEntity
  8
GR1_01
  6
Continuous
 62
     3
370
    35
100
AcDbLine
 10
324.5804058585107
 20
212.4498192672295
 30
0.0
 11
323.7143804547263
 21
212.9498192672295
 31
0.0
  0
LINE
  5
2EF
330
2E8
100
AcDbEntity
  8
GR1_01
  6
Continuous
 62
     3
370
    35
100
AcDbLine
 10
321.0287398086712
 20
211.49815321739
 30
0.0
 11
321.5287398086712
 21
212.3641786211744
 31
0.0
  0
LINE
  5
2F0
330
2E8
100
AcDbEntity
  8
GR1_01
  6
Continuous
 62
     3
370
    35
100
AcDbLine
 10
322.4804058585107
 20
208.8125125713348
 30
0.0
 11
321.6143804547263
 21
209.3125125713348
 31
0.0
  0
ARC
  5
2F1
330
2E8
100
AcDbEntity
  8
GR1_01
  6
Continuous
 62
     3
370
    35
100
AcDbCircle
 10
325.9660465045658
 20
211.6498192672296
 30
0.0
 40
1.600000000000023
100
AcDbArc
 50
149.9999999999995
 51
240.0
  0
ARC
  5
2F2
330
2E8
100
AcDbEntity
  8
GR1_01
  6
Continuous
 62
     3
370
    35
100
AcDbCircle
 10
323.8660465045658
 20
208.0125125713349
 30
0.0
 40
1.600000000000023
100
AcDbArc
 50
60.00000000000001
 51
149.9999999999995
  0
ARC
  5
2F3
330
2E8
100
AcDbEntity
  8
GR1_01
  6
Continuous
 62
     3
370
    35
100
AcDbCircle
 10
320.2287398086712
 20
210.1125125713349
 30
0.0
 40
1.600000000000023
100
AcDbArc
 50
329.9999999999995
 51
59.99999999999999
  0
ARC
  5
2F4
330
2E8
100
AcDbEntity
  8
GR1_01
  6
Continuous
 62
     3
370
    35
100
AcDbCircle
 10
322.3287398086712
 20
213.7498192672296
 30
0.0
 40
1.600000000000023
100
AcDbArc
 50
240.0
 51
329.9999999999995
  0
ENDBLK
  5
2EA
330
2E8
100
AcDbEntity
  8
0
100
AcDbBlockEnd
  0
BLOCK
  5
31D
330
31C
100
AcDbEntity
  8
0
100
AcDbBlockBegin
  2
BLKF047
 70
     0
 10
0.0
 20
0.0
 30
0.0
  3
BLKF047
  1

  0
LINE
  5
320
330
31C
100
AcDbEntity
  8
作図レイヤ
  6
DASHDOT
 62
     7
370
    13
100
AcDbLine
 10
247.4640042191671
 20
210.3811626611775
 30
0.0
 11
206.4640081797238
 21
210.3811626611775
 31
0.0
  0
LINE
  5
321
330
31C
100
AcDbEntity
  8
作図レイヤ
  6
Continuous
 62
     3
370
    35
100
AcDbLine
 10
244.4640042191671
 20
206.3811626611775
 30
0.0
 11
244.4640042191671
 21
213.3811626611775
 31
0.0
  0
LINE
  5
322
330
31C
100
AcDbEntity
  8
作図レイヤ
  6
Continuous
 62
     3
370
    35
100
AcDbLine
 10
170.4640096493418
 20
235.3811711322501
 30
0.0
 11
211.4640082883271
 21
235.381166896714
 31
0.0
  0
ARC
  5
323
330
31C
100
AcDbEntity
  8
作図レイヤ
  6
Continuous
 62
     3
370
    35
100
AcDbCircle
 10
211.4640081797237
 20
234.381166896714
 30
0.0
 40
1.0
100
AcDbArc
 50
0.0
 51
89.99999377747773
  0
ARC
  5
324
330
31C
100
AcDbEntity
  8
作図レイヤ
  6
Continuous
 62
     3
370
    35
100
AcDbCircle
 10
211.4639997086512
 20
156.3811668967145
 30
0.0
 40
1.0
100
AcDbArc
 50
269.9999937774777
 51
359.9999875549555
  0
LINE
  5
325
330
31C
100
AcDbEntity
  8
作図レイヤ
  6
Continuous
 62
     3
370
    35
100
AcDbLine
 10
170.4639922727828
 20
155.3811711322515
 30
0.0
 11
211.4639996000477
 21
155.3811668967145
 31
0.0
  0
LINE
  5
326
330
31C
100
AcDbEntity
  8
作図レイヤ
  6
Continuous
 62
     3
370
    35
100
AcDbLine
 10
212.4640094251929
 20
234.3492065101306
 30
0.0
 11
212.4639924899898
 21
156.3811666795091
 31
0.0
  0
LINE
  5
327
330
31C
100
AcDbEntity
  8
作図レイヤ
  6
Continuous
 62
     3
370
    35
100
AcDbLine
 10
217.9640042191664
 20
195.3811626611775
 30
0.0
 11
212.4640009610615
 21
195.3811626611775
 31
0.0
  0
ARC
  5
328
330
31C
100
AcDbEntity
  8
作図レイヤ
  6
Continuous
 62
     3
370
    35
100
AcDbCircle
 10
217.9640042191664
 20
195.8811626611775
 30
0.0
 40
0.5
100
AcDbArc
 50
270.0
 51
0.0
  0
LINE
  5
329
330
31C
100
AcDbEntity
  8
作図レイヤ
  6
Continuous
 62
     3
370
    35
100
AcDbLine
 10
218.4640073686678
 20
224.8811626611767
 30
0.0
 11
218.4640010692796
 21
195.8793878719212
 31
0.0
  0
LINE
  5
32A
330
31C
100
AcDbEntity
  8
作図レイヤ
  6
Continuous
 62
     3
370
    35
100
AcDbLine
 10
217.9640042191664
 20
225.3811626611774
 30
0.0
 11
217.2640081797236
 21
225.3811626611774
 31
0.0
  0
ARC
  5
32B
330
31C
100
AcDbEntity
  8
作図レイヤ
  6
Continuous
 62
     3
370
    35
100
AcDbCircle
 10
217.9640042191664
 20
224.8811626611774
 30
0.0
 40
0.5
100
AcDbArc
 50
0.0
 51
90.0
  0
LINE
  5
32C
330
31C
100
AcDbEntity
  8
作図レイヤ
  6
Continuous
 62
     3
370
    35
100
AcDbLine
 10
230.4640042191671
 20
214.3811626611775
 30
0.0
 11
218.4640050879944
 21
214.3811626611775
 31
0.0
  0
LINE
  5
32D
330
31C
100
AcDbEntity
  8
作図レイヤ
  6
Continuous
 62
     3
370
    35
100
AcDbLine
 10
244.464004219167
 20
206.3811626611775
 30
0.0
 11
218.4640033503385
 21
206.3811626611775
 31
0.0
  0
LINE
  5
32E
330
31C
100
AcDbEntity
  8
作図レイヤ
  6
Continuous
 62
     3
370
    35
100
AcDbLine
 10
244.4640042191671
 20
213.3811626611775
 30
0.0
 11
230.4640042191671
 21
213.3811626611775
 31
0.0
  0
LINE
  5
32F
330
31C
100
AcDbEntity
  8
作図レイヤ
  6
Continuous
 62
     3
370
    35
100
AcDbLine
 10
230.4640042191671
 20
213.3811626611775
 30
0.0
 11
230.4640042191671
 21
214.3811626611775
 31
0.0
  0
LINE
  5
330
330
31C
100
AcDbEntity
  8
作図レイヤ
  6
Continuous
 62
     3
370
    35
100
AcDbLine
 10
170.4640096493418
 20
235.3811711322501
 30
0.0
 11
170.4639922727828
 21
155.3811711322515
 31
0.0
  0
ENDBLK
  5
31E
330
31C
100
AcDbEntity
  8
0
100
AcDbBlockEnd
  0
BLOCK
  5
332
330
331
100
AcDbEntity
  8
0
100
AcDbBlockBegin
  2
BLKF048
 70
     0
 10
0.0
 20
0.0
 30
0.0
  3
BLKF048
  1

  0
LINE
  5
335
330
331
100
AcDbEntity
  8
作図レイヤ
  6
Continuous
 62
     3
370
    35
100
AcDbLine
 10
217.1067425898156
 20
233.2339887977317
 30
0.0
 11
217.4640081797237
 21
232.6151866442147
 31
0.0
  0
LINE
  5
336
330
331
100
AcDbEntity
  8
作図レイヤ
  6
Continuous
 62
     3
370
    35
100
AcDbLine
 10
217.4640081797237
 20
232.6151866442147
 30
0.0
 11
217.4640081797237
 21
224.6151866442147
 31
0.0
  0
LINE
  5
337
330
331
100
AcDbEntity
  8
作図レイヤ
  6
Continuous
 62
     3
370
    35
100
AcDbLine
 10
217.4640081797237
 20
224.6151866442147
 30
0.0
 11
217.1067425898156
 21
223.9963844906977
 31
0.0
  0
ARC
  5
338
330
331
100
AcDbEntity
  8
作図レイヤ
  6
Continuous
 62
     3
370
    35
100
AcDbCircle
 10
215.4193499809852
 20
232.0792882593525
 30
0.0
 40
2.044658198738496
100
AcDbArc
 50
325.6157525319587
 51
34.38424746804323
  0
ARC
  5
339
330
331
100
AcDbEntity
  8
作図レイヤ
  6
Continuous
 62
     3
370
    35
100
AcDbCircle
 10
209.8212737696321
 20
228.6151866442147
 30
0.0
 40
7.642734410091665
100
AcDbArc
 50
342.4120462260059
 51
17.58795377399403
  0
ARC
  5
33A
330
331
100
AcDbEntity
  8
作図レイヤ
  6
Continuous
 62
     3
370
    35
100
AcDbCircle
 10
215.4193499809852
 20
225.1510850290769
 30
0.0
 40
2.044658198738496
100
AcDbArc
 50
325.6157525319587
 51
34.38424746804323
  0
LINE
  5
33B
330
331
100
AcDbEntity
  8
作図レイヤ
  6
Continuous
 62
     3
370
    35
100
AcDbLine
 10
217.1067425898156
 20
223.9963844906977
 30
0.0
 11
213.4640081797237
 21
223.9963844906977
 31
0.0
  0
LINE
  5
33C
330
331
100
AcDbEntity
  8
作図レイヤ
  6
Continuous
 62
     3
370
    35
100
AcDbLine
 10
213.4640081797237
 20
223.9963844906977
 30
0.0
 11
213.4640081797237
 21
233.2339887977317
 31
0.0
  0
LINE
  5
33D
330
331
100
AcDbEntity
  8
作図レイヤ
  6
Continuous
 62
     3
370
    35
100
AcDbLine
 10
213.4640081797237
 20
233.2339887977317
 30
0.0
 11
217.1067425898156
 21
233.2339887977317
 31
0.0
  0
LINE
  5
33E
330
331
100
AcDbEntity
  8
作図レイヤ
  6
Continuous
 62
     3
370
    35
100
AcDbLine
 10
217.1067425898156
 20
230.9245877209732
 30
0.0
 11
213.4640081797237
 21
230.9245877209732
 31
0.0
  0
LINE
  5
33F
330
331
100
AcDbEntity
  8
作図レイヤ
  6
Continuous
 62
     3
370
    35
100
AcDbLine
 10
217.1067425898156
 20
226.3057855674562
 30
0.0
 11
213.4640081797237
 21
226.3057855674562
 31
0.0
  0
LINE
  5
340
330
331
100
AcDbEntity
  8
作図レイヤ
  6
Continuous
 62
     3
370
    35
100
AcDbLine
 10
213.4640081797237
 20
233.6151866442147
 30
0.0
 11
213.4640081797237
 21
223.6151866442147
 31
0.0
  0
LINE
  5
341
330
331
100
AcDbEntity
  8
作図レイヤ
  6
Continuous
 62
     3
370
    35
100
AcDbLine
 10
213.4640081797237
 20
223.6151866442147
 30
0.0
 11
212.4640081797237
 21
223.6151866442147
 31
0.0
  0
LINE
  5
342
330
331
100
AcDbEntity
  8
作図レイヤ
  6
Continuous
 62
     3
370
    35
100
AcDbLine
 10
212.4640081797237
 20
223.6151866442147
 30
0.0
 11
212.4640081797237
 21
233.6151866442147
 31
0.0
  0
LINE
  5
343
330
331
100
AcDbEntity
  8
作図レイヤ
  6
Continuous
 62
     3
370
    35
100
AcDbLine
 10
212.4640081797237
 20
233.6151866442147
 30
0.0
 11
213.4640081797237
 21
233.6151866442147
 31
0.0
  0
ENDBLK
  5
333
330
331
100
AcDbEntity
  8
0
100
AcDbBlockEnd
  0
BLOCK
  5
345
330
344
100
AcDbEntity
  8
0
100
AcDbBlockBegin
  2
BLKF049
 70
     0
 10
0.0
 20
0.0
 30
0.0
  3
BLKF049
  1

  0
LINE
  5
348
330
344
100
AcDbEntity
  8
作図レイヤ
  6
Continuous
 62
     3
370
    35
100
AcDbLine
 10
217.1067291198524
 20
166.7659480189322
 30
0.0
 11
217.4639945801589
 21
166.1471457905897
 31
0.0
  0
LINE
  5
349
330
344
100
AcDbEntity
  8
作図レイヤ
  6
Continuous
 62
     3
370
    35
100
AcDbLine
 10
217.4639945801589
 20
166.1471457905897
 30
0.0
 11
217.4639929046428
 21
158.1471457905899
 31
0.0
  0
LINE
  5
34A
330
344
100
AcDbEntity
  8
作図レイヤ
  6
Continuous
 62
     3
370
    35
100
AcDbLine
 10
217.4639929046428
 20
158.1471457905899
 30
0.0
 11
217.106727185133
 21
157.5283437118985
 31
0.0
  0
ARC
  5
34B
330
344
100
AcDbEntity
  8
作図レイヤ
  6
Continuous
 62
     3
370
    35
100
AcDbCircle
 10
215.4193362691821
 20
165.6112478339597
 30
0.0
 40
2.044658198738512
100
AcDbArc
 50
325.6157405319581
 51
34.38423546804257
  0
ARC
  5
34C
330
344
100
AcDbEntity
  8
作図レイヤ
  6
Continuous
 62
     3
370
    35
100
AcDbCircle
 10
209.8212593323093
 20
162.1471473912804
 30
0.0
 40
7.6427344100917
100
AcDbArc
 50
342.4120342260057
 51
17.58794177399378
  0
ARC
  5
34D
330
344
100
AcDbEntity
  8
作図レイヤ
  6
Continuous
 62
     3
370
    35
100
AcDbCircle
 10
215.4193348181426
 20
158.6830446036844
 30
0.0
 40
2.044658198738512
100
AcDbArc
 50
325.6157405319581
 51
34.38423546804257
  0
LINE
  5
34E
330
344
100
AcDbEntity
  8
作図レイヤ
  6
Continuous
 62
     3
370
    35
100
AcDbLine
 10
217.106727185133
 20
157.5283437118985
 30
0.0
 11
213.4639927750413
 21
157.528344474831
 31
0.0
  0
LINE
  5
34F
330
344
100
AcDbEntity
  8
作図レイヤ
  6
Continuous
 62
     3
370
    35
100
AcDbLine
 10
213.4639927750413
 20
157.528344474831
 30
0.0
 11
213.4639947097606
 21
166.7659487818648
 31
0.0
  0
LINE
  5
350
330
344
100
AcDbEntity
  8
作図レイヤ
  6
Continuous
 62
     3
370
    35
100
AcDbLine
 10
213.4639947097606
 20
166.7659487818648
 30
0.0
 11
217.1067291198524
 21
166.7659480189322
 31
0.0
  0
LINE
  5
351
330
344
100
AcDbEntity
  8
作図レイヤ
  6
Continuous
 62
     3
370
    35
100
AcDbLine
 10
217.1067286361725
 20
164.4565469421738
 30
0.0
 11
213.4639942260808
 21
164.4565477051063
 31
0.0
  0
LINE
  5
352
330
344
100
AcDbEntity
  8
作図レイヤ
  6
Continuous
 62
     3
370
    35
100
AcDbLine
 10
217.1067276688129
 20
159.8377447886569
 30
0.0
 11
213.4639932587211
 21
159.8377455515894
 31
0.0
  0
LINE
  5
353
330
344
100
AcDbEntity
  8
作図レイヤ
  6
Continuous
 62
     3
370
    35
100
AcDbLine
 10
213.4639947895985
 20
167.1471466283477
 30
0.0
 11
213.4639926952034
 21
157.147146628348
 31
0.0
  0
LINE
  5
354
330
344
100
AcDbEntity
  8
作図レイヤ
  6
Continuous
 62
     3
370
    35
100
AcDbLine
 10
213.4639926952034
 20
157.147146628348
 30
0.0
 11
212.4639926952034
 21
157.1471468377875
 31
0.0
  0
LINE
  5
355
330
344
100
AcDbEntity
  8
作図レイヤ
  6
Continuous
 62
     3
370
    35
100
AcDbLine
 10
212.4639926952034
 20
157.1471468377875
 30
0.0
 11
212.4639947895985
 21
167.1471468377873
 31
0.0
  0
LINE
  5
356
330
344
100
AcDbEntity
  8
作図レイヤ
  6
Continuous
 62
     3
370
    35
100
AcDbLine
 10
212.4639947895985
 20
167.1471468377873
 30
0.0
 11
213.4639947895985
 21
167.1471466283477
 31
0.0
  0
ENDBLK
  5
346
330
344
100
AcDbEntity
  8
0
100
AcDbBlockEnd
  0
BLOCK
  5
358
330
357
100
AcDbEntity
  8
0
100
AcDbBlockBegin
  2
BLKF050
 70
     0
 10
0.0
 20
0.0
 30
0.0
  3
BLKF050
  1

  0
LINE
  5
35B
330
357
100
AcDbEntity
  8
GR1_01
  6
Continuous
 62
     3
370
    35
100
AcDbLine
 10
316.7101619581684
 20
223.9963824815331
 30
0.0
 11
320.7101619581684
 21
226.3057835582916
 31
0.0
  0
LINE
  5
35C
330
357
100
AcDbEntity
  8
GR1_01
  6
Continuous
 62
     3
370
    35
100
AcDbLine
 10
320.7101619581684
 20
226.3057835582916
 30
0.0
 11
320.7101619581684
 21
230.9245857118086
 31
0.0
  0
LINE
  5
35D
330
357
100
AcDbEntity
  8
GR1_01
  6
Continuous
 62
     3
370
    35
100
AcDbLine
 10
320.7101619581684
 20
230.9245857118086
 30
0.0
 11
316.7101619581684
 21
233.2339867885671
 31
0.0
  0
LINE
  5
35E
330
357
100
AcDbEntity
  8
GR1_01
  6
Continuous
 62
     3
370
    35
100
AcDbLine
 10
316.7101619581684
 20
233.2339867885671
 30
0.0
 11
312.7101619581684
 21
230.9245857118086
 31
0.0
  0
LINE
  5
35F
330
357
100
AcDbEntity
  8
GR1_01
  6
Continuous
 62
     3
370
    35
100
AcDbLine
 10
312.7101619581684
 20
230.9245857118086
 30
0.0
 11
312.7101619581684
 21
226.3057835582916
 31
0.0
  0
LINE
  5
360
330
357
100
AcDbEntity
  8
GR1_01
  6
Continuous
 62
     3
370
    35
100
AcDbLine
 10
312.7101619581684
 20
226.3057835582916
 30
0.0
 11
316.7101619581684
 21
223.9963824815331
 31
0.0
  0
CIRCLE
  5
361
330
357
100
AcDbEntity
  8
GR1_01
  6
Continuous
 62
     3
370
    35
100
AcDbCircle
 10
316.7101619581684
 20
228.6151846350501
 30
0.0
 40
3.9
  0
CIRCLE
  5
362
330
357
100
AcDbEntity
  8
GR1_01
  6
Continuous
 62
     3
370
    35
100
AcDbCircle
 10
316.7101619581684
 20
228.6151846350501
 30
0.0
 40
5.0
  0
ENDBLK
  5
359
330
357
100
AcDbEntity
  8
0
100
AcDbBlockEnd
  0
BLOCK
  5
364
330
363
100
AcDbEntity
  8
0
100
AcDbBlockBegin
  2
BLKF051
 70
     0
 10
0.0
 20
0.0
 30
0.0
  3
BLKF051
  1

  0
LINE
  5
367
330
363
100
AcDbEntity
  8
GR1_01
  6
Continuous
 62
     3
370
    35
100
AcDbLine
 10
383.1781993897039
 20
223.9963824815331
 30
0.0
 11
387.1781993897039
 21
226.3057835582916
 31
0.0
  0
LINE
  5
368
330
363
100
AcDbEntity
  8
GR1_01
  6
Continuous
 62
     3
370
    35
100
AcDbLine
 10
387.1781993897039
 20
226.3057835582916
 30
0.0
 11
387.1781993897039
 21
230.9245857118086
 31
0.0
  0
LINE
  5
369
330
363
100
AcDbEntity
  8
GR1_01
  6
Continuous
 62
     3
370
    35
100
AcDbLine
 10
387.1781993897039
 20
230.9245857118086
 30
0.0
 11
383.1781993897039
 21
233.2339867885671
 31
0.0
  0
LINE
  5
36A
330
363
100
AcDbEntity
  8
GR1_01
  6
Continuous
 62
     3
370
    35
100
AcDbLine
 10
383.1781993897039
 20
233.2339867885671
 30
0.0
 11
379.1781993897039
 21
230.9245857118086
 31
0.0
  0
LINE
  5
36B
330
363
100
AcDbEntity
  8
GR1_01
  6
Continuous
 62
     3
370
    35
100
AcDbLine
 10
379.1781993897039
 20
230.9245857118086
 30
0.0
 11
379.1781993897039
 21
226.3057835582916
 31
0.0
  0
LINE
  5
36C
330
363
100
AcDbEntity
  8
GR1_01
  6
Continuous
 62
     3
370
    35
100
AcDbLine
 10
379.1781993897039
 20
226.3057835582916
 30
0.0
 11
383.1781993897039
 21
223.9963824815331
 31
0.0
  0
CIRCLE
  5
36D
330
363
100
AcDbEntity
  8
GR1_01
  6
Continuous
 62
     3
370
    35
100
AcDbCircle
 10
383.1781993897039
 20
228.6151846350501
 30
0.0
 40
3.9
  0
CIRCLE
  5
36E
330
363
100
AcDbEntity
  8
GR1_01
  6
Continuous
 62
     3
370
    35
100
AcDbCircle
 10
383.1781993897039
 20
228.6151846350501
 30
0.0
 40
5.0
  0
ENDBLK
  5
365
330
363
100
AcDbEntity
  8
0
100
AcDbBlockEnd
  0
BLOCK
  5
370
330
36F
100
AcDbEntity
  8
0
100
AcDbBlockBegin
  2
BLKF052
 70
     0
 10
0.0
 20
0.0
 30
0.0
  3
BLKF052
  1

  0
LINE
  5
373
330
36F
100
AcDbEntity
  8
GR1_01
  6
Continuous
 62
     3
370
    35
100
AcDbLine
 10
316.7101619581682
 20
157.5283450499974
 30
0.0
 11
320.7101619581682
 21
159.8377461267559
 31
0.0
  0
LINE
  5
374
330
36F
100
AcDbEntity
  8
GR1_01
  6
Continuous
 62
     3
370
    35
100
AcDbLine
 10
320.7101619581682
 20
159.8377461267559
 30
0.0
 11
320.7101619581682
 21
164.4565482802728
 31
0.0
  0
LINE
  5
375
330
36F
100
AcDbEntity
  8
GR1_01
  6
Continuous
 62
     3
370
    35
100
AcDbLine
 10
320.7101619581682
 20
164.4565482802728
 30
0.0
 11
316.7101619581682
 21
166.7659493570313
 31
0.0
  0
LINE
  5
376
330
36F
100
AcDbEntity
  8
GR1_01
  6
Continuous
 62
     3
370
    35
100
AcDbLine
 10
316.7101619581682
 20
166.7659493570313
 30
0.0
 11
312.7101619581682
 21
164.4565482802728
 31
0.0
  0
LINE
  5
377
330
36F
100
AcDbEntity
  8
GR1_01
  6
Continuous
 62
     3
370
    35
100
AcDbLine
 10
312.7101619581682
 20
164.4565482802728
 30
0.0
 11
312.7101619581682
 21
159.8377461267559
 31
0.0
  0
LINE
  5
378
330
36F
100
AcDbEntity
  8
GR1_01
  6
Continuous
 62
     3
370
    35
100
AcDbLine
 10
312.7101619581682
 20
159.8377461267559
 30
0.0
 11
316.7101619581682
 21
157.5283450499974
 31
0.0
  0
CIRCLE
  5
379
330
36F
100
AcDbEntity
  8
GR1_01
  6
Continuous
 62
     3
370
    35
100
AcDbCircle
 10
316.7101619581682
 20
162.1471472035144
 30
0.0
 40
3.9
  0
CIRCLE
  5
37A
330
36F
100
AcDbEntity
  8
GR1_01
  6
Continuous
 62
     3
370
    35
100
AcDbCircle
 10
316.7101619581682
 20
162.1471472035144
 30
0.0
 40
5.0
  0
ENDBLK
  5
371
330
36F
100
AcDbEntity
  8
0
100
AcDbBlockEnd
  0
BLOCK
  5
37C
330
37B
100
AcDbEntity
  8
0
100
AcDbBlockBegin
  2
BLKF053
 70
     0
 10
0.0
 20
0.0
 30
0.0
  3
BLKF053
  1

  0
LINE
  5
37F
330
37B
100
AcDbEntity
  8
GR1_01
  6
Continuous
 62
     3
370
    35
100
AcDbLine
 10
383.1781993897039
 20
157.5283450499975
 30
0.0
 11
387.1781993897039
 21
159.837746126756
 31
0.0
  0
LINE
  5
380
330
37B
100
AcDbEntity
  8
GR1_01
  6
Continuous
 62
     3
370
    35
100
AcDbLine
 10
387.1781993897039
 20
159.837746126756
 30
0.0
 11
387.1781993897039
 21
164.456548280273
 31
0.0
  0
LINE
  5
381
330
37B
100
AcDbEntity
  8
GR1_01
  6
Continuous
 62
     3
370
    35
100
AcDbLine
 10
387.1781993897039
 20
164.456548280273
 30
0.0
 11
383.1781993897039
 21
166.7659493570315
 31
0.0
  0
LINE
  5
382
330
37B
100
AcDbEntity
  8
GR1_01
  6
Continuous
 62
     3
370
    35
100
AcDbLine
 10
383.1781993897039
 20
166.7659493570315
 30
0.0
 11
379.1781993897039
 21
164.456548280273
 31
0.0
  0
LINE
  5
383
330
37B
100
AcDbEntity
  8
GR1_01
  6
Continuous
 62
     3
370
    35
100
AcDbLine
 10
379.1781993897039
 20
164.456548280273
 30
0.0
 11
379.1781993897039
 21
159.837746126756
 31
0.0
  0
LINE
  5
384
330
37B
100
AcDbEntity
  8
GR1_01
  6
Continuous
 62
     3
370
    35
100
AcDbLine
 10
379.1781993897039
 20
159.837746126756
 30
0.0
 11
383.1781993897039
 21
157.5283450499975
 31
0.0
  0
CIRCLE
  5
385
330
37B
100
AcDbEntity
  8
GR1_01
  6
Continuous
 62
     3
370
    35
100
AcDbCircle
 10
383.1781993897039
 20
162.1471472035145
 30
0.0
 40
3.9
  0
CIRCLE
  5
386
330
37B
100
AcDbEntity
  8
GR1_01
  6
Continuous
 62
     3
370
    35
100
AcDbCircle
 10
383.1781993897039
 20
162.1471472035145
 30
0.0
 40
5.0
  0
ENDBLK
  5
37D
330
37B
100
AcDbEntity
  8
0
100
AcDbBlockEnd
  0
BLOCK
  5
390
330
38F
100
AcDbEntity
  8
0
100
AcDbBlockBegin
  2
BLKF054
 70
     0
 10
0.0
 20
0.0
 30
0.0
  3
BLKF054
  1

  0
LINE
  5
393
330
38F
100
AcDbEntity
  8
作図レイヤ
  6
Continuous
 62
     3
370
    35
100
AcDbLine
 10
163.9640009610612
 20
224.1151866442148
 30
0.0
 11
162.5725041671855
 21
224.1881119010613
 31
0.0
  0
LINE
  5
394
330
38F
100
AcDbEntity
  8
作図レイヤ
  6
Continuous
 62
     3
370
    35
100
AcDbLine
 10
163.9640009610612
 20
233.1151866442148
 30
0.0
 11
162.5725041671855
 21
233.0422613873683
 31
0.0
  0
LINE
  5
395
330
38F
100
AcDbEntity
  8
作図レイヤ
  6
Continuous
 62
     3
370
    35
100
AcDbLine
 10
163.9640009610612
 20
224.1151866442148
 30
0.0
 11
163.9640009610612
 21
233.1151866442148
 31
0.0
  0
ARC
  5
396
330
38F
100
AcDbEntity
  8
作図レイヤ
  6
Continuous
 62
     3
370
    35
100
AcDbCircle
 10
162.6562416971743
 20
225.7859191566686
 30
0.0
 40
1.6
100
AcDbArc
 50
195.7859896410124
 51
266.9999999999994
  0
ARC
  5
397
330
38F
100
AcDbEntity
  8
作図レイヤ
  6
Continuous
 62
     3
370
    35
100
AcDbCircle
 10
162.6562416971743
 20
231.4444541317609
 30
0.0
 40
1.6
100
AcDbArc
 50
93.00000000000053
 51
164.2140103589876
  0
ARC
  5
398
330
38F
100
AcDbEntity
  8
作図レイヤ
  6
Continuous
 62
     3
370
    35
100
AcDbCircle
 10
172.6640009610612
 20
228.6151866442148
 30
0.0
 40
12.0
100
AcDbArc
 50
164.2140103589876
 51
195.7859896410124
  0
LINE
  5
399
330
38F
100
AcDbEntity
  8
作図レイヤ
  6
Continuous
 62
     3
370
    35
100
AcDbLine
 10
217.4640081797237
 20
226.1151866442147
 30
0.0
 11
228.1640009610612
 21
226.1151866442147
 31
0.0
  0
LINE
  5
39A
330
38F
100
AcDbEntity
  8
作図レイヤ
  6
Continuous
 62
     3
370
    35
100
AcDbLine
 10
217.4640081797237
 20
231.1151866442147
 30
0.0
 11
228.1640009610612
 21
231.1151866442148
 31
0.0
  0
LINE
  5
39B
330
38F
100
AcDbEntity
  8
作図レイヤ
  6
Continuous
 62
     3
370
    35
100
AcDbLine
 10
228.9640009610612
 20
226.9151866442147
 30
0.0
 11
228.9640009610612
 21
230.3151866442148
 31
0.0
  0
LINE
  5
39C
330
38F
100
AcDbEntity
  8
作図レイヤ
  6
Continuous
 62
     7
370
    13
100
AcDbLine
 10
217.4640081797237
 20
226.6151866442148
 30
0.0
 11
228.6640009610612
 21
226.6151866442147
 31
0.0
  0
LINE
  5
39D
330
38F
100
AcDbEntity
  8
作図レイヤ
  6
Continuous
 62
     7
370
    13
100
AcDbLine
 10
217.4640081797237
 20
230.6151866442148
 30
0.0
 11
228.6640009610612
 21
230.6151866442148
 31
0.0
  0
LINE
  5
39E
330
38F
100
AcDbEntity
  8
作図レイヤ
  6
Continuous
 62
     3
370
    35
100
AcDbLine
 10
228.9640009610612
 20
230.3151866442148
 30
0.0
 11
228.1640009610612
 21
231.1151866442148
 31
0.0
  0
LINE
  5
39F
330
38F
100
AcDbEntity
  8
作図レイヤ
  6
Continuous
 62
     3
370
    35
100
AcDbLine
 10
228.1640009610612
 20
226.1151866442147
 30
0.0
 11
228.9640009610612
 21
226.9151866442147
 31
0.0
  0
ENDBLK
  5
391
330
38F
100
AcDbEntity
  8
0
100
AcDbBlockEnd
  0
BLOCK
  5
3A2
330
3A1
100
AcDbEntity
  8
0
100
AcDbBlockBegin
  2
BLKF055
 70
     0
 10
0.0
 20
0.0
 30
0.0
  3
BLKF055
  1

  0
LINE
  5
3A5
330
3A1
100
AcDbEntity
  8
作図レイヤ
  6
Continuous
 62
     3
370
    35
100
AcDbLine
 10
163.9640000185834
 20
157.6471570724854
 30
0.0
 11
162.5725032399812
 21
157.7200826207663
 31
0.0
  0
LINE
  5
3A6
330
3A1
100
AcDbEntity
  8
作図レイヤ
  6
Continuous
 62
     3
370
    35
100
AcDbLine
 10
163.9640019035389
 20
166.6471570724852
 30
0.0
 11
162.5725050943899
 21
166.5742321070731
 31
0.0
  0
LINE
  5
3A7
330
3A1
100
AcDbEntity
  8
作図レイヤ
  6
Continuous
 62
     3
370
    35
100
AcDbLine
 10
163.9640000185834
 20
157.6471570724854
 30
0.0
 11
163.9640019035389
 21
166.6471570724852
 31
0.0
  0
ARC
  5
3A8
330
3A1
100
AcDbEntity
  8
作図レイヤ
  6
Continuous
 62
     3
370
    35
100
AcDbCircle
 10
162.6562411046139
 20
159.3178898588356
 30
0.0
 40
1.6
100
AcDbArc
 50
195.7859776410124
 51
266.9999879999995
  0
ARC
  5
3A9
330
3A1
100
AcDbEntity
  8
作図レイヤ
  6
Continuous
 62
     3
370
    35
100
AcDbCircle
 10
162.6562422897347
 20
164.9764248339279
 30
0.0
 40
1.6
100
AcDbArc
 50
92.99998800000054
 51
164.2139983589876
  0
ARC
  5
3AA
330
3A1
100
AcDbEntity
  8
作図レイヤ
  6
Continuous
 62
     3
370
    35
100
AcDbCircle
 10
172.6640009610609
 20
162.1471552503615
 30
0.0
 40
12.0
100
AcDbArc
 50
164.2139983589876
 51
195.7859776410124
  0
LINE
  5
3AB
330
3A1
100
AcDbEntity
  8
作図レイヤ
  6
Continuous
 62
     3
370
    35
100
AcDbLine
 10
217.4639932188021
 20
159.6471458674731
 30
0.0
 11
228.1640004374609
 21
159.6471436264688
 31
0.0
  0
LINE
  5
3AC
330
3A1
100
AcDbEntity
  8
作図レイヤ
  6
Continuous
 62
     3
370
    35
100
AcDbLine
 10
217.4639942659996
 20
164.6471458674729
 30
0.0
 11
228.1640014846585
 21
164.6471436264687
 31
0.0
  0
LINE
  5
3AD
330
3A1
100
AcDbEntity
  8
作図レイヤ
  6
Continuous
 62
     3
370
    35
100
AcDbLine
 10
228.9640006050125
 20
160.4471434589172
 30
0.0
 11
228.9640013171069
 21
163.8471434589171
 31
0.0
  0
LINE
  5
3AE
330
3A1
100
AcDbEntity
  8
作図レイヤ
  6
Continuous
 62
     7
370
    13
100
AcDbLine
 10
217.4639933235219
 20
160.147145867473
 30
0.0
 11
228.6640005421806
 21
160.147143521749
 31
0.0
  0
LINE
  5
3AF
330
3A1
100
AcDbEntity
  8
作図レイヤ
  6
Continuous
 62
     7
370
    13
100
AcDbLine
 10
217.4639941612799
 20
164.1471458674729
 30
0.0
 11
228.6640013799388
 21
164.1471435217489
 31
0.0
  0
LINE
  5
3B0
330
3A1
100
AcDbEntity
  8
作図レイヤ
  6
Continuous
 62
     3
370
    35
100
AcDbLine
 10
228.1640004374609
 20
159.6471436264688
 30
0.0
 11
228.9640006050125
 21
160.4471434589172
 31
0.0
  0
LINE
  5
3B1
330
3A1
100
AcDbEntity
  8
作図レイヤ
  6
Continuous
 62
     3
370
    35
100
AcDbLine
 10
228.9640013171069
 20
163.8471434589171
 30
0.0
 11
228.1640014846585
 21
164.6471436264687
 31
0.0
  0
ENDBLK
  5
3A3
330
3A1
100
AcDbEntity
  8
0
100
AcDbBlockEnd
  0
ENDSEC
  0
SECTION
  2
ENTITIES
  0
TEXT
  5
B4
330
1F
100
AcDbEntity
  8
基準ﾚｲﾔｸﾞﾙｰﾌﾟ_01
  6
Continuous
 62
     7
370
    13
100
AcDbText
 10
326.5634155273438
 20
279.6773376464844
 30
0.0
 40
2.5
  1
メートル並目ねじ（ＪＩＳ　Ｂ　０２０９）めねじ：６Ｈ　おねじ：６ｇ（２級）
 41
1.078190022895778
  7
FX_VECTOR
 72
     5
 11
411.6634137630463
 21
279.6773376464844
 31
0.0
100
AcDbText
  0
TEXT
  5
B5
330
1F
100
AcDbEntity
  8
基準ﾚｲﾔｸﾞﾙｰﾌﾟ_01
  6
Continuous
 62
     7
370
    13
100
AcDbText
 10
232.5634155273438
 20
279.6773376464844
 30
0.0
 40
2.5
  1
公差表示方式　ＪＩＳ　Ｂ　００２４
 41
1.083960373566883
  7
FX_VECTOR
 72
     5
 11
271.6634147167206
 21
279.6773376464844
 31
0.0
100
AcDbText
  0
TEXT
  5
B6
330
1F
100
AcDbEntity
  8
基準ﾚｲﾔｸﾞﾙｰﾌﾟ_01
  6
Continuous
 62
     7
370
    13
100
AcDbText
 10
278.532958984375
 20
279.6773376464844
 30
0.0
 40
2.5
  1
普通公差　ＪＩＳ　Ｂ　０４１９－ｃＫ
 41
1.083364463520941
  7
FX_VECTOR
 72
     5
 11
319.9329581260681
 21
279.6773376464844
 31
0.0
100
AcDbText
  0
INSERT
  5
BA
330
1F
100
AcDbEntity
  8
基準ﾚｲﾔｸﾞﾙｰﾌﾟ_01
  6
Continuous
 62
     7
370
    13
100
AcDbBlockReference
  2
BLKF023
 10
0.0
 20
0.0
 30
0.0
  0
INSERT
  5
E8
330
1F
100
AcDbEntity
  8
基準ﾚｲﾔｸﾞﾙｰﾌﾟ_01
  6
Continuous
 62
     7
370
    13
100
AcDbBlockReference
  2
BLKF024
 10
0.0
 20
0.0
 30
0.0
  0
TEXT
  5
FF
330
1F
100
AcDbEntity
  8
基準ﾚｲﾔｸﾞﾙｰﾌﾟ_01
  6
Continuous
 62
     7
370
    13
100
AcDbText
 10
300.4739379882812
 20
23.40287208557129
 30
0.0
 40
3.0
  1
２０１１
 41
1.217391304347826
  7
FX_VECTOR
 72
     5
 11
312.4739379882812
 21
23.40287208557129
 31
0.0
100
AcDbText
  0
TEXT
  5
100
330
1F
100
AcDbEntity
  8
基準ﾚｲﾔｸﾞﾙｰﾌﾟ_01
  6
Continuous
 62
     7
370
    13
100
AcDbText
 10
315.7803039550781
 20
23.40287208557129
 30
0.0
 40
3.0
  1
１１
 41
1.272727272727273
  7
FX_VECTOR
 72
     5
 11
321.7803039550781
 21
23.40287208557129
 31
0.0
100
AcDbText
  0
TEXT
  5
101
330
1F
100
AcDbEntity
  8
基準ﾚｲﾔｸﾞﾙｰﾌﾟ_01
  6
Continuous
 62
     7
370
    13
100
AcDbText
 10
324.8333435058594
 20
23.36934280395508
 30
0.0
 40
3.0
  1
　１
 41
1.272727272727273
  7
FX_VECTOR
 72
     5
 11
330.8333435058594
 21
23.36934280395508
 31
0.0
100
AcDbText
  0
TEXT
  5
102
330
1F
100
AcDbEntity
  8
基準ﾚｲﾔｸﾞﾙｰﾌﾟ_01
  6
Continuous
 62
     7
370
    25
100
AcDbText
 10
350.9717712402344
 20
9.189493179321289
 30
0.0
 40
3.5
  1
１
 41
1.4
 51
10.0
  7
FX_VECTOR
 72
     5
 11
354.4717712402344
 21
9.189493179321289
 31
0.0
100
AcDbText
  0
TEXT
  5
103
330
1F
100
AcDbEntity
  8
基準ﾚｲﾔｸﾞﾙｰﾌﾟ_01
  6
Continuous
 62
     7
370
    25
100
AcDbText
 10
350.9717712402344
 20
14.19346523284912
 30
0.0
 40
3.5
  1
１
 41
1.4
 51
10.0
  7
FX_VECTOR
 72
     5
 11
354.4717712402344
 21
14.19346523284912
 31
0.0
100
AcDbText
  0
INSERT
  5
107
330
1F
100
AcDbEntity
  8
基準ﾚｲﾔｸﾞﾙｰﾌﾟ_01
  6
Continuous
 62
     7
370
    13
100
AcDbBlockReference
  2
BLKF025
 10
0.0
 20
0.0
 30
0.0
  0
INSERT
  5
10F
330
1F
100
AcDbEntity
  8
基準ﾚｲﾔｸﾞﾙｰﾌﾟ_01
  6
Continuous
 62
     7
370
    13
100
AcDbBlockReference
  2
BLKF026
 10
0.0
 20
0.0
 30
0.0
  0
INSERT
  5
117
330
1F
100
AcDbEntity
  8
基準ﾚｲﾔｸﾞﾙｰﾌﾟ_01
  6
Continuous
 62
     7
370
    13
100
AcDbBlockReference
  2
BLKF027
 10
0.0
 20
0.0
 30
0.0
  0
INSERT
  5
11F
330
1F
100
AcDbEntity
  8
基準ﾚｲﾔｸﾞﾙｰﾌﾟ_01
  6
Continuous
 62
     7
370
    13
100
AcDbBlockReference
  2
BLKF028
 10
0.0
 20
0.0
 30
0.0
  0
INSERT
  5
127
330
1F
100
AcDbEntity
  8
基準ﾚｲﾔｸﾞﾙｰﾌﾟ_01
  6
Continuous
 62
     7
370
    13
100
AcDbBlockReference
  2
BLKF029
 10
0.0
 20
0.0
 30
0.0
  0
INSERT
  5
12F
330
1F
100
AcDbEntity
  8
基準ﾚｲﾔｸﾞﾙｰﾌﾟ_01
  6
Continuous
 62
     7
370
    13
100
AcDbBlockReference
  2
BLKF030
 10
0.0
 20
0.0
 30
0.0
  0
INSERT
  5
145
330
1F
100
AcDbEntity
  8
基準ﾚｲﾔｸﾞﾙｰﾌﾟ_01
  6
Continuous
 62
     7
370
    13
100
AcDbBlockReference
  2
BLKF032
 10
0.0
 20
0.0
 30
0.0
  0
TEXT
  5
187
330
1F
100
AcDbEntity
  8
基準ﾚｲﾔｸﾞﾙｰﾌﾟ_01
  6
Continuous
 62
     7
370
    13
100
AcDbText
 10
420.4944152832031
 20
126.6061782836914
 30
0.0
 40
2.5
  1
　０
 41
1.018181818181818
 51
10.0
  7
FX_VECTOR
 72
     5
 11
424.4944152832031
 21
126.6061782836914
 31
0.0
100
AcDbText
  0
TEXT
  5
188
330
1F
100
AcDbEntity
  8
基準ﾚｲﾔｸﾞﾙｰﾌﾟ_01
  6
Continuous
 62
     7
370
    13
100
AcDbText
 10
420.4944152832031
 20
124.1061782836914
 30
0.0
 40
2.5
  1
－０．０３
 41
0.9655172413793103
 51
10.0
  7
FX_VECTOR
 72
     5
 11
430.4944152832031
 21
124.1061782836914
 31
0.0
100
AcDbText
  0
TEXT
  5
189
330
1F
100
AcDbEntity
  8
基準ﾚｲﾔｸﾞﾙｰﾌﾟ_01
  6
Continuous
 62
     7
370
    13
100
AcDbText
 10
420.4944152832031
 20
142.6061859130859
 30
0.0
 40
2.5
  1
±０．１
 41
0.8727272727272729
 51
10.0
  7
FX_VECTOR
 72
     5
 11
428.4944152832031
 21
142.6061859130859
 31
0.0
100
AcDbText
  0
TEXT
  5
18A
330
1F
100
AcDbEntity
  8
基準ﾚｲﾔｸﾞﾙｰﾌﾟ_01
  6
Continuous
 62
     7
370
    13
100
AcDbText
 10
420.4944152832031
 20
134.6061859130859
 30
0.0
 40
2.5
  1
＋０．１
 41
0.9739130434782608
 51
10.0
  7
FX_VECTOR
 72
     5
 11
428.4944152832031
 21
134.6061859130859
 31
0.0
100
AcDbText
  0
TEXT
  5
18B
330
1F
100
AcDbEntity
  8
基準ﾚｲﾔｸﾞﾙｰﾌﾟ_01
  6
Continuous
 62
     7
370
    13
100
AcDbText
 10
420.4944152832031
 20
132.1061859130859
 30
0.0
 40
2.5
  1
　０
 41
1.018181818181818
 51
10.0
  7
FX_VECTOR
 72
     5
 11
424.4944152832031
 21
132.1061859130859
 31
0.0
100
AcDbText
  0
TEXT
  5
18C
330
1F
100
AcDbEntity
  8
基準ﾚｲﾔｸﾞﾙｰﾌﾟ_01
  6
Continuous
 62
     7
370
    13
100
AcDbText
 10
431.1543273925781
 20
103.0525512695312
 30
0.0
 40
2.5
  1
＋０．１
 50
90.0
 41
0.9739130434782608
 51
10.0
  7
FX_VECTOR
 72
     5
 11
431.1543273925781
 21
111.0525512695312
 31
0.0
100
AcDbText
  0
TEXT
  5
18D
330
1F
100
AcDbEntity
  8
基準ﾚｲﾔｸﾞﾙｰﾌﾟ_01
  6
Continuous
 62
     7
370
    13
100
AcDbText
 10
433.6543273925781
 20
103.0525512695312
 30
0.0
 40
2.5
  1
　０
 50
90.0
 41
1.018181818181818
 51
10.0
  7
FX_VECTOR
 72
     5
 11
433.6543273925781
 21
107.0525512695312
 31
0.0
100
AcDbText
  0
TEXT
  5
18E
330
1F
100
AcDbEntity
  8
基準ﾚｲﾔｸﾞﾙｰﾌﾟ_01
  6
Continuous
 62
     7
370
    13
100
AcDbText
 10
423.1543273925781
 20
103.0525512695312
 30
0.0
 40
2.5
  1
±０．１
 50
90.0
 41
0.8727272727272729
 51
10.0
  7
FX_VECTOR
 72
     5
 11
423.1543273925781
 21
111.0525512695312
 31
0.0
100
AcDbText
  0
TEXT
  5
18F
330
1F
100
AcDbEntity
  8
基準ﾚｲﾔｸﾞﾙｰﾌﾟ_01
  6
Continuous
 62
     7
370
    13
100
AcDbText
 10
439.1543273925781
 20
103.0525512695312
 30
0.0
 40
2.5
  1
　０
 50
90.0
 41
1.018181818181818
 51
10.0
  7
FX_VECTOR
 72
     5
 11
439.1543273925781
 21
107.0525512695312
 31
0.0
100
AcDbText
  0
TEXT
  5
190
330
1F
100
AcDbEntity
  8
基準ﾚｲﾔｸﾞﾙｰﾌﾟ_01
  6
Continuous
 62
     7
370
    13
100
AcDbText
 10
441.6543273925781
 20
103.0525512695312
 30
0.0
 40
2.5
  1
－０．０３
 50
90.0
 41
0.9655172413793103
 51
10.0
  7
FX_VECTOR
 72
     5
 11
441.6543273925781
 21
113.0525512695312
 31
0.0
100
AcDbText
  0
INSERT
  5
199
330
1F
100
AcDbEntity
  8
基準ﾚｲﾔｸﾞﾙｰﾌﾟ_01
  6
Continuous
 62
     7
370
    13
100
AcDbBlockReference
  2
BLKF034
 10
0.0
 20
0.0
 30
0.0
  0
INSERT
  5
1A2
330
1F
100
AcDbEntity
  8
基準ﾚｲﾔｸﾞﾙｰﾌﾟ_01
  6
Continuous
 62
     7
370
    13
100
AcDbBlockReference
  2
BLKF035
 10
0.0
 20
0.0
 30
0.0
  0
TEXT
  5
1A8
330
1F
100
AcDbEntity
  8
寸法
  6
Continuous
 62
     7
370
    13
100
AcDbText
 10
263.9008483886719
 20
214.8812561035156
 30
0.0
 40
2.5
  1
　０
 50
90.0
 41
1.018181818181818
 51
10.0
  7
FX_VECTOR
 72
     5
 11
263.9008483886719
 21
218.8812561035156
 31
0.0
100
AcDbText
  0
TEXT
  5
1A9
330
1F
100
AcDbEntity
  8
寸法
  6
Continuous
 62
     7
370
    13
100
AcDbText
 10
266.4008483886719
 20
214.8812561035156
 30
0.0
 40
2.5
  1
－０．０２２
 50
90.0
 41
0.96
 51
10.0
  7
FX_VECTOR
 72
     5
 11
266.4008483886719
 21
226.8812561035156
 31
0.0
100
AcDbText
  0
LINE
  5
1AB
330
1F
100
AcDbEntity
  8
作図レイヤ
  6
DASHDOT
 62
     7
370
    13
100
AcDbLine
 10
157.7364166483647
 20
228.6151866442148
 30
0.0
 11
231.9640009610612
 21
228.6151866442146
 31
0.0
  0
LINE
  5
1AC
330
1F
100
AcDbEntity
  8
作図レイヤ
  6
DASHDOT
 62
     7
370
    13
100
AcDbLine
 10
157.4364094297044
 20
162.1471584499685
 30
0.0
 11
231.9640009610596
 21
162.1471427228036
 31
0.0
  0
LINE
  5
1AD
330
1F
100
AcDbEntity
  8
作図レイヤ
  6
DASHDOT
 62
     7
370
    13
100
AcDbLine
 10
215.6661926428932
 20
195.3811659192823
 30
0.0
 11
74.46400096106107
 21
195.3811659192824
 31
0.0
  0
INSERT
  5
1B1
330
1F
100
AcDbEntity
  8
作図レイヤ
  6
Continuous
 62
     3
370
    35
100
AcDbBlockReference
  2
BLKF036
 10
0.0
 20
0.0
 30
0.0
  0
INSERT
  5
1BE
330
1F
100
AcDbEntity
  8
作図レイヤ
  6
Continuous
 62
     7
370
    13
100
AcDbBlockReference
  2
BLKF037
 10
0.0
 20
0.0
 30
0.0
  0
INSERT
  5
1C8
330
1F
100
AcDbEntity
  8
作図レイヤ
  6
Continuous
 62
     3
370
    35
100
AcDbBlockReference
  2
BLKF038
 10
0.0
 20
0.0
 30
0.0
  0
INSERT
  5
1D0
330
1F
100
AcDbEntity
  8
作図レイヤ
  6
Continuous
 62
     3
370
    35
100
AcDbBlockReference
  2
BLKF039
 10
0.0
 20
0.0
 30
0.0
  0
TEXT
  5
1DF
330
1F
100
AcDbEntity
  8
寸法
  6
Continuous
 62
     7
370
    13
100
AcDbText
 10
83.96400451660156
 20
240.8811645501704
 30
0.0
 40
3.5
  1
２０
 41
1.272727272727273
 51
10.0
  7
FX_VECTOR
 72
     5
 11
90.96400451660156
 21
240.8811645513921
 31
0.0
100
AcDbText
  0
LINE
  5
1E0
330
1F
100
AcDbEntity
  8
寸法
  6
Continuous
 62
     7
370
    13
100
AcDbLine
 10
77.4640009610612
 20
240.3811669510156
 30
0.0
 11
97.46400096106221
 21
240.3811669510156
 31
0.0
  0
INSERT
  5
1E1
330
1F
100
AcDbEntity
  8
寸法
  6
Continuous
 62
     7
370
    13
100
AcDbBlockReference
  2
FXTIP_ARROW_S
 10
77.4640009610612
 20
240.3811669510156
 30
0.0
 41
3.0
 42
3.0
 50
180.0
  0
INSERT
  5
1E2
330
1F
100
AcDbEntity
  8
寸法
  6
Continuous
 62
     7
370
    13
100
AcDbBlockReference
  2
FXTIP_ARROW_E
 10
97.46400096106221
 20
240.3811669510156
 30
0.0
 41
3.0
 42
3.0
 50
360.0
  0
LINE
  5
1E3
330
1F
100
AcDbEntity
  8
寸法
  6
Continuous
 62
     7
370
    13
100
AcDbLine
 10
77.4640009610612
 20
224.8575032299702
 30
0.0
 11
77.4640009610612
 21
241.3811669510156
 31
0.0
  0
LINE
  5
1E4
330
1F
100
AcDbEntity
  8
寸法
  6
Continuous
 62
     7
370
    13
100
AcDbLine
 10
97.4640009610622
 20
209.3811696118003
 30
0.0
 11
97.46400096106221
 21
241.3811669510156
 31
0.0
  0
TEXT
  5
1E5
330
1F
100
AcDbEntity
  8
作図レイヤ
  6
Continuous
 62
     7
370
    13
100
AcDbText
 10
292.063720703125
 20
57.80327987670898
 30
0.0
 40
4.0
  1
　質　　　量：　　　１．６ｋｇ
 41
1.032303370786517
 51
10.0
  7
FX_VECTOR
 72
     5
 11
344.563720703125
 21
57.80327987670898
 31
0.0
100
AcDbText
  0
TEXT
  5
1E7
330
1F
100
AcDbEntity
  8
仕様
  6
Continuous
 62
     7
370
    13
100
AcDbText
 10
329.7551790044633
 20
113.8824768066406
 30
0.0
 40
3.5
  1
　　２４
 41
1.217391304347826
 51
10.0
  7
FX_VECTOR
 72
     5
 11
343.7551790044633
 21
113.8824768066406
 31
0.0
100
AcDbText
  0
TEXT
  5
1E8
330
1F
100
AcDbEntity
  8
仕様
  6
Continuous
 62
     7
370
    13
100
AcDbText
 10
329.7551790044633
 20
101.8824768066406
 30
0.0
 40
3.5
  1
　　５０
 41
1.217391304347826
 51
10.0
  7
FX_VECTOR
 72
     5
 11
343.7551790044633
 21
101.8824768066406
 31
0.0
100
AcDbText
  0
TEXT
  5
1E9
330
1F
100
AcDbEntity
  8
仕様
  6
Continuous
 62
     7
370
    13
100
AcDbText
 10
329.7551790044633
 20
95.88247680664062
 30
0.0
 40
3.5
  1
　２．０
 41
1.217391304347826
 51
10.0
  7
FX_VECTOR
 72
     5
 11
343.7551790044633
 21
95.88247680664062
 31
0.0
100
AcDbText
  0
TEXT
  5
1EA
330
1F
100
AcDbEntity
  8
仕様
  6
Continuous
 62
     7
370
    13
100
AcDbText
 10
329.7551790044633
 20
89.88247680664062
 30
0.0
 40
3.5
  1
　　２０
 41
1.217391304347826
 51
10.0
  7
FX_VECTOR
 72
     5
 11
343.7551790044633
 21
89.88247680664062
 31
0.0
100
AcDbText
  0
TEXT
  5
1EB
330
1F
100
AcDbEntity
  8
寸法
  6
Continuous
 62
     7
370
    13
100
AcDbText
 10
64.96400451660156
 20
193.6311492919922
 30
0.0
 40
3.5
  1
６２
 50
90.0
 41
1.272727272727273
 51
10.0
  7
FX_VECTOR
 72
     5
 11
64.96400451660156
 21
200.6311492919922
 31
0.0
100
AcDbText
  0
LINE
  5
1EC
330
1F
100
AcDbEntity
  8
寸法
  6
Continuous
 62
     7
370
    13
100
AcDbLine
 10
65.4640009610612
 20
164.3811699301208
 30
0.0
 11
65.46400096106123
 21
226.3811699301208
 31
0.0
  0
INSERT
  5
1ED
330
1F
100
AcDbEntity
  8
寸法
  6
Continuous
 62
     7
370
    13
100
AcDbBlockReference
  2
FXTIP_ARROW_S
 10
65.4640009610612
 20
164.3811699301208
 30
0.0
 41
3.0
 42
3.0
 50
270.0
  0
INSERT
  5
1EE
330
1F
100
AcDbEntity
  8
寸法
  6
Continuous
 62
     7
370
    13
100
AcDbBlockReference
  2
FXTIP_ARROW_E
 10
65.46400096106123
 20
226.3811699301208
 30
0.0
 41
3.0
 42
3.0
 50
90.0
  0
LINE
  5
1EF
330
1F
100
AcDbEntity
  8
寸法
  6
Continuous
 62
     7
370
    13
100
AcDbLine
 10
107.9640009610622
 20
164.3811699301208
 30
0.0
 11
64.4640009610612
 21
164.3811699301208
 31
0.0
  0
LINE
  5
1F0
330
1F
100
AcDbEntity
  8
寸法
  6
Continuous
 62
     7
370
    13
100
AcDbLine
 10
107.9640009610622
 20
226.3811699301208
 30
0.0
 11
64.46400096106123
 21
226.3811699301208
 31
0.0
  0
TEXT
  5
1F1
330
1F
100
AcDbEntity
  8
寸法
  6
Continuous
 62
     7
370
    13
100
AcDbText
 10
64.96400451660156
 20
190.1311492919922
 30
0.0
 40
3.5
  1
φ
 50
90.0
 41
1.4
 51
10.0
  7
FX_VECTOR
 72
     5
 11
64.96400451660156
 21
193.6311492919922
 31
0.0
100
AcDbText
  0
LINE
  5
1F2
330
1F
100
AcDbEntity
  8
寸法
  6
Continuous
 62
     7
370
    13
100
AcDbLine
 10
98.60880324528593
 20
161.8642757685564
 30
0.0
 11
107.1057287588203
 21
147.1471690709865
 31
0.0
  0
INSERT
  5
1F3
330
1F
100
AcDbEntity
  8
寸法
  6
Continuous
 62
     7
370
    13
100
AcDbBlockReference
  2
FXTIP_ARROW_S
 10
98.60880324528593
 20
161.8642757685564
 30
0.0
 41
3.0
 42
3.0
 50
119.9999999999998
  0
LINE
  5
1F4
330
1F
100
AcDbEntity
  8
寸法
  6
Continuous
 62
     7
370
    13
100
AcDbLine
 10
107.1057287588203
 20
147.1471690709865
 30
0.0
 11
133.6057287588202
 21
147.1471690709865
 31
0.0
  0
TEXT
  5
1F5
330
1F
100
AcDbEntity
  8
寸法
  6
Continuous
 62
     7
370
    13
100
AcDbText
 10
108.1057205200195
 20
147.6471405029297
 30
0.0
 40
3.5
  1
モータリード線
 41
1.195121951219512
 51
10.0
  7
FX_VECTOR
 72
     5
 11
132.6057205200195
 21
147.6471405029297
 31
0.0
100
AcDbText
  0
LINE
  5
1F6
330
1F
100
AcDbEntity
  8
寸法
  6
Continuous
 62
     7
370
    13
100
AcDbLine
 10
222.8139968281315
 20
159.6471447469709
 30
0.0
 11
230.0308765158152
 21
147.1471424557909
 31
0.0
  0
INSERT
  5
1F7
330
1F
100
AcDbEntity
  8
寸法
  6
Continuous
 62
     7
370
    13
100
AcDbBlockReference
  2
FXTIP_ARROW_S
 10
222.8139968281315
 20
159.6471447469709
 30
0.0
 41
3.0
 42
3.0
 50
119.9999999999997
  0
LINE
  5
1F8
330
1F
100
AcDbEntity
  8
寸法
  6
Continuous
 62
     7
370
    13
100
AcDbLine
 10
230.0308765158152
 20
147.1471424557909
 30
0.0
 11
256.5308765158152
 21
147.1471424557909
 31
0.0
  0
TEXT
  5
1F9
330
1F
100
AcDbEntity
  8
寸法
  6
Continuous
 62
     7
370
    13
100
AcDbText
 10
231.0308837890625
 20
147.6471252441406
 30
0.0
 40
3.5
  1
４×Ｍ５－６５
 41
1.195121951219512
 51
10.0
  7
FX_VECTOR
 72
     5
 11
255.5308837890625
 21
147.6471252441406
 31
0.0
100
AcDbText
  0
TEXT
  5
1FA
330
1F
100
AcDbEntity
  8
仕様
  6
Continuous
 62
     7
370
    13
100
AcDbText
 10
329.7551790044633
 20
107.8824768066406
 30
0.0
 40
3.5
  1
　１．１
 41
1.217391304347826
 51
10.0
  7
FX_VECTOR
 72
     5
 11
343.7551790044633
 21
107.8824768066406
 31
0.0
100
AcDbText
  0
TEXT
  5
1FB
330
1F
100
AcDbEntity
  8
寸法
  6
Continuous
 62
     7
370
    13
100
AcDbText
 10
220.2140045166016
 20
172.7085418701172
 30
0.0
 40
3.5
  1
１１
 41
1.090909090909091
 51
10.0
  7
FX_VECTOR
 72
     5
 11
226.2140045166016
 21
172.7085418701172
 31
0.0
100
AcDbText
  0
LINE
  5
1FC
330
1F
100
AcDbEntity
  8
寸法
  6
Continuous
 62
     7
370
    13
100
AcDbLine
 10
217.463994557317
 20
172.2085477114614
 30
0.0
 11
228.9640012855976
 21
172.2085477114614
 31
0.0
  0
INSERT
  5
1FD
330
1F
100
AcDbEntity
  8
寸法
  6
Continuous
 62
     7
370
    13
100
AcDbBlockReference
  2
FXTIP_ARROW_S
 10
217.463994557317
 20
172.2085477114614
 30
0.0
 41
3.0
 42
3.0
 50
180.0
  0
INSERT
  5
1FE
330
1F
100
AcDbEntity
  8
寸法
  6
Continuous
 62
     7
370
    13
100
AcDbBlockReference
  2
FXTIP_ARROW_E
 10
228.9640012855976
 20
172.2085477114614
 30
0.0
 41
3.0
 42
3.0
 50
360.0
  0
LINE
  5
1FF
330
1F
100
AcDbEntity
  8
寸法
  6
Continuous
 62
     7
370
    13
100
AcDbLine
 10
217.4639945763905
 20
167.1471457905898
 30
0.0
 11
217.4639945535485
 21
173.2085477114614
 31
0.0
  0
LINE
  5
200
330
1F
100
AcDbEntity
  8
寸法
  6
Continuous
 62
     7
370
    13
100
AcDbLine
 10
228.9640013133385
 20
164.8471434589171
 30
0.0
 11
228.9640012818291
 21
173.2085477114614
 31
0.0
  0
TEXT
  5
201
330
1F
100
AcDbEntity
  8
寸法
  6
Continuous
 62
     7
370
    13
100
AcDbText
 10
217.2140045166016
 20
172.7085418701172
 30
0.0
 40
3.5
  1
（
 41
1.2
 51
10.0
  7
FX_VECTOR
 72
     5
 11
220.2140045166016
 21
172.7085418701172
 31
0.0
100
AcDbText
  0
TEXT
  5
202
330
1F
100
AcDbEntity
  8
寸法
  6
Continuous
 62
     7
370
    13
100
AcDbText
 10
226.2140045166016
 20
172.7085418701172
 30
0.0
 40
3.5
  1
）
 41
1.2
 51
10.0
  7
FX_VECTOR
 72
     5
 11
229.2140045166016
 21
172.7085418701172
 31
0.0
100
AcDbText
  0
TEXT
  5
203
330
1F
100
AcDbEntity
  8
寸法
  6
Continuous
 62
     7
370
    13
100
AcDbText
 10
152.2140045166016
 20
264.8811645504758
 30
0.0
 40
3.5
  1
（
 41
1.4
 51
10.0
  7
FX_VECTOR
 72
     5
 11
155.7140045166016
 21
264.8811645510867
 31
0.0
100
AcDbText
  0
TEXT
  5
204
330
1F
100
AcDbEntity
  8
寸法
  6
Continuous
 62
     7
370
    13
100
AcDbText
 10
155.7140045166016
 20
264.8811645498649
 30
0.0
 40
3.5
  1
１６７
 41
1.235294117647059
 51
10.0
  7
FX_VECTOR
 72
     5
 11
166.2140045166016
 21
264.8811645516976
 31
0.0
100
AcDbText
  0
TEXT
  5
205
330
1F
100
AcDbEntity
  8
寸法
  6
Continuous
 62
     7
370
    13
100
AcDbText
 10
166.2140045166016
 20
264.8811645504758
 30
0.0
 40
3.5
  1
）
 41
1.4
 51
10.0
  7
FX_VECTOR
 72
     5
 11
169.7140045166016
 21
264.8811645510867
 31
0.0
100
AcDbText
  0
LINE
  5
206
330
1F
100
AcDbEntity
  8
寸法
  6
Continuous
 62
     7
370
    13
100
AcDbLine
 10
77.46400096106119
 20
264.3811669510155
 30
0.0
 11
244.4640042191671
 21
264.3811669510155
 31
0.0
  0
INSERT
  5
207
330
1F
100
AcDbEntity
  8
寸法
  6
Continuous
 62
     7
370
    13
100
AcDbBlockReference
  2
FXTIP_ARROW_S
 10
77.46400096106119
 20
264.3811669510155
 30
0.0
 41
3.0
 42
3.0
 50
180.0
  0
INSERT
  5
208
330
1F
100
AcDbEntity
  8
寸法
  6
Continuous
 62
     7
370
    13
100
AcDbBlockReference
  2
FXTIP_ARROW_E
 10
244.4640042191671
 20
264.3811669510155
 30
0.0
 41
3.0
 42
3.0
 50
360.0
  0
LINE
  5
209
330
1F
100
AcDbEntity
  8
寸法
  6
Continuous
 62
     7
370
    13
100
AcDbLine
 10
77.46400096106119
 20
224.8575168054071
 30
0.0
 11
77.46400096106119
 21
265.3811669510155
 31
0.0
  0
LINE
  5
20A
330
1F
100
AcDbEntity
  8
寸法
  6
Continuous
 62
     7
370
    13
100
AcDbLine
 10
244.4640042191671
 20
214.3811626611775
 30
0.0
 11
244.4640042191671
 21
265.3811669510155
 31
0.0
  0
TEXT
  5
20B
330
1F
100
AcDbEntity
  8
寸法
  6
Continuous
 62
     7
370
    13
100
AcDbText
 10
224.9640045166016
 20
256.8811645501704
 30
0.0
 40
3.5
  1
３２
 41
1.272727272727273
 51
10.0
  7
FX_VECTOR
 72
     5
 11
231.9640045166016
 21
256.8811645513921
 31
0.0
100
AcDbText
  0
LINE
  5
20C
330
1F
100
AcDbEntity
  8
寸法
  6
Continuous
 62
     7
370
    13
100
AcDbLine
 10
212.4640094251929
 20
256.3811669510155
 30
0.0
 11
244.4640042191671
 21
256.3811669510155
 31
0.0
  0
INSERT
  5
20D
330
1F
100
AcDbEntity
  8
寸法
  6
Continuous
 62
     7
370
    13
100
AcDbBlockReference
  2
FXTIP_ARROW_S
 10
212.4640094251929
 20
256.3811669510155
 30
0.0
 41
3.0
 42
3.0
 50
180.0
  0
INSERT
  5
20E
330
1F
100
AcDbEntity
  8
寸法
  6
Continuous
 62
     7
370
    13
100
AcDbBlockReference
  2
FXTIP_ARROW_E
 10
244.4640042191671
 20
256.3811669510155
 30
0.0
 41
3.0
 42
3.0
 50
360.0
  0
TEXT
  5
20F
330
1F
100
AcDbEntity
  8
寸法
  6
Continuous
 62
     7
370
    13
100
AcDbText
 10
139.7140045166016
 20
256.8811645498649
 30
0.0
 40
3.5
  1
１３５
 41
1.235294117647059
 51
10.0
  7
FX_VECTOR
 72
     5
 11
150.2140045166016
 21
256.8811645516976
 31
0.0
100
AcDbText
  0
LINE
  5
210
330
1F
100
AcDbEntity
  8
寸法
  6
Continuous
 62
     7
370
    13
100
AcDbLine
 10
77.46400096106119
 20
256.3811669510155
 30
0.0
 11
212.4640094251929
 21
256.3811669510155
 31
0.0
  0
INSERT
  5
211
330
1F
100
AcDbEntity
  8
寸法
  6
Continuous
 62
     7
370
    13
100
AcDbBlockReference
  2
FXTIP_ARROW_S
 10
77.46400096106119
 20
256.3811669510155
 30
0.0
 41
3.0
 42
3.0
 50
180.0
  0
INSERT
  5
212
330
1F
100
AcDbEntity
  8
寸法
  6
Continuous
 62
     7
370
    13
100
AcDbBlockReference
  2
FXTIP_ARROW_E
 10
212.4640094251929
 20
256.3811669510155
 30
0.0
 41
3.0
 42
3.0
 50
360.0
  0
LINE
  5
213
330
1F
100
AcDbEntity
  8
寸法
  6
Continuous
 62
     7
370
    13
100
AcDbLine
 10
212.4640094251929
 20
235.3492065101306
 30
0.0
 11
212.4640094251929
 21
257.3811669510155
 31
0.0
  0
TEXT
  5
214
330
1F
100
AcDbEntity
  8
寸法
  6
Continuous
 62
     7
370
    13
100
AcDbText
 10
227.9640045166016
 20
248.8811645501704
 30
0.0
 40
3.5
  1
２６
 41
1.272727272727273
 51
10.0
  7
FX_VECTOR
 72
     5
 11
234.9640045166016
 21
248.8811645513921
 31
0.0
100
AcDbText
  0
LINE
  5
215
330
1F
100
AcDbEntity
  8
寸法
  6
Continuous
 62
     7
370
    13
100
AcDbLine
 10
218.4640073686678
 20
248.3811669510156
 30
0.0
 11
244.4640042191672
 21
248.3811669510156
 31
0.0
  0
INSERT
  5
216
330
1F
100
AcDbEntity
  8
寸法
  6
Continuous
 62
     7
370
    13
100
AcDbBlockReference
  2
FXTIP_ARROW_S
 10
218.4640073686678
 20
248.3811669510156
 30
0.0
 41
3.0
 42
3.0
 50
180.0
  0
INSERT
  5
217
330
1F
100
AcDbEntity
  8
寸法
  6
Continuous
 62
     7
370
    13
100
AcDbBlockReference
  2
FXTIP_ARROW_E
 10
244.4640042191672
 20
248.3811669510156
 30
0.0
 41
3.0
 42
3.0
 50
360.0
  0
LINE
  5
218
330
1F
100
AcDbEntity
  8
寸法
  6
Continuous
 62
     7
370
    13
100
AcDbLine
 10
218.4640073686678
 20
225.8811626611767
 30
0.0
 11
218.4640073686678
 21
249.3811669510156
 31
0.0
  0
TEXT
  5
219
330
1F
100
AcDbEntity
  8
寸法
  6
Continuous
 62
     7
370
    13
100
AcDbText
 10
181.2140045166016
 20
248.8811645495595
 30
0.0
 40
3.5
  1
４８．５
 41
1.217391304347826
 51
10.0
  7
FX_VECTOR
 72
     5
 11
195.2140045166016
 21
248.881164552003
 31
0.0
100
AcDbText
  0
LINE
  5
21A
330
1F
100
AcDbEntity
  8
寸法
  6
Continuous
 62
     7
370
    13
100
AcDbLine
 10
163.9640009610612
 20
248.3811669510155
 30
0.0
 11
212.4640009610611
 21
248.3811669510155
 31
0.0
  0
INSERT
  5
21B
330
1F
100
AcDbEntity
  8
寸法
  6
Continuous
 62
     7
370
    13
100
AcDbBlockReference
  2
FXTIP_ARROW_S
 10
163.9640009610612
 20
248.3811669510155
 30
0.0
 41
3.0
 42
3.0
 50
180.0
  0
INSERT
  5
21C
330
1F
100
AcDbEntity
  8
寸法
  6
Continuous
 62
     7
370
    13
100
AcDbBlockReference
  2
FXTIP_ARROW_E
 10
212.4640009610611
 20
248.3811669510155
 30
0.0
 41
3.0
 42
3.0
 50
360.0
  0
LINE
  5
21D
330
1F
100
AcDbEntity
  8
寸法
  6
Continuous
 62
     7
370
    13
100
AcDbLine
 10
212.4640009610611
 20
235.381166896714
 30
0.0
 11
212.4640009610611
 21
249.3811669510155
 31
0.0
  0
LINE
  5
21E
330
1F
100
AcDbEntity
  8
寸法
  6
Continuous
 62
     7
370
    13
100
AcDbLine
 10
163.9640009610612
 20
235.3811717295695
 30
0.0
 11
163.9640009610612
 21
249.3811669510155
 31
0.0
  0
TEXT
  5
21F
330
1F
100
AcDbEntity
  8
作図レイヤ
  6
Continuous
 62
     7
370
    13
100
AcDbText
 10
324.063720703125
 20
89.71647644042969
 30
0.0
 40
3.5
  1
（　　　　　　　　　　ｋｇｆ・ｃｍ）
 41
0.6728971962616822
 51
10.0
  7
FX_VECTOR
 72
     5
 11
360.063720703125
 21
89.71647644042969
 31
0.0
100
AcDbText
  0
TEXT
  5
220
330
1F
100
AcDbEntity
  8
作図レイヤ
  6
Continuous
 62
     7
370
    13
100
AcDbText
 10
340.3851533696977
 20
77.69422912597656
 30
0.0
 40
3.5
  1
３００ｍｍ以上
 41
1.024390243902439
 51
10.0
  7
FX_VECTOR
 72
     5
 11
361.3851533696977
 21
77.69422912597656
 31
0.0
100
AcDbText
  0
TEXT
  5
221
330
1F
100
AcDbEntity
  8
作図レイヤ
  6
Continuous
 62
     7
370
    13
100
AcDbText
 10
318.6391816900102
 20
78.00836181640625
 30
0.0
 40
3.5
  1
０．７５ｍｍ
 41
1.028571428571428
 51
10.0
  7
FX_VECTOR
 72
     5
 11
336.6391816900102
 21
78.00836181640625
 31
0.0
100
AcDbText
  0
TEXT
  5
222
330
1F
100
AcDbEntity
  8
作図レイヤ
  6
Continuous
 62
     7
370
    13
100
AcDbText
 10
336.6391816900102
 20
79.75836181640625
 30
0.0
 40
1.75
  1
２
 41
1.2
 51
10.0
  7
FX_VECTOR
 72
     5
 11
338.1391816900102
 21
79.75836181640625
 31
0.0
100
AcDbText
  0
TEXT
  5
223
330
1F
100
AcDbEntity
  8
作図レイヤ
  6
Continuous
 62
     7
370
    13
100
AcDbText
 10
294.1369018554688
 20
113.8032760620117
 30
0.0
 40
4.0
  1
電　　　圧
 41
1.206896551724138
 51
10.0
  7
FX_VECTOR
 72
     5
 11
314.1369018554688
 21
113.8032760620117
 31
0.0
100
AcDbText
  0
TEXT
  5
224
330
1F
100
AcDbEntity
  8
作図レイヤ
  6
Continuous
 62
     7
370
    13
100
AcDbText
 10
294.3927001953125
 20
107.7494125366211
 30
0.0
 40
4.0
  1
電　　　流
 41
1.206896551724138
 51
10.0
  7
FX_VECTOR
 72
     5
 11
314.3927001953125
 21
107.7494125366211
 31
0.0
100
AcDbText
  0
TEXT
  5
225
330
1F
100
AcDbEntity
  8
作図レイヤ
  6
Continuous
 62
     7
370
    13
100
AcDbText
 10
294.563232421875
 20
101.6102905273438
 30
0.0
 40
4.0
  1
回転速度
 41
1.514130423898282
 51
10.0
  7
FX_VECTOR
 72
     5
 11
314.4632322788239
 21
101.6102905273438
 31
0.0
100
AcDbText
  0
TEXT
  5
226
330
1F
100
AcDbEntity
  8
作図レイヤ
  6
Continuous
 62
     7
370
    13
100
AcDbText
 10
294.1369018554688
 20
92.64167785644531
 30
0.0
 40
4.0
  1
ト　ル　ク
 41
1.206896551724138
 51
10.0
  7
FX_VECTOR
 72
     5
 11
314.1369018554688
 21
92.64167785644531
 31
0.0
100
AcDbText
  0
TEXT
  5
227
330
1F
100
AcDbEntity
  8
作図レイヤ
  6
Continuous
 62
     7
370
    13
100
AcDbText
 10
293.4708323667081
 20
77.44422912597656
 30
0.0
 40
4.0
  1
リード線
 41
1.559782608695652
 51
10.0
  7
FX_VECTOR
 72
     5
 11
313.9708323667081
 21
77.44422912597656
 31
0.0
100
AcDbText
  0
TEXT
  5
228
330
1F
100
AcDbEntity
  8
作図レイヤ
  6
Continuous
 62
     7
370
    13
100
AcDbText
 10
293.9663696289062
 20
68.68199157714844
 30
0.0
 40
4.0
  1
外　　　観
 41
1.206896551724138
 51
10.0
  7
FX_VECTOR
 72
     5
 11
313.9663696289062
 21
68.68199157714844
 31
0.0
100
AcDbText
  0
LINE
  5
229
330
1F
100
AcDbEntity
  8
作図レイヤ
  6
Continuous
 62
     7
370
    13
100
AcDbLine
 10
292.0637390717518
 20
64.71647801533213
 30
0.0
 11
292.0637390717518
 21
118.7164780153321
 31
0.0
  0
TEXT
  5
22A
330
1F
100
AcDbEntity
  8
作図レイヤ
  6
Continuous
 62
     7
370
    13
100
AcDbText
 10
293.0637512207031
 20
119.2164840698242
 30
0.0
 40
4.0
  1
ギヤードモータ仕様
 41
1.188679245283019
 51
10.0
  7
FX_VECTOR
 72
     5
 11
329.0637512207031
 21
119.2164840698242
 31
0.0
100
AcDbText
  0
LINE
  5
22B
330
1F
100
AcDbEntity
  8
作図レイヤ
  6
Continuous
 62
     7
370
    13
100
AcDbLine
 10
317.0637390717519
 20
118.7164780153321
 30
0.0
 11
317.0637390717519
 21
64.71647801533213
 31
0.0
  0
TEXT
  5
22C
330
1F
100
AcDbEntity
  8
作図レイヤ
  6
Continuous
 62
     7
370
    13
100
AcDbText
 10
318.563720703125
 20
66.11405944824219
 30
0.0
 40
3.5
  1
モ－タ：生地（鉄ケース部メッキ）
 41
0.875789441560444
 51
10.0
  7
FX_VECTOR
 72
     5
 11
360.1637191772461
 21
66.11405944824219
 31
0.0
100
AcDbText
  0
LINE
  5
22D
330
1F
100
AcDbEntity
  8
作図レイヤ
  6
Continuous
 62
     7
370
    13
100
AcDbLine
 10
362.0637390717519
 20
64.71647801533213
 30
0.0
 11
362.0637390717519
 21
118.7164780153321
 31
0.0
  0
LINE
  5
22E
330
1F
100
AcDbEntity
  8
作図レイヤ
  6
Continuous
 62
     7
370
    13
100
AcDbLine
 10
362.0637390717519
 20
112.7164780153321
 30
0.0
 11
292.0637390717518
 21
112.7164780153321
 31
0.0
  0
LINE
  5
22F
330
1F
100
AcDbEntity
  8
作図レイヤ
  6
Continuous
 62
     7
370
    13
100
AcDbLine
 10
362.0637390717519
 20
106.7164780153321
 30
0.0
 11
292.0637390717518
 21
106.7164780153321
 31
0.0
  0
LINE
  5
230
330
1F
100
AcDbEntity
  8
作図レイヤ
  6
Continuous
 62
     7
370
    13
100
AcDbLine
 10
362.0637390717519
 20
100.7164780153321
 30
0.0
 11
292.0637390717518
 21
100.7164780153321
 31
0.0
  0
LINE
  5
231
330
1F
100
AcDbEntity
  8
作図レイヤ
  6
Continuous
 62
     7
370
    13
100
AcDbLine
 10
362.0637390717519
 20
94.71647801533213
 30
0.0
 11
317.0637390717519
 21
94.71647801533213
 31
0.0
  0
LINE
  5
232
330
1F
100
AcDbEntity
  8
作図レイヤ
  6
Continuous
 62
     7
370
    13
100
AcDbLine
 10
362.0637390717519
 20
88.71647801533213
 30
0.0
 11
292.0637390717518
 21
88.71647801533213
 31
0.0
  0
LINE
  5
233
330
1F
100
AcDbEntity
  8
作図レイヤ
  6
Continuous
 62
     7
370
    13
100
AcDbLine
 10
362.0637390717519
 20
82.71647801533213
 30
0.0
 11
292.0637390717518
 21
82.71647801533213
 31
0.0
  0
LINE
  5
234
330
1F
100
AcDbEntity
  8
作図レイヤ
  6
Continuous
 62
     7
370
    13
100
AcDbLine
 10
362.0637390717519
 20
76.71647801533213
 30
0.0
 11
292.0637390717518
 21
76.71647801533213
 31
0.0
  0
LINE
  5
235
330
1F
100
AcDbEntity
  8
作図レイヤ
  6
Continuous
 62
     7
370
    13
100
AcDbLine
 10
292.0637390717518
 20
118.7164780153321
 30
0.0
 11
362.0637390717519
 21
118.7164780153321
 31
0.0
  0
LINE
  5
236
330
1F
100
AcDbEntity
  8
作図レイヤ
  6
Continuous
 62
     7
370
    13
100
AcDbLine
 10
292.0637390717518
 20
64.71647801533213
 30
0.0
 11
362.0637390717519
 21
64.71647801533213
 31
0.0
  0
TEXT
  5
237
330
1F
100
AcDbEntity
  8
作図レイヤ
  6
Continuous
 62
     7
370
    13
100
AcDbText
 10
346.063720703125
 20
113.6326217651367
 30
0.0
 40
3.5
  1
Ｖ
 41
1.4
 51
10.0
  7
FX_VECTOR
 72
     5
 11
349.563720703125
 21
113.6326217651367
 31
0.0
100
AcDbText
  0
TEXT
  5
238
330
1F
100
AcDbEntity
  8
作図レイヤ
  6
Continuous
 62
     7
370
    13
100
AcDbText
 10
346.063720703125
 20
107.6326217651367
 30
0.0
 40
3.5
  1
Ａ
 41
1.4
 51
10.0
  7
FX_VECTOR
 72
     5
 11
349.563720703125
 21
107.6326217651367
 31
0.0
100
AcDbText
  0
TEXT
  5
239
330
1F
100
AcDbEntity
  8
作図レイヤ
  6
Continuous
 62
     7
370
    13
100
AcDbText
 10
346.063720703125
 20
101.6326293945312
 30
0.0
 40
3.5
  1
ｒｐｍ
 41
1.235294117647059
 51
10.0
  7
FX_VECTOR
 72
     5
 11
356.563720703125
 21
101.6326293945312
 31
0.0
100
AcDbText
  0
TEXT
  5
23A
330
1F
100
AcDbEntity
  8
作図レイヤ
  6
Continuous
 62
     7
370
    13
100
AcDbText
 10
346.063720703125
 20
95.63262939453125
 30
0.0
 40
3.5
  1
Ｎ・ｍ
 41
0.8823529411764706
 51
10.0
  7
FX_VECTOR
 72
     5
 11
353.563720703125
 21
95.63262939453125
 31
0.0
100
AcDbText
  0
TEXT
  5
23B
330
1F
100
AcDbEntity
  8
作図レイヤ
  6
Continuous
 62
     7
370
    13
100
AcDbText
 10
323.025634765625
 20
113.6326217651367
 30
0.0
 40
3.5
  1
ＤＣ
 41
1.272727272727273
 51
10.0
  7
FX_VECTOR
 72
     5
 11
330.025634765625
 21
113.6326217651367
 31
0.0
100
AcDbText
  0
TEXT
  5
23C
330
1F
100
AcDbEntity
  8
作図レイヤ
  6
Continuous
 62
     7
370
    13
100
AcDbText
 10
318.563720703125
 20
71.61405944824219
 30
0.0
 40
3.5
  1
ギヤヘッド：黒色塗装
 41
1.016949152542373
 51
10.0
  7
FX_VECTOR
 72
     5
 11
348.563720703125
 21
71.61405944824219
 31
0.0
100
AcDbText
  0
TEXT
  5
23D
330
1F
100
AcDbEntity
  8
作図レイヤ
  6
Continuous
 62
     7
370
    13
100
AcDbText
 10
352.3367309570312
 20
28.51483535766602
 30
0.0
 40
4.0
  1
ＳＳ４０Ｅ２－Ｈ３Ｒ－
 41
1.184615384615385
 51
10.0
  7
FX_VECTOR
 72
     5
 11
396.3367309570312
 21
28.51483535766602
 31
0.0
100
AcDbText
  0
TEXT
  5
23E
330
1F
100
AcDbEntity
  8
作図レイヤ
  6
Continuous
 62
     7
370
    13
100
AcDbText
 10
368.9530029296875
 20
19.21405220031738
 30
0.0
 40
4.0
  1
ＤＣギヤードモータ
 41
1.188679245283019
 51
10.0
  7
FX_VECTOR
 72
     5
 11
404.9530029296875
 21
19.21405220031738
 31
0.0
100
AcDbText
  0
TEXT
  5
23F
330
1F
100
AcDbEntity
  8
作図レイヤ
  6
Continuous
 62
     7
370
    13
100
AcDbText
 10
375.8513488769531
 20
10.0
 30
0.0
 40
4.0
  1
６６５１００
 41
1.2
 51
10.0
  7
FX_VECTOR
 72
     5
 11
399.8513488769531
 21
10.0
 31
0.0
100
AcDbText
  0
TEXT
  5
240
330
1F
100
AcDbEntity
  8
寸法
  6
Continuous
 62
     7
370
    13
100
AcDbText
 10
202.0757751464844
 20
205.1311645507812
 30
0.0
 40
3.5
  1
φ
 50
90.0
 41
1.4
 51
10.0
  7
FX_VECTOR
 72
     5
 11
202.0757751464844
 21
208.6311645507812
 31
0.0
100
AcDbText
  0
TEXT
  5
241
330
1F
100
AcDbEntity
  8
寸法
  6
Continuous
 62
     7
370
    13
100
AcDbText
 10
202.0757751464844
 20
208.6311645507812
 30
0.0
 40
3.5
  1
３０
 50
90.0
 41
1.272727272727273
 51
10.0
  7
FX_VECTOR
 72
     5
 11
202.0757751464844
 21
215.6311645507812
 31
0.0
100
AcDbText
  0
LINE
  5
242
330
1F
100
AcDbEntity
  8
寸法
  6
Continuous
 62
     7
370
    13
100
AcDbLine
 10
202.5757647818801
 20
195.3811659192823
 30
0.0
 11
202.5757647818801
 21
225.3811626611774
 31
0.0
  0
INSERT
  5
243
330
1F
100
AcDbEntity
  8
寸法
  6
Continuous
 62
     7
370
    13
100
AcDbBlockReference
  2
FXTIP_ARROW_S
 10
202.5757647818801
 20
195.3811659192823
 30
0.0
 41
3.0
 42
3.0
 50
270.0
  0
INSERT
  5
244
330
1F
100
AcDbEntity
  8
寸法
  6
Continuous
 62
     7
370
    13
100
AcDbBlockReference
  2
FXTIP_ARROW_E
 10
202.5757647818801
 20
225.3811626611774
 30
0.0
 41
3.0
 42
3.0
 50
90.0
  0
LINE
  5
245
330
1F
100
AcDbEntity
  8
寸法
  6
Continuous
 62
     7
370
    13
100
AcDbLine
 10
211.4640009610622
 20
195.3811659192823
 30
0.0
 11
201.5757647818801
 21
195.3811659192823
 31
0.0
  0
LINE
  5
246
330
1F
100
AcDbEntity
  8
寸法
  6
Continuous
 62
     7
370
    13
100
AcDbLine
 10
216.2640081797236
 20
225.3811626611775
 30
0.0
 11
201.5757647818801
 21
225.3811626611774
 31
0.0
  0
TEXT
  5
247
330
1F
100
AcDbEntity
  8
寸法
  6
Continuous
 62
     7
370
    13
100
AcDbText
 10
266.3758850097656
 20
210.3811645507812
 30
0.0
 40
3.5
  1
８
 50
90.0
 41
1.4
 51
10.0
  7
FX_VECTOR
 72
     5
 11
266.3758850097656
 21
213.8811645507812
 31
0.0
100
AcDbText
  0
LINE
  5
248
330
1F
100
AcDbEntity
  8
寸法
  6
Continuous
 62
     7
370
    13
100
AcDbLine
 10
266.8758884657036
 20
206.3811626611775
 30
0.0
 11
266.8758884657036
 21
214.3811626611775
 31
0.0
  0
INSERT
  5
249
330
1F
100
AcDbEntity
  8
寸法
  6
Continuous
 62
     7
370
    13
100
AcDbBlockReference
  2
FXTIP_ARROW_S
 10
266.8758884657036
 20
206.3811626611775
 30
0.0
 41
3.0
 42
3.0
 50
270.0
  0
INSERT
  5
24A
330
1F
100
AcDbEntity
  8
寸法
  6
Continuous
 62
     7
370
    13
100
AcDbBlockReference
  2
FXTIP_ARROW_E
 10
266.8758884657036
 20
214.3811626611775
 30
0.0
 41
3.0
 42
3.0
 50
90.0
  0
LINE
  5
24B
330
1F
100
AcDbEntity
  8
寸法
  6
Continuous
 62
     7
370
    13
100
AcDbLine
 10
245.4640042191671
 20
206.3811626611775
 30
0.0
 11
267.8758884657036
 21
206.3811626611775
 31
0.0
  0
LINE
  5
24C
330
1F
100
AcDbEntity
  8
寸法
  6
Continuous
 62
     7
370
    13
100
AcDbLine
 10
231.4640042191671
 20
214.3811626611775
 30
0.0
 11
267.8758884657036
 21
214.3811626611775
 31
0.0
  0
TEXT
  5
24D
330
1F
100
AcDbEntity
  8
寸法
  6
Continuous
 62
     7
370
    13
100
AcDbText
 10
266.3758850097656
 20
206.8811645507812
 30
0.0
 40
3.5
  1
φ
 50
90.0
 41
1.4
 51
10.0
  7
FX_VECTOR
 72
     5
 11
266.3758850097656
 21
210.3811645507812
 31
0.0
100
AcDbText
  0
TEXT
  5
24E
330
1F
100
AcDbEntity
  8
寸法
  6
Continuous
 62
     7
370
    13
100
AcDbText
 10
258.3758850097656
 20
208.1311645507812
 30
0.0
 40
3.5
  1
７
 50
90.0
 41
1.4
 51
10.0
  7
FX_VECTOR
 72
     5
 11
258.3758850097656
 21
211.6311645507812
 31
0.0
100
AcDbText
  0
LINE
  5
24F
330
1F
100
AcDbEntity
  8
寸法
  6
Continuous
 62
     7
370
    13
100
AcDbLine
 10
258.8758884657036
 20
206.3811626611775
 30
0.0
 11
258.8758884657036
 21
213.3811626611774
 31
0.0
  0
INSERT
  5
250
330
1F
100
AcDbEntity
  8
寸法
  6
Continuous
 62
     7
370
    13
100
AcDbBlockReference
  2
FXTIP_ARROW_S
 10
258.8758884657036
 20
206.3811626611775
 30
0.0
 41
3.0
 42
3.0
 50
270.0
  0
INSERT
  5
251
330
1F
100
AcDbEntity
  8
寸法
  6
Continuous
 62
     7
370
    13
100
AcDbBlockReference
  2
FXTIP_ARROW_E
 10
258.8758884657036
 20
213.3811626611774
 30
0.0
 41
3.0
 42
3.0
 50
90.0
  0
LINE
  5
252
330
1F
100
AcDbEntity
  8
寸法
  6
Continuous
 62
     7
370
    13
100
AcDbLine
 10
245.4640042191671
 20
213.3811626611774
 30
0.0
 11
259.8758884657036
 21
213.3811626611774
 31
0.0
  0
LINE
  5
253
330
1F
100
AcDbEntity
  8
寸法
  6
Continuous
 62
     7
370
    13
100
AcDbLine
 10
266.8758884657036
 20
214.3811626611775
 30
0.0
 11
266.8758884657036
 21
226.991584232726
 31
0.0
  0
TEXT
  5
254
330
1F
100
AcDbEntity
  8
寸法
  6
Continuous
 62
     7
370
    13
100
AcDbText
 10
233.9640045166016
 20
240.8811645501704
 30
0.0
 40
3.5
  1
１４
 41
1.272727272727273
 51
10.0
  7
FX_VECTOR
 72
     5
 11
240.9640045166016
 21
240.8811645513921
 31
0.0
100
AcDbText
  0
LINE
  5
255
330
1F
100
AcDbEntity
  8
寸法
  6
Continuous
 62
     7
370
    13
100
AcDbLine
 10
230.4640042191672
 20
240.3811669510156
 30
0.0
 11
244.4640042191672
 21
240.3811669510156
 31
0.0
  0
INSERT
  5
256
330
1F
100
AcDbEntity
  8
寸法
  6
Continuous
 62
     7
370
    13
100
AcDbBlockReference
  2
FXTIP_ARROW_S
 10
230.4640042191672
 20
240.3811669510156
 30
0.0
 41
3.0
 42
3.0
 50
180.0
  0
INSERT
  5
257
330
1F
100
AcDbEntity
  8
寸法
  6
Continuous
 62
     7
370
    13
100
AcDbBlockReference
  2
FXTIP_ARROW_E
 10
244.4640042191672
 20
240.3811669510156
 30
0.0
 41
3.0
 42
3.0
 50
360.0
  0
LINE
  5
258
330
1F
100
AcDbEntity
  8
寸法
  6
Continuous
 62
     7
370
    13
100
AcDbLine
 10
230.4640042191671
 20
215.3811626611775
 30
0.0
 11
230.4640042191672
 21
241.3811669510156
 31
0.0
  0
LINE
  5
259
330
1F
100
AcDbEntity
  8
寸法
  6
Continuous
 62
     7
370
    13
100
AcDbLine
 10
244.4640042191671
 20
214.3811626611774
 30
0.0
 11
244.4640042191672
 21
241.3811669510156
 31
0.0
  0
LINE
  5
25A
330
1F
100
AcDbEntity
  8
作図レイヤ
  6
Continuous
 62
     7
370
    13
100
AcDbLine
 10
148.2918826635578
 20
118.7164780153321
 30
0.0
 11
255.2918826635578
 21
118.7164780153321
 31
0.0
  0
LINE
  5
25B
330
1F
100
AcDbEntity
  8
作図レイヤ
  6
Continuous
 62
     7
370
    13
100
AcDbLine
 10
148.2918826635578
 20
100.7164780153321
 30
0.0
 11
255.2918826635577
 21
100.7164780153321
 31
0.0
  0
LINE
  5
25C
330
1F
100
AcDbEntity
  8
作図レイヤ
  6
Continuous
 62
     7
370
    13
100
AcDbLine
 10
148.2918826635578
 20
112.7164780153321
 30
0.0
 11
255.2918826635577
 21
112.7164780153321
 31
0.0
  0
LINE
  5
25D
330
1F
100
AcDbEntity
  8
作図レイヤ
  6
Continuous
 62
     7
370
    13
100
AcDbLine
 10
148.2918826635578
 20
106.7164780153321
 30
0.0
 11
255.2918826635577
 21
106.7164780153321
 31
0.0
  0
LINE
  5
25E
330
1F
100
AcDbEntity
  8
作図レイヤ
  6
Continuous
 62
     7
370
    13
100
AcDbLine
 10
148.2918826635578
 20
118.7164780153321
 30
0.0
 11
148.2918826635578
 21
100.7164780153321
 31
0.0
  0
TEXT
  5
25F
330
1F
100
AcDbEntity
  8
作図レイヤ
  6
Continuous
 62
     7
370
    13
100
AcDbText
 10
150.2918853759766
 20
113.7164840698242
 30
0.0
 40
4.0
  1
回転方向
 41
1.582608701094337
 51
10.0
  7
FX_VECTOR
 72
     5
 11
171.0918854475021
 21
113.7164840698242
 31
0.0
100
AcDbText
  0
TEXT
  5
260
330
1F
100
AcDbEntity
  8
作図レイヤ
  6
Continuous
 62
     7
370
    13
100
AcDbText
 10
150.2918853759766
 20
107.7164764404297
 30
0.0
 40
4.0
  1
時計方向
 41
1.582608701094337
 51
10.0
  7
FX_VECTOR
 72
     5
 11
171.0918854475021
 21
107.7164764404297
 31
0.0
100
AcDbText
  0
TEXT
  5
261
330
1F
100
AcDbEntity
  8
作図レイヤ
  6
Continuous
 62
     7
370
    13
100
AcDbText
 10
150.2918853759766
 20
101.7164764404297
 30
0.0
 40
4.0
  1
反時計方向
 41
1.25517241451247
 51
10.0
  7
FX_VECTOR
 72
     5
 11
171.0918853878975
 21
101.7164764404297
 31
0.0
100
AcDbText
  0
LINE
  5
262
330
1F
100
AcDbEntity
  8
作図レイヤ
  6
Continuous
 62
     7
370
    13
100
AcDbLine
 10
173.2918826635578
 20
118.7164780153321
 30
0.0
 11
173.2918826635578
 21
100.7164780153321
 31
0.0
  0
TEXT
  5
263
330
1F
100
AcDbEntity
  8
作図レイヤ
  6
Continuous
 62
     7
370
    13
100
AcDbText
 10
198.2918853759766
 20
113.7164840698242
 30
0.0
 40
4.0
  1
減速比
 41
2.470588235294118
 51
10.0
  7
FX_VECTOR
 72
     5
 11
222.2918853759766
 21
113.7164840698242
 31
0.0
100
AcDbText
  0
TEXT
  5
264
330
1F
100
AcDbEntity
  8
作図レイヤ
  6
Continuous
 62
     7
370
    13
100
AcDbText
 10
175.2918853759766
 20
107.7164764404297
 30
0.0
 40
3.5
  1
１／５，　１／５０，　１／１００，　１／５００，　１／１８００
 41
0.8378378378378378
 51
10.0
  7
FX_VECTOR
 72
     5
 11
252.7918853759766
 21
107.7164764404297
 31
0.0
100
AcDbText
  0
TEXT
  5
265
330
1F
100
AcDbEntity
  8
作図レイヤ
  6
Continuous
 62
     7
370
    13
100
AcDbText
 10
175.2918853759766
 20
101.7164764404297
 30
0.0
 40
3.5
  1
１／１２．５，　１／２５，　１／２５０
 41
0.8407079646017699
 51
10.0
  7
FX_VECTOR
 72
     5
 11
222.7918853759766
 21
101.7164764404297
 31
0.0
100
AcDbText
  0
LINE
  5
266
330
1F
100
AcDbEntity
  8
作図レイヤ
  6
Continuous
 62
     7
370
    13
100
AcDbLine
 10
255.2918826635578
 20
118.7164780153321
 30
0.0
 11
255.2918826635578
 21
100.7164780153321
 31
0.0
  0
TEXT
  5
267
330
1F
100
AcDbEntity
  8
作図レイヤ
  6
Continuous
 62
     7
370
    13
100
AcDbText
 10
148.2918853759766
 20
94.71646118164062
 30
0.0
 40
3.5
  1
出力軸の回転方向は、リード線、赤　　青　　に接続した場合です。
 41
1.172972972972973
 51
10.0
  7
FX_VECTOR
 72
     5
 11
256.7918853759766
 21
94.71646118164062
 31
0.0
100
AcDbText
  0
CIRCLE
  5
268
330
1F
100
AcDbEntity
  8
作図レイヤ
  6
Continuous
 62
     7
370
    13
100
AcDbCircle
 10
218.3440220411103
 20
96.48807551083578
 30
0.0
 40
1.75
  0
TEXT
  5
269
330
1F
100
AcDbEntity
  8
作図レイヤ
  6
Continuous
 62
     7
370
    13
100
AcDbText
 10
216.6564178466797
 20
94.69772338867188
 30
0.0
 40
3.5
  1
－
 41
1.4
  7
FX_VECTOR
 72
     5
 11
220.1564178466797
 21
94.69772338867188
 31
0.0
100
AcDbText
  0
CIRCLE
  5
26A
330
1F
100
AcDbEntity
  8
作図レイヤ
  6
Continuous
 62
     7
370
    13
100
AcDbCircle
 10
207.3358409296484
 20
96.43071037022295
 30
0.0
 40
1.75
  0
TEXT
  5
26B
330
1F
100
AcDbEntity
  8
作図レイヤ
  6
Continuous
 62
     7
370
    13
100
AcDbText
 10
205.6064910888672
 20
94.71145629882812
 30
0.0
 40
3.5
  1
＋
 41
1.4
  7
FX_VECTOR
 72
     5
 11
209.1064910888672
 21
94.71145629882812
 31
0.0
100
AcDbText
  0
INSERT
  5
26F
330
1F
100
AcDbEntity
  8
作図レイヤ
  6
Continuous
 62
     3
370
    35
100
AcDbBlockReference
  2
BLKF040
 10
0.0
 20
0.0
 30
0.0
  0
TEXT
  5
28E
330
1F
100
AcDbEntity
  8
仕様
  6
Continuous
 62
     7
370
    13
100
AcDbText
 10
397.6523742675781
 20
28.51483535766602
 30
0.0
 40
4.0
  1
５０
 41
1.272727272727273
 51
10.0
  7
FX_VECTOR
 72
     5
 11
405.6523742675781
 21
28.51483535766602
 31
0.0
100
AcDbText
  0
INSERT
  5
292
330
1F
100
AcDbEntity
  8
基準ﾚｲﾔｸﾞﾙｰﾌﾟ_01
  6
Continuous
 62
     7
370
    13
100
AcDbBlockReference
  2
BLKF042
 10
0.0
 20
0.0
 30
0.0
  0
INSERT
  5
29B
330
1F
100
AcDbEntity
  8
基準ﾚｲﾔｸﾞﾙｰﾌﾟ_01
  6
Continuous
 62
     7
370
    13
100
AcDbBlockReference
  2
BLKF043
 10
0.0
 20
0.0
 30
0.0
  0
ARC
  5
2A1
330
1F
100
AcDbEntity
  8
基準ﾚｲﾔｸﾞﾙｰﾌﾟ_01
  6
Continuous
 62
     3
370
    35
100
AcDbCircle
 10
82.80516459631708
 20
154.1455387640295
 30
0.0
 40
15.758815765381
100
AcDbArc
 50
332.53620185589
 51
359.9426910704
  0
ARC
  5
2A2
330
1F
100
AcDbEntity
  8
基準ﾚｲﾔｸﾞﾙｰﾌﾟ_01
  6
Continuous
 62
     3
370
    35
100
AcDbCircle
 10
82.80516459631708
 20
154.1455387640295
 30
0.0
 40
13.558834075928
100
AcDbArc
 50
332.53620185589
 51
359.9426910704
  0
LINE
  5
2A3
330
1F
100
AcDbEntity
  8
基準ﾚｲﾔｸﾞﾙｰﾌﾟ_01
  6
Continuous
 62
     3
370
    35
100
AcDbLine
 10
94.83594157385609
 20
147.8923801946995
 30
0.0
 11
96.78799845862109
 21
146.8777622747696
 31
0.0
  0
ARC
  5
2A4
330
1F
100
AcDbEntity
  8
基準ﾚｲﾔｸﾞﾙｰﾌﾟ_01
  6
Continuous
 62
     3
370
    35
100
AcDbCircle
 10
112.122852584598
 20
154.1455387640295
 30
0.0
 40
15.758815765381
100
AcDbArc
 50
201.53403417888
 51
207.4638678125
  0
ARC
  5
2A5
330
1F
100
AcDbEntity
  8
基準ﾚｲﾔｸﾞﾙｰﾌﾟ_01
  6
Continuous
 62
     3
370
    35
100
AcDbCircle
 10
112.122852584598
 20
154.1455387640295
 30
0.0
 40
13.558834075928
100
AcDbArc
 50
180.0573084848442
 51
207.4638678125
  0
LINE
  5
2A6
330
1F
100
AcDbEntity
  8
基準ﾚｲﾔｸﾞﾙｰﾌﾟ_01
  6
Continuous
 62
     3
370
    35
100
AcDbLine
 10
100.0920756070591
 20
147.8923649359095
 30
0.0
 11
98.14001872229308
 21
146.8777470159896
 31
0.0
  0
LINE
  5
2A7
330
1F
100
AcDbEntity
  8
基準ﾚｲﾔｸﾞﾙｰﾌﾟ_01
  6
Continuous
 62
     3
370
    35
100
AcDbLine
 10
98.56401469397305
 20
165.5528873968395
 30
0.0
 11
98.56401469397305
 21
157.0577702093395
 31
0.0
  0
LINE
  5
2A8
330
1F
100
AcDbEntity
  8
基準ﾚｲﾔｸﾞﾙｰﾌﾟ_01
  6
Continuous
 62
     3
370
    35
100
AcDbLine
 10
96.36401774573109
 20
165.5945133734095
 30
0.0
 11
96.36401774573109
 21
157.0577702093395
 31
0.0
  0
LINE
  5
2A9
330
1F
100
AcDbEntity
  8
基準ﾚｲﾔｸﾞﾙｰﾌﾟ_01
  6
Continuous
 62
     3
370
    35
100
AcDbLine
 10
95.27495219397305
 20
147.6379856634495
 30
0.0
 11
92.87450319646187
 21
143.2768068361954
 31
0.0
  0
LINE
  5
2AA
330
1F
100
AcDbEntity
  8
基準ﾚｲﾔｸﾞﾙｰﾌﾟ_01
  6
Continuous
 62
     3
370
    35
100
AcDbLine
 10
95.76387431311407
 20
147.3838505316195
 30
0.0
 11
93.45293007464291
 21
142.9761586939449
 31
0.0
  0
LINE
  5
2AB
330
1F
100
AcDbEntity
  8
基準ﾚｲﾔｸﾞﾙｰﾌﾟ_01
  6
Continuous
 62
     3
370
    35
100
AcDbLine
 10
96.25098217580866
 20
147.1262550465722
 30
0.0
 11
94.02920204943989
 21
142.6714004784617
 31
0.0
  0
LINE
  5
2AC
330
1F
100
AcDbEntity
  8
基準ﾚｲﾔｸﾞﾙｰﾌﾟ_01
  6
Continuous
 62
     3
370
    35
100
AcDbLine
 10
99.6530497281512
 20
147.6379856634495
 30
0.0
 11
102.0534987256624
 21
143.2768068361954
 31
0.0
  0
LINE
  5
2AD
330
1F
100
AcDbEntity
  8
基準ﾚｲﾔｸﾞﾙｰﾌﾟ_01
  6
Continuous
 62
     3
370
    35
100
AcDbLine
 10
99.16412760901018
 20
147.3838505316195
 30
0.0
 11
101.4750718474813
 21
142.9761586939449
 31
0.0
  0
LINE
  5
2AE
330
1F
100
AcDbEntity
  8
基準ﾚｲﾔｸﾞﾙｰﾌﾟ_01
  6
Continuous
 62
     3
370
    35
100
AcDbLine
 10
98.6770197463156
 20
147.1262550465722
 30
0.0
 11
100.8987998726844
 21
142.6714004784617
 31
0.0
  0
TEXT
  5
2AF
330
1F
100
AcDbEntity
  8
基準ﾚｲﾔｸﾞﾙｰﾌﾟ_01
  6
Continuous
 62
     7
370
    13
100
AcDbText
 10
369.8492736816406
 20
-9.307376861572266
 30
0.0
 40
6.0
  1
レイヤに仕様あり
 41
1.191489361702128
 51
10.0
  7
FX_VECTOR
 72
     5
 11
417.8492736816406
 21
-9.307376861572266
 31
0.0
100
AcDbText
  0
LINE
  5
2B1
330
1F
100
AcDbEntity
  8
GR1_01
  6
DASHDOT
 62
     7
370
    13
100
AcDbLine
 10
392.9441806739361
 20
195.3811659192823
 30
0.0
 11
306.9441806739361
 21
195.3811659192823
 31
0.0
  0
LINE
  5
2B2
330
1F
100
AcDbEntity
  8
GR1_01
  6
DASHDOT
 62
     7
370
    13
100
AcDbLine
 10
349.9441806739361
 20
238.3811659192824
 30
0.0
 11
349.9441806739361
 21
152.3811659192824
 31
0.0
  0
LINE
  5
2B3
330
1F
100
AcDbEntity
  8
GR1_01
  6
DASHDOT
 62
     7
370
    13
100
AcDbLine
 10
322.3670162076608
 20
222.9583303855577
 30
0.0
 11
311.053307708676
 21
234.2720388845425
 31
0.0
  0
LINE
  5
2B4
330
1F
100
AcDbEntity
  8
GR1_01
  6
DASHDOT
 62
     7
370
    13
100
AcDbLine
 10
367.9441806739361
 20
210.3811659192824
 30
0.0
 11
331.9441806739361
 21
210.3811659192824
 31
0.0
  0
LINE
  5
2B5
330
1F
100
AcDbEntity
  8
GR1_01
  6
Continuous
 62
     3
370
    35
100
AcDbLine
 10
383.9441806739361
 20
155.3811659192824
 30
0.0
 11
315.9441806739361
 21
155.3811659192824
 31
0.0
  0
LINE
  5
2B6
330
1F
100
AcDbEntity
  8
GR1_01
  6
Continuous
 62
     3
370
    35
100
AcDbLine
 10
383.9441806739361
 20
235.3811659192824
 30
0.0
 11
315.9441806739361
 21
235.3811659192824
 31
0.0
  0
LINE
  5
2B7
330
1F
100
AcDbEntity
  8
GR1_01
  6
Continuous
 62
     3
370
    35
100
AcDbLine
 10
389.9441806739361
 20
229.3811659192824
 30
0.0
 11
389.9441806739361
 21
161.3811659192824
 31
0.0
  0
LINE
  5
2B8
330
1F
100
AcDbEntity
  8
GR1_01
  6
Continuous
 62
     3
370
    35
100
AcDbLine
 10
309.9441806739361
 20
229.3811659192824
 30
0.0
 11
309.9441806739361
 21
161.3811659192824
 31
0.0
  0
ARC
  5
2B9
330
1F
100
AcDbEntity
  8
GR1_01
  6
DASHDOT
 62
     7
370
    13
100
AcDbCircle
 10
349.9441806739361
 20
195.3811659192823
 30
0.0
 40
47.00000000000001
100
AcDbArc
 50
125.2357153350537
 51
144.7642846649462
  0
LINE
  5
2BA
330
1F
100
AcDbEntity
  8
GR1_01
  6
DASHDOT
 62
     7
370
    13
100
AcDbLine
 10
377.5213451402115
 20
222.9583303855577
 30
0.0
 11
388.8350536391962
 21
234.2720388845425
 31
0.0
  0
LINE
  5
2BB
330
1F
100
AcDbEntity
  8
GR1_01
  6
DASHDOT
 62
     7
370
    13
100
AcDbLine
 10
322.3670162076606
 20
167.8040014530068
 30
0.0
 11
311.0533077086758
 21
156.490292954022
 31
0.0
  0
LINE
  5
2BC
330
1F
100
AcDbEntity
  8
GR1_01
  6
DASHDOT
 62
     7
370
    13
100
AcDbLine
 10
377.5213451402115
 20
167.8040014530069
 30
0.0
 11
388.8350536391962
 21
156.4902929540221
 31
0.0
  0
ARC
  5
2BD
330
1F
100
AcDbEntity
  8
GR1_01
  6
DASHDOT
 62
     7
370
    13
100
AcDbCircle
 10
349.9441806739361
 20
195.3811659192822
 30
0.0
 40
47.00000000000001
100
AcDbArc
 50
305.2357153350538
 51
324.7642846649463
  0
ARC
  5
2BE
330
1F
100
AcDbEntity
  8
GR1_01
  6
DASHDOT
 62
     7
370
    13
100
AcDbCircle
 10
349.9441806739363
 20
195.3811659192822
 30
0.0
 40
47.00000000000001
100
AcDbArc
 50
18.78091786607882
 51
54.7642846649466
  0
ARC
  5
2BF
330
1F
100
AcDbEntity
  8
GR1_01
  6
DASHDOT
 62
     7
370
    13
100
AcDbCircle
 10
349.9441806739362
 20
195.3811659192818
 30
0.0
 40
47.00000000000001
100
AcDbArc
 50
198.7809178660782
 51
234.7642846649458
  0
ARC
  5
2C0
330
1F
100
AcDbEntity
  8
GR1_01
  6
Continuous
 62
     3
370
    35
100
AcDbCircle
 10
383.9441806739361
 20
229.3811659192824
 30
0.0
 40
6.0
100
AcDbArc
 50
0.0
 51
90.0
  0
ARC
  5
2C1
330
1F
100
AcDbEntity
  8
GR1_01
  6
Continuous
 62
     3
370
    35
100
AcDbCircle
 10
315.9441806739361
 20
229.3811659192824
 30
0.0
 40
6.0
100
AcDbArc
 50
90.0
 51
180.0
  0
ARC
  5
2C2
330
1F
100
AcDbEntity
  8
GR1_01
  6
Continuous
 62
     3
370
    35
100
AcDbCircle
 10
315.9441806739361
 20
161.3811659192824
 30
0.0
 40
6.0
100
AcDbArc
 50
180.0
 51
270.0
  0
ARC
  5
2C3
330
1F
100
AcDbEntity
  8
GR1_01
  6
Continuous
 62
     3
370
    35
100
AcDbCircle
 10
383.9441806739361
 20
161.3811659192824
 30
0.0
 40
6.0
100
AcDbArc
 50
270.0
 51
0.0
  0
LINE
  5
2C4
330
1F
100
AcDbEntity
  8
GR1_01
  6
Continuous
 62
     3
370
    35
100
AcDbLine
 10
340.9441806739361
 20
159.2390851822799
 30
0.0
 11
340.9441806739361
 21
155.3811659192824
 31
0.0
  0
LINE
  5
2C5
330
1F
100
AcDbEntity
  8
GR1_01
  6
Continuous
 62
     3
370
    35
100
AcDbLine
 10
358.9441806739361
 20
159.2390851822799
 30
0.0
 11
358.9441806739361
 21
155.3811659192824
 31
0.0
  0
ARC
  5
2C6
330
1F
100
AcDbEntity
  8
GR1_01
  6
Continuous
 62
     3
370
    35
100
AcDbCircle
 10
349.9441806739361
 20
195.3811659192823
 30
0.0
 40
36.5
100
AcDbArc
 50
285.4660099534206
 51
15.04505060019204
  0
LINE
  5
2C7
330
1F
100
AcDbEntity
  8
GR1_01
  6
DASHDOT
 62
     7
370
    13
100
AcDbLine
 10
356.5636834620231
 20
164.3811659192823
 30
0.0
 11
343.14343806325
 21
164.3811659192823
 31
0.0
  0
CIRCLE
  5
2C8
330
1F
100
AcDbEntity
  8
GR1_01
  6
Continuous
 62
     3
370
    35
100
AcDbCircle
 10
349.944180673936
 20
164.3811659192823
 30
0.0
 40
4.0
  0
INSERT
  5
2CC
330
1F
100
AcDbEntity
  8
GR1_01
  6
Continuous
 62
     3
370
    35
100
AcDbBlockReference
  2
BLKF044
 10
0.0
 20
0.0
 30
0.0
  0
LINE
  5
2D6
330
1F
100
AcDbEntity
  8
GR1_01
  6
DASHDOT
 62
     7
370
    13
100
AcDbLine
 10
373.4812167972102
 20
216.6138234941874
 30
0.0
 11
380.1913394965968
 21
204.9915500538287
 31
0.0
  0
CIRCLE
  5
2D7
330
1F
100
AcDbEntity
  8
GR1_01
  6
Continuous
 62
     3
370
    35
100
AcDbCircle
 10
376.7909681912537
 20
210.8811659192822
 30
0.0
 40
4.0
  0
INSERT
  5
2DB
330
1F
100
AcDbEntity
  8
GR1_01
  6
Continuous
 62
     3
370
    35
100
AcDbBlockReference
  2
BLKF045
 10
0.0
 20
0.0
 30
0.0
  0
LINE
  5
2E5
330
1F
100
AcDbEntity
  8
GR1_01
  6
DASHDOT
 62
     7
370
    13
100
AcDbLine
 10
371.1008556067364
 20
207.5959778868919
 30
0.0
 11
382.3746658222519
 21
214.1049152496125
 31
0.0
  0
LINE
  5
2E6
330
1F
100
AcDbEntity
  8
GR1_01
  6
DASHDOT
 62
     7
370
    13
100
AcDbLine
 10
326.407144550662
 20
216.6138234941874
 30
0.0
 11
319.6970218512755
 21
204.9915500538287
 31
0.0
  0
CIRCLE
  5
2E7
330
1F
100
AcDbEntity
  8
GR1_01
  6
Continuous
 62
     3
370
    35
100
AcDbCircle
 10
323.0973931566185
 20
210.8811659192822
 30
0.0
 40
4.0
  0
INSERT
  5
2EB
330
1F
100
AcDbEntity
  8
GR1_01
  6
Continuous
 62
     3
370
    35
100
AcDbBlockReference
  2
BLKF046
 10
0.0
 20
0.0
 30
0.0
  0
LINE
  5
2F5
330
1F
100
AcDbEntity
  8
GR1_01
  6
DASHDOT
 62
     7
370
    13
100
AcDbLine
 10
328.7875057411358
 20
207.5959778868919
 30
0.0
 11
317.5136955256203
 21
214.1049152496125
 31
0.0
  0
ARC
  5
2F6
330
1F
100
AcDbEntity
  8
GR1_01
  6
Continuous
 62
     3
370
    35
100
AcDbCircle
 10
323.0973931566186
 20
210.8811659192822
 30
0.0
 40
10.0
100
AcDbArc
 50
88.38799460902253
 51
211.6120053909777
  0
ARC
  5
2F7
330
1F
100
AcDbEntity
  8
GR1_01
  6
Continuous
 62
     3
370
    35
100
AcDbCircle
 10
376.7909681912536
 20
210.8811659192822
 30
0.0
 40
10.0
100
AcDbArc
 50
328.3879946090228
 51
91.61200539097752
  0
ARC
  5
2F8
330
1F
100
AcDbEntity
  8
GR1_01
  6
Continuous
 62
     3
370
    35
100
AcDbCircle
 10
349.9441806739361
 20
195.3811659192823
 30
0.0
 40
36.5
100
AcDbArc
 50
44.95494939980806
 51
135.045050600192
  0
ARC
  5
2F9
330
1F
100
AcDbEntity
  8
GR1_01
  6
Continuous
 62
     3
370
    35
100
AcDbCircle
 10
349.9441806739361
 20
195.3811659192823
 30
0.0
 40
36.5
100
AcDbArc
 50
164.954949399808
 51
254.5339900465794
  0
ARC
  5
2FA
330
1F
100
AcDbEntity
  8
GR1_01
  6
Continuous
 62
     3
370
    35
100
AcDbCircle
 10
339.9441806739361
 20
159.2390851822799
 30
0.0
 40
1.0
100
AcDbArc
 50
0.0
 51
74.53399004658014
  0
ARC
  5
2FB
330
1F
100
AcDbEntity
  8
GR1_01
  6
Continuous
 62
     3
370
    35
100
AcDbCircle
 10
359.9441806739361
 20
159.2390851822799
 30
0.0
 40
1.0
100
AcDbArc
 50
105.4660099534194
 51
180.0
  0
ARC
  5
2FC
330
1F
100
AcDbEntity
  8
GR1_01
  6
Continuous
 62
     3
370
    35
100
AcDbCircle
 10
386.1587565419776
 20
205.1153579606315
 30
0.0
 40
1.0
100
AcDbArc
 50
148.3879946090232
 51
195.0450506001924
  0
ARC
  5
2FD
330
1F
100
AcDbEntity
  8
GR1_01
  6
Continuous
 62
     3
370
    35
100
AcDbCircle
 10
376.4815262010816
 20
221.8768125876105
 30
0.0
 40
1.0
100
AcDbArc
 50
224.9549493998071
 51
271.6120053909762
  0
ARC
  5
2FE
330
1F
100
AcDbEntity
  8
GR1_01
  6
Continuous
 62
     3
370
    35
100
AcDbCircle
 10
323.4068351467907
 20
221.8768125876105
 30
0.0
 40
1.0
100
AcDbArc
 50
268.3879946090206
 51
315.0450506001894
  0
ARC
  5
2FF
330
1F
100
AcDbEntity
  8
GR1_01
  6
Continuous
 62
     3
370
    35
100
AcDbCircle
 10
313.7296048058946
 20
205.1153579606315
 30
0.0
 40
1.0
100
AcDbArc
 50
344.9549493998099
 51
31.61200539097651
  0
CIRCLE
  5
300
330
1F
100
AcDbEntity
  8
GR1_01
  6
Continuous
 62
     3
370
    35
100
AcDbCircle
 10
349.9441806739361
 20
210.3811659192824
 30
0.0
 40
15.0
  0
CIRCLE
  5
301
330
1F
100
AcDbEntity
  8
GR1_01
  6
Continuous
 62
     3
370
    35
100
AcDbCircle
 10
349.944180673936
 20
210.3811659192824
 30
0.0
 40
4.0
  0
CIRCLE
  5
302
330
1F
100
AcDbEntity
  8
GR1_01
  6
Continuous
 62
     3
370
    35
100
AcDbCircle
 10
349.944180673936
 20
210.3811659192824
 30
0.0
 40
5.0
  0
LINE
  5
303
330
1F
100
AcDbEntity
  8
GR1_01
  6
Continuous
 62
     3
370
    35
100
AcDbLine
 10
347.2984256685322
 20
213.3811626611774
 30
0.0
 11
352.5899356793399
 21
213.3811626611774
 31
0.0
  0
TEXT
  5
304
330
1F
100
AcDbEntity
  8
寸法
  6
Continuous
 62
     7
370
    13
100
AcDbText
 10
346.4441833496094
 20
248.8811645501704
 30
0.0
 40
3.5
  1
８０
 41
1.272727272727273
 51
10.0
  7
FX_VECTOR
 72
     5
 11
353.4441833496094
 21
248.8811645513921
 31
0.0
100
AcDbText
  0
LINE
  5
305
330
1F
100
AcDbEntity
  8
寸法
  6
Continuous
 62
     7
370
    13
100
AcDbLine
 10
309.9441806739361
 20
248.3811669510156
 30
0.0
 11
389.9441806739362
 21
248.3811669510156
 31
0.0
  0
INSERT
  5
306
330
1F
100
AcDbEntity
  8
寸法
  6
Continuous
 62
     7
370
    13
100
AcDbBlockReference
  2
FXTIP_ARROW_S
 10
309.9441806739361
 20
248.3811669510156
 30
0.0
 41
3.0
 42
3.0
 50
180.0
  0
INSERT
  5
307
330
1F
100
AcDbEntity
  8
寸法
  6
Continuous
 62
     7
370
    13
100
AcDbBlockReference
  2
FXTIP_ARROW_E
 10
389.9441806739362
 20
248.3811669510156
 30
0.0
 41
3.0
 42
3.0
 50
360.0
  0
LINE
  5
308
330
1F
100
AcDbEntity
  8
寸法
  6
Continuous
 62
     7
370
    13
100
AcDbLine
 10
309.9441806739361
 20
230.3811659192824
 30
0.0
 11
309.9441806739362
 21
249.3811669510156
 31
0.0
  0
LINE
  5
309
330
1F
100
AcDbEntity
  8
寸法
  6
Continuous
 62
     7
370
    13
100
AcDbLine
 10
389.9441806739361
 20
230.3811659192824
 30
0.0
 11
389.9441806739362
 21
249.3811669510156
 31
0.0
  0
TEXT
  5
30A
330
1F
100
AcDbEntity
  8
寸法
  6
Continuous
 62
     7
370
    13
100
AcDbText
 10
297.4441833496094
 20
199.3811645507812
 30
0.0
 40
3.5
  1
１５
 50
90.0
 41
1.272727272727273
 51
10.0
  7
FX_VECTOR
 72
     5
 11
297.4441833496094
 21
206.3811645507812
 31
0.0
100
AcDbText
  0
LINE
  5
30B
330
1F
100
AcDbEntity
  8
寸法
  6
Continuous
 62
     7
370
    13
100
AcDbLine
 10
297.944180673936
 20
195.3811659192823
 30
0.0
 11
297.944180673936
 21
210.3811659192824
 31
0.0
  0
INSERT
  5
30C
330
1F
100
AcDbEntity
  8
寸法
  6
Continuous
 62
     7
370
    13
100
AcDbBlockReference
  2
FXTIP_ARROW_S
 10
297.944180673936
 20
195.3811659192823
 30
0.0
 41
3.0
 42
3.0
 50
270.0
  0
INSERT
  5
30D
330
1F
100
AcDbEntity
  8
寸法
  6
Continuous
 62
     7
370
    13
100
AcDbBlockReference
  2
FXTIP_ARROW_E
 10
297.944180673936
 20
210.3811659192824
 30
0.0
 41
3.0
 42
3.0
 50
90.0
  0
LINE
  5
30E
330
1F
100
AcDbEntity
  8
寸法
  6
Continuous
 62
     7
370
    13
100
AcDbLine
 10
305.9441806739361
 20
195.3811659192823
 30
0.0
 11
296.944180673936
 21
195.3811659192823
 31
0.0
  0
LINE
  5
30F
330
1F
100
AcDbEntity
  8
寸法
  6
Continuous
 62
     7
370
    13
100
AcDbLine
 10
330.9441806739361
 20
210.3811659192824
 30
0.0
 11
296.944180673936
 21
210.3811659192824
 31
0.0
  0
TEXT
  5
310
330
1F
100
AcDbEntity
  8
寸法
  6
Continuous
 62
     7
370
    13
100
AcDbText
 10
289.4441833496094
 20
191.8811645507812
 30
0.0
 40
3.5
  1
８０
 50
90.0
 41
1.272727272727273
 51
10.0
  7
FX_VECTOR
 72
     5
 11
289.4441833496094
 21
198.8811645507812
 31
0.0
100
AcDbText
  0
LINE
  5
311
330
1F
100
AcDbEntity
  8
寸法
  6
Continuous
 62
     7
370
    13
100
AcDbLine
 10
289.944180673936
 20
155.3811659192824
 30
0.0
 11
289.944180673936
 21
235.3811659192824
 31
0.0
  0
INSERT
  5
312
330
1F
100
AcDbEntity
  8
寸法
  6
Continuous
 62
     7
370
    13
100
AcDbBlockReference
  2
FXTIP_ARROW_S
 10
289.944180673936
 20
155.3811659192824
 30
0.0
 41
3.0
 42
3.0
 50
270.0
  0
INSERT
  5
313
330
1F
100
AcDbEntity
  8
寸法
  6
Continuous
 62
     7
370
    13
100
AcDbBlockReference
  2
FXTIP_ARROW_E
 10
289.944180673936
 20
235.3811659192824
 30
0.0
 41
3.0
 42
3.0
 50
90.0
  0
LINE
  5
314
330
1F
100
AcDbEntity
  8
寸法
  6
Continuous
 62
     7
370
    13
100
AcDbLine
 10
314.9441806739361
 20
155.3811659192824
 30
0.0
 11
288.944180673936
 21
155.3811659192824
 31
0.0
  0
LINE
  5
315
330
1F
100
AcDbEntity
  8
寸法
  6
Continuous
 62
     7
370
    13
100
AcDbLine
 10
314.9441806739361
 20
235.3811659192824
 30
0.0
 11
288.944180673936
 21
235.3811659192824
 31
0.0
  0
TEXT
  5
316
330
1F
100
AcDbEntity
  8
寸法
  6
Continuous
 62
     7
370
    13
100
AcDbText
 10
322.7570271714372
 20
186.0179350860942
 30
0.0
 40
3.5
  1
φ
 50
19.9999999999999
 41
1.399999999999976
 51
10.0
  7
FX_VECTOR
 72
     5
 11
326.0459513441878
 21
187.215005587734
 31
0.0
100
AcDbText
  0
TEXT
  5
317
330
1F
100
AcDbEntity
  8
寸法
  6
Continuous
 62
     7
370
    13
100
AcDbText
 10
326.0459452120149
 20
187.215008355782
 30
0.0
 40
3.5
  1
９４
 50
20.00000000000001
 41
1.272727272727274
 51
10.0
  7
FX_VECTOR
 72
     5
 11
332.6237935575163
 21
189.6091493590617
 31
0.0
100
AcDbText
  0
LINE
  5
318
330
1F
100
AcDbEntity
  8
寸法
  6
Continuous
 62
     7
370
    13
100
AcDbLine
 10
305.7786274969986
 20
179.3062191829757
 30
0.0
 11
394.109733850874
 21
211.4561126555886
 31
0.0
  0
INSERT
  5
319
330
1F
100
AcDbEntity
  8
寸法
  6
Continuous
 62
     7
370
    13
100
AcDbBlockReference
  2
FXTIP_ARROW_S
 10
305.7786274969986
 20
179.3062191829757
 30
0.0
 41
3.0
 42
3.0
 50
200.0
  0
INSERT
  5
31A
330
1F
100
AcDbEntity
  8
寸法
  6
Continuous
 62
     7
370
    13
100
AcDbBlockReference
  2
FXTIP_ARROW_E
 10
394.109733850874
 20
211.4561126555886
 30
0.0
 41
3.0
 42
3.0
 50
19.99999999999998
  0
ELLIPSE
  5
31B
330
1F
100
AcDbEntity
  8
仕様
  6
Continuous
 62
     3
370
    35
100
AcDbEllipse
 10
193.7981581965587
 20
109.5892253843458
 30
0.0
 11
5.942043624045169
 21
0.0
 31
0.0
210
0.0
220
0.0
230
1.0
 40
0.4472324723247277
 41
0.0
 42
6.283185307179586
  0
INSERT
  5
31F
330
1F
100
AcDbEntity
  8
作図レイヤ
  6
Continuous
 62
     3
370
    35
100
AcDbBlockReference
  2
BLKF047
 10
0.0
 20
0.0
 30
0.0
  0
INSERT
  5
334
330
1F
100
AcDbEntity
  8
作図レイヤ
  6
Continuous
 62
     3
370
    35
100
AcDbBlockReference
  2
BLKF048
 10
0.0
 20
0.0
 30
0.0
  0
INSERT
  5
347
330
1F
100
AcDbEntity
  8
作図レイヤ
  6
Continuous
 62
     3
370
    35
100
AcDbBlockReference
  2
BLKF049
 10
0.0
 20
0.0
 30
0.0
  0
INSERT
  5
35A
330
1F
100
AcDbEntity
  8
GR1_01
  6
Continuous
 62
     3
370
    35
100
AcDbBlockReference
  2
BLKF050
 10
0.0
 20
0.0
 30
0.0
  0
INSERT
  5
366
330
1F
100
AcDbEntity
  8
GR1_01
  6
Continuous
 62
     3
370
    35
100
AcDbBlockReference
  2
BLKF051
 10
0.0
 20
0.0
 30
0.0
  0
INSERT
  5
372
330
1F
100
AcDbEntity
  8
GR1_01
  6
Continuous
 62
     3
370
    35
100
AcDbBlockReference
  2
BLKF052
 10
0.0
 20
0.0
 30
0.0
  0
INSERT
  5
37E
330
1F
100
AcDbEntity
  8
GR1_01
  6
Continuous
 62
     3
370
    35
100
AcDbBlockReference
  2
BLKF053
 10
0.0
 20
0.0
 30
0.0
  0
ARC
  5
387
330
1F
100
AcDbEntity
  8
GR1_01
  6
Continuous
 62
     7
370
    13
100
AcDbCircle
 10
316.7101619581684
 20
228.6151846350501
 30
0.0
 40
2.0
100
AcDbArc
 50
80.0
 51
349.9999999999999
  0
CIRCLE
  5
388
330
1F
100
AcDbEntity
  8
GR1_01
  6
Continuous
 62
     3
370
    35
100
AcDbCircle
 10
316.7101619581684
 20
228.6151846350501
 30
0.0
 40
2.499999999999992
  0
ARC
  5
389
330
1F
100
AcDbEntity
  8
GR1_01
  6
Continuous
 62
     7
370
    13
100
AcDbCircle
 10
383.1781993897039
 20
228.6151846350501
 30
0.0
 40
2.0
100
AcDbArc
 50
80.0
 51
349.9999999999999
  0
CIRCLE
  5
38A
330
1F
100
AcDbEntity
  8
GR1_01
  6
Continuous
 62
     3
370
    35
100
AcDbCircle
 10
383.1781993897039
 20
228.6151846350501
 30
0.0
 40
2.499999999999992
  0
ARC
  5
38B
330
1F
100
AcDbEntity
  8
GR1_01
  6
Continuous
 62
     7
370
    13
100
AcDbCircle
 10
316.7101619581682
 20
162.1471472035144
 30
0.0
 40
2.0
100
AcDbArc
 50
80.0
 51
349.9999999999999
  0
CIRCLE
  5
38C
330
1F
100
AcDbEntity
  8
GR1_01
  6
Continuous
 62
     3
370
    35
100
AcDbCircle
 10
316.7101619581682
 20
162.1471472035144
 30
0.0
 40
2.499999999999992
  0
ARC
  5
38D
330
1F
100
AcDbEntity
  8
GR1_01
  6
Continuous
 62
     7
370
    13
100
AcDbCircle
 10
383.1781993897039
 20
162.1471472035145
 30
0.0
 40
2.0
100
AcDbArc
 50
80.0
 51
349.9999999999999
  0
CIRCLE
  5
38E
330
1F
100
AcDbEntity
  8
GR1_01
  6
Continuous
 62
     3
370
    35
100
AcDbCircle
 10
383.1781993897039
 20
162.1471472035145
 30
0.0
 40
2.499999999999992
  0
INSERT
  5
392
330
1F
100
AcDbEntity
  8
作図レイヤ
  6
Continuous
 62
     3
370
    35
100
AcDbBlockReference
  2
BLKF054
 10
0.0
 20
0.0
 30
0.0
  0
LINE
  5
3A0
330
1F
100
AcDbEntity
  8
作図レイヤ
  6
Continuous
 62
     3
370
    35
100
AcDbLine
 10
228.1640009610612
 20
226.1151866442148
 30
0.0
 11
228.1640009610612
 21
231.1151866442148
 31
0.0
  0
INSERT
  5
3A4
330
1F
100
AcDbEntity
  8
作図レイヤ
  6
Continuous
 62
     3
370
    35
100
AcDbBlockReference
  2
BLKF055
 10
0.0
 20
0.0
 30
0.0
  0
LINE
  5
3B2
330
1F
100
AcDbEntity
  8
作図レイヤ
  6
Continuous
 62
     3
370
    35
100
AcDbLine
 10
228.1640004374609
 20
159.6471436264688
 30
0.0
 11
228.1640014846585
 21
164.6471436264686
 31
0.0
  0
ENDSEC
  0
SECTION
  2
OBJECTS
  0
DICTIONARY
  5
C
330
0
100
AcDbDictionary
281
     1
  3
ACAD_GROUP
350
D
  3
ACAD_LAYOUT
350
1A
  3
ACAD_MATERIAL
350
3B
  3
ACAD_MLEADERSTYLE
350
3B5
  3
ACAD_MLINESTYLE
350
17
  3
ACAD_PLOTSETTINGS
350
19
  3
ACAD_PLOTSTYLENAME
350
E
  3
ACAD_VISUALSTYLE
350
2A
  3
AcDbVariableDictionary
350
3B3
  0
DICTIONARY
  5
D
102
{ACAD_REACTORS
330
C
102
}
330
C
100
AcDbDictionary
281
     1
  0
DICTIONARY
  5
1A
102
{ACAD_REACTORS
330
C
102
}
330
C
100
AcDbDictionary
281
     1
  3
Layout1
350
1E
  3
Layout2
350
26
  3
Model
350
22
  0
DICTIONARY
  5
3B
102
{ACAD_REACTORS
330
C
102
}
330
C
100
AcDbDictionary
281
     1
  3
ByBlock
350
3D
  3
ByLayer
350
3C
  3
Global
350
3E
  0
DICTIONARY
  5
3B5
102
{ACAD_REACTORS
330
C
102
}
330
C
100
AcDbDictionary
281
     1
  0
DICTIONARY
  5
17
102
{ACAD_REACTORS
330
C
102
}
330
C
100
AcDbDictionary
281
     1
  3
Standard
350
18
  0
DICTIONARY
  5
19
102
{ACAD_REACTORS
330
C
102
}
330
C
100
AcDbDictionary
281
     1
  0
ACDBDICTIONARYWDFLT
  5
E
102
{ACAD_REACTORS
330
C
102
}
330
C
100
AcDbDictionary
281
     1
  3
Normal
350
F
100
AcDbDictionaryWithDefault
340
F
  0
DICTIONARY
  5
2A
102
{ACAD_REACTORS
330
C
102
}
330
C
100
AcDbDictionary
281
     1
  3
2dWireframe
350
2F
  3
3D Hidden
350
31
  3
3dWireframe
350
30
  3
Basic
350
32
  3
Brighten
350
36
  3
ColorChange
350
3A
  3
Conceptual
350
34
  3
Dim
350
35
  3
Facepattern
350
39
  3
Flat
350
2B
  3
FlatWithEdges
350
2C
  3
Gouraud
350
2D
  3
GouraudWithEdges
350
2E
  3
Linepattern
350
38
  3
Realistic
350
33
  3
Thicken
350
37
  0
DICTIONARY
  5
3B3
102
{ACAD_REACTORS
330
C
102
}
330
C
100
AcDbDictionary
281
     1
  3
DIMASSOC
350
3B8
  3
HIDETEXT
350
3B9
  3
PSOLHEIGHT
350
3B7
  3
PSOLWIDTH
350
3B6
  0
LAYOUT
  5
1E
102
{ACAD_REACTORS
330
1A
102
}
330
1A
100
AcDbPlotSettings
  1

  2
none_device
  4

  6

 40
0.0
 41
0.0
 42
0.0
 43
0.0
 44
0.0
 45
0.0
 46
0.0
 47
0.0
 48
0.0
 49
0.0
140
0.0
141
0.0
142
1.0
143
1.0
 70
   688
 72
     0
 73
     0
 74
     5
  7

 75
    16
147
1.0
148
0.0
149
0.0
100
AcDbLayout
  1
Layout1
 70
     1
 71
     1
 10
0.0
 20
0.0
 11
420.0
 21
297.0
 12
0.0
 22
0.0
 32
0.0
 14
1.000000000000000E+20
 24
1.000000000000000E+20
 34
1.000000000000000E+20
 15
-1.000000000000000E+20
 25
-1.000000000000000E+20
 35
-1.000000000000000E+20
146
0.0
 13
0.0
 23
0.0
 33
0.0
 16
1.0
 26
0.0
 36
0.0
 17
0.0
 27
1.0
 37
0.0
 76
     0
330
1B
  0
LAYOUT
  5
26
102
{ACAD_REACTORS
330
1A
102
}
330
1A
100
AcDbPlotSettings
  1

  2
none_device
  4

  6

 40
0.0
 41
0.0
 42
0.0
 43
0.0
 44
0.0
 45
0.0
 46
0.0
 47
0.0
 48
0.0
 49
0.0
140
0.0
141
0.0
142
1.0
143
1.0
 70
   688
 72
     0
 73
     0
 74
     5
  7

 75
    16
147
1.0
148
0.0
149
0.0
100
AcDbLayout
  1
Layout2
 70
     1
 71
     2
 10
0.0
 20
0.0
 11
0.0
 21
0.0
 12
0.0
 22
0.0
 32
0.0
 14
0.0
 24
0.0
 34
0.0
 15
0.0
 25
0.0
 35
0.0
146
0.0
 13
0.0
 23
0.0
 33
0.0
 16
1.0
 26
0.0
 36
0.0
 17
0.0
 27
1.0
 37
0.0
 76
     0
330
23
  0
LAYOUT
  5
22
102
{ACAD_REACTORS
330
1A
102
}
330
1A
100
AcDbPlotSettings
  1

  2
none_device
  4

  6

 40
0.0
 41
0.0
 42
0.0
 43
0.0
 44
0.0
 45
0.0
 46
0.0
 47
0.0
 48
0.0
 49
0.0
140
0.0
141
0.0
142
1.0
143
1.0
 70
  1712
 72
     0
 73
     0
 74
     0
  7

 75
     0
147
1.0
148
0.0
149
0.0
100
AcDbLayout
  1
Model
 70
     1
 71
     0
 10
0.0
 20
0.0
 11
420.0
 21
297.0
 12
0.0
 22
0.0
 32
0.0
 14
0.0
 24
0.0
 34
0.0
 15
420.0
 25
297.0
 35
0.0
146
0.0
 13
0.0
 23
0.0
 33
0.0
 16
1.0
 26
0.0
 36
0.0
 17
0.0
 27
1.0
 37
0.0
 76
     0
330
1F
331
29
  0
MATERIAL
  5
3D
102
{ACAD_REACTORS
330
3B
102
}
102
{ACAD_XDICTIONARY
360
3DC
102
}
330
3B
100
AcDbMaterial
  1
ByBlock
  0
MATERIAL
  5
3C
102
{ACAD_REACTORS
330
3B
102
}
102
{ACAD_XDICTIONARY
360
3DA
102
}
330
3B
100
AcDbMaterial
  1
ByLayer
  0
MATERIAL
  5
3E
102
{ACAD_REACTORS
330
3B
102
}
102
{ACAD_XDICTIONARY
360
3DE
102
}
330
3B
100
AcDbMaterial
  1
Global
  0
MLINESTYLE
  5
18
102
{ACAD_REACTORS
330
17
102
}
330
17
100
AcDbMlineStyle
  2
Standard
 70
     0
  3

 62
   256
 51
90.0
 52
90.0
 71
     2
 49
0.5
 62
   256
  6
BYLAYER
 49
-0.5
 62
   256
  6
BYLAYER
  0
ACDBPLACEHOLDER
  5
F
102
{ACAD_REACTORS
330
E
102
}
330
E
  0
VISUALSTYLE
  5
2F
102
{ACAD_REACTORS
330
2A
102
}
102
{ACAD_XDICTIONARY
360
3C2
102
}
330
2A
100
AcDbVisualStyle
  2
2dWireframe
 70
     4
 71
     0
 72
     2
 73
     0
 90
        0
 40
-0.6
 41
-30.0
 62
     5
 63
     7
 74
     1
 91
        4
 64
     7
 65
   257
 75
     1
175
     1
 42
1.0
 92
        0
 66
   257
 43
1.0
 76
     1
 77
     6
 78
     2
 67
     7
 79
     5
170
     0
171
     0
290
     0
174
     0
 93
        1
 44
0.0
173
     0
291
     0
 45
0.0
1001
ACAD
1000
AcDbSavedByObjectVersion
1070
     0
  0
VISUALSTYLE
  5
31
102
{ACAD_REACTORS
330
2A
102
}
102
{ACAD_XDICTIONARY
360
3C6
102
}
330
2A
100
AcDbVisualStyle
  2
3D Hidden
 70
     6
 71
     1
 72
     2
 73
     2
 90
        0
 40
-0.6
 41
-30.0
 62
     5
 63
     7
 74
     2
 91
        2
 64
     7
 65
   257
 75
     2
175
     1
 42
40.0
 92
        0
 66
   257
 43
1.0
 76
     1
 77
     6
 78
     2
 67
     7
 79
     3
170
     0
171
     0
290
     0
174
     0
 93
        1
 44
0.0
173
     0
291
     0
 45
0.0
1001
ACAD
1000
AcDbSavedByObjectVersion
1070
     0
  0
VISUALSTYLE
  5
30
102
{ACAD_REACTORS
330
2A
102
}
102
{ACAD_XDICTIONARY
360
3C4
102
}
330
2A
100
AcDbVisualStyle
  2
3dWireframe
 70
     5
 71
     0
 72
     2
 73
     0
 90
        0
 40
-0.6
 41
-30.0
 62
     5
 63
     7
 74
     1
 91
        4
 64
     7
 65
   257
 75
     1
175
     1
 42
1.0
 92
        0
 66
   257
 43
1.0
 76
     1
 77
     6
 78
     2
 67
     7
 79
     5
170
     0
171
     0
290
     0
174
     0
 93
        1
 44
0.0
173
     0
291
     0
 45
0.0
1001
ACAD
1000
AcDbSavedByObjectVersion
1070
     0
  0
VISUALSTYLE
  5
32
102
{ACAD_REACTORS
330
2A
102
}
102
{ACAD_XDICTIONARY
360
3C8
102
}
330
2A
100
AcDbVisualStyle
  2
Basic
 70
     7
 71
     1
 72
     0
 73
     1
 90
        0
 40
-0.6
 41
-30.0
 62
     5
 63
     7
 74
     0
 91
        4
 64
     7
 65
   257
 75
     1
175
     1
 42
1.0
 92
        8
 66
     7
 43
1.0
 76
     1
 77
     6
 78
     2
 67
     7
 79
     5
170
     0
171
     0
290
     0
174
     0
 93
        1
 44
0.0
173
     0
291
     1
 45
0.0
1001
ACAD
1000
AcDbSavedByObjectVersion
1070
     0
  0
VISUALSTYLE
  5
36
102
{ACAD_REACTORS
330
2A
102
}
102
{ACAD_XDICTIONARY
360
3D0
102
}
330
2A
100
AcDbVisualStyle
  2
Brighten
 70
    12
 71
     2
 72
     2
 73
     0
 90
        0
 40
-0.6
 41
-30.0
 62
     5
 63
     7
 74
     1
 91
        4
 64
     7
 65
   257
 75
     1
175
     1
 42
1.0
 92
        8
 66
     7
 43
1.0
 76
     1
 77
     6
 78
     2
 67
     7
 79
     5
170
     0
171
     0
290
     0
174
     0
 93
        1
 44
50.0
173
     0
291
     1
 45
0.0
1001
ACAD
1000
AcDbSavedByObjectVersion
1070
     0
  0
VISUALSTYLE
  5
3A
102
{ACAD_REACTORS
330
2A
102
}
102
{ACAD_XDICTIONARY
360
3D8
102
}
330
2A
100
AcDbVisualStyle
  2
ColorChange
 70
    16
 71
     2
 72
     2
 73
     3
 90
        0
 40
-0.6
 41
-30.0
 62
     5
 63
     8
 74
     1
 91
        4
 64
     7
 65
   257
 75
     1
175
     1
 42
1.0
 92
        8
 66
     8
 43
1.0
 76
     1
 77
     6
 78
     2
 67
     7
 79
     5
170
     0
171
     0
290
     0
174
     0
 93
        1
 44
0.0
173
     0
291
     1
 45
0.0
1001
ACAD
1000
AcDbSavedByObjectVersion
1070
     0
  0
VISUALSTYLE
  5
34
102
{ACAD_REACTORS
330
2A
102
}
102
{ACAD_XDICTIONARY
360
3CC
102
}
330
2A
100
AcDbVisualStyle
  2
Conceptual
 70
     9
 71
     3
 72
     2
 73
     0
 90
        0
 40
-0.6
 41
-30.0
 62
     5
 63
     7
 74
     2
 91
        2
 64
     7
 65
   257
 75
     1
175
     1
 42
40.0
 92
        8
 66
     7
 43
1.0
 76
     1
 77
     6
 78
     2
 67
     7
 79
     3
170
     0
171
     0
290
     0
174
     0
 93
        1
 44
0.0
173
     0
291
     0
 45
0.0
1001
ACAD
1000
AcDbSavedByObjectVersion
1070
     0
  0
VISUALSTYLE
  5
35
102
{ACAD_REACTORS
330
2A
102
}
102
{ACAD_XDICTIONARY
360
3CE
102
}
330
2A
100
AcDbVisualStyle
  2
Dim
 70
    11
 71
     2
 72
     2
 73
     0
 90
        0
 40
-0.6
 41
-30.0
 62
     5
 63
     7
 74
     1
 91
        4
 64
     7
 65
   257
 75
     1
175
     1
 42
1.0
 92
        8
 66
     7
 43
1.0
 76
     1
 77
     6
 78
     2
 67
     7
 79
     5
170
     0
171
     0
290
     0
174
     0
 93
        1
 44
-50.0
173
     0
291
     1
 45
0.0
1001
ACAD
1000
AcDbSavedByObjectVersion
1070
     0
  0
VISUALSTYLE
  5
39
102
{ACAD_REACTORS
330
2A
102
}
102
{ACAD_XDICTIONARY
360
3D6
102
}
330
2A
100
AcDbVisualStyle
  2
Facepattern
 70
    15
 71
     2
 72
     2
 73
     0
 90
        0
 40
-0.6
 41
-30.0
 62
     5
 63
     7
 74
     1
 91
        4
 64
     7
 65
   257
 75
     1
175
     1
 42
1.0
 92
        8
 66
     7
 43
1.0
 76
     1
 77
     6
 78
     2
 67
     7
 79
     5
170
     0
171
     0
290
     0
174
     0
 93
        1
 44
0.0
173
     0
291
     1
 45
0.0
1001
ACAD
1000
AcDbSavedByObjectVersion
1070
     0
  0
VISUALSTYLE
  5
2B
102
{ACAD_REACTORS
330
2A
102
}
102
{ACAD_XDICTIONARY
360
3BA
102
}
330
2A
100
AcDbVisualStyle
  2
Flat
 70
     0
 71
     2
 72
     1
 73
     1
 90
        2
 40
-0.6
 41
30.0
 62
     5
 63
     7
 74
     0
 91
        4
 64
     7
 65
   257
 75
     1
175
     1
 42
1.0
 92
        8
 66
     7
 43
1.0
 76
     1
 77
     6
 78
     2
 67
     7
 79
     5
170
     0
171
     0
290
     0
174
     0
 93
       13
 44
0.0
173
     0
291
     1
 45
0.0
1001
ACAD
1000
AcDbSavedByObjectVersion
1070
     0
  0
VISUALSTYLE
  5
2C
102
{ACAD_REACTORS
330
2A
102
}
102
{ACAD_XDICTIONARY
360
3BC
102
}
330
2A
100
AcDbVisualStyle
  2
FlatWithEdges
 70
     1
 71
     2
 72
     1
 73
     1
 90
        2
 40
-0.6
 41
30.0
 62
     5
 63
     7
 74
     1
 91
        4
 64
     7
 65
   257
 75
     1
175
     1
 42
1.0
 92
        0
 66
   257
 43
1.0
 76
     1
 77
     6
 78
     2
 67
     7
 79
     5
170
     0
171
     0
290
     0
174
     0
 93
       13
 44
0.0
173
     0
291
     1
 45
0.0
1001
ACAD
1000
AcDbSavedByObjectVersion
1070
     0
  0
VISUALSTYLE
  5
2D
102
{ACAD_REACTORS
330
2A
102
}
102
{ACAD_XDICTIONARY
360
3BE
102
}
330
2A
100
AcDbVisualStyle
  2
Gouraud
 70
     2
 71
     2
 72
     2
 73
     1
 90
        2
 40
-0.6
 41
30.0
 62
     5
 63
     7
 74
     0
 91
        4
 64
     7
 65
   257
 75
     1
175
     1
 42
1.0
 92
        0
 66
     7
 43
1.0
 76
     1
 77
     6
 78
     2
 67
     7
 79
     5
170
     0
171
     0
290
     0
174
     0
 93
       13
 44
0.0
173
     0
291
     1
 45
0.0
1001
ACAD
1000
AcDbSavedByObjectVersion
1070
     0
  0
VISUALSTYLE
  5
2E
102
{ACAD_REACTORS
330
2A
102
}
102
{ACAD_XDICTIONARY
360
3C0
102
}
330
2A
100
AcDbVisualStyle
  2
GouraudWithEdges
 70
     3
 71
     2
 72
     2
 73
     1
 90
        2
 40
-0.6
 41
30.0
 62
     5
 63
     7
 74
     1
 91
        4
 64
     7
 65
   257
 75
     1
175
     1
 42
1.0
 92
        0
 66
   257
 43
1.0
 76
     1
 77
     6
 78
     2
 67
     7
 79
     5
170
     0
171
     0
290
     0
174
     0
 93
       13
 44
0.0
173
     0
291
     1
 45
0.0
1001
ACAD
1000
AcDbSavedByObjectVersion
1070
     0
  0
VISUALSTYLE
  5
38
102
{ACAD_REACTORS
330
2A
102
}
102
{ACAD_XDICTIONARY
360
3D4
102
}
330
2A
100
AcDbVisualStyle
  2
Linepattern
 70
    14
 71
     2
 72
     2
 73
     0
 90
        0
 40
-0.6
 41
-30.0
 62
     5
 63
     7
 74
     1
 91
        4
 64
     7
 65
   257
 75
     7
175
     7
 42
1.0
 92
        8
 66
     7
 43
1.0
 76
     1
 77
     6
 78
     2
 67
     7
 79
     5
170
     0
171
     0
290
     0
174
     0
 93
        1
 44
0.0
173
     0
291
     1
 45
0.0
1001
ACAD
1000
AcDbSavedByObjectVersion
1070
     0
  0
VISUALSTYLE
  5
33
102
{ACAD_REACTORS
330
2A
102
}
102
{ACAD_XDICTIONARY
360
3CA
102
}
330
2A
100
AcDbVisualStyle
  2
Realistic
 70
     8
 71
     2
 72
     2
 73
     0
 90
        0
 40
-0.6
 41
-30.0
 62
     5
 63
     7
 74
     1
 91
        0
 64
     7
 65
   257
 75
     1
175
     1
 42
1.0
 92
        8
 66
     8
 43
1.0
 76
     1
 77
     6
 78
     2
 67
     7
 79
     5
170
     0
171
     0
290
     0
174
     0
 93
       13
 44
0.0
173
     0
291
     0
 45
0.0
1001
ACAD
1000
AcDbSavedByObjectVersion
1070
     0
  0
VISUALSTYLE
  5
37
102
{ACAD_REACTORS
330
2A
102
}
102
{ACAD_XDICTIONARY
360
3D2
102
}
330
2A
100
AcDbVisualStyle
  2
Thicken
 70
    13
 71
     2
 72
     2
 73
     0
 90
        0
 40
-0.6
 41
-30.0
 62
     5
 63
     7
 74
     1
 91
        4
 64
     7
 65
   257
 75
     1
175
     1
 42
1.0
 92
       12
 66
     7
 43
1.0
 76
     1
 77
     6
 78
     2
 67
     7
 79
     5
170
     0
171
     0
290
     0
174
     0
 93
        1
 44
0.0
173
     0
291
     1
 45
0.0
1001
ACAD
1000
AcDbSavedByObjectVersion
1070
     0
  0
DICTIONARYVAR
  5
3B8
102
{ACAD_REACTORS
330
3B3
102
}
330
3B3
100
DictionaryVariables
280
     0
  1
2
  0
DICTIONARYVAR
  5
3B9
102
{ACAD_REACTORS
330
3B3
102
}
330
3B3
100
DictionaryVariables
280
     0
  1
1
  0
DICTIONARYVAR
  5
3B7
102
{ACAD_REACTORS
330
3B3
102
}
330
3B3
100
DictionaryVariables
280
     0
  1
80.000000
  0
DICTIONARYVAR
  5
3B6
102
{ACAD_REACTORS
330
3B3
102
}
330
3B3
100
DictionaryVariables
280
     0
  1
5.000000
  0
DICTIONARY
  5
3DC
330
3D
100
AcDbDictionary
280
     1
281
     1
  3
ACAD_XREC_ROUNDTRIP
360
3DD
  0
DICTIONARY
  5
3DA
330
3C
100
AcDbDictionary
280
     1
281
     1
  3
ACAD_XREC_ROUNDTRIP
360
3DB
  0
DICTIONARY
  5
3DE
330
3E
100
AcDbDictionary
280
     1
281
     1
  3
ACAD_XREC_ROUNDTRIP
360
3DF
  0
DICTIONARY
  5
3C2
330
2F
100
AcDbDictionary
280
     1
281
     1
  3
ACAD_XREC_ROUNDTRIP
360
3C3
  0
DICTIONARY
  5
3C6
330
31
100
AcDbDictionary
280
     1
281
     1
  3
ACAD_XREC_ROUNDTRIP
360
3C7
  0
DICTIONARY
  5
3C4
330
30
100
AcDbDictionary
280
     1
281
     1
  3
ACAD_XREC_ROUNDTRIP
360
3C5
  0
DICTIONARY
  5
3C8
330
32
100
AcDbDictionary
280
     1
281
     1
  3
ACAD_XREC_ROUNDTRIP
360
3C9
  0
DICTIONARY
  5
3D0
330
36
100
AcDbDictionary
280
     1
281
     1
  3
ACAD_XREC_ROUNDTRIP
360
3D1
  0
DICTIONARY
  5
3D8
330
3A
100
AcDbDictionary
280
     1
281
     1
  3
ACAD_XREC_ROUNDTRIP
360
3D9
  0
DICTIONARY
  5
3CC
330
34
100
AcDbDictionary
280
     1
281
     1
  3
ACAD_XREC_ROUNDTRIP
360
3CD
  0
DICTIONARY
  5
3CE
330
35
100
AcDbDictionary
280
     1
281
     1
  3
ACAD_XREC_ROUNDTRIP
360
3CF
  0
DICTIONARY
  5
3D6
330
39
100
AcDbDictionary
280
     1
281
     1
  3
ACAD_XREC_ROUNDTRIP
360
3D7
  0
DICTIONARY
  5
3BA
330
2B
100
AcDbDictionary
280
     1
281
     1
  3
ACAD_XREC_ROUNDTRIP
360
3BB
  0
DICTIONARY
  5
3BC
330
2C
100
AcDbDictionary
280
     1
281
     1
  3
ACAD_XREC_ROUNDTRIP
360
3BD
  0
DICTIONARY
  5
3BE
330
2D
100
AcDbDictionary
280
     1
281
     1
  3
ACAD_XREC_ROUNDTRIP
360
3BF
  0
DICTIONARY
  5
3C0
330
2E
100
AcDbDictionary
280
     1
281
     1
  3
ACAD_XREC_ROUNDTRIP
360
3C1
  0
DICTIONARY
  5
3D4
330
38
100
AcDbDictionary
280
     1
281
     1
  3
ACAD_XREC_ROUNDTRIP
360
3D5
  0
DICTIONARY
  5
3CA
330
33
100
AcDbDictionary
280
     1
281
     1
  3
ACAD_XREC_ROUNDTRIP
360
3CB
  0
DICTIONARY
  5
3D2
330
37
100
AcDbDictionary
280
     1
281
     1
  3
ACAD_XREC_ROUNDTRIP
360
3D3
  0
XRECORD
  5
3DD
102
{ACAD_REACTORS
330
3DC
102
}
330
3DC
100
AcDbXrecord
280
     1
102
MATERIAL
148
0.0
149
0.0
149
0.0
 93
        0
 94
      127
282
     0
 72
     1
 77
     1
171
     1
175
     1
179
     1
273
     0
  0
XRECORD
  5
3DB
102
{ACAD_REACTORS
330
3DA
102
}
330
3DA
100
AcDbXrecord
280
     1
102
MATERIAL
148
0.0
149
0.0
149
0.0
 93
        0
 94
      127
282
     0
 72
     1
 77
     1
171
     1
175
     1
179
     1
273
     0
  0
XRECORD
  5
3DF
102
{ACAD_REACTORS
330
3DE
102
}
330
3DE
100
AcDbXrecord
280
     1
102
MATERIAL
148
0.0
149
0.0
149
0.0
 93
        0
 94
      127
282
     0
 72
     1
 77
     1
171
     1
175
     1
179
     1
273
     0
  0
XRECORD
  5
3C3
102
{ACAD_REACTORS
330
3C2
102
}
330
3C2
100
AcDbXrecord
280
     1
102
RTVSPropertyOp0
 70
     1
102
RTVSPropertyOp1
 70
     1
102
RTVSPropertyOp2
 70
     1
102
RTVSPropertyOp3
 70
     1
102
RTVSPropertyOp4
 70
     1
102
RTVSPropertyOp5
 70
     1
102
RTVSPropertyOp6
 70
     1
102
RTVSPropertyOp7
 70
     1
102
RTVSPropertyOp8
 70
     1
102
RTVSPropertyOp9
 70
     1
102
RTVSPropertyOp10
 70
     1
102
RTVSPropertyOp11
 70
     1
102
RTVSPropertyOp12
 70
     1
102
RTVSPropertyOp13
 70
     1
102
RTVSPropertyOp14
 70
     1
102
RTVSPropertyOp15
 70
     1
102
RTVSPropertyOp16
 70
     1
102
RTVSPropertyOp17
 70
     1
102
RTVSPropertyOp18
 70
     1
102
RTVSPropertyOp19
 70
     1
102
RTVSPropertyOp20
 70
     1
102
RTVSPropertyOp21
 70
     1
102
RTVSPropertyOp22
 70
     1
102
RTVSPropertyOp23
 70
     1
102
RTVSPropertyOp24
 70
     1
102
RTVSPropertyOp25
 70
     1
102
RTVSPropertyOp26
 70
     1
102
RTVSPropertyOp27
 70
     1
102
RTVSPropertyOp28
 70
     1
102
RTVSPropertyOp29
 70
     1
102
RTVSPropertyOp30
 70
     1
102
RTVSPropertyOp31
 70
     1
102
RTVSPropertyOp32
 70
     1
  0
XRECORD
  5
3C7
102
{ACAD_REACTORS
330
3C6
102
}
330
3C6
100
AcDbXrecord
280
     1
102
RTVSPropertyOp0
 70
     1
102
RTVSPropertyOp1
 70
     1
102
RTVSPropertyOp2
 70
     1
102
RTVSPropertyOp3
 70
     1
102
RTVSPropertyOp4
 70
     1
102
RTVSPropertyOp5
 70
     1
102
RTVSPropertyOp6
 70
     1
102
RTVSPropertyOp7
 70
     1
102
RTVSPropertyOp8
 70
     1
102
RTVSPropertyOp9
 70
     1
102
RTVSPropertyOp10
 70
     1
102
RTVSPropertyOp11
 70
     1
102
RTVSPropertyOp12
 70
     1
102
RTVSPropertyOp13
 70
     1
102
RTVSPropertyOp14
 70
     1
102
RTVSPropertyOp15
 70
     1
102
RTVSPropertyOp16
 70
     1
102
RTVSPropertyOp17
 70
     1
102
RTVSPropertyOp18
 70
     1
102
RTVSPropertyOp19
 70
     1
102
RTVSPropertyOp20
 70
     1
102
RTVSPropertyOp21
 70
     1
102
RTVSPropertyOp22
 70
     1
102
RTVSPropertyOp23
 70
     1
102
RTVSPropertyOp24
 70
     1
102
RTVSPropertyOp25
 70
     1
102
RTVSPropertyOp26
 70
     1
102
RTVSPropertyOp27
 70
     1
102
RTVSPropertyOp28
 70
     1
102
RTVSPropertyOp29
 70
     1
102
RTVSPropertyOp30
 70
     1
102
RTVSPropertyOp31
 70
     1
102
RTVSPropertyOp32
 70
     1
  0
XRECORD
  5
3C5
102
{ACAD_REACTORS
330
3C4
102
}
330
3C4
100
AcDbXrecord
280
     1
102
RTVSPropertyOp0
 70
     1
102
RTVSPropertyOp1
 70
     1
102
RTVSPropertyOp2
 70
     1
102
RTVSPropertyOp3
 70
     1
102
RTVSPropertyOp4
 70
     1
102
RTVSPropertyOp5
 70
     1
102
RTVSPropertyOp6
 70
     1
102
RTVSPropertyOp7
 70
     1
102
RTVSPropertyOp8
 70
     1
102
RTVSPropertyOp9
 70
     1
102
RTVSPropertyOp10
 70
     1
102
RTVSPropertyOp11
 70
     1
102
RTVSPropertyOp12
 70
     1
102
RTVSPropertyOp13
 70
     1
102
RTVSPropertyOp14
 70
     1
102
RTVSPropertyOp15
 70
     1
102
RTVSPropertyOp16
 70
     1
102
RTVSPropertyOp17
 70
     1
102
RTVSPropertyOp18
 70
     1
102
RTVSPropertyOp19
 70
     1
102
RTVSPropertyOp20
 70
     1
102
RTVSPropertyOp21
 70
     1
102
RTVSPropertyOp22
 70
     1
102
RTVSPropertyOp23
 70
     1
102
RTVSPropertyOp24
 70
     1
102
RTVSPropertyOp25
 70
     1
102
RTVSPropertyOp26
 70
     1
102
RTVSPropertyOp27
 70
     1
102
RTVSPropertyOp28
 70
     1
102
RTVSPropertyOp29
 70
     1
102
RTVSPropertyOp30
 70
     1
102
RTVSPropertyOp31
 70
     1
102
RTVSPropertyOp32
 70
     1
  0
XRECORD
  5
3C9
102
{ACAD_REACTORS
330
3C8
102
}
330
3C8
100
AcDbXrecord
280
     1
102
RTVSPropertyOp0
 70
     1
102
RTVSPropertyOp1
 70
     1
102
RTVSPropertyOp2
 70
     1
102
RTVSPropertyOp3
 70
     1
102
RTVSPropertyOp4
 70
     1
102
RTVSPropertyOp5
 70
     1
102
RTVSPropertyOp6
 70
     1
102
RTVSPropertyOp7
 70
     1
102
RTVSPropertyOp8
 70
     1
102
RTVSPropertyOp9
 70
     1
102
RTVSPropertyOp10
 70
     1
102
RTVSPropertyOp11
 70
     1
102
RTVSPropertyOp12
 70
     1
102
RTVSPropertyOp13
 70
     1
102
RTVSPropertyOp14
 70
     1
102
RTVSPropertyOp15
 70
     1
102
RTVSPropertyOp16
 70
     1
102
RTVSPropertyOp17
 70
     1
102
RTVSPropertyOp18
 70
     1
102
RTVSPropertyOp19
 70
     1
102
RTVSPropertyOp20
 70
     1
102
RTVSPropertyOp21
 70
     1
102
RTVSPropertyOp22
 70
     1
102
RTVSPropertyOp23
 70
     1
102
RTVSPropertyOp24
 70
     1
102
RTVSPropertyOp25
 70
     1
102
RTVSPropertyOp26
 70
     1
102
RTVSPropertyOp27
 70
     1
102
RTVSPropertyOp28
 70
     1
102
RTVSPropertyOp29
 70
     1
102
RTVSPropertyOp30
 70
     1
102
RTVSPropertyOp31
 70
     1
102
RTVSPropertyOp32
 70
     1
  0
XRECORD
  5
3D1
102
{ACAD_REACTORS
330
3D0
102
}
330
3D0
100
AcDbXrecord
280
     1
102
RTVSPropertyOp0
 70
     1
102
RTVSPropertyOp1
 70
     1
102
RTVSPropertyOp2
 70
     1
102
RTVSPropertyOp3
 70
     1
102
RTVSPropertyOp4
 70
     1
102
RTVSPropertyOp5
 70
     1
102
RTVSPropertyOp6
 70
     1
102
RTVSPropertyOp7
 70
     1
102
RTVSPropertyOp8
 70
     1
102
RTVSPropertyOp9
 70
     1
102
RTVSPropertyOp10
 70
     1
102
RTVSPropertyOp11
 70
     1
102
RTVSPropertyOp12
 70
     1
102
RTVSPropertyOp13
 70
     1
102
RTVSPropertyOp14
 70
     1
102
RTVSPropertyOp15
 70
     1
102
RTVSPropertyOp16
 70
     1
102
RTVSPropertyOp17
 70
     1
102
RTVSPropertyOp18
 70
     1
102
RTVSPropertyOp19
 70
     1
102
RTVSPropertyOp20
 70
     1
102
RTVSPropertyOp21
 70
     1
102
RTVSPropertyOp22
 70
     1
102
RTVSPropertyOp23
 70
     1
102
RTVSPropertyOp24
 70
     1
102
RTVSPropertyOp25
 70
     1
102
RTVSPropertyOp26
 70
     1
102
RTVSPropertyOp27
 70
     1
102
RTVSPropertyOp28
 70
     1
102
RTVSPropertyOp29
 70
     1
102
RTVSPropertyOp30
 70
     1
102
RTVSPropertyOp31
 70
     1
102
RTVSPropertyOp32
 70
     1
  0
XRECORD
  5
3D9
102
{ACAD_REACTORS
330
3D8
102
}
330
3D8
100
AcDbXrecord
280
     1
102
RTVSPropertyOp0
 70
     1
102
RTVSPropertyOp1
 70
     1
102
RTVSPropertyOp2
 70
     1
102
RTVSPropertyOp3
 70
     1
102
RTVSPropertyOp4
 70
     1
102
RTVSPropertyOp5
 70
     1
102
RTVSPropertyOp6
 70
     1
102
RTVSPropertyOp7
 70
     1
102
RTVSPropertyOp8
 70
     1
102
RTVSPropertyOp9
 70
     1
102
RTVSPropertyOp10
 70
     1
102
RTVSPropertyOp11
 70
     1
102
RTVSPropertyOp12
 70
     1
102
RTVSPropertyOp13
 70
     1
102
RTVSPropertyOp14
 70
     1
102
RTVSPropertyOp15
 70
     1
102
RTVSPropertyOp16
 70
     1
102
RTVSPropertyOp17
 70
     1
102
RTVSPropertyOp18
 70
     1
102
RTVSPropertyOp19
 70
     1
102
RTVSPropertyOp20
 70
     1
102
RTVSPropertyOp21
 70
     1
102
RTVSPropertyOp22
 70
     1
102
RTVSPropertyOp23
 70
     1
102
RTVSPropertyOp24
 70
     1
102
RTVSPropertyOp25
 70
     1
102
RTVSPropertyOp26
 70
     1
102
RTVSPropertyOp27
 70
     1
102
RTVSPropertyOp28
 70
     1
102
RTVSPropertyOp29
 70
     1
102
RTVSPropertyOp30
 70
     1
102
RTVSPropertyOp31
 70
     1
102
RTVSPropertyOp32
 70
     1
  0
XRECORD
  5
3CD
102
{ACAD_REACTORS
330
3CC
102
}
330
3CC
100
AcDbXrecord
280
     1
102
RTVSPropertyOp0
 70
     1
102
RTVSPropertyOp1
 70
     1
102
RTVSPropertyOp2
 70
     1
102
RTVSPropertyOp3
 70
     1
102
RTVSPropertyOp4
 70
     1
102
RTVSPropertyOp5
 70
     1
102
RTVSPropertyOp6
 70
     1
102
RTVSPropertyOp7
 70
     1
102
RTVSPropertyOp8
 70
     1
102
RTVSPropertyOp9
 70
     1
102
RTVSPropertyOp10
 70
     1
102
RTVSPropertyOp11
 70
     1
102
RTVSPropertyOp12
 70
     1
102
RTVSPropertyOp13
 70
     1
102
RTVSPropertyOp14
 70
     1
102
RTVSPropertyOp15
 70
     1
102
RTVSPropertyOp16
 70
     1
102
RTVSPropertyOp17
 70
     1
102
RTVSPropertyOp18
 70
     1
102
RTVSPropertyOp19
 70
     1
102
RTVSPropertyOp20
 70
     1
102
RTVSPropertyOp21
 70
     1
102
RTVSPropertyOp22
 70
     1
102
RTVSPropertyOp23
 70
     1
102
RTVSPropertyOp24
 70
     1
102
RTVSPropertyOp25
 70
     1
102
RTVSPropertyOp26
 70
     1
102
RTVSPropertyOp27
 70
     1
102
RTVSPropertyOp28
 70
     1
102
RTVSPropertyOp29
 70
     1
102
RTVSPropertyOp30
 70
     1
102
RTVSPropertyOp31
 70
     1
102
RTVSPropertyOp32
 70
     1
  0
XRECORD
  5
3CF
102
{ACAD_REACTORS
330
3CE
102
}
330
3CE
100
AcDbXrecord
280
     1
102
RTVSPropertyOp0
 70
     1
102
RTVSPropertyOp1
 70
     1
102
RTVSPropertyOp2
 70
     1
102
RTVSPropertyOp3
 70
     1
102
RTVSPropertyOp4
 70
     1
102
RTVSPropertyOp5
 70
     1
102
RTVSPropertyOp6
 70
     1
102
RTVSPropertyOp7
 70
     1
102
RTVSPropertyOp8
 70
     1
102
RTVSPropertyOp9
 70
     1
102
RTVSPropertyOp10
 70
     1
102
RTVSPropertyOp11
 70
     1
102
RTVSPropertyOp12
 70
     1
102
RTVSPropertyOp13
 70
     1
102
RTVSPropertyOp14
 70
     1
102
RTVSPropertyOp15
 70
     1
102
RTVSPropertyOp16
 70
     1
102
RTVSPropertyOp17
 70
     1
102
RTVSPropertyOp18
 70
     1
102
RTVSPropertyOp19
 70
     1
102
RTVSPropertyOp20
 70
     1
102
RTVSPropertyOp21
 70
     1
102
RTVSPropertyOp22
 70
     1
102
RTVSPropertyOp23
 70
     1
102
RTVSPropertyOp24
 70
     1
102
RTVSPropertyOp25
 70
     1
102
RTVSPropertyOp26
 70
     1
102
RTVSPropertyOp27
 70
     1
102
RTVSPropertyOp28
 70
     1
102
RTVSPropertyOp29
 70
     1
102
RTVSPropertyOp30
 70
     1
102
RTVSPropertyOp31
 70
     1
102
RTVSPropertyOp32
 70
     1
  0
XRECORD
  5
3D7
102
{ACAD_REACTORS
330
3D6
102
}
330
3D6
100
AcDbXrecord
280
     1
102
RTVSPropertyOp0
 70
     1
102
RTVSPropertyOp1
 70
     1
102
RTVSPropertyOp2
 70
     1
102
RTVSPropertyOp3
 70
     1
102
RTVSPropertyOp4
 70
     1
102
RTVSPropertyOp5
 70
     1
102
RTVSPropertyOp6
 70
     1
102
RTVSPropertyOp7
 70
     1
102
RTVSPropertyOp8
 70
     1
102
RTVSPropertyOp9
 70
     1
102
RTVSPropertyOp10
 70
     1
102
RTVSPropertyOp11
 70
     1
102
RTVSPropertyOp12
 70
     1
102
RTVSPropertyOp13
 70
     1
102
RTVSPropertyOp14
 70
     1
102
RTVSPropertyOp15
 70
     1
102
RTVSPropertyOp16
 70
     1
102
RTVSPropertyOp17
 70
     1
102
RTVSPropertyOp18
 70
     1
102
RTVSPropertyOp19
 70
     1
102
RTVSPropertyOp20
 70
     1
102
RTVSPropertyOp21
 70
     1
102
RTVSPropertyOp22
 70
     1
102
RTVSPropertyOp23
 70
     1
102
RTVSPropertyOp24
 70
     1
102
RTVSPropertyOp25
 70
     1
102
RTVSPropertyOp26
 70
     1
102
RTVSPropertyOp27
 70
     1
102
RTVSPropertyOp28
 70
     1
102
RTVSPropertyOp29
 70
     1
102
RTVSPropertyOp30
 70
     1
102
RTVSPropertyOp31
 70
     1
102
RTVSPropertyOp32
 70
     1
  0
XRECORD
  5
3BB
102
{ACAD_REACTORS
330
3BA
102
}
330
3BA
100
AcDbXrecord
280
     1
102
RTVSPropertyOp0
 70
     1
102
RTVSPropertyOp1
 70
     1
102
RTVSPropertyOp2
 70
     1
102
RTVSPropertyOp3
 70
     1
102
RTVSPropertyOp4
 70
     1
102
RTVSPropertyOp5
 70
     1
102
RTVSPropertyOp6
 70
     1
102
RTVSPropertyOp7
 70
     1
102
RTVSPropertyOp8
 70
     1
102
RTVSPropertyOp9
 70
     1
102
RTVSPropertyOp10
 70
     1
102
RTVSPropertyOp11
 70
     1
102
RTVSPropertyOp12
 70
     1
102
RTVSPropertyOp13
 70
     1
102
RTVSPropertyOp14
 70
     1
102
RTVSPropertyOp15
 70
     1
102
RTVSPropertyOp16
 70
     1
102
RTVSPropertyOp17
 70
     1
102
RTVSPropertyOp18
 70
     1
102
RTVSPropertyOp19
 70
     1
102
RTVSPropertyOp20
 70
     1
102
RTVSPropertyOp21
 70
     1
102
RTVSPropertyOp22
 70
     1
102
RTVSPropertyOp23
 70
     1
102
RTVSPropertyOp24
 70
     1
102
RTVSPropertyOp25
 70
     1
102
RTVSPropertyOp26
 70
     1
102
RTVSPropertyOp27
 70
     1
102
RTVSPropertyOp28
 70
     1
102
RTVSPropertyOp29
 70
     1
102
RTVSPropertyOp30
 70
     1
102
RTVSPropertyOp31
 70
     1
102
RTVSPropertyOp32
 70
     1
  0
XRECORD
  5
3BD
102
{ACAD_REACTORS
330
3BC
102
}
330
3BC
100
AcDbXrecord
280
     1
102
RTVSPropertyOp0
 70
     1
102
RTVSPropertyOp1
 70
     1
102
RTVSPropertyOp2
 70
     1
102
RTVSPropertyOp3
 70
     1
102
RTVSPropertyOp4
 70
     1
102
RTVSPropertyOp5
 70
     1
102
RTVSPropertyOp6
 70
     1
102
RTVSPropertyOp7
 70
     1
102
RTVSPropertyOp8
 70
     1
102
RTVSPropertyOp9
 70
     1
102
RTVSPropertyOp10
 70
     1
102
RTVSPropertyOp11
 70
     1
102
RTVSPropertyOp12
 70
     1
102
RTVSPropertyOp13
 70
     1
102
RTVSPropertyOp14
 70
     1
102
RTVSPropertyOp15
 70
     1
102
RTVSPropertyOp16
 70
     1
102
RTVSPropertyOp17
 70
     1
102
RTVSPropertyOp18
 70
     1
102
RTVSPropertyOp19
 70
     1
102
RTVSPropertyOp20
 70
     1
102
RTVSPropertyOp21
 70
     1
102
RTVSPropertyOp22
 70
     1
102
RTVSPropertyOp23
 70
     1
102
RTVSPropertyOp24
 70
     1
102
RTVSPropertyOp25
 70
     1
102
RTVSPropertyOp26
 70
     1
102
RTVSPropertyOp27
 70
     1
102
RTVSPropertyOp28
 70
     1
102
RTVSPropertyOp29
 70
     1
102
RTVSPropertyOp30
 70
     1
102
RTVSPropertyOp31
 70
     1
102
RTVSPropertyOp32
 70
     1
  0
XRECORD
  5
3BF
102
{ACAD_REACTORS
330
3BE
102
}
330
3BE
100
AcDbXrecord
280
     1
102
RTVSPropertyOp0
 70
     1
102
RTVSPropertyOp1
 70
     1
102
RTVSPropertyOp2
 70
     1
102
RTVSPropertyOp3
 70
     1
102
RTVSPropertyOp4
 70
     1
102
RTVSPropertyOp5
 70
     1
102
RTVSPropertyOp6
 70
     1
102
RTVSPropertyOp7
 70
     1
102
RTVSPropertyOp8
 70
     1
102
RTVSPropertyOp9
 70
     1
102
RTVSPropertyOp10
 70
     1
102
RTVSPropertyOp11
 70
     1
102
RTVSPropertyOp12
 70
     1
102
RTVSPropertyOp13
 70
     1
102
RTVSPropertyOp14
 70
     1
102
RTVSPropertyOp15
 70
     1
102
RTVSPropertyOp16
 70
     1
102
RTVSPropertyOp17
 70
     1
102
RTVSPropertyOp18
 70
     1
102
RTVSPropertyOp19
 70
     1
102
RTVSPropertyOp20
 70
     1
102
RTVSPropertyOp21
 70
     1
102
RTVSPropertyOp22
 70
     1
102
RTVSPropertyOp23
 70
     1
102
RTVSPropertyOp24
 70
     1
102
RTVSPropertyOp25
 70
     1
102
RTVSPropertyOp26
 70
     1
102
RTVSPropertyOp27
 70
     1
102
RTVSPropertyOp28
 70
     1
102
RTVSPropertyOp29
 70
     1
102
RTVSPropertyOp30
 70
     1
102
RTVSPropertyOp31
 70
     1
102
RTVSPropertyOp32
 70
     1
  0
XRECORD
  5
3C1
102
{ACAD_REACTORS
330
3C0
102
}
330
3C0
100
AcDbXrecord
280
     1
102
RTVSPropertyOp0
 70
     1
102
RTVSPropertyOp1
 70
     1
102
RTVSPropertyOp2
 70
     1
102
RTVSPropertyOp3
 70
     1
102
RTVSPropertyOp4
 70
     1
102
RTVSPropertyOp5
 70
     1
102
RTVSPropertyOp6
 70
     1
102
RTVSPropertyOp7
 70
     1
102
RTVSPropertyOp8
 70
     1
102
RTVSPropertyOp9
 70
     1
102
RTVSPropertyOp10
 70
     1
102
RTVSPropertyOp11
 70
     1
102
RTVSPropertyOp12
 70
     1
102
RTVSPropertyOp13
 70
     1
102
RTVSPropertyOp14
 70
     1
102
RTVSPropertyOp15
 70
     1
102
RTVSPropertyOp16
 70
     1
102
RTVSPropertyOp17
 70
     1
102
RTVSPropertyOp18
 70
     1
102
RTVSPropertyOp19
 70
     1
102
RTVSPropertyOp20
 70
     1
102
RTVSPropertyOp21
 70
     1
102
RTVSPropertyOp22
 70
     1
102
RTVSPropertyOp23
 70
     1
102
RTVSPropertyOp24
 70
     1
102
RTVSPropertyOp25
 70
     1
102
RTVSPropertyOp26
 70
     1
102
RTVSPropertyOp27
 70
     1
102
RTVSPropertyOp28
 70
     1
102
RTVSPropertyOp29
 70
     1
102
RTVSPropertyOp30
 70
     1
102
RTVSPropertyOp31
 70
     1
102
RTVSPropertyOp32
 70
     1
  0
XRECORD
  5
3D5
102
{ACAD_REACTORS
330
3D4
102
}
330
3D4
100
AcDbXrecord
280
     1
102
RTVSPropertyOp0
 70
     1
102
RTVSPropertyOp1
 70
     1
102
RTVSPropertyOp2
 70
     1
102
RTVSPropertyOp3
 70
     1
102
RTVSPropertyOp4
 70
     1
102
RTVSPropertyOp5
 70
     1
102
RTVSPropertyOp6
 70
     1
102
RTVSPropertyOp7
 70
     1
102
RTVSPropertyOp8
 70
     1
102
RTVSPropertyOp9
 70
     1
102
RTVSPropertyOp10
 70
     1
102
RTVSPropertyOp11
 70
     1
102
RTVSPropertyOp12
 70
     1
102
RTVSPropertyOp13
 70
     1
102
RTVSPropertyOp14
 70
     1
102
RTVSPropertyOp15
 70
     1
102
RTVSPropertyOp16
 70
     1
102
RTVSPropertyOp17
 70
     1
102
RTVSPropertyOp18
 70
     1
102
RTVSPropertyOp19
 70
     1
102
RTVSPropertyOp20
 70
     1
102
RTVSPropertyOp21
 70
     1
102
RTVSPropertyOp22
 70
     1
102
RTVSPropertyOp23
 70
     1
102
RTVSPropertyOp24
 70
     1
102
RTVSPropertyOp25
 70
     1
102
RTVSPropertyOp26
 70
     1
102
RTVSPropertyOp27
 70
     1
102
RTVSPropertyOp28
 70
     1
102
RTVSPropertyOp29
 70
     1
102
RTVSPropertyOp30
 70
     1
102
RTVSPropertyOp31
 70
     1
102
RTVSPropertyOp32
 70
     1
  0
XRECORD
  5
3CB
102
{ACAD_REACTORS
330
3CA
102
}
330
3CA
100
AcDbXrecord
280
     1
102
RTVSPropertyOp0
 70
     1
102
RTVSPropertyOp1
 70
     1
102
RTVSPropertyOp2
 70
     1
102
RTVSPropertyOp3
 70
     1
102
RTVSPropertyOp4
 70
     1
102
RTVSPropertyOp5
 70
     1
102
RTVSPropertyOp6
 70
     1
102
RTVSPropertyOp7
 70
     1
102
RTVSPropertyOp8
 70
     1
102
RTVSPropertyOp9
 70
     1
102
RTVSPropertyOp10
 70
     1
102
RTVSPropertyOp11
 70
     1
102
RTVSPropertyOp12
 70
     1
102
RTVSPropertyOp13
 70
     1
102
RTVSPropertyOp14
 70
     1
102
RTVSPropertyOp15
 70
     1
102
RTVSPropertyOp16
 70
     1
102
RTVSPropertyOp17
 70
     1
102
RTVSPropertyOp18
 70
     1
102
RTVSPropertyOp19
 70
     1
102
RTVSPropertyOp20
 70
     1
102
RTVSPropertyOp21
 70
     1
102
RTVSPropertyOp22
 70
     1
102
RTVSPropertyOp23
 70
     1
102
RTVSPropertyOp24
 70
     1
102
RTVSPropertyOp25
 70
     1
102
RTVSPropertyOp26
 70
     1
102
RTVSPropertyOp27
 70
     1
102
RTVSPropertyOp28
 70
     1
102
RTVSPropertyOp29
 70
     1
102
RTVSPropertyOp30
 70
     1
102
RTVSPropertyOp31
 70
     1
102
RTVSPropertyOp32
 70
     1
  0
XRECORD
  5
3D3
102
{ACAD_REACTORS
330
3D2
102
}
330
3D2
100
AcDbXrecord
280
     1
102
RTVSPropertyOp0
 70
     1
102
RTVSPropertyOp1
 70
     1
102
RTVSPropertyOp2
 70
     1
102
RTVSPropertyOp3
 70
     1
102
RTVSPropertyOp4
 70
     1
102
RTVSPropertyOp5
 70
     1
102
RTVSPropertyOp6
 70
     1
102
RTVSPropertyOp7
 70
     1
102
RTVSPropertyOp8
 70
     1
102
RTVSPropertyOp9
 70
     1
102
RTVSPropertyOp10
 70
     1
102
RTVSPropertyOp11
 70
     1
102
RTVSPropertyOp12
 70
     1
102
RTVSPropertyOp13
 70
     1
102
RTVSPropertyOp14
 70
     1
102
RTVSPropertyOp15
 70
     1
102
RTVSPropertyOp16
 70
     1
102
RTVSPropertyOp17
 70
     1
102
RTVSPropertyOp18
 70
     1
102
RTVSPropertyOp19
 70
     1
102
RTVSPropertyOp20
 70
     1
102
RTVSPropertyOp21
 70
     1
102
RTVSPropertyOp22
 70
     1
102
RTVSPropertyOp23
 70
     1
102
RTVSPropertyOp24
 70
     1
102
RTVSPropertyOp25
 70
     1
102
RTVSPropertyOp26
 70
     1
102
RTVSPropertyOp27
 70
     1
102
RTVSPropertyOp28
 70
     1
102
RTVSPropertyOp29
 70
     1
102
RTVSPropertyOp30
 70
     1
102
RTVSPropertyOp31
 70
     1
102
RTVSPropertyOp32
 70
     1
  0
ENDSEC
  0
EOF
