  0
SECTION
  2
HEADER
  9
$ACADVER
  1
AC1006
  9
$INSBASE
 10
0.000000
 20
0.000000
 30
0.0
  9
$EXTMIN
 10
0.000000
 20
0.000000
  9
$EXTMAX
 10
420.000000
 20
297.000000
  9
$LIMMIN
 10
0.000000
 20
0.000000
  9
$LIMMAX
 10
420.000000
 20
297.000000
  9
$VIEWCTR
 10
210.000000
 20
148.500000
  9
$VIEWSIZE
 40
297.000000
  9
$SNAPMODE
 70
     0
  9
$SNAPUNIT
 10
1.0
 20
1.0
  9
$SNAPBASE
 10
0.0
 20
0.0
  9
$SNAPANG
 50
0.0
  9
$SNAPSTYLE
 70
     0
  9
$SNAPISOPAIR
 70
     0
  9
$GRIDMODE
 70
     0
  9
$GRIDUNIT
 10
0.0
 20
0.0
  9
$ORTHOMODE
 70
     0
  9
$REGENMODE
 70
     1
  9
$FILLMODE
 70
     1
  9
$QTEXTMODE
 70
     0
  9
$DRAGMODE
 70
     2
  9
$LTSCALE
 40
15.000000
  9
$OSMODE
 70
     0
  9
$ATTMODE
 70
     1
  9
$TEXTSIZE
 40
0.2
  9
$TRACEWID
 40
0.05
  9
$TEXTSTYLE
  7
STANDARD
  9
$CLAYER
  8
CSLAYER1
  9
$CELTYPE
  6
BYLAYER
  9
$CECOLOR
 62
   256
  9
$DIMSCALE
 40
1.0
  9
$DIMASZ
 40
0.18
  9
$DIMEXO
 40
0.0625
  9
$DIMDLI
 40
0.38
  9
$DIMRND
 40
0.0
  9
$DIMDLE
 40
0.0
  9
$DIMEXE
 40
0.18
  9
$DIMTP
 40
0.0
  9
$DIMTM
 40
0.0
  9
$DIMTXT
 40
0.18
  9
$DIMCEN
 40
0.09
  9
$DIMTSZ
 40
0.0
  9
$DIMTOL
 70
     0
  9
$DIMLIM
 70
     0
  9
$DIMTIH
 70
     1
  9
$DIMTOH
 70
     1
  9
$DIMSE1
 70
     0
  9
$DIMSE2
 70
     0
  9
$DIMTAD
 70
     0
  9
$DIMZIN
 70
     0
  9
$DIMBLK
  1

  9
$LUNITS
 70
     2
  9
$LUPREC
 70
     4
  9
$AXISMODE
 70
     0
  9
$AXISUNIT
 10
0.0
 20
0.0
  9
$SKETCHINC
 40
0.1
  9
$FILLETRAD
 40
0.0
  9
$AUNITS
 70
     0
  9
$AUPREC
 70
     0
  9
$MENU
  1
ACAD
  9
$ELEVATION
 40
0.0
  9
$THICKNESS
 40
0.0
  9
$VIEWDIR
 10
0.0
 20
0.0
 30
1.0
  9
$LIMCHECK
 70
     0
  9
$BLIPMODE
 70
     1
  9
$CHAMFERA
 40
0.0
  9
$CHAMFERB
 40
0.0
  9
$FASTZOOM
 70
     1
  9
$SKPOLY
 70
     0
  9
$TDCREATE
 40
0.000000
  9
$TDUPDATE
 40
0.000000
  9
$TDINDWG
 40
0.0
  9
$TDUSRTIMER
 40
0.0
  9
$USRTIMER
 70
     1
  9
$ANGBASE
 50
0.0
  9
$ANGDIR
 70
     0
  9
$PDMODE
 70
     0
  9
$PDSIZE
 40
0.0
  9
$PLINEWID
 40
0.0
  9
$COORDS
 70
     0
  9
$USERI1
 70
     0
  9
$USERI2
 70
     0
  9
$USERI3
 70
     0
  9
$USERI4
 70
     0
  9
$USERI5
 70
     0
  9
$USERR1
 40
0.0
  9
$USERR2
 40
0.0
  9
$USERR3
 40
0.0
  9
$USERR4
 40
0.0
  9
$USERR5
 40
0.0
  0
ENDSEC
  0
SECTION
  2
TABLES
  0
TABLE
  2
LTYPE
 70
     9
  0
LTYPE
  2
CONTINUOUS
 70
    64
  3
Solid line
 72
    65
 73
     0
 40
0.0
  0
LTYPE
  2
DASHED
 70
    64
  3
__ __ __ __ __ __ __ __ __ __ __ __ __ __ __
 72
    65
 73
     2
 40
0.75
 49
0.5
 49
-0.25
  0
LTYPE
  2
HIDDEN
 70
    64
  3
_ _ _ _ _ _ _ _ _ _ _ _ _ _ _ _ _ _ _ _ _ _ _
 72
    65
 73
     2
 40
0.375
 49
0.25
 49
-0.125
  0
LTYPE
  2
DOT
 70
    64
  3
...............................................
 72
    65
 73
     2
 40
0.25
 49
0.0
 49
-0.25
  0
LTYPE
  2
DASHDOT
 70
    64
  3
__ . __ . __ . __ . __ . __ . __ . __ . __ . __
 72
    65
 73
     4
 40
1.0
 49
0.5
 49
-0.25
 49
0.0
 49
-0.25
  0
LTYPE
  2
DIVIDE
 70
    64
  3
__ . . __ . . __ . . __ . . __ . . __ . . __
 72
    65
 73
     6
 40
1.25
 49
0.5
 49
-0.25
 49
0.0
 49
-0.25
 49
0.0
 49
-0.25
  0
LTYPE
  2
CENTER
 70
    64
  3
____ _ ____ _ ____ _ ____ _ ____ _ ____ _ ____ 
 72
    65
 73
     4
 40
2.0
 49
1.25
 49
-0.25
 49
0.25
 49
-0.25
  0
LTYPE
  2
PHANTOM
 70
    64
  3
______  __  __  ______  __  __  ______  __  __ 
 72
    65
 73
     6
 40
2.5
 49
1.25
 49
-0.25
 49
0.25
 49
-0.25
 49
0.25
 49
-0.25
  0
LTYPE
  2
BORDER
 70
    64
  3
__ __ . __ __ . __ __ . __ __ . __ __ . __ __ .
 72
    65
 73
     6
 40
1.75
 49
0.5
 49
-0.25
 49
0.5
 49
-0.25
 49
0.0
 49
-0.25
  0
ENDTAB
  0
TABLE
  2
LAYER
 70
    16
  0
LAYER
  2
CSLAYER1
 70
    64
 62
     7
  6
CONTINUOUS
  0
LAYER
  2
CSLAYER2
 70
    64
 62
     7
  6
CONTINUOUS
  0
LAYER
  2
CSLAYER3
 70
    64
 62
     7
  6
CONTINUOUS
  0
LAYER
  2
CSLAYER4
 70
    64
 62
     7
  6
CONTINUOUS
  0
LAYER
  2
CSLAYER5
 70
    64
 62
     7
  6
CONTINUOUS
  0
LAYER
  2
CSLAYER6
 70
    64
 62
     7
  6
CONTINUOUS
  0
LAYER
  2
CSLAYER7
 70
    64
 62
     7
  6
CONTINUOUS
  0
LAYER
  2
CSLAYER8
 70
    64
 62
     7
  6
CONTINUOUS
  0
LAYER
  2
CSLAYER9
 70
    64
 62
     7
  6
CONTINUOUS
  0
LAYER
  2
CSLAYER10
 70
    64
 62
     7
  6
CONTINUOUS
  0
LAYER
  2
CSLAYER11
 70
    64
 62
     7
  6
CONTINUOUS
  0
LAYER
  2
CSLAYER12
 70
    64
 62
     7
  6
CONTINUOUS
  0
LAYER
  2
CSLAYER13
 70
    64
 62
     7
  6
CONTINUOUS
  0
LAYER
  2
CSLAYER14
 70
    64
 62
     7
  6
CONTINUOUS
  0
LAYER
  2
CSLAYER15
 70
    64
 62
     7
  6
CONTINUOUS
  0
LAYER
  2
CSLAYER16
 70
    64
 62
     7
  6
CONTINUOUS
  0
ENDTAB
  0
TABLE
  2
STYLE
 70
     1
  0
STYLE
  2
JX_FONT
 70
     0
 40
1.0
 41
1.0
 50
0.0
 71
     0
 42
1.0
  3
monotxt
  4
bigfont
  0
ENDTAB
  0
TABLE
  2
VIEW
 70
     0
  0
ENDTAB
  0
ENDSEC
  0
SECTION
  2
BLOCKS
  0
ENDSEC
  0
SECTION
  2
ENTITIES
  0
LINE
  8
CSLAYER1
  6
CONTINUOUS
 62
     6
 10
391.599849
 20
178.336135
 11
339.599910
 21
178.336135
  0
LINE
  8
CSLAYER1
  6
CENTER
 62
     3
 10
365.599849
 20
111.336135
 11
365.599849
 21
181.336135
  0
LINE
  8
CSLAYER1
  6
CONTINUOUS
 62
     6
 10
397.599849
 20
120.336135
 11
397.599849
 21
172.336135
  0
ARC
  8
CSLAYER1
  6
CONTINUOUS
 62
     6
 10
391.599849
 20
172.336135
 40
6.000000
 50
0.000000
 51
90.000003
  0
LINE
  8
CSLAYER1
  6
CONTINUOUS
 62
     6
 10
391.599849
 20
114.336135
 11
339.599910
 21
114.336135
  0
CIRCLE
  8
CSLAYER1
  6
CONTINUOUS
 62
     6
 10
365.599849
 20
146.336150
 40
4.000000
  0
CIRCLE
  8
CSLAYER1
  6
CONTINUOUS
 62
     6
 10
365.599849
 20
146.336150
 40
15.000000
  0
CIRCLE
  8
CSLAYER1
  6
CONTINUOUS
 62
     6
 10
365.599849
 20
146.336150
 40
17.500000
  0
LINE
  8
CSLAYER1
  6
CONTINUOUS
 62
     6
 10
333.599910
 20
120.336135
 11
333.599910
 21
172.336135
  0
LINE
  8
CSLAYER1
  6
CENTER
 62
     3
 10
400.599819
 20
146.336135
 11
330.599941
 21
146.336135
  0
CIRCLE
  8
CSLAYER1
  6
CONTINUOUS
 62
     6
 10
365.599849
 20
146.336135
 40
11.000000
  0
ARC
  8
CSLAYER1
  6
CONTINUOUS
 62
     6
 10
339.599849
 20
172.336135
 40
6.000000
 50
90.000000
 51
180.000003
  0
ARC
  8
CSLAYER1
  6
CONTINUOUS
 62
     6
 10
339.599849
 20
120.336135
 40
6.000000
 50
180.000000
 51
270.000003
  0
ARC
  8
CSLAYER1
  6
CONTINUOUS
 62
     6
 10
391.599849
 20
120.336135
 40
6.000000
 50
269.999997
 51
360.000000
  0
LINE
  8
CSLAYER1
  6
CENTER
 62
     3
 10
396.539119
 20
120.336135
 11
386.599849
 21
120.336135
  0
LINE
  8
CSLAYER1
  6
CENTER
 62
     3
 10
391.599849
 20
125.336135
 11
391.599849
 21
115.336135
  0
CIRCLE
  8
CSLAYER1
  6
CONTINUOUS
 62
     6
 10
391.599849
 20
120.336135
 40
2.250000
  0
LINE
  8
CSLAYER1
  6
CENTER
 62
     3
 10
334.660579
 20
120.336135
 11
344.599849
 21
120.336135
  0
LINE
  8
CSLAYER1
  6
CENTER
 62
     3
 10
339.599849
 20
125.336135
 11
339.599849
 21
115.336135
  0
CIRCLE
  8
CSLAYER1
  6
CONTINUOUS
 62
     6
 10
339.599849
 20
120.336135
 40
2.250000
  0
LINE
  8
CSLAYER1
  6
CENTER
 62
     3
 10
339.599849
 20
177.275405
 11
339.599849
 21
167.336135
  0
LINE
  8
CSLAYER1
  6
CENTER
 62
     3
 10
344.599849
 20
172.336135
 11
334.599849
 21
172.336135
  0
CIRCLE
  8
CSLAYER1
  6
CONTINUOUS
 62
     6
 10
339.599849
 20
172.336135
 40
2.250000
  0
LINE
  8
CSLAYER1
  6
CENTER
 62
     3
 10
396.539119
 20
172.336135
 11
386.599849
 21
172.336135
  0
LINE
  8
CSLAYER1
  6
CENTER
 62
     3
 10
391.599849
 20
167.336135
 11
391.599849
 21
177.336135
  0
CIRCLE
  8
CSLAYER1
  6
CONTINUOUS
 62
     6
 10
391.599849
 20
172.336135
 40
2.250000
  0
ARC
  8
CSLAYER1
  6
CENTER
 62
     3
 10
365.599834
 20
146.336135
 40
24.000000
 50
24.927254
 51
65.072670
  0
CIRCLE
  8
CSLAYER1
  6
CONTINUOUS
 62
     6
 10
382.570400
 20
163.306655
 40
4.500000
  0
ARC
  8
CSLAYER1
  6
CONTINUOUS
 62
     6
 10
382.570400
 20
163.306655
 40
2.397500
 50
163.398434
 51
196.601595
  0
ARC
  8
CSLAYER1
  6
CONTINUOUS
 62
     6
 10
382.570400
 20
163.306655
 40
2.397500
 50
73.398424
 51
106.601586
  0
ARC
  8
CSLAYER1
  6
CONTINUOUS
 62
     6
 10
382.570400
 20
163.306655
 40
2.397500
 50
-16.601558
 51
16.601576
  0
ARC
  8
CSLAYER1
  6
CONTINUOUS
 62
     6
 10
382.570400
 20
163.306655
 40
2.397500
 50
253.398416
 51
286.601604
  0
LINE
  8
CSLAYER1
  6
CONTINUOUS
 62
     6
 10
383.940395
 20
163.991652
 11
384.867962
 21
163.991652
  0
LINE
  8
CSLAYER1
  6
CONTINUOUS
 62
     6
 10
381.200405
 20
163.991652
 11
380.272838
 21
163.991652
  0
LINE
  8
CSLAYER1
  6
CONTINUOUS
 62
     6
 10
383.940395
 20
162.621657
 11
384.867962
 21
162.621657
  0
LINE
  8
CSLAYER1
  6
CONTINUOUS
 62
     6
 10
381.200405
 20
162.621657
 11
380.272838
 21
162.621657
  0
LINE
  8
CSLAYER1
  6
CONTINUOUS
 62
     6
 10
381.885402
 20
164.676650
 11
381.885402
 21
165.604201
  0
LINE
  8
CSLAYER1
  6
CONTINUOUS
 62
     6
 10
381.885402
 20
161.936660
 11
381.885402
 21
161.009108
  0
LINE
  8
CSLAYER1
  6
CONTINUOUS
 62
     6
 10
383.255397
 20
164.676650
 11
383.255397
 21
165.604201
  0
LINE
  8
CSLAYER1
  6
CONTINUOUS
 62
     6
 10
383.255397
 20
161.936660
 11
383.255397
 21
161.009108
  0
ARC
  8
CSLAYER1
  6
CONTINUOUS
 62
     6
 10
383.940395
 20
164.676650
 40
0.685000
 50
180.000001
 51
269.942691
  0
ARC
  8
CSLAYER1
  6
CONTINUOUS
 62
     6
 10
383.940395
 20
161.936660
 40
0.685000
 50
90.000005
 51
180.000001
  0
ARC
  8
CSLAYER1
  6
CONTINUOUS
 62
     6
 10
381.200405
 20
161.936660
 40
0.685000
 50
0.000009
 51
90.000005
  0
ARC
  8
CSLAYER1
  6
CONTINUOUS
 62
     6
 10
381.200405
 20
164.676650
 40
0.685000
 50
-90.000000
 51
0.000009
  0
CIRCLE
  8
CSLAYER1
  6
CONTINUOUS
 62
     6
 10
382.570400
 20
163.306655
 40
5.500000
  0
LINE
  8
CSLAYER1
  6
CENTER
 62
     3
 10
387.550228
 20
168.286513
 11
377.590588
 21
158.326859
  0
ARC
  8
CSLAYER1
  6
CENTER
 62
     3
 10
365.599865
 20
146.336135
 40
24.000000
 50
204.927254
 51
245.072670
  0
CIRCLE
  8
CSLAYER1
  6
CONTINUOUS
 62
     6
 10
348.629299
 20
129.365615
 40
4.500000
  0
ARC
  8
CSLAYER1
  6
CONTINUOUS
 62
     6
 10
348.629299
 20
129.365615
 40
2.397500
 50
-16.601566
 51
16.601595
  0
ARC
  8
CSLAYER1
  6
CONTINUOUS
 62
     6
 10
348.629299
 20
129.365615
 40
2.397500
 50
253.398424
 51
286.601586
  0
ARC
  8
CSLAYER1
  6
CONTINUOUS
 62
     6
 10
348.629299
 20
129.365615
 40
2.397500
 50
163.398442
 51
196.601576
  0
ARC
  8
CSLAYER1
  6
CONTINUOUS
 62
     6
 10
348.629299
 20
129.365615
 40
2.397500
 50
73.398416
 51
106.601604
  0
LINE
  8
CSLAYER1
  6
CONTINUOUS
 62
     6
 10
347.259304
 20
128.680617
 11
346.331737
 21
128.680617
  0
LINE
  8
CSLAYER1
  6
CONTINUOUS
 62
     6
 10
349.999294
 20
128.680617
 11
350.926860
 21
128.680617
  0
LINE
  8
CSLAYER1
  6
CONTINUOUS
 62
     6
 10
347.259304
 20
130.050612
 11
346.331737
 21
130.050612
  0
LINE
  8
CSLAYER1
  6
CONTINUOUS
 62
     6
 10
349.999294
 20
130.050612
 11
350.926860
 21
130.050612
  0
LINE
  8
CSLAYER1
  6
CONTINUOUS
 62
     6
 10
349.314296
 20
127.995620
 11
349.314296
 21
127.068068
  0
LINE
  8
CSLAYER1
  6
CONTINUOUS
 62
     6
 10
349.314296
 20
130.735610
 11
349.314296
 21
131.663161
  0
LINE
  8
CSLAYER1
  6
CONTINUOUS
 62
     6
 10
347.944301
 20
127.995620
 11
347.944301
 21
127.068068
  0
LINE
  8
CSLAYER1
  6
CONTINUOUS
 62
     6
 10
347.944301
 20
130.735610
 11
347.944301
 21
131.663161
  0
ARC
  8
CSLAYER1
  6
CONTINUOUS
 62
     6
 10
347.259304
 20
127.995620
 40
0.685000
 50
0.000001
 51
89.942691
  0
ARC
  8
CSLAYER1
  6
CONTINUOUS
 62
     6
 10
347.259304
 20
130.735610
 40
0.685000
 50
-89.999995
 51
0.000001
  0
ARC
  8
CSLAYER1
  6
CONTINUOUS
 62
     6
 10
349.999294
 20
130.735610
 40
0.685000
 50
180.000009
 51
270.000005
  0
ARC
  8
CSLAYER1
  6
CONTINUOUS
 62
     6
 10
349.999294
 20
127.995620
 40
0.685000
 50
90.000000
 51
180.000009
  0
CIRCLE
  8
CSLAYER1
  6
CONTINUOUS
 62
     6
 10
348.629299
 20
129.365615
 40
5.500000
  0
LINE
  8
CSLAYER1
  6
CENTER
 62
     3
 10
343.649471
 20
124.385756
 11
353.609110
 21
134.345410
  0
CIRCLE
  8
CSLAYER1
  6
CONTINUOUS
 62
     6
 10
370.360744
 20
138.066542
 40
0.999999
  0
ARC
  8
CSLAYER1
  6
CONTINUOUS
 62
     6
 10
370.360744
 20
138.066542
 40
2.143138
 50
50.235874
 51
203.481567
  0
LINE
  8
CSLAYER1
  6
CONTINUOUS
 62
     6
 10
368.395076
 20
137.212615
 11
368.822139
 21
135.818709
  0
CIRCLE
  8
CSLAYER1
  6
CONTINUOUS
 62
     6
 10
360.838955
 20
138.066542
 40
0.999999
  0
ARC
  8
CSLAYER1
  6
CONTINUOUS
 62
     6
 10
360.838955
 20
138.066542
 40
2.143138
 50
-23.481552
 51
129.764124
  0
LINE
  8
CSLAYER1
  6
CONTINUOUS
 62
     6
 10
362.804622
 20
137.212615
 11
362.377559
 21
135.818709
  0
ARC
  8
CSLAYER1
  6
CONTINUOUS
 62
     6
 10
365.599849
 20
145.754531
 40
9.581602
 50
-37.903087
 51
217.903071
  0
ARC
  8
CSLAYER1
  6
CONTINUOUS
 62
     6
 10
372.371181
 20
140.482634
 40
0.999999
 50
230.236306
 51
322.096613
  0
ARC
  8
CSLAYER1
  6
CONTINUOUS
 62
     6
 10
358.828518
 20
140.482634
 40
0.999999
 50
217.903402
 51
309.763723
  0
LINE
  8
CSLAYER1
  6
DASHED
 62
     3
 10
238.599849
 20
121.836111
 11
274.599849
 21
121.836111
  0
ARC
  8
CSLAYER1
  6
DASHED
 62
     3
 10
238.599849
 20
122.836111
 40
1.000000
 50
180.000005
 51
270.000001
  0
LINE
  8
CSLAYER1
  6
DASHED
 62
     3
 10
237.599849
 20
169.836172
 11
237.599849
 21
122.836111
  0
LINE
  8
CSLAYER1
  6
DASHED
 62
     3
 10
275.599849
 20
169.836172
 11
275.599849
 21
122.836111
  0
TEXT
  8
CSLAYER1
 62
     3
 10
253.969925
 20
151.571564
 40
3.500000
 41
1.125000
  1
N P
 50
-90.000000
 51
10.000000
  7
JX_FONT
 72
     5
 11
253.969925
 21
141.071564
  0
LINE
  8
CSLAYER1
  6
DASHED
 62
     3
 10
238.599849
 20
170.836172
 11
274.599849
 21
170.836172
  0
ARC
  8
CSLAYER1
  6
DASHED
 62
     3
 10
238.599849
 20
169.836172
 40
1.000000
 50
90.000009
 51
180.000005
  0
ARC
  8
CSLAYER1
  6
DASHED
 62
     3
 10
274.599849
 20
122.836111
 40
1.000000
 50
269.999999
 51
359.999995
  0
ARC
  8
CSLAYER1
  6
DASHED
 62
     3
 10
274.599849
 20
169.836172
 40
1.000000
 50
-0.000005
 51
89.999991
  0
LINE
  8
CSLAYER1
  6
CENTER
 62
     3
 10
116.599849
 20
146.336135
 11
322.099849
 21
146.336135
  0
LINE
  8
CSLAYER1
  6
CONTINUOUS
 62
     6
 10
292.599849
 20
178.336135
 11
292.599849
 21
114.336135
  0
LINE
  8
CSLAYER1
  6
CONTINUOUS
 62
     6
 10
294.599849
 20
161.336135
 11
294.599849
 21
131.336135
  0
LINE
  8
CSLAYER1
  6
CONTINUOUS
 62
     6
 10
319.099849
 20
150.336135
 11
319.099849
 21
142.336135
  0
LINE
  8
CSLAYER1
  6
CONTINUOUS
 62
     6
 10
230.599849
 20
177.336135
 11
230.599849
 21
115.336135
  0
LINE
  8
CSLAYER1
  6
CONTINUOUS
 62
     6
 10
294.599849
 20
150.336135
 11
319.099849
 21
150.336135
  0
LINE
  8
CSLAYER1
  6
CONTINUOUS
 62
     6
 10
294.599849
 20
142.336135
 11
319.099849
 21
142.336135
  0
LINE
  8
CSLAYER1
  6
CONTINUOUS
 62
     6
 10
283.599849
 20
176.336135
 11
282.599849
 21
176.336135
  0
LINE
  8
CSLAYER1
  6
CONTINUOUS
 62
     6
 10
282.599849
 20
116.336135
 11
283.599849
 21
116.336135
  0
LINE
  8
CSLAYER1
  6
CONTINUOUS
 62
     6
 10
292.599849
 20
161.336135
 11
294.599849
 21
161.336135
  0
LINE
  8
CSLAYER1
  6
CONTINUOUS
 62
     6
 10
292.599849
 20
131.336135
 11
294.599849
 21
131.336135
  0
LINE
  8
CSLAYER1
  6
CONTINUOUS
 62
     6
 10
230.599849
 20
115.336135
 11
282.599849
 21
115.336135
  0
LINE
  8
CSLAYER1
  6
CONTINUOUS
 62
     6
 10
230.599849
 20
177.336135
 11
282.599849
 21
177.336135
  0
LINE
  8
CSLAYER1
  6
CONTINUOUS
 62
     6
 10
283.599849
 20
176.336135
 11
283.599849
 21
116.336135
  0
LINE
  8
CSLAYER1
  6
CONTINUOUS
 62
     6
 10
292.599849
 20
178.336135
 11
285.599849
 21
178.336135
  0
LINE
  8
CSLAYER1
  6
CONTINUOUS
 62
     6
 10
282.599849
 20
177.336135
 11
282.599849
 21
115.336135
  0
LINE
  8
CSLAYER1
  6
CONTINUOUS
 62
     6
 10
292.599849
 20
114.336135
 11
285.599849
 21
114.336135
  0
ARC
  8
CSLAYER1
  6
CONTINUOUS
 62
     6
 10
285.599849
 20
176.336135
 40
2.000000
 50
90.000000
 51
180.000000
  0
ARC
  8
CSLAYER1
  6
CONTINUOUS
 62
     6
 10
285.599849
 20
116.336135
 40
2.000000
 50
180.000000
 51
270.000000
  0
LINE
  8
CSLAYER1
  6
CENTER
 62
     3
 10
280.599849
 20
120.336131
 11
294.599849
 21
120.336131
  0
LINE
  8
CSLAYER1
  6
CENTER
 62
     3
 10
280.599856
 20
172.336141
 11
294.599856
 21
172.336138
  0
LINE
  8
CSLAYER1
  6
CONTINUOUS
 62
     6
 10
157.599834
 20
171.336165
 11
157.599834
 21
121.336165
  0
LINE
  8
CSLAYER1
  6
CONTINUOUS
 62
     6
 10
157.599834
 20
121.336165
 11
161.599834
 21
121.336165
  0
LINE
  8
CSLAYER1
  6
CONTINUOUS
 62
     6
 10
157.599834
 20
171.336165
 11
161.599834
 21
171.336165
  0
ARC
  8
CSLAYER1
  6
CONTINUOUS
 62
     6
 10
161.899822
 20
130.736174
 40
7.000000
 50
163.742994
 51
196.257016
  0
LINE
  8
CSLAYER1
  6
CONTINUOUS
 62
     6
 10
156.682384
 20
133.467131
 11
156.052562
 21
133.412016
  0
ARC
  8
CSLAYER1
  6
CONTINUOUS
 62
     6
 10
156.139721
 20
132.415831
 40
1.000000
 50
95.000111
 51
163.742611
  0
ARC
  8
CSLAYER1
  6
CONTINUOUS
 62
     6
 10
156.699810
 20
133.267912
 40
0.200000
 50
0.000000
 51
95.000152
  0
LINE
  8
CSLAYER1
  6
CONTINUOUS
 62
     6
 10
156.999797
 20
133.636137
 11
157.499797
 21
133.636137
  0
ARC
  8
CSLAYER1
  6
CONTINUOUS
 62
     6
 10
156.999797
 20
133.536162
 40
0.100000
 50
90.000003
 51
180.000005
  0
ARC
  8
CSLAYER1
  6
CONTINUOUS
 62
     6
 10
157.499797
 20
133.536162
 40
0.100000
 50
0.000000
 51
90.000003
  0
LINE
  8
CSLAYER1
  6
CONTINUOUS
 62
     6
 10
156.682384
 20
128.005187
 11
156.052562
 21
128.060271
  0
ARC
  8
CSLAYER1
  6
CONTINUOUS
 62
     6
 10
156.139721
 20
129.056487
 40
1.000000
 50
196.257399
 51
264.999892
  0
ARC
  8
CSLAYER1
  6
CONTINUOUS
 62
     6
 10
156.699810
 20
128.204436
 40
0.200000
 50
264.999865
 51
359.942691
  0
LINE
  8
CSLAYER1
  6
CONTINUOUS
 62
     6
 10
156.899822
 20
133.536162
 11
156.899822
 21
127.936186
  0
ARC
  8
CSLAYER1
  6
CONTINUOUS
 62
     6
 10
156.999797
 20
127.936186
 40
0.100000
 50
180.000005
 51
270.000001
  0
LINE
  8
CSLAYER1
  6
CONTINUOUS
 62
     6
 10
156.999797
 20
127.836150
 11
157.499797
 21
127.836150
  0
ARC
  8
CSLAYER1
  6
CONTINUOUS
 62
     6
 10
157.499797
 20
127.936186
 40
0.100000
 50
270.000001
 51
359.942691
  0
LINE
  8
CSLAYER1
  6
CONTINUOUS
 62
     6
 10
156.899822
 20
130.140227
 11
157.599804
 21
130.584074
  0
LINE
  8
CSLAYER1
  6
CONTINUOUS
 62
     6
 10
156.899822
 20
130.640227
 11
157.599804
 21
131.084074
  0
LINE
  8
CSLAYER1
  6
CENTER
 62
     3
 10
152.859962
 20
130.736077
 11
164.599842
 21
130.736074
  0
LINE
  8
CSLAYER1
  6
CENTER
 62
     3
 10
152.859966
 20
161.936171
 11
164.599849
 21
161.936171
  0
ARC
  8
CSLAYER1
  6
CONTINUOUS
 62
     6
 10
161.899822
 20
161.936202
 40
7.000000
 50
163.742994
 51
196.257016
  0
LINE
  8
CSLAYER1
  6
CONTINUOUS
 62
     6
 10
156.682384
 20
164.667159
 11
156.052562
 21
164.612044
  0
ARC
  8
CSLAYER1
  6
CONTINUOUS
 62
     6
 10
156.139721
 20
163.615859
 40
1.000000
 50
95.000111
 51
163.742611
  0
ARC
  8
CSLAYER1
  6
CONTINUOUS
 62
     6
 10
156.699810
 20
164.467940
 40
0.200000
 50
0.000000
 51
95.000152
  0
LINE
  8
CSLAYER1
  6
CONTINUOUS
 62
     6
 10
156.999797
 20
164.836165
 11
157.499797
 21
164.836165
  0
ARC
  8
CSLAYER1
  6
CONTINUOUS
 62
     6
 10
156.999797
 20
164.736189
 40
0.100000
 50
90.000003
 51
180.000005
  0
ARC
  8
CSLAYER1
  6
CONTINUOUS
 62
     6
 10
157.499797
 20
164.736189
 40
0.100000
 50
0.000000
 51
90.000003
  0
LINE
  8
CSLAYER1
  6
CONTINUOUS
 62
     6
 10
156.682384
 20
159.205214
 11
156.052562
 21
159.260298
  0
ARC
  8
CSLAYER1
  6
CONTINUOUS
 62
     6
 10
156.139721
 20
160.256514
 40
1.000000
 50
196.257399
 51
264.999892
  0
ARC
  8
CSLAYER1
  6
CONTINUOUS
 62
     6
 10
156.699810
 20
159.404463
 40
0.200000
 50
264.999865
 51
359.942691
  0
LINE
  8
CSLAYER1
  6
CONTINUOUS
 62
     6
 10
156.899822
 20
164.736189
 11
156.899822
 21
159.136214
  0
ARC
  8
CSLAYER1
  6
CONTINUOUS
 62
     6
 10
156.999797
 20
159.136214
 40
0.100000
 50
180.000005
 51
270.000001
  0
LINE
  8
CSLAYER1
  6
CONTINUOUS
 62
     6
 10
156.999797
 20
159.036177
 11
157.499797
 21
159.036177
  0
ARC
  8
CSLAYER1
  6
CONTINUOUS
 62
     6
 10
157.499797
 20
159.136214
 40
0.100000
 50
270.000001
 51
359.942691
  0
LINE
  8
CSLAYER1
  6
CONTINUOUS
 62
     6
 10
156.899822
 20
161.340254
 11
157.599804
 21
161.784102
  0
LINE
  8
CSLAYER1
  6
CONTINUOUS
 62
     6
 10
156.899822
 20
161.840254
 11
157.599804
 21
162.284102
  0
LINE
  8
CSLAYER1
  6
CONTINUOUS
 62
     6
 10
282.599849
 20
273.683250
 11
282.599849
 21
211.683250
  0
LINE
  8
CSLAYER1
  6
CONTINUOUS
 62
     6
 10
230.599849
 20
273.683250
 11
230.599849
 21
211.683250
  0
LINE
  8
CSLAYER1
  6
CENTER
 62
     3
 10
219.599849
 20
255.683250
 11
219.599849
 21
194.111732
  0
CIRCLE
  8
CSLAYER1
  6
CONTINUOUS
 62
     6
 10
219.599849
 20
242.683250
 40
8.000000
  0
CIRCLE
  8
CSLAYER1
  6
CONTINUOUS
 62
     6
 10
219.599849
 20
242.683250
 40
6.000000
  0
CIRCLE
  8
CSLAYER1
  6
CONTINUOUS
 62
     3
 10
219.599849
 20
242.683250
 40
5.500000
  0
LINE
  8
CSLAYER1
  6
CONTINUOUS
 62
     6
 10
222.349849
 20
243.483253
 11
216.849849
 21
243.483253
  0
LINE
  8
CSLAYER1
  6
CONTINUOUS
 62
     6
 10
222.349849
 20
241.883247
 11
216.849849
 21
241.883247
  0
LINE
  8
CSLAYER1
  6
CONTINUOUS
 62
     6
 10
216.849849
 20
243.483253
 11
216.849849
 21
241.883247
  0
LINE
  8
CSLAYER1
  6
CONTINUOUS
 62
     6
 10
222.349849
 20
243.483253
 11
222.349849
 21
241.883247
  0
ARC
  8
CSLAYER1
  6
CONTINUOUS
 62
     6
 10
204.941005
 20
204.247596
 40
15.758816
 50
332.536202
 51
359.942691
  0
ARC
  8
CSLAYER1
  6
CONTINUOUS
 62
     6
 10
204.941005
 20
204.247596
 40
13.558834
 50
332.536202
 51
359.942691
  0
ARC
  8
CSLAYER1
  6
CONTINUOUS
 62
     6
 10
220.149837
 20
203.295005
 40
1.099999
 50
60.000350
 51
120.000345
  0
ARC
  8
CSLAYER1
  6
CONTINUOUS
 62
     6
 10
219.049839
 20
203.294990
 40
1.099999
 50
60.000350
 51
120.000345
  0
ARC
  8
CSLAYER1
  6
CONTINUOUS
 62
     6
 10
219.049831
 20
205.200248
 40
1.099999
 50
240.000362
 51
300.000350
  0
LINE
  8
CSLAYER1
  6
CONTINUOUS
 62
     6
 10
217.629406
 20
197.652641
 11
216.012249
 21
194.714569
  0
LINE
  8
CSLAYER1
  6
CONTINUOUS
 62
     6
 10
218.118328
 20
197.398506
 11
216.541546
 21
194.391090
  0
LINE
  8
CSLAYER1
  6
CONTINUOUS
 62
     6
 10
218.516460
 20
197.191551
 11
217.114971
 21
194.111747
  0
LINE
  8
CSLAYER1
  6
CONTINUOUS
 62
     6
 10
216.971782
 20
197.994438
 11
218.923839
 21
196.979820
  0
ARC
  8
CSLAYER1
  6
CONTINUOUS
 62
     6
 10
234.258693
 20
204.247596
 40
15.758816
 50
202.422068
 51
207.463868
  0
ARC
  8
CSLAYER1
  6
CONTINUOUS
 62
     6
 10
234.258693
 20
204.247596
 40
13.558834
 50
179.999978
 51
207.463868
  0
LINE
  8
CSLAYER1
  6
CONTINUOUS
 62
     6
 10
221.570293
 20
197.652610
 11
223.187465
 21
194.714553
  0
LINE
  8
CSLAYER1
  6
CONTINUOUS
 62
     6
 10
221.081371
 20
197.398491
 11
222.658153
 21
194.391090
  0
LINE
  8
CSLAYER1
  6
CONTINUOUS
 62
     6
 10
220.683239
 20
197.191551
 11
222.084743
 21
194.111732
  0
LINE
  8
CSLAYER1
  6
CONTINUOUS
 62
     6
 10
222.227916
 20
197.994423
 11
220.275859
 21
196.979805
  0
ARC
  8
CSLAYER1
  6
CONTINUOUS
 62
     6
 10
219.049862
 20
208.112465
 40
1.100006
 50
240.000007
 51
299.999995
  0
ARC
  8
CSLAYER1
  6
CONTINUOUS
 62
     6
 10
220.149868
 20
208.112465
 40
1.100006
 50
240.000007
 51
299.999995
  0
ARC
  8
CSLAYER1
  6
CONTINUOUS
 62
     6
 10
220.149868
 20
206.207191
 40
1.100006
 50
60.000002
 51
120.000003
  0
LINE
  8
CSLAYER1
  6
CONTINUOUS
 62
     6
 10
220.699855
 20
212.856056
 11
220.699855
 21
207.159828
  0
LINE
  8
CSLAYER1
  6
CONTINUOUS
 62
     6
 10
218.499859
 20
212.894462
 11
218.499859
 21
207.159828
  0
LINE
  8
CSLAYER1
  6
CONTINUOUS
 62
     6
 10
282.599849
 20
273.683250
 11
230.599849
 21
273.683250
  0
LINE
  8
CSLAYER1
  6
CONTINUOUS
 62
     6
 10
282.599849
 20
211.683250
 11
230.599849
 21
211.683250
  0
LINE
  8
CSLAYER1
  6
CENTER
 62
     3
 10
116.599866
 20
242.683255
 11
322.099859
 21
242.683235
  0
LINE
  8
CSLAYER1
  6
CONTINUOUS
 62
     3
 10
237.599865
 20
273.683250
 11
237.599865
 21
259.183220
  0
LINE
  8
CSLAYER1
  6
CONTINUOUS
 62
     3
 10
238.599865
 20
258.183220
 11
274.599849
 21
258.183220
  0
ARC
  8
CSLAYER1
  6
CONTINUOUS
 62
     3
 10
238.599865
 20
259.183220
 40
1.000000
 50
180.000005
 51
270.000001
  0
TEXT
  8
CSLAYER1
 62
     3
 10
254.137589
 20
271.183228
 40
3.500000
 41
1.125000
  1
N P
 50
270.000000
 51
10.000000
  7
JX_FONT
 72
     5
 11
254.137589
 21
260.683228
  0
LINE
  8
CSLAYER1
  6
CONTINUOUS
 62
     6
 10
157.599834
 20
267.683233
 11
157.599834
 21
217.683233
  0
LINE
  8
CSLAYER1
  6
CENTER
 62
     3
 10
152.859966
 20
258.283285
 11
164.599849
 21
258.283285
  0
ARC
  8
CSLAYER1
  6
CONTINUOUS
 62
     6
 10
161.899822
 20
258.283316
 40
7.000000
 50
163.742994
 51
196.257016
  0
LINE
  8
CSLAYER1
  6
CONTINUOUS
 62
     6
 10
156.682384
 20
261.014273
 11
156.052562
 21
260.959158
  0
ARC
  8
CSLAYER1
  6
CONTINUOUS
 62
     6
 10
156.139721
 20
259.962973
 40
1.000000
 50
95.000111
 51
163.742611
  0
ARC
  8
CSLAYER1
  6
CONTINUOUS
 62
     6
 10
156.699810
 20
260.815054
 40
0.200000
 50
0.000000
 51
95.000152
  0
LINE
  8
CSLAYER1
  6
CONTINUOUS
 62
     6
 10
156.999797
 20
261.183279
 11
157.499797
 21
261.183279
  0
ARC
  8
CSLAYER1
  6
CONTINUOUS
 62
     6
 10
156.999797
 20
261.083303
 40
0.100000
 50
90.000003
 51
180.000005
  0
ARC
  8
CSLAYER1
  6
CONTINUOUS
 62
     6
 10
157.499797
 20
261.083303
 40
0.100000
 50
0.000000
 51
90.000003
  0
LINE
  8
CSLAYER1
  6
CONTINUOUS
 62
     6
 10
156.682384
 20
255.552328
 11
156.052562
 21
255.607412
  0
ARC
  8
CSLAYER1
  6
CONTINUOUS
 62
     6
 10
156.139721
 20
256.603628
 40
1.000000
 50
196.257399
 51
264.999892
  0
ARC
  8
CSLAYER1
  6
CONTINUOUS
 62
     6
 10
156.699810
 20
255.751577
 40
0.200000
 50
264.999865
 51
359.942691
  0
LINE
  8
CSLAYER1
  6
CONTINUOUS
 62
     6
 10
156.899822
 20
261.083303
 11
156.899822
 21
255.483328
  0
ARC
  8
CSLAYER1
  6
CONTINUOUS
 62
     6
 10
156.999797
 20
255.483328
 40
0.100000
 50
180.000005
 51
270.000001
  0
LINE
  8
CSLAYER1
  6
CONTINUOUS
 62
     6
 10
156.999797
 20
255.383291
 11
157.499797
 21
255.383291
  0
ARC
  8
CSLAYER1
  6
CONTINUOUS
 62
     6
 10
157.499797
 20
255.483328
 40
0.100000
 50
270.000001
 51
359.942691
  0
LINE
  8
CSLAYER1
  6
CONTINUOUS
 62
     6
 10
156.899822
 20
257.687368
 11
157.599804
 21
258.131216
  0
LINE
  8
CSLAYER1
  6
CONTINUOUS
 62
     6
 10
156.899822
 20
258.187368
 11
157.599804
 21
258.631216
  0
ARC
  8
CSLAYER1
  6
CONTINUOUS
 62
     6
 10
161.899822
 20
227.083288
 40
7.000000
 50
163.742994
 51
196.257016
  0
LINE
  8
CSLAYER1
  6
CONTINUOUS
 62
     6
 10
156.682384
 20
229.814245
 11
156.052562
 21
229.759131
  0
ARC
  8
CSLAYER1
  6
CONTINUOUS
 62
     6
 10
156.139721
 20
228.762945
 40
1.000000
 50
95.000111
 51
163.742611
  0
ARC
  8
CSLAYER1
  6
CONTINUOUS
 62
     6
 10
156.699810
 20
229.615027
 40
0.200000
 50
0.000000
 51
95.000152
  0
LINE
  8
CSLAYER1
  6
CONTINUOUS
 62
     6
 10
156.999797
 20
229.983252
 11
157.499797
 21
229.983252
  0
ARC
  8
CSLAYER1
  6
CONTINUOUS
 62
     6
 10
156.999797
 20
229.883276
 40
0.100000
 50
90.000003
 51
180.000005
  0
ARC
  8
CSLAYER1
  6
CONTINUOUS
 62
     6
 10
157.499797
 20
229.883276
 40
0.100000
 50
0.000000
 51
90.000003
  0
LINE
  8
CSLAYER1
  6
CONTINUOUS
 62
     6
 10
156.682384
 20
224.352301
 11
156.052562
 21
224.407385
  0
ARC
  8
CSLAYER1
  6
CONTINUOUS
 62
     6
 10
156.139721
 20
225.403601
 40
1.000000
 50
196.257399
 51
264.999892
  0
ARC
  8
CSLAYER1
  6
CONTINUOUS
 62
     6
 10
156.699810
 20
224.551550
 40
0.200000
 50
264.999865
 51
359.942691
  0
LINE
  8
CSLAYER1
  6
CONTINUOUS
 62
     6
 10
156.899822
 20
229.883276
 11
156.899822
 21
224.283300
  0
ARC
  8
CSLAYER1
  6
CONTINUOUS
 62
     6
 10
156.999797
 20
224.283300
 40
0.100000
 50
180.000005
 51
270.000001
  0
LINE
  8
CSLAYER1
  6
CONTINUOUS
 62
     6
 10
156.999797
 20
224.183264
 11
157.499797
 21
224.183264
  0
ARC
  8
CSLAYER1
  6
CONTINUOUS
 62
     6
 10
157.499797
 20
224.283300
 40
0.100000
 50
270.000001
 51
359.942691
  0
LINE
  8
CSLAYER1
  6
CONTINUOUS
 62
     6
 10
156.899822
 20
226.487341
 11
157.599804
 21
226.931189
  0
LINE
  8
CSLAYER1
  6
CONTINUOUS
 62
     6
 10
156.899822
 20
226.987341
 11
157.599804
 21
227.431189
  0
LINE
  8
CSLAYER1
  6
CENTER
 62
     3
 10
152.859962
 20
227.083191
 11
164.599849
 21
227.083188
  0
LINE
  8
CSLAYER1
  6
CONTINUOUS
 62
     6
 10
161.599834
 20
267.683234
 11
157.599834
 21
267.683233
  0
LINE
  8
CSLAYER1
  6
CONTINUOUS
 62
     6
 10
161.599834
 20
217.683234
 11
157.599850
 21
217.683233
  0
LINE
  8
CSLAYER1
  6
CONTINUOUS
 62
     3
 10
275.599849
 20
273.683250
 11
275.599849
 21
259.183220
  0
ARC
  8
CSLAYER1
  6
CONTINUOUS
 62
     3
 10
274.599849
 20
259.183220
 40
1.000000
 50
269.999999
 51
359.999995
  0
LINE
  8
CSLAYER1
  6
CONTINUOUS
 62
     6
 10
292.599849
 20
274.683240
 11
292.599849
 21
210.683240
  0
LINE
  8
CSLAYER1
  6
CONTINUOUS
 62
     6
 10
294.599849
 20
257.683240
 11
294.599849
 21
227.683240
  0
LINE
  8
CSLAYER1
  6
CONTINUOUS
 62
     6
 10
319.099849
 20
246.683240
 11
319.099849
 21
238.683240
  0
LINE
  8
CSLAYER1
  6
CONTINUOUS
 62
     6
 10
294.599849
 20
246.683240
 11
319.099849
 21
246.683240
  0
LINE
  8
CSLAYER1
  6
CONTINUOUS
 62
     6
 10
294.599849
 20
238.683240
 11
319.099849
 21
238.683240
  0
LINE
  8
CSLAYER1
  6
CONTINUOUS
 62
     6
 10
283.599849
 20
272.683240
 11
282.599849
 21
272.683240
  0
LINE
  8
CSLAYER1
  6
CONTINUOUS
 62
     6
 10
282.599849
 20
212.683240
 11
283.599849
 21
212.683240
  0
LINE
  8
CSLAYER1
  6
CONTINUOUS
 62
     6
 10
292.599849
 20
257.683240
 11
294.599849
 21
257.683240
  0
LINE
  8
CSLAYER1
  6
CONTINUOUS
 62
     6
 10
292.599849
 20
227.683240
 11
294.599849
 21
227.683240
  0
LINE
  8
CSLAYER1
  6
CONTINUOUS
 62
     6
 10
283.599849
 20
272.683240
 11
283.599849
 21
212.683240
  0
LINE
  8
CSLAYER1
  6
CONTINUOUS
 62
     6
 10
292.599849
 20
274.683240
 11
285.599849
 21
274.683240
  0
LINE
  8
CSLAYER1
  6
CONTINUOUS
 62
     6
 10
292.599849
 20
210.683240
 11
285.599849
 21
210.683240
  0
ARC
  8
CSLAYER1
  6
CONTINUOUS
 62
     6
 10
285.599849
 20
272.683240
 40
2.000000
 50
90.000000
 51
180.000000
  0
ARC
  8
CSLAYER1
  6
CONTINUOUS
 62
     6
 10
285.599849
 20
212.683240
 40
2.000000
 50
180.000000
 51
270.000000
  0
LINE
  8
CSLAYER1
  6
CENTER
 62
     3
 10
280.599849
 20
216.683236
 11
294.599849
 21
216.683236
  0
LINE
  8
CSLAYER1
  6
CENTER
 62
     3
 10
280.599856
 20
268.683246
 11
294.599856
 21
268.683243
  0
LINE
  8
CSLAYER1
  6
CONTINUOUS
 62
     6
 10
202.599849
 20
272.177696
 11
230.599849
 21
272.683246
  0
LINE
  8
CSLAYER1
  6
CONTINUOUS
 62
     6
 10
202.599849
 20
213.188884
 11
230.599849
 21
212.683246
  0
LINE
  8
CSLAYER1
  6
CONTINUOUS
 62
     6
 10
83.099834
 20
178.336119
 11
31.099895
 21
178.336119
  0
LINE
  8
CSLAYER1
  6
CONTINUOUS
 62
     6
 10
89.099834
 20
120.336119
 11
89.099834
 21
135.656064
  0
ARC
  8
CSLAYER1
  6
CONTINUOUS
 62
     6
 10
83.099834
 20
172.336119
 40
6.000000
 50
0.000000
 51
90.000003
  0
LINE
  8
CSLAYER1
  6
CONTINUOUS
 62
     6
 10
83.099834
 20
114.336119
 11
31.099895
 21
114.336119
  0
LINE
  8
CSLAYER1
  6
CONTINUOUS
 62
     6
 10
25.099895
 20
120.336119
 11
25.099895
 21
172.336119
  0
ARC
  8
CSLAYER1
  6
CONTINUOUS
 62
     6
 10
31.099834
 20
172.336119
 40
6.000000
 50
90.000000
 51
180.000003
  0
ARC
  8
CSLAYER1
  6
CONTINUOUS
 62
     6
 10
31.099834
 20
120.336119
 40
6.000000
 50
180.000000
 51
270.000003
  0
ARC
  8
CSLAYER1
  6
CONTINUOUS
 62
     6
 10
83.099834
 20
120.336119
 40
6.000000
 50
269.999997
 51
360.000000
  0
LINE
  8
CSLAYER1
  6
CENTER
 62
     3
 10
88.039104
 20
120.336119
 11
78.099834
 21
120.336119
  0
LINE
  8
CSLAYER1
  6
CENTER
 62
     3
 10
83.099834
 20
125.336119
 11
83.099834
 21
115.336119
  0
CIRCLE
  8
CSLAYER1
  6
CONTINUOUS
 62
     6
 10
83.099834
 20
120.336119
 40
2.250000
  0
LINE
  8
CSLAYER1
  6
CENTER
 62
     3
 10
26.160564
 20
120.336119
 11
36.099834
 21
120.336119
  0
LINE
  8
CSLAYER1
  6
CENTER
 62
     3
 10
31.099834
 20
125.336119
 11
31.099834
 21
115.336119
  0
CIRCLE
  8
CSLAYER1
  6
CONTINUOUS
 62
     6
 10
31.099834
 20
120.336119
 40
2.250000
  0
LINE
  8
CSLAYER1
  6
CENTER
 62
     3
 10
31.099834
 20
177.275389
 11
31.099834
 21
167.336119
  0
LINE
  8
CSLAYER1
  6
CENTER
 62
     3
 10
36.099834
 20
172.336119
 11
26.099834
 21
172.336119
  0
CIRCLE
  8
CSLAYER1
  6
CONTINUOUS
 62
     6
 10
31.099834
 20
172.336119
 40
2.250000
  0
LINE
  8
CSLAYER1
  6
CENTER
 62
     3
 10
88.039104
 20
172.336119
 11
78.099834
 21
172.336119
  0
LINE
  8
CSLAYER1
  6
CENTER
 62
     3
 10
83.099834
 20
167.336119
 11
83.099834
 21
177.336119
  0
CIRCLE
  8
CSLAYER1
  6
CONTINUOUS
 62
     6
 10
83.099834
 20
172.336119
 40
2.250000
  0
LINE
  8
CSLAYER1
  6
CENTER
 62
     3
 10
76.191717
 20
165.428002
 11
68.374592
 21
157.610884
  0
LINE
  8
CSLAYER1
  6
CONTINUOUS
 62
     3
 10
58.865055
 20
160.086119
 11
57.349834
 21
160.086119
  0
LINE
  8
CSLAYER1
  6
CONTINUOUS
 62
     3
 10
57.349834
 20
160.086119
 11
57.349834
 21
158.586119
  0
ARC
  8
CSLAYER1
  6
CONTINUOUS
 62
     3
 10
57.099834
 20
158.586119
 40
0.250000
 50
-168.528123
 51
0.000021
  0
LINE
  8
CSLAYER1
  6
CONTINUOUS
 62
     3
 10
56.849834
 20
158.536398
 11
56.849834
 21
160.086119
  0
LINE
  8
CSLAYER1
  6
CONTINUOUS
 62
     3
 10
56.849834
 20
160.086119
 11
55.359867
 21
160.086119
  0
ARC
  8
CSLAYER1
  6
CONTINUOUS
 62
     3
 10
55.349834
 20
160.336119
 40
0.250000
 50
90.000020
 51
272.300752
  0
LINE
  8
CSLAYER1
  6
CONTINUOUS
 62
     3
 10
55.349834
 20
160.586119
 11
56.849834
 21
160.586119
  0
LINE
  8
CSLAYER1
  6
CONTINUOUS
 62
     3
 10
56.849834
 20
160.586119
 11
56.849834
 21
162.086119
  0
ARC
  8
CSLAYER1
  6
CONTINUOUS
 62
     3
 10
57.099834
 20
162.086119
 40
0.250000
 50
-0.000019
 51
180.000001
  0
LINE
  8
CSLAYER1
  6
CONTINUOUS
 62
     3
 10
57.349834
 20
162.086119
 11
57.349834
 21
160.586119
  0
LINE
  8
CSLAYER1
  6
CONTINUOUS
 62
     3
 10
57.349834
 20
160.586119
 11
58.849834
 21
160.586119
  0
ARC
  8
CSLAYER1
  6
CONTINUOUS
 62
     3
 10
58.849834
 20
160.336119
 40
0.250000
 50
-86.508968
 51
90.000020
  0
ARC
  8
CSLAYER1
  6
CENTER
 62
     3
 10
57.099834
 20
146.336119
 40
14.000000
 50
110.397443
 51
159.602557
  0
LINE
  8
CSLAYER1
  6
CENTER
 62
     3
 10
38.007951
 20
165.428002
 11
57.099834
 21
146.336119
  0
LINE
  8
CSLAYER1
  6
CENTER
 62
     3
 10
57.099834
 20
146.336119
 11
76.191713
 21
127.244232
  0
ARC
  8
CSLAYER1
  6
CENTER
 62
     3
 10
57.099834
 20
146.336119
 40
22.000000
 50
302.622854
 51
327.377146
  0
LINE
  8
CSLAYER1
  6
CENTER
 62
     3
 10
57.099834
 20
111.336119
 11
57.099834
 21
181.336119
  0
LINE
  8
CSLAYER1
  6
CENTER
 62
     3
 10
38.007955
 20
127.244232
 11
45.234821
 21
134.471113
  0
LINE
  8
CSLAYER1
  6
CONTINUOUS
 62
     3
 10
57.349834
 20
134.086119
 11
57.349834
 21
130.586119
  0
ARC
  8
CSLAYER1
  6
CONTINUOUS
 62
     3
 10
57.099834
 20
130.586119
 40
0.250000
 50
-179.999999
 51
0.000021
  0
LINE
  8
CSLAYER1
  6
CONTINUOUS
 62
     3
 10
56.849834
 20
130.586119
 11
56.849834
 21
134.086119
  0
ARC
  8
CSLAYER1
  6
CONTINUOUS
 62
     3
 10
57.099834
 20
134.086119
 40
0.250000
 50
-0.000019
 51
180.000001
  0
LINE
  8
CSLAYER1
  6
CENTER
 62
     3
 10
105.455875
 20
146.336119
 11
22.099834
 21
146.336119
  0
LINE
  8
CSLAYER1
  6
CONTINUOUS
 62
     6
 10
61.599834
 20
168.836119
 11
61.599834
 21
164.836119
  0
LINE
  8
CSLAYER1
  6
CONTINUOUS
 62
     6
 10
61.599834
 20
164.836119
 11
63.099834
 21
164.836119
  0
LINE
  8
CSLAYER1
  6
CONTINUOUS
 62
     6
 10
63.099834
 20
164.836119
 11
63.099834
 21
163.336111
  0
ARC
  8
CSLAYER1
  6
CONTINUOUS
 62
     6
 10
57.099834
 20
146.336119
 40
19.000000
 50
-71.591496
 51
71.591516
  0
LINE
  8
CSLAYER1
  6
CONTINUOUS
 62
     6
 10
63.099834
 20
127.836119
 11
63.099834
 21
129.336134
  0
LINE
  8
CSLAYER1
  6
CONTINUOUS
 62
     6
 10
63.099834
 20
127.836119
 11
61.599834
 21
127.836119
  0
LINE
  8
CSLAYER1
  6
CONTINUOUS
 62
     6
 10
61.599834
 20
127.836119
 11
61.599834
 21
123.836119
  0
LINE
  8
CSLAYER1
  6
CONTINUOUS
 62
     6
 10
62.099834
 20
123.836119
 11
51.099834
 21
123.836119
  0
LINE
  8
CSLAYER1
  6
CONTINUOUS
 62
     6
 10
51.099834
 20
123.836119
 11
51.099834
 21
129.336134
  0
ARC
  8
CSLAYER1
  6
CONTINUOUS
 62
     6
 10
57.099834
 20
146.336119
 40
19.000000
 50
108.408466
 51
251.591536
  0
LINE
  8
CSLAYER1
  6
CONTINUOUS
 62
     6
 10
51.099834
 20
163.336111
 11
51.099834
 21
168.836119
  0
LINE
  8
CSLAYER1
  6
CONTINUOUS
 62
     6
 10
51.099834
 20
168.836119
 11
62.099834
 21
168.836119
  0
ARC
  8
CSLAYER1
  6
CONTINUOUS
 62
     6
 10
62.137234
 20
169.486113
 40
0.650002
 50
-93.291660
 51
90.000002
  0
LINE
  8
CSLAYER1
  6
CONTINUOUS
 62
     6
 10
62.849850
 20
170.136114
 11
51.349850
 21
170.136114
  0
LINE
  8
CSLAYER1
  6
CONTINUOUS
 62
     6
 10
51.349850
 20
170.136114
 11
51.349850
 21
171.336119
  0
LINE
  8
CSLAYER1
  6
CONTINUOUS
 62
     6
 10
51.349850
 20
171.336119
 11
62.849850
 21
171.336119
  0
LINE
  8
CSLAYER1
  6
CONTINUOUS
 62
     6
 10
62.849850
 20
171.336119
 11
62.849850
 21
170.136114
  0
ARC
  8
CSLAYER1
  6
CONTINUOUS
 62
     6
 10
57.099834
 20
146.336119
 40
25.000000
 50
-76.702910
 51
76.702873
  0
LINE
  8
CSLAYER1
  6
CONTINUOUS
 62
     6
 10
62.849850
 20
122.536116
 11
51.349850
 21
122.536116
  0
LINE
  8
CSLAYER1
  6
CONTINUOUS
 62
     6
 10
51.349850
 20
122.536116
 11
51.349850
 21
121.336119
  0
LINE
  8
CSLAYER1
  6
CONTINUOUS
 62
     6
 10
51.349850
 20
121.336119
 11
62.849850
 21
121.336119
  0
LINE
  8
CSLAYER1
  6
CONTINUOUS
 62
     6
 10
62.849850
 20
121.336119
 11
62.849850
 21
122.536116
  0
ARC
  8
CSLAYER1
  6
CONTINUOUS
 62
     6
 10
62.137234
 20
123.186125
 40
0.650002
 50
-89.999943
 51
93.291720
  0
ARC
  8
CSLAYER1
  6
CONTINUOUS
 62
     6
 10
41.543491
 20
130.779768
 40
1.750000
 50
-16.601585
 51
16.601605
  0
LINE
  8
CSLAYER1
  6
CONTINUOUS
 62
     6
 10
43.220539
 20
130.279768
 11
42.543491
 21
130.279768
  0
ARC
  8
CSLAYER1
  6
CONTINUOUS
 62
     6
 10
42.543491
 20
129.779768
 40
0.500000
 50
90.000020
 51
180.000001
  0
LINE
  8
CSLAYER1
  6
CONTINUOUS
 62
     6
 10
42.043491
 20
129.779768
 11
42.043491
 21
129.102720
  0
ARC
  8
CSLAYER1
  6
CONTINUOUS
 62
     6
 10
41.543491
 20
130.779768
 40
1.750000
 50
253.398416
 51
286.601606
  0
LINE
  8
CSLAYER1
  6
CONTINUOUS
 62
     6
 10
41.043491
 20
129.102720
 11
41.043491
 21
129.779768
  0
ARC
  8
CSLAYER1
  6
CONTINUOUS
 62
     6
 10
40.543491
 20
129.779768
 40
0.500000
 50
-0.000019
 51
90.000020
  0
LINE
  8
CSLAYER1
  6
CONTINUOUS
 62
     6
 10
40.543491
 20
130.279768
 11
39.866443
 21
130.279768
  0
ARC
  8
CSLAYER1
  6
CONTINUOUS
 62
     6
 10
41.543491
 20
130.779768
 40
1.750000
 50
163.398434
 51
196.601568
  0
LINE
  8
CSLAYER1
  6
CONTINUOUS
 62
     6
 10
39.866443
 20
131.279768
 11
40.543491
 21
131.279768
  0
ARC
  8
CSLAYER1
  6
CONTINUOUS
 62
     6
 10
40.543491
 20
131.779768
 40
0.500000
 50
270.000000
 51
359.999981
  0
LINE
  8
CSLAYER1
  6
CONTINUOUS
 62
     6
 10
41.043491
 20
131.779768
 11
41.043491
 21
132.456816
  0
ARC
  8
CSLAYER1
  6
CONTINUOUS
 62
     6
 10
41.543491
 20
130.779768
 40
1.750000
 50
73.398453
 51
106.601587
  0
LINE
  8
CSLAYER1
  6
CONTINUOUS
 62
     6
 10
42.043491
 20
132.456816
 11
42.043491
 21
131.779768
  0
ARC
  8
CSLAYER1
  6
CONTINUOUS
 62
     6
 10
42.543491
 20
131.779768
 40
0.500000
 50
180.000001
 51
269.942687
  0
LINE
  8
CSLAYER1
  6
CONTINUOUS
 62
     6
 10
42.543491
 20
131.279768
 11
43.220539
 21
131.279768
  0
CIRCLE
  8
CSLAYER1
  6
CONTINUOUS
 62
     6
 10
41.543491
 20
130.779768
 40
2.750000
  0
LINE
  8
CSLAYER1
  6
CONTINUOUS
 62
     6
 10
69.099842
 20
166.736120
 11
61.599834
 21
166.736128
  0
LINE
  8
CSLAYER1
  6
CONTINUOUS
 62
     6
 10
61.599834
 20
166.236128
 11
69.099834
 21
166.236128
  0
LINE
  8
CSLAYER1
  6
CONTINUOUS
 62
     6
 10
69.099834
 20
166.236128
 11
69.099842
 21
166.736120
  0
LINE
  8
CSLAYER1
  6
CONTINUOUS
 62
     6
 10
61.599834
 20
126.436110
 11
69.099834
 21
126.436110
  0
LINE
  8
CSLAYER1
  6
CONTINUOUS
 62
     6
 10
69.099834
 20
126.436110
 11
69.099842
 21
125.936110
  0
LINE
  8
CSLAYER1
  6
CONTINUOUS
 62
     6
 10
69.099842
 20
125.936110
 11
61.599834
 21
125.936110
  0
ARC
  8
CSLAYER1
  6
CONTINUOUS
 62
     6
 10
52.062465
 20
123.186125
 40
0.650002
 50
86.708320
 51
269.942687
  0
ARC
  8
CSLAYER1
  6
CONTINUOUS
 62
     6
 10
57.099834
 20
146.336119
 40
25.000000
 50
103.297052
 51
256.702950
  0
ARC
  8
CSLAYER1
  6
CONTINUOUS
 62
     6
 10
52.062465
 20
169.486113
 40
0.650002
 50
90.000020
 51
273.291682
  0
ARC
  8
CSLAYER1
  6
CONTINUOUS
 62
     6
 10
72.656185
 20
130.779768
 40
1.750000
 50
-16.601585
 51
16.601605
  0
LINE
  8
CSLAYER1
  6
CONTINUOUS
 62
     6
 10
74.333233
 20
130.279768
 11
73.656185
 21
130.279768
  0
ARC
  8
CSLAYER1
  6
CONTINUOUS
 62
     6
 10
73.656185
 20
129.779768
 40
0.500000
 50
90.000020
 51
180.000001
  0
LINE
  8
CSLAYER1
  6
CONTINUOUS
 62
     6
 10
73.156185
 20
129.779768
 11
73.156185
 21
129.102720
  0
ARC
  8
CSLAYER1
  6
CONTINUOUS
 62
     6
 10
72.656185
 20
130.779768
 40
1.750000
 50
253.398416
 51
286.601606
  0
LINE
  8
CSLAYER1
  6
CONTINUOUS
 62
     6
 10
72.156185
 20
129.102720
 11
72.156185
 21
129.779768
  0
ARC
  8
CSLAYER1
  6
CONTINUOUS
 62
     6
 10
71.656185
 20
129.779768
 40
0.500000
 50
-0.000019
 51
90.000020
  0
LINE
  8
CSLAYER1
  6
CONTINUOUS
 62
     6
 10
71.656185
 20
130.279768
 11
70.979137
 21
130.279768
  0
ARC
  8
CSLAYER1
  6
CONTINUOUS
 62
     6
 10
72.656185
 20
130.779768
 40
1.750000
 50
163.398434
 51
196.601568
  0
LINE
  8
CSLAYER1
  6
CONTINUOUS
 62
     6
 10
70.979137
 20
131.279768
 11
71.656185
 21
131.279768
  0
ARC
  8
CSLAYER1
  6
CONTINUOUS
 62
     6
 10
71.656185
 20
131.779768
 40
0.500000
 50
270.000000
 51
359.999981
  0
LINE
  8
CSLAYER1
  6
CONTINUOUS
 62
     6
 10
72.156185
 20
131.779768
 11
72.156185
 21
132.456816
  0
ARC
  8
CSLAYER1
  6
CONTINUOUS
 62
     6
 10
72.656185
 20
130.779768
 40
1.750000
 50
73.398453
 51
106.601587
  0
LINE
  8
CSLAYER1
  6
CONTINUOUS
 62
     6
 10
73.156185
 20
132.456816
 11
73.156185
 21
131.779768
  0
ARC
  8
CSLAYER1
  6
CONTINUOUS
 62
     6
 10
73.656185
 20
131.779768
 40
0.500000
 50
180.000001
 51
269.942687
  0
LINE
  8
CSLAYER1
  6
CONTINUOUS
 62
     6
 10
73.656185
 20
131.279768
 11
74.333233
 21
131.279768
  0
CIRCLE
  8
CSLAYER1
  6
CONTINUOUS
 62
     6
 10
72.656185
 20
130.779768
 40
2.750000
  0
LINE
  8
CSLAYER1
  6
CONTINUOUS
 62
     6
 10
66.499332
 20
134.759565
 11
66.499332
 21
135.436628
  0
ARC
  8
CSLAYER1
  6
CONTINUOUS
 62
     6
 10
65.999332
 20
135.436628
 40
0.500000
 50
-0.000019
 51
90.000020
  0
LINE
  8
CSLAYER1
  6
CONTINUOUS
 62
     6
 10
65.999332
 20
135.936628
 11
65.322285
 21
135.936628
  0
ARC
  8
CSLAYER1
  6
CONTINUOUS
 62
     6
 10
66.999332
 20
136.436628
 40
1.750000
 50
163.398434
 51
196.601568
  0
LINE
  8
CSLAYER1
  6
CONTINUOUS
 62
     6
 10
65.322285
 20
136.936628
 11
65.999332
 21
136.936628
  0
ARC
  8
CSLAYER1
  6
CONTINUOUS
 62
     6
 10
65.999332
 20
137.436628
 40
0.500000
 50
270.000000
 51
359.999981
  0
LINE
  8
CSLAYER1
  6
CONTINUOUS
 62
     6
 10
66.499332
 20
137.436628
 11
66.499332
 21
138.113661
  0
ARC
  8
CSLAYER1
  6
CONTINUOUS
 62
     6
 10
66.999332
 20
136.436628
 40
1.750000
 50
73.398453
 51
106.601587
  0
LINE
  8
CSLAYER1
  6
CONTINUOUS
 62
     6
 10
67.499332
 20
138.113661
 11
67.499332
 21
137.436628
  0
ARC
  8
CSLAYER1
  6
CONTINUOUS
 62
     6
 10
67.999332
 20
137.436628
 40
0.500000
 50
180.000001
 51
269.942687
  0
LINE
  8
CSLAYER1
  6
CONTINUOUS
 62
     6
 10
67.999332
 20
136.936628
 11
68.676380
 21
136.936628
  0
ARC
  8
CSLAYER1
  6
CONTINUOUS
 62
     6
 10
66.999332
 20
136.436628
 40
1.750000
 50
-16.601585
 51
16.601605
  0
LINE
  8
CSLAYER1
  6
CONTINUOUS
 62
     6
 10
68.676380
 20
135.936628
 11
67.999332
 21
135.936628
  0
ARC
  8
CSLAYER1
  6
CONTINUOUS
 62
     6
 10
67.999332
 20
135.436628
 40
0.500000
 50
90.000020
 51
180.000001
  0
LINE
  8
CSLAYER1
  6
CONTINUOUS
 62
     6
 10
67.499332
 20
135.436628
 11
67.499332
 21
134.759565
  0
ARC
  8
CSLAYER1
  6
CONTINUOUS
 62
     6
 10
66.999332
 20
136.436628
 40
1.750000
 50
253.398416
 51
286.601606
  0
ARC
  8
CSLAYER1
  6
CONTINUOUS
 62
     6
 10
66.999332
 20
136.436628
 40
3.000000
 50
45.000029
 51
224.999992
  0
LINE
  8
CSLAYER1
  6
CONTINUOUS
 62
     6
 10
69.120655
 20
138.557936
 11
71.771061
 21
135.907545
  0
CIRCLE
  8
CSLAYER1
  6
CONTINUOUS
 62
     6
 10
66.999332
 20
136.436628
 40
2.750000
  0
LINE
  8
CSLAYER1
  6
CONTINUOUS
 62
     6
 10
64.878010
 20
134.315291
 11
67.528415
 21
131.664900
  0
LINE
  8
CSLAYER1
  6
CONTINUOUS
 62
     6
 10
59.599834
 20
148.836088
 11
57.099834
 21
141.336088
  0
LINE
  8
CSLAYER1
  6
CONTINUOUS
 62
     6
 10
57.099834
 20
141.336088
 11
57.099834
 21
143.805510
  0
LINE
  8
CSLAYER1
  6
CONTINUOUS
 62
     6
 10
57.099834
 20
143.805510
 11
54.599834
 21
143.836088
  0
LINE
  8
CSLAYER1
  6
CONTINUOUS
 62
     6
 10
54.599834
 20
143.836088
 11
57.099834
 21
151.336088
  0
LINE
  8
CSLAYER1
  6
CONTINUOUS
 62
     6
 10
57.099834
 20
151.336088
 11
57.099834
 21
148.819121
  0
LINE
  8
CSLAYER1
  6
CONTINUOUS
 62
     6
 10
57.099834
 20
148.819121
 11
59.599834
 21
148.836088
  0
ARC
  8
CSLAYER1
  6
CONTINUOUS
 62
     6
 10
47.200336
 20
156.235617
 40
1.750000
 50
253.398416
 51
286.601549
  0
LINE
  8
CSLAYER1
  6
CONTINUOUS
 62
     6
 10
46.700336
 20
154.558569
 11
46.700336
 21
155.235617
  0
ARC
  8
CSLAYER1
  6
CONTINUOUS
 62
     6
 10
46.200336
 20
155.235617
 40
0.500000
 50
-0.000019
 51
90.000020
  0
LINE
  8
CSLAYER1
  6
CONTINUOUS
 62
     6
 10
46.200336
 20
155.735617
 11
45.523289
 21
155.735617
  0
ARC
  8
CSLAYER1
  6
CONTINUOUS
 62
     6
 10
47.200336
 20
156.235617
 40
1.750000
 50
163.398434
 51
196.601568
  0
LINE
  8
CSLAYER1
  6
CONTINUOUS
 62
     6
 10
45.523289
 20
156.735617
 11
46.200336
 21
156.735617
  0
ARC
  8
CSLAYER1
  6
CONTINUOUS
 62
     6
 10
46.200336
 20
157.235617
 40
0.500000
 50
269.999982
 51
359.999964
  0
LINE
  8
CSLAYER1
  6
CONTINUOUS
 62
     6
 10
46.700336
 20
157.235617
 11
46.700336
 21
157.912665
  0
ARC
  8
CSLAYER1
  6
CONTINUOUS
 62
     6
 10
47.200336
 20
156.235617
 40
1.750000
 50
73.398396
 51
106.601587
  0
LINE
  8
CSLAYER1
  6
CONTINUOUS
 62
     6
 10
47.700336
 20
157.912665
 11
47.700336
 21
157.235617
  0
ARC
  8
CSLAYER1
  6
CONTINUOUS
 62
     6
 10
48.200336
 20
157.235617
 40
0.500000
 50
180.000001
 51
269.942687
  0
LINE
  8
CSLAYER1
  6
CONTINUOUS
 62
     6
 10
48.200336
 20
156.735617
 11
48.877384
 21
156.735617
  0
ARC
  8
CSLAYER1
  6
CONTINUOUS
 62
     6
 10
47.200336
 20
156.235617
 40
1.750000
 50
-16.601585
 51
16.601605
  0
LINE
  8
CSLAYER1
  6
CONTINUOUS
 62
     6
 10
48.877384
 20
155.735617
 11
48.200336
 21
155.735617
  0
ARC
  8
CSLAYER1
  6
CONTINUOUS
 62
     6
 10
48.200336
 20
155.235617
 40
0.500000
 50
90.000020
 51
180.000001
  0
LINE
  8
CSLAYER1
  6
CONTINUOUS
 62
     6
 10
47.700336
 20
155.235617
 11
47.700336
 21
154.558569
  0
CIRCLE
  8
CSLAYER1
  6
CONTINUOUS
 62
     6
 10
47.200336
 20
156.235617
 40
2.750000
  0
ARC
  8
CSLAYER1
  6
CONTINUOUS
 62
     6
 10
47.200336
 20
156.235617
 40
3.000000
 50
-135.000008
 51
45.000012
  0
LINE
  8
CSLAYER1
  6
CONTINUOUS
 62
     6
 10
45.079014
 20
154.114294
 11
42.428608
 21
156.764700
  0
ARC
  8
CSLAYER1
  6
CONTINUOUS
 62
     6
 10
41.543484
 20
161.892470
 40
1.750000
 50
253.398416
 51
286.601606
  0
LINE
  8
CSLAYER1
  6
CONTINUOUS
 62
     6
 10
41.043484
 20
160.215422
 11
41.043484
 21
160.892470
  0
ARC
  8
CSLAYER1
  6
CONTINUOUS
 62
     6
 10
40.543484
 20
160.892470
 40
0.500000
 50
-0.000019
 51
90.000020
  0
LINE
  8
CSLAYER1
  6
CONTINUOUS
 62
     6
 10
40.543484
 20
161.392470
 11
39.866436
 21
161.392470
  0
ARC
  8
CSLAYER1
  6
CONTINUOUS
 62
     6
 10
41.543484
 20
161.892470
 40
1.750000
 50
163.398434
 51
196.601568
  0
LINE
  8
CSLAYER1
  6
CONTINUOUS
 62
     6
 10
39.866436
 20
162.392470
 11
40.543484
 21
162.392470
  0
ARC
  8
CSLAYER1
  6
CONTINUOUS
 62
     6
 10
40.543484
 20
162.892470
 40
0.500000
 50
270.000000
 51
359.999981
  0
LINE
  8
CSLAYER1
  6
CONTINUOUS
 62
     6
 10
41.043484
 20
162.892470
 11
41.043484
 21
163.569517
  0
ARC
  8
CSLAYER1
  6
CONTINUOUS
 62
     6
 10
41.543484
 20
161.892470
 40
1.750000
 50
73.398453
 51
106.601587
  0
LINE
  8
CSLAYER1
  6
CONTINUOUS
 62
     6
 10
42.043484
 20
163.569517
 11
42.043484
 21
162.892470
  0
ARC
  8
CSLAYER1
  6
CONTINUOUS
 62
     6
 10
42.543484
 20
162.892470
 40
0.500000
 50
180.000001
 51
269.942687
  0
LINE
  8
CSLAYER1
  6
CONTINUOUS
 62
     6
 10
42.543484
 20
162.392470
 11
43.220531
 21
162.392470
  0
ARC
  8
CSLAYER1
  6
CONTINUOUS
 62
     6
 10
41.543484
 20
161.892470
 40
1.750000
 50
-16.601585
 51
16.601605
  0
LINE
  8
CSLAYER1
  6
CONTINUOUS
 62
     6
 10
43.220531
 20
161.392470
 11
42.543484
 21
161.392470
  0
ARC
  8
CSLAYER1
  6
CONTINUOUS
 62
     6
 10
42.543484
 20
160.892470
 40
0.500000
 50
90.000020
 51
180.000001
  0
LINE
  8
CSLAYER1
  6
CONTINUOUS
 62
     6
 10
42.043484
 20
160.892470
 11
42.043484
 21
160.215422
  0
CIRCLE
  8
CSLAYER1
  6
CONTINUOUS
 62
     6
 10
41.543484
 20
161.892470
 40
2.750000
  0
LINE
  8
CSLAYER1
  6
CONTINUOUS
 62
     6
 10
46.671253
 20
161.007345
 11
49.321659
 21
158.356939
  0
ARC
  8
CSLAYER1
  6
CONTINUOUS
 62
     6
 10
72.656185
 20
161.892470
 40
1.750000
 50
-16.601585
 51
16.601605
  0
LINE
  8
CSLAYER1
  6
CONTINUOUS
 62
     6
 10
74.333233
 20
162.392470
 11
73.656185
 21
162.392470
  0
ARC
  8
CSLAYER1
  6
CONTINUOUS
 62
     6
 10
73.656185
 20
162.892470
 40
0.500000
 50
180.000001
 51
269.942687
  0
LINE
  8
CSLAYER1
  6
CONTINUOUS
 62
     6
 10
73.156185
 20
162.892470
 11
73.156185
 21
163.569517
  0
ARC
  8
CSLAYER1
  6
CONTINUOUS
 62
     6
 10
72.656185
 20
161.892470
 40
1.750000
 50
73.398453
 51
106.601587
  0
LINE
  8
CSLAYER1
  6
CONTINUOUS
 62
     6
 10
72.156185
 20
163.569517
 11
72.156185
 21
162.892470
  0
ARC
  8
CSLAYER1
  6
CONTINUOUS
 62
     6
 10
71.656185
 20
162.892470
 40
0.500000
 50
270.000000
 51
359.999981
  0
LINE
  8
CSLAYER1
  6
CONTINUOUS
 62
     6
 10
71.656185
 20
162.392470
 11
70.979137
 21
162.392470
  0
ARC
  8
CSLAYER1
  6
CONTINUOUS
 62
     6
 10
72.656185
 20
161.892470
 40
1.750000
 50
163.398434
 51
196.601568
  0
LINE
  8
CSLAYER1
  6
CONTINUOUS
 62
     6
 10
70.979137
 20
161.392470
 11
71.656185
 21
161.392470
  0
ARC
  8
CSLAYER1
  6
CONTINUOUS
 62
     6
 10
71.656185
 20
160.892470
 40
0.500000
 50
-0.000019
 51
90.000020
  0
LINE
  8
CSLAYER1
  6
CONTINUOUS
 62
     6
 10
72.156185
 20
160.892470
 11
72.156185
 21
160.215422
  0
ARC
  8
CSLAYER1
  6
CONTINUOUS
 62
     6
 10
72.656185
 20
161.892470
 40
1.750000
 50
253.398416
 51
286.601606
  0
LINE
  8
CSLAYER1
  6
CONTINUOUS
 62
     6
 10
73.156185
 20
160.215422
 11
73.156185
 21
160.892470
  0
ARC
  8
CSLAYER1
  6
CONTINUOUS
 62
     6
 10
73.656185
 20
160.892470
 40
0.500000
 50
90.000020
 51
180.000001
  0
LINE
  8
CSLAYER1
  6
CONTINUOUS
 62
     6
 10
73.656185
 20
161.392470
 11
74.333233
 21
161.392470
  0
CIRCLE
  8
CSLAYER1
  6
CONTINUOUS
 62
     6
 10
72.656185
 20
161.892470
 40
2.750000
  0
CIRCLE
  8
CSLAYER1
  6
CONTINUOUS
 62
     6
 10
57.099834
 20
146.336111
 40
18.000000
  0
CIRCLE
  8
CSLAYER1
  6
CONTINUOUS
 62
     6
 10
57.099834
 20
146.336088
 40
5.000000
  0
CIRCLE
  8
CSLAYER1
  6
CONTINUOUS
 62
     6
 10
57.099834
 20
146.336088
 40
5.800000
  0
ARC
  8
CSLAYER1
  6
CENTER
 62
     3
 10
57.099834
 20
146.336119
 40
14.000000
 50
290.397443
 51
339.602557
  0
ARC
  8
CSLAYER1
  6
CENTER
 62
     3
 10
57.099834
 20
146.336119
 40
22.000000
 50
32.622854
 51
57.377146
  0
ARC
  8
CSLAYER1
  6
CENTER
 62
     3
 10
57.099834
 20
146.336119
 40
22.000000
 50
122.622854
 51
147.377146
  0
ARC
  8
CSLAYER1
  6
CENTER
 62
     3
 10
57.099834
 20
146.336119
 40
22.000000
 50
212.622854
 51
237.377146
  0
LINE
  8
CSLAYER1
  6
CONTINUOUS
 62
     6
 10
282.599849
 20
24.989019
 11
282.599849
 21
86.989019
  0
LINE
  8
CSLAYER1
  6
CONTINUOUS
 62
     6
 10
230.599849
 20
24.989019
 11
230.599849
 21
86.989019
  0
LINE
  8
CSLAYER1
  6
CENTER
 62
     3
 10
219.599849
 20
42.989019
 11
219.599849
 21
104.560522
  0
CIRCLE
  8
CSLAYER1
  6
CONTINUOUS
 62
     6
 10
219.599849
 20
55.989019
 40
8.000000
  0
CIRCLE
  8
CSLAYER1
  6
CONTINUOUS
 62
     6
 10
219.599849
 20
55.989019
 40
6.000000
  0
CIRCLE
  8
CSLAYER1
  6
CONTINUOUS
 62
     3
 10
219.599849
 20
55.989019
 40
5.500000
  0
LINE
  8
CSLAYER1
  6
CONTINUOUS
 62
     6
 10
222.349849
 20
55.189016
 11
216.849849
 21
55.189016
  0
LINE
  8
CSLAYER1
  6
CONTINUOUS
 62
     6
 10
222.349849
 20
56.789022
 11
216.849849
 21
56.789022
  0
LINE
  8
CSLAYER1
  6
CONTINUOUS
 62
     6
 10
216.849849
 20
55.189016
 11
216.849849
 21
56.789022
  0
LINE
  8
CSLAYER1
  6
CONTINUOUS
 62
     6
 10
222.349849
 20
55.189016
 11
222.349849
 21
56.789022
  0
ARC
  8
CSLAYER1
  6
CONTINUOUS
 62
     6
 10
204.941005
 20
94.424673
 40
15.758816
 50
0.057309
 51
27.463798
  0
ARC
  8
CSLAYER1
  6
CONTINUOUS
 62
     6
 10
204.941005
 20
94.424673
 40
13.558834
 50
0.057309
 51
27.463798
  0
ARC
  8
CSLAYER1
  6
CONTINUOUS
 62
     6
 10
220.149837
 20
95.377264
 40
1.099999
 50
239.999655
 51
299.999650
  0
ARC
  8
CSLAYER1
  6
CONTINUOUS
 62
     6
 10
219.049839
 20
95.377279
 40
1.099999
 50
239.999655
 51
299.999650
  0
ARC
  8
CSLAYER1
  6
CONTINUOUS
 62
     6
 10
219.049831
 20
93.472021
 40
1.099999
 50
59.999650
 51
119.999638
  0
LINE
  8
CSLAYER1
  6
CONTINUOUS
 62
     6
 10
217.629406
 20
101.019628
 11
216.012249
 21
103.957701
  0
LINE
  8
CSLAYER1
  6
CONTINUOUS
 62
     6
 10
218.118328
 20
101.273764
 11
216.541546
 21
104.281179
  0
LINE
  8
CSLAYER1
  6
CONTINUOUS
 62
     6
 10
218.516460
 20
101.480719
 11
217.114971
 21
104.560522
  0
LINE
  8
CSLAYER1
  6
CONTINUOUS
 62
     6
 10
216.971782
 20
100.677832
 11
218.923839
 21
101.692449
  0
ARC
  8
CSLAYER1
  6
CONTINUOUS
 62
     6
 10
234.258693
 20
94.424673
 40
15.758816
 50
152.536132
 51
157.577932
  0
ARC
  8
CSLAYER1
  6
CONTINUOUS
 62
     6
 10
234.258693
 20
94.424673
 40
13.558834
 50
152.536132
 51
180.000022
  0
LINE
  8
CSLAYER1
  6
CONTINUOUS
 62
     6
 10
221.570293
 20
101.019659
 11
223.187465
 21
103.957716
  0
LINE
  8
CSLAYER1
  6
CONTINUOUS
 62
     6
 10
221.081371
 20
101.273779
 11
222.658153
 21
104.281179
  0
LINE
  8
CSLAYER1
  6
CONTINUOUS
 62
     6
 10
220.683239
 20
101.480719
 11
222.084743
 21
104.560537
  0
LINE
  8
CSLAYER1
  6
CONTINUOUS
 62
     6
 10
222.227916
 20
100.677847
 11
220.275859
 21
101.692465
  0
ARC
  8
CSLAYER1
  6
CONTINUOUS
 62
     6
 10
219.049862
 20
90.559805
 40
1.100006
 50
60.000005
 51
119.999993
  0
ARC
  8
CSLAYER1
  6
CONTINUOUS
 62
     6
 10
220.149868
 20
90.559805
 40
1.100006
 50
60.000005
 51
119.999993
  0
ARC
  8
CSLAYER1
  6
CONTINUOUS
 62
     6
 10
220.149868
 20
92.465078
 40
1.100006
 50
239.999997
 51
299.999998
  0
LINE
  8
CSLAYER1
  6
CONTINUOUS
 62
     6
 10
220.699855
 20
85.816214
 11
220.699855
 21
91.512442
  0
LINE
  8
CSLAYER1
  6
CONTINUOUS
 62
     6
 10
218.499859
 20
85.777807
 11
218.499859
 21
91.512442
  0
LINE
  8
CSLAYER1
  6
CONTINUOUS
 62
     6
 10
282.599849
 20
24.989019
 11
230.599849
 21
24.989019
  0
LINE
  8
CSLAYER1
  6
CONTINUOUS
 62
     6
 10
282.599849
 20
86.989019
 11
230.599849
 21
86.989019
  0
LINE
  8
CSLAYER1
  6
CENTER
 62
     3
 10
116.599866
 20
55.989028
 11
322.099859
 21
55.989034
  0
LINE
  8
CSLAYER1
  6
CONTINUOUS
 62
     3
 10
237.599865
 20
24.989019
 11
237.599865
 21
39.489050
  0
LINE
  8
CSLAYER1
  6
CONTINUOUS
 62
     3
 10
238.599865
 20
40.489050
 11
274.599849
 21
40.489050
  0
ARC
  8
CSLAYER1
  6
CONTINUOUS
 62
     3
 10
238.599865
 20
39.489050
 40
1.000000
 50
89.999999
 51
179.999995
  0
LINE
  8
CSLAYER1
  6
CONTINUOUS
 62
     6
 10
157.599834
 20
30.989019
 11
157.599834
 21
80.989019
  0
LINE
  8
CSLAYER1
  6
CENTER
 62
     3
 10
152.859966
 20
40.388967
 11
164.599856
 21
40.388967
  0
ARC
  8
CSLAYER1
  6
CONTINUOUS
 62
     6
 10
161.899822
 20
40.388936
 40
7.000000
 50
163.742984
 51
196.257006
  0
LINE
  8
CSLAYER1
  6
CONTINUOUS
 62
     6
 10
156.682384
 20
37.657979
 11
156.052562
 21
37.713094
  0
ARC
  8
CSLAYER1
  6
CONTINUOUS
 62
     6
 10
156.139721
 20
38.709279
 40
1.000000
 50
196.257389
 51
264.999889
  0
ARC
  8
CSLAYER1
  6
CONTINUOUS
 62
     6
 10
156.699810
 20
37.857198
 40
0.200000
 50
264.999848
 51
360.000000
  0
LINE
  8
CSLAYER1
  6
CONTINUOUS
 62
     6
 10
156.999797
 20
37.488973
 11
157.499797
 21
37.488973
  0
ARC
  8
CSLAYER1
  6
CONTINUOUS
 62
     6
 10
156.999797
 20
37.588949
 40
0.100000
 50
179.999995
 51
269.999997
  0
ARC
  8
CSLAYER1
  6
CONTINUOUS
 62
     6
 10
157.499797
 20
37.588949
 40
0.100000
 50
269.999997
 51
360.000000
  0
LINE
  8
CSLAYER1
  6
CONTINUOUS
 62
     6
 10
156.682384
 20
43.119924
 11
156.052562
 21
43.064840
  0
ARC
  8
CSLAYER1
  6
CONTINUOUS
 62
     6
 10
156.139721
 20
42.068624
 40
1.000000
 50
95.000108
 51
163.742601
  0
ARC
  8
CSLAYER1
  6
CONTINUOUS
 62
     6
 10
156.699810
 20
42.920675
 40
0.200000
 50
0.057309
 51
95.000135
  0
LINE
  8
CSLAYER1
  6
CONTINUOUS
 62
     6
 10
156.899822
 20
37.588949
 11
156.899822
 21
43.188924
  0
ARC
  8
CSLAYER1
  6
CONTINUOUS
 62
     6
 10
156.999797
 20
43.188924
 40
0.100000
 50
89.999999
 51
179.999995
  0
LINE
  8
CSLAYER1
  6
CONTINUOUS
 62
     6
 10
156.999797
 20
43.288961
 11
157.499797
 21
43.288961
  0
ARC
  8
CSLAYER1
  6
CONTINUOUS
 62
     6
 10
157.499797
 20
43.188924
 40
0.100000
 50
0.057309
 51
89.999999
  0
LINE
  8
CSLAYER1
  6
CONTINUOUS
 62
     6
 10
156.899822
 20
39.793050
 11
157.599804
 21
40.236898
  0
LINE
  8
CSLAYER1
  6
CONTINUOUS
 62
     6
 10
156.899822
 20
40.293050
 11
157.599804
 21
40.736898
  0
ARC
  8
CSLAYER1
  6
CONTINUOUS
 62
     6
 10
161.899822
 20
71.588964
 40
7.000000
 50
163.742984
 51
196.257006
  0
LINE
  8
CSLAYER1
  6
CONTINUOUS
 62
     6
 10
156.682384
 20
68.858007
 11
156.052562
 21
68.913122
  0
ARC
  8
CSLAYER1
  6
CONTINUOUS
 62
     6
 10
156.139721
 20
69.909307
 40
1.000000
 50
196.257389
 51
264.999889
  0
ARC
  8
CSLAYER1
  6
CONTINUOUS
 62
     6
 10
156.699810
 20
69.057226
 40
0.200000
 50
264.999848
 51
360.000000
  0
LINE
  8
CSLAYER1
  6
CONTINUOUS
 62
     6
 10
156.999797
 20
68.689001
 11
157.499797
 21
68.689001
  0
ARC
  8
CSLAYER1
  6
CONTINUOUS
 62
     6
 10
156.999797
 20
68.788976
 40
0.100000
 50
179.999995
 51
269.999997
  0
ARC
  8
CSLAYER1
  6
CONTINUOUS
 62
     6
 10
157.499797
 20
68.788976
 40
0.100000
 50
269.999997
 51
360.000000
  0
LINE
  8
CSLAYER1
  6
CONTINUOUS
 62
     6
 10
156.682384
 20
74.319951
 11
156.052562
 21
74.264867
  0
ARC
  8
CSLAYER1
  6
CONTINUOUS
 62
     6
 10
156.139721
 20
73.268651
 40
1.000000
 50
95.000108
 51
163.742601
  0
ARC
  8
CSLAYER1
  6
CONTINUOUS
 62
     6
 10
156.699810
 20
74.120702
 40
0.200000
 50
0.057309
 51
95.000135
  0
LINE
  8
CSLAYER1
  6
CONTINUOUS
 62
     6
 10
156.899822
 20
68.788976
 11
156.899822
 21
74.388952
  0
ARC
  8
CSLAYER1
  6
CONTINUOUS
 62
     6
 10
156.999797
 20
74.388952
 40
0.100000
 50
89.999999
 51
179.999995
  0
LINE
  8
CSLAYER1
  6
CONTINUOUS
 62
     6
 10
156.999797
 20
74.488988
 11
157.499797
 21
74.488988
  0
ARC
  8
CSLAYER1
  6
CONTINUOUS
 62
     6
 10
157.499797
 20
74.388952
 40
0.100000
 50
0.057309
 51
89.999999
  0
LINE
  8
CSLAYER1
  6
CONTINUOUS
 62
     6
 10
156.899822
 20
70.993213
 11
157.599804
 21
71.437061
  0
LINE
  8
CSLAYER1
  6
CONTINUOUS
 62
     6
 10
156.899822
 20
71.493213
 11
157.599803
 21
71.937061
  0
LINE
  8
CSLAYER1
  6
CENTER
 62
     3
 10
152.859962
 20
71.589061
 11
164.599856
 21
71.589064
  0
LINE
  8
CSLAYER1
  6
CONTINUOUS
 62
     6
 10
161.599834
 20
30.989018
 11
157.599834
 21
30.989019
  0
LINE
  8
CSLAYER1
  6
CONTINUOUS
 62
     6
 10
161.599834
 20
80.989018
 11
157.599850
 21
80.989019
  0
LINE
  8
CSLAYER1
  6
CONTINUOUS
 62
     3
 10
275.599849
 20
24.989019
 11
275.599849
 21
39.489050
  0
ARC
  8
CSLAYER1
  6
CONTINUOUS
 62
     3
 10
274.599849
 20
39.489050
 40
1.000000
 50
0.000005
 51
90.000001
  0
LINE
  8
CSLAYER1
  6
CONTINUOUS
 62
     6
 10
292.599849
 20
23.989029
 11
292.599849
 21
87.989029
  0
LINE
  8
CSLAYER1
  6
CONTINUOUS
 62
     6
 10
294.599849
 20
40.989029
 11
294.599849
 21
70.989029
  0
LINE
  8
CSLAYER1
  6
CONTINUOUS
 62
     6
 10
319.099849
 20
51.989029
 11
319.099849
 21
59.989029
  0
LINE
  8
CSLAYER1
  6
CONTINUOUS
 62
     6
 10
294.599849
 20
51.989029
 11
319.099849
 21
51.989029
  0
LINE
  8
CSLAYER1
  6
CONTINUOUS
 62
     6
 10
294.599849
 20
59.989029
 11
319.099849
 21
59.989029
  0
LINE
  8
CSLAYER1
  6
CONTINUOUS
 62
     6
 10
283.599849
 20
25.989029
 11
282.599849
 21
25.989029
  0
LINE
  8
CSLAYER1
  6
CONTINUOUS
 62
     6
 10
282.599849
 20
85.989029
 11
283.599849
 21
85.989029
  0
LINE
  8
CSLAYER1
  6
CONTINUOUS
 62
     6
 10
292.599849
 20
40.989029
 11
294.599849
 21
40.989029
  0
LINE
  8
CSLAYER1
  6
CONTINUOUS
 62
     6
 10
292.599849
 20
70.989029
 11
294.599849
 21
70.989029
  0
LINE
  8
CSLAYER1
  6
CONTINUOUS
 62
     6
 10
283.599849
 20
25.989029
 11
283.599849
 21
85.989029
  0
LINE
  8
CSLAYER1
  6
CONTINUOUS
 62
     6
 10
292.599849
 20
23.989029
 11
285.599849
 21
23.989029
  0
LINE
  8
CSLAYER1
  6
CONTINUOUS
 62
     6
 10
292.599849
 20
87.989029
 11
285.599849
 21
87.989029
  0
ARC
  8
CSLAYER1
  6
CONTINUOUS
 62
     6
 10
285.599849
 20
25.989029
 40
2.000000
 50
180.000000
 51
270.000000
  0
ARC
  8
CSLAYER1
  6
CONTINUOUS
 62
     6
 10
285.599849
 20
85.989029
 40
2.000000
 50
90.000000
 51
180.000000
  0
LINE
  8
CSLAYER1
  6
CENTER
 62
     3
 10
280.599849
 20
81.989033
 11
294.599849
 21
81.989033
  0
LINE
  8
CSLAYER1
  6
CENTER
 62
     3
 10
280.599856
 20
29.989023
 11
294.599856
 21
29.989026
  0
LINE
  8
CSLAYER1
  6
CONTINUOUS
 62
     6
 10
202.599849
 20
26.494573
 11
230.599849
 21
25.989023
  0
LINE
  8
CSLAYER1
  6
CONTINUOUS
 62
     6
 10
202.599849
 20
85.483385
 11
230.599849
 21
85.989023
  0
TEXT
  8
CSLAYER1
 62
     3
 10
254.137589
 20
37.989033
 40
3.500000
 41
1.125000
  1
N P
 50
270.000000
 51
10.000000
  7
JX_FONT
 72
     5
 11
254.137589
 21
27.489033
  0
LINE
  8
CSLAYER1
  6
CENTER
 62
     3
 10
219.599849
 20
135.336135
 11
219.599849
 21
157.336135
  0
LINE
  8
CSLAYER1
  6
CONTINUOUS
 62
     6
 10
202.599849
 20
175.847382
 11
230.599865
 21
176.336152
  0
LINE
  8
CSLAYER1
  6
CONTINUOUS
 62
     6
 10
202.599849
 20
116.824922
 11
230.599865
 21
116.336152
  0
ARC
  8
CSLAYER1
  6
CONTINUOUS
 62
     6
 10
219.599849
 20
147.436141
 40
1.100000
 50
-89.999999
 51
90.000019
  0
ARC
  8
CSLAYER1
  6
CONTINUOUS
 62
     6
 10
219.599849
 20
145.236129
 40
1.100000
 50
-89.999999
 51
90.000019
  0
LINE
  8
CSLAYER1
  6
CONTINUOUS
 62
     6
 10
220.699825
 20
147.436141
 11
220.699825
 21
145.236129
  0
ARC
  8
CSLAYER1
  6
CONTINUOUS
 62
     6
 10
219.599849
 20
146.336135
 40
8.000000
 50
-164.038007
 51
163.614510
  0
LINE
  8
CSLAYER1
  6
CONTINUOUS
 62
     6
 10
202.599849
 20
116.336136
 11
202.599849
 21
176.336136
  0
LINE
  8
CSLAYER1
  6
CONTINUOUS
 62
     6
 10
168.599849
 20
116.336136
 11
168.599849
 21
176.336136
  0
LINE
  8
CSLAYER1
  6
CONTINUOUS
 62
     6
 10
161.599849
 20
176.336136
 11
161.599849
 21
116.336136
  0
LINE
  8
CSLAYER1
  6
CONTINUOUS
 62
     6
 10
161.599849
 20
176.336136
 11
202.599849
 21
176.336136
  0
LINE
  8
CSLAYER1
  6
CONTINUOUS
 62
     6
 10
161.599849
 20
116.336136
 11
202.599849
 21
116.336136
  0
ARC
  8
CSLAYER1
  6
CONTINUOUS
 62
     6
 10
213.164241
 20
162.094985
 40
15.758816
 50
242.536193
 51
270.000110
  0
ARC
  8
CSLAYER1
  6
CONTINUOUS
 62
     6
 10
213.164241
 20
162.094985
 40
13.558834
 50
242.536193
 51
270.000083
  0
ARC
  8
CSLAYER1
  6
CONTINUOUS
 62
     6
 10
212.211620
 20
146.886168
 40
1.099999
 50
-29.999656
 51
30.000332
  0
ARC
  8
CSLAYER1
  6
CONTINUOUS
 62
     6
 10
212.211605
 20
147.986159
 40
1.099999
 50
-29.999656
 51
30.000332
  0
ARC
  8
CSLAYER1
  6
CONTINUOUS
 62
     6
 10
214.116863
 20
147.986174
 40
1.099999
 50
150.000353
 51
210.000354
  0
LINE
  8
CSLAYER1
  6
CONTINUOUS
 62
     6
 10
204.166774
 20
150.728957
 11
206.569271
 21
149.406569
  0
LINE
  8
CSLAYER1
  6
CONTINUOUS
 62
     6
 10
203.885128
 20
150.191726
 11
206.315120
 21
148.917678
  0
LINE
  8
CSLAYER1
  6
CONTINUOUS
 62
     6
 10
203.636104
 20
149.644484
 11
206.108150
 21
148.519545
  0
LINE
  8
CSLAYER1
  6
CONTINUOUS
 62
     6
 10
206.911068
 20
150.064223
 11
205.896419
 21
148.112136
  0
ARC
  8
CSLAYER1
  6
CONTINUOUS
 62
     6
 10
217.029049
 20
147.986113
 40
1.100006
 50
149.999997
 51
209.999999
  0
ARC
  8
CSLAYER1
  6
CONTINUOUS
 62
     6
 10
217.029049
 20
146.886107
 40
1.100006
 50
149.999997
 51
209.999999
  0
ARC
  8
CSLAYER1
  6
CONTINUOUS
 62
     6
 10
215.123775
 20
146.886107
 40
1.100006
 50
-30.000011
 51
29.999977
  0
ARC
  8
CSLAYER1
  6
CONTINUOUS
 62
     6
 10
213.164241
 20
130.577285
 40
15.758816
 50
89.999900
 51
117.463817
  0
ARC
  8
CSLAYER1
  6
CONTINUOUS
 62
     6
 10
213.164241
 20
130.577285
 40
13.558834
 50
89.999927
 51
117.463817
  0
ARC
  8
CSLAYER1
  6
CONTINUOUS
 62
     6
 10
212.211605
 20
144.686110
 40
1.099999
 50
-30.000346
 51
29.999656
  0
ARC
  8
CSLAYER1
  6
CONTINUOUS
 62
     6
 10
212.211620
 20
145.786101
 40
1.099999
 50
-30.000346
 51
29.999656
  0
ARC
  8
CSLAYER1
  6
CONTINUOUS
 62
     6
 10
214.116878
 20
145.786086
 40
1.099999
 50
149.999656
 51
209.999658
  0
LINE
  8
CSLAYER1
  6
CONTINUOUS
 62
     6
 10
204.362606
 20
142.051101
 11
206.569271
 21
143.265700
  0
LINE
  8
CSLAYER1
  6
CONTINUOUS
 62
     6
 10
204.072200
 20
142.578658
 11
206.315120
 21
143.754592
  0
LINE
  8
CSLAYER1
  6
CONTINUOUS
 62
     6
 10
203.798092
 20
143.101516
 11
206.108150
 21
144.152724
  0
LINE
  8
CSLAYER1
  6
CONTINUOUS
 62
     6
 10
206.911068
 20
142.608046
 11
205.896419
 21
144.560134
  0
ARC
  8
CSLAYER1
  6
CONTINUOUS
 62
     6
 10
217.029049
 20
145.786162
 40
1.100006
 50
149.999997
 51
209.999999
  0
ARC
  8
CSLAYER1
  6
CONTINUOUS
 62
     6
 10
217.029049
 20
144.686156
 40
1.100006
 50
149.999997
 51
209.999999
  0
ARC
  8
CSLAYER1
  6
CONTINUOUS
 62
     6
 10
215.123775
 20
144.686156
 40
1.100006
 50
-30.000011
 51
29.999977
  0
LINE
  8
CSLAYER1
  6
CONTINUOUS
 62
     6
 10
216.076412
 20
146.336135
 11
219.599849
 21
146.336135
  0
LINE
  8
CSLAYER1
  6
CONTINUOUS
 62
     6
 10
216.076412
 20
148.536147
 11
219.599849
 21
148.536147
  0
LINE
  8
CSLAYER1
  6
CONTINUOUS
 62
     6
 10
216.076412
 20
144.136122
 11
219.599849
 21
144.136122
  0
LINE
  8
CSLAYER1
  6
CENTER
 62
     3
 10
182.828853
 20
138.336136
 11
205.849849
 21
138.336136
  0
ARC
  8
CSLAYER1
  6
CONTINUOUS
 62
     6
 10
194.599849
 20
139.216141
 40
0.880000
 50
-89.999999
 51
90.000019
  0
ARC
  8
CSLAYER1
  6
CONTINUOUS
 62
     6
 10
194.599849
 20
137.456131
 40
0.880000
 50
-89.999999
 51
90.000019
  0
ARC
  8
CSLAYER1
  6
CONTINUOUS
 62
     6
 10
190.451351
 20
150.943222
 40
12.607053
 50
242.536193
 51
270.000110
  0
ARC
  8
CSLAYER1
  6
CONTINUOUS
 62
     6
 10
190.451351
 20
150.943222
 40
10.847068
 50
242.536193
 51
270.000083
  0
ARC
  8
CSLAYER1
  6
CONTINUOUS
 62
     6
 10
189.689251
 20
138.776139
 40
0.879999
 50
-29.999656
 51
30.000332
  0
ARC
  8
CSLAYER1
  6
CONTINUOUS
 62
     6
 10
189.689251
 20
139.656144
 40
0.879999
 50
-29.999656
 51
30.000332
  0
ARC
  8
CSLAYER1
  6
CONTINUOUS
 62
     6
 10
191.213451
 20
139.656144
 40
0.879999
 50
150.000353
 51
210.000354
  0
LINE
  8
CSLAYER1
  6
CONTINUOUS
 62
     6
 10
183.253383
 20
141.850388
 11
185.175380
 21
140.792496
  0
LINE
  8
CSLAYER1
  6
CONTINUOUS
 62
     6
 10
183.028072
 20
141.420609
 11
184.972072
 21
140.401352
  0
LINE
  8
CSLAYER1
  6
CONTINUOUS
 62
     6
 10
182.828853
 20
140.982804
 11
184.806514
 21
140.082840
  0
LINE
  8
CSLAYER1
  6
CONTINUOUS
 62
     6
 10
185.448818
 20
141.318589
 11
184.637111
 21
139.756943
  0
ARC
  8
CSLAYER1
  6
CONTINUOUS
 62
     6
 10
192.543224
 20
139.656144
 40
0.880005
 50
149.999997
 51
209.999999
  0
ARC
  8
CSLAYER1
  6
CONTINUOUS
 62
     6
 10
192.543224
 20
138.776139
 40
0.880005
 50
149.999997
 51
209.999999
  0
ARC
  8
CSLAYER1
  6
CONTINUOUS
 62
     6
 10
191.019024
 20
138.776139
 40
0.880005
 50
-30.000011
 51
29.999977
  0
ARC
  8
CSLAYER1
  6
CONTINUOUS
 62
     6
 10
190.451351
 20
125.729050
 40
12.607053
 50
89.999900
 51
117.463817
  0
ARC
  8
CSLAYER1
  6
CONTINUOUS
 62
     6
 10
190.451351
 20
125.729050
 40
10.847068
 50
89.999927
 51
117.463817
  0
ARC
  8
CSLAYER1
  6
CONTINUOUS
 62
     6
 10
189.689251
 20
137.016129
 40
0.879999
 50
-30.000346
 51
29.999656
  0
ARC
  8
CSLAYER1
  6
CONTINUOUS
 62
     6
 10
189.689251
 20
137.896134
 40
0.879999
 50
-30.000346
 51
29.999656
  0
ARC
  8
CSLAYER1
  6
CONTINUOUS
 62
     6
 10
191.213451
 20
137.896134
 40
0.879999
 50
149.999656
 51
209.999658
  0
LINE
  8
CSLAYER1
  6
CONTINUOUS
 62
     6
 10
183.410030
 20
134.908097
 11
185.175380
 21
135.879776
  0
LINE
  8
CSLAYER1
  6
CONTINUOUS
 62
     6
 10
183.177730
 20
135.330155
 11
184.972072
 21
136.270920
  0
LINE
  8
CSLAYER1
  6
CONTINUOUS
 62
     6
 10
182.958431
 20
135.748429
 11
184.806514
 21
136.589432
  0
LINE
  8
CSLAYER1
  6
CONTINUOUS
 62
     6
 10
185.448818
 20
135.353684
 11
184.637111
 21
136.915329
  0
ARC
  8
CSLAYER1
  6
CONTINUOUS
 62
     6
 10
192.543224
 20
137.896134
 40
0.880005
 50
149.999997
 51
209.999999
  0
ARC
  8
CSLAYER1
  6
CONTINUOUS
 62
     6
 10
192.543224
 20
137.016129
 40
0.880005
 50
149.999997
 51
209.999999
  0
ARC
  8
CSLAYER1
  6
CONTINUOUS
 62
     6
 10
191.019024
 20
137.016129
 40
0.880005
 50
-30.000011
 51
29.999977
  0
LINE
  8
CSLAYER1
  6
CONTINUOUS
 62
     6
 10
191.781124
 20
138.336136
 11
194.599849
 21
138.336136
  0
LINE
  8
CSLAYER1
  6
CONTINUOUS
 62
     6
 10
191.781124
 20
140.096146
 11
194.599849
 21
140.096146
  0
LINE
  8
CSLAYER1
  6
CONTINUOUS
 62
     6
 10
191.781124
 20
136.576126
 11
194.599849
 21
136.576126
  0
LINE
  8
CSLAYER1
  6
CENTER
 62
     3
 10
194.599849
 20
145.555710
 11
194.599849
 21
130.947220
  0
LINE
  8
CSLAYER1
  6
CONTINUOUS
 62
     6
 10
202.599849
 20
272.683247
 11
202.599849
 21
212.683247
  0
LINE
  8
CSLAYER1
  6
CONTINUOUS
 62
     6
 10
202.599894
 20
85.988937
 11
202.594587
 21
25.988937
  0
LINE
  8
CSLAYER1
  6
CONTINUOUS
 62
     6
 10
168.599849
 20
212.683247
 11
168.599849
 21
272.683247
  0
LINE
  8
CSLAYER1
  6
CONTINUOUS
 62
     6
 10
161.599849
 20
272.683247
 11
161.599849
 21
212.683247
  0
LINE
  8
CSLAYER1
  6
CONTINUOUS
 62
     6
 10
161.599849
 20
272.683247
 11
202.599849
 21
272.683247
  0
LINE
  8
CSLAYER1
  6
CONTINUOUS
 62
     6
 10
161.599849
 20
212.683247
 11
202.599849
 21
212.683247
  0
LINE
  8
CSLAYER1
  6
CONTINUOUS
 62
     6
 10
168.599849
 20
25.989031
 11
168.599849
 21
85.989031
  0
LINE
  8
CSLAYER1
  6
CONTINUOUS
 62
     6
 10
161.599849
 20
85.989031
 11
161.599849
 21
25.989031
  0
LINE
  8
CSLAYER1
  6
CONTINUOUS
 62
     6
 10
161.599849
 20
85.989031
 11
190.684424
 21
85.989031
  0
LINE
  8
CSLAYER1
  6
CONTINUOUS
 62
     6
 10
161.599849
 20
25.989031
 11
202.594587
 21
25.989031
  0
LINE
  8
CSLAYER1
  6
CONTINUOUS
 62
     6
 10
198.515274
 20
85.989031
 11
202.599894
 21
85.989031
  0
LINE
  8
CSLAYER1
  6
CENTER
 62
     3
 10
194.599849
 20
79.745966
 11
194.599849
 21
101.950891
  0
LINE
  8
CSLAYER1
  6
CONTINUOUS
 62
     6
 10
195.479900
 20
84.053778
 11
195.479900
 21
91.512414
  0
LINE
  8
CSLAYER1
  6
CONTINUOUS
 62
     6
 10
193.719890
 20
84.053764
 11
193.719890
 21
91.512414
  0
ARC
  8
CSLAYER1
  6
CONTINUOUS
 62
     6
 10
182.872829
 20
93.842218
 40
12.607053
 50
0.057309
 51
27.463798
  0
ARC
  8
CSLAYER1
  6
CONTINUOUS
 62
     6
 10
182.872829
 20
93.842218
 40
10.847068
 50
0.057309
 51
27.463798
  0
ARC
  8
CSLAYER1
  6
CONTINUOUS
 62
     6
 10
195.039882
 20
94.604287
 40
0.879999
 50
239.999655
 51
299.999650
  0
ARC
  8
CSLAYER1
  6
CONTINUOUS
 62
     6
 10
194.159877
 20
94.604287
 40
0.879999
 50
239.999655
 51
299.999650
  0
ARC
  8
CSLAYER1
  6
CONTINUOUS
 62
     6
 10
194.159877
 20
93.080087
 40
0.879999
 50
59.999650
 51
119.999638
  0
LINE
  8
CSLAYER1
  6
CONTINUOUS
 62
     6
 10
193.023525
 20
99.118173
 11
191.729793
 21
101.468637
  0
LINE
  8
CSLAYER1
  6
CONTINUOUS
 62
     6
 10
193.414669
 20
99.321481
 11
192.153240
 21
101.727410
  0
LINE
  8
CSLAYER1
  6
CONTINUOUS
 62
     6
 10
193.733181
 20
99.487039
 11
192.611980
 21
101.950875
  0
LINE
  8
CSLAYER1
  6
CONTINUOUS
 62
     6
 10
192.497432
 20
98.844735
 11
194.059078
 21
99.656426
  0
ARC
  8
CSLAYER1
  6
CONTINUOUS
 62
     6
 10
206.326961
 20
93.842218
 40
12.607053
 50
152.536132
 51
158.465829
  0
ARC
  8
CSLAYER1
  6
CONTINUOUS
 62
     6
 10
206.326961
 20
93.842218
 40
10.847068
 50
152.536132
 51
180.000022
  0
LINE
  8
CSLAYER1
  6
CONTINUOUS
 62
     6
 10
196.176235
 20
99.118188
 11
197.469997
 21
101.468637
  0
LINE
  8
CSLAYER1
  6
CONTINUOUS
 62
     6
 10
195.785091
 20
99.321481
 11
197.046535
 21
101.727410
  0
LINE
  8
CSLAYER1
  6
CONTINUOUS
 62
     6
 10
195.466594
 20
99.487039
 11
196.587810
 21
101.950891
  0
LINE
  8
CSLAYER1
  6
CONTINUOUS
 62
     6
 10
196.702327
 20
98.844735
 11
195.140682
 21
99.656442
  0
ARC
  8
CSLAYER1
  6
CONTINUOUS
 62
     6
 10
194.159893
 20
90.750314
 40
0.880005
 50
60.000005
 51
119.999993
  0
ARC
  8
CSLAYER1
  6
CONTINUOUS
 62
     6
 10
195.039898
 20
90.750314
 40
0.880005
 50
60.000005
 51
119.999993
  0
ARC
  8
CSLAYER1
  6
CONTINUOUS
 62
     6
 10
195.039898
 20
92.274514
 40
0.880005
 50
239.999997
 51
299.999998
  0
LINE
  8
CSLAYER1
  6
CENTER
 62
     3
 10
186.349849
 20
84.989770
 11
202.849849
 21
84.989770
  0
ARC
  8
CSLAYER1
  6
CONTINUOUS
 62
     6
 10
194.599849
 20
138.336131
 40
5.250000
 50
-160.080973
 51
160.080864
  0
ARC
  8
CSLAYER1
  6
CONTINUOUS
 62
     6
 10
194.599849
 20
138.336131
 40
2.500000
 50
-135.251029
 51
135.250717
  0
ARC
  8
CSLAYER1
  6
CONTINUOUS
 62
     6
 10
194.599849
 20
138.336131
 40
5.250000
 50
179.473624
 51
180.526271
  0
POLYLINE
  8
CSLAYER1
  6
CONTINUOUS
 62
     6
 66
     1
 10
0.0
 20
0.0
 30
0.0
  0
VERTEX
  8
CSLAYER1
  6
CONTINUOUS
 62
     6
 10
189.349849
 20
84.989774
 30
0.0
  0
VERTEX
  8
CSLAYER1
  6
CONTINUOUS
 62
     6
 10
189.369827
 20
84.771885
 30
0.0
  0
VERTEX
  8
CSLAYER1
  6
CONTINUOUS
 62
     6
 10
189.429607
 20
84.555654
 30
0.0
  0
VERTEX
  8
CSLAYER1
  6
CONTINUOUS
 62
     6
 10
189.528737
 20
84.342726
 30
0.0
  0
VERTEX
  8
CSLAYER1
  6
CONTINUOUS
 62
     6
 10
189.666461
 20
84.134723
 30
0.0
  0
VERTEX
  8
CSLAYER1
  6
CONTINUOUS
 62
     6
 10
189.841730
 20
83.933228
 30
0.0
  0
VERTEX
  8
CSLAYER1
  6
CONTINUOUS
 62
     6
 10
190.053212
 20
83.739774
 30
0.0
  0
VERTEX
  8
CSLAYER1
  6
CONTINUOUS
 62
     6
 10
190.299297
 20
83.555832
 30
0.0
  0
VERTEX
  8
CSLAYER1
  6
CONTINUOUS
 62
     6
 10
190.578111
 20
83.382804
 30
0.0
  0
VERTEX
  8
CSLAYER1
  6
CONTINUOUS
 62
     6
 10
190.887533
 20
83.222006
 30
0.0
  0
VERTEX
  8
CSLAYER1
  6
CONTINUOUS
 62
     6
 10
191.225209
 20
83.074662
 30
0.0
  0
VERTEX
  8
CSLAYER1
  6
CONTINUOUS
 62
     6
 10
191.588567
 20
82.941892
 30
0.0
  0
VERTEX
  8
CSLAYER1
  6
CONTINUOUS
 62
     6
 10
191.974843
 20
82.824709
 30
0.0
  0
VERTEX
  8
CSLAYER1
  6
CONTINUOUS
 62
     6
 10
192.381097
 20
82.724003
 30
0.0
  0
VERTEX
  8
CSLAYER1
  6
CONTINUOUS
 62
     6
 10
192.804237
 20
82.640540
 30
0.0
  0
VERTEX
  8
CSLAYER1
  6
CONTINUOUS
 62
     6
 10
193.241042
 20
82.574957
 30
0.0
  0
VERTEX
  8
CSLAYER1
  6
CONTINUOUS
 62
     6
 10
193.688189
 20
82.527752
 30
0.0
  0
VERTEX
  8
CSLAYER1
  6
CONTINUOUS
 62
     6
 10
194.142274
 20
82.499284
 30
0.0
  0
VERTEX
  8
CSLAYER1
  6
CONTINUOUS
 62
     6
 10
194.599842
 20
82.489770
 30
0.0
  0
VERTEX
  8
CSLAYER1
  6
CONTINUOUS
 62
     6
 10
195.057410
 20
82.499283
 30
0.0
  0
VERTEX
  8
CSLAYER1
  6
CONTINUOUS
 62
     6
 10
195.511495
 20
82.527750
 30
0.0
  0
VERTEX
  8
CSLAYER1
  6
CONTINUOUS
 62
     6
 10
195.958642
 20
82.574955
 30
0.0
  0
VERTEX
  8
CSLAYER1
  6
CONTINUOUS
 62
     6
 10
196.395448
 20
82.640538
 30
0.0
  0
VERTEX
  8
CSLAYER1
  6
CONTINUOUS
 62
     6
 10
196.818588
 20
82.723999
 30
0.0
  0
VERTEX
  8
CSLAYER1
  6
CONTINUOUS
 62
     6
 10
197.224843
 20
82.824705
 30
0.0
  0
VERTEX
  8
CSLAYER1
  6
CONTINUOUS
 62
     6
 10
197.611119
 20
82.941888
 30
0.0
  0
VERTEX
  8
CSLAYER1
  6
CONTINUOUS
 62
     6
 10
197.974479
 20
83.074657
 30
0.0
  0
VERTEX
  8
CSLAYER1
  6
CONTINUOUS
 62
     6
 10
198.312155
 20
83.222001
 30
0.0
  0
VERTEX
  8
CSLAYER1
  6
CONTINUOUS
 62
     6
 10
198.621578
 20
83.382799
 30
0.0
  0
VERTEX
  8
CSLAYER1
  6
CONTINUOUS
 62
     6
 10
198.900393
 20
83.555826
 30
0.0
  0
VERTEX
  8
CSLAYER1
  6
CONTINUOUS
 62
     6
 10
199.146479
 20
83.739767
 30
0.0
  0
VERTEX
  8
CSLAYER1
  6
CONTINUOUS
 62
     6
 10
199.357962
 20
83.933222
 30
0.0
  0
VERTEX
  8
CSLAYER1
  6
CONTINUOUS
 62
     6
 10
199.533233
 20
84.134717
 30
0.0
  0
VERTEX
  8
CSLAYER1
  6
CONTINUOUS
 62
     6
 10
199.670958
 20
84.342719
 30
0.0
  0
VERTEX
  8
CSLAYER1
  6
CONTINUOUS
 62
     6
 10
199.770089
 20
84.555646
 30
0.0
  0
VERTEX
  8
CSLAYER1
  6
CONTINUOUS
 62
     6
 10
199.829871
 20
84.771878
 30
0.0
  0
VERTEX
  8
CSLAYER1
  6
CONTINUOUS
 62
     6
 10
199.849849
 20
84.989767
 30
0.0
  0
VERTEX
  8
CSLAYER1
  6
CONTINUOUS
 62
     6
 10
199.849849
 20
84.989774
 30
0.0
  0
SEQEND
  0
POLYLINE
  8
CSLAYER1
  6
CONTINUOUS
 62
     6
 66
     1
 10
0.0
 20
0.0
 30
0.0
  0
VERTEX
  8
CSLAYER1
  6
CONTINUOUS
 62
     6
 10
199.849849
 20
84.989768
 30
0.0
  0
VERTEX
  8
CSLAYER1
  6
CONTINUOUS
 62
     6
 10
199.829872
 20
85.120502
 30
0.0
  0
VERTEX
  8
CSLAYER1
  6
CONTINUOUS
 62
     6
 10
199.770090
 20
85.250240
 30
0.0
  0
VERTEX
  8
CSLAYER1
  6
CONTINUOUS
 62
     6
 10
199.670960
 20
85.377997
 30
0.0
  0
VERTEX
  8
CSLAYER1
  6
CONTINUOUS
 62
     6
 10
199.533236
 20
85.502798
 30
0.0
  0
VERTEX
  8
CSLAYER1
  6
CONTINUOUS
 62
     6
 10
199.357965
 20
85.623696
 30
0.0
  0
VERTEX
  8
CSLAYER1
  6
CONTINUOUS
 62
     6
 10
199.146483
 20
85.739768
 30
0.0
  0
VERTEX
  8
CSLAYER1
  6
CONTINUOUS
 62
     6
 10
198.900398
 20
85.850133
 30
0.0
  0
VERTEX
  8
CSLAYER1
  6
CONTINUOUS
 62
     6
 10
198.621583
 20
85.953950
 30
0.0
  0
VERTEX
  8
CSLAYER1
  6
CONTINUOUS
 62
     6
 10
198.312160
 20
86.050428
 30
0.0
  0
VERTEX
  8
CSLAYER1
  6
CONTINUOUS
 62
     6
 10
197.974484
 20
86.138835
 30
0.0
  0
VERTEX
  8
CSLAYER1
  6
CONTINUOUS
 62
     6
 10
197.611126
 20
86.218496
 30
0.0
  0
VERTEX
  8
CSLAYER1
  6
CONTINUOUS
 62
     6
 10
197.224849
 20
86.288806
 30
0.0
  0
VERTEX
  8
CSLAYER1
  6
CONTINUOUS
 62
     6
 10
196.818595
 20
86.349230
 30
0.0
  0
VERTEX
  8
CSLAYER1
  6
CONTINUOUS
 62
     6
 10
196.395455
 20
86.399307
 30
0.0
  0
VERTEX
  8
CSLAYER1
  6
CONTINUOUS
 62
     6
 10
195.958649
 20
86.438657
 30
0.0
  0
VERTEX
  8
CSLAYER1
  6
CONTINUOUS
 62
     6
 10
195.511502
 20
86.466980
 30
0.0
  0
VERTEX
  8
CSLAYER1
  6
CONTINUOUS
 62
     6
 10
195.479900
 20
86.468543
 30
0.0
  0
SEQEND
  0
POLYLINE
  8
CSLAYER1
  6
CONTINUOUS
 62
     6
 66
     1
 10
0.0
 20
0.0
 30
0.0
  0
VERTEX
  8
CSLAYER1
  6
CONTINUOUS
 62
     6
 10
193.719890
 20
86.468548
 30
0.0
  0
VERTEX
  8
CSLAYER1
  6
CONTINUOUS
 62
     6
 10
193.272144
 20
86.441008
 30
0.0
  0
VERTEX
  8
CSLAYER1
  6
CONTINUOUS
 62
     6
 10
192.834503
 20
86.402424
 30
0.0
  0
VERTEX
  8
CSLAYER1
  6
CONTINUOUS
 62
     6
 10
192.410297
 20
86.353088
 30
0.0
  0
VERTEX
  8
CSLAYER1
  6
CONTINUOUS
 62
     6
 10
192.002755
 20
86.293377
 30
0.0
  0
VERTEX
  8
CSLAYER1
  6
CONTINUOUS
 62
     6
 10
191.614978
 20
86.223744
 30
0.0
  0
VERTEX
  8
CSLAYER1
  6
CONTINUOUS
 62
     6
 10
191.249918
 20
86.144721
 30
0.0
  0
VERTEX
  8
CSLAYER1
  6
CONTINUOUS
 62
     6
 10
190.910353
 20
86.056907
 30
0.0
  0
VERTEX
  8
CSLAYER1
  6
CONTINUOUS
 62
     6
 10
190.598867
 20
85.960972
 30
0.0
  0
VERTEX
  8
CSLAYER1
  6
CONTINUOUS
 62
     6
 10
190.317831
 20
85.857645
 30
0.0
  0
VERTEX
  8
CSLAYER1
  6
CONTINUOUS
 62
     6
 10
190.069384
 20
85.747713
 30
0.0
  0
VERTEX
  8
CSLAYER1
  6
CONTINUOUS
 62
     6
 10
189.855416
 20
85.632013
 30
0.0
  0
VERTEX
  8
CSLAYER1
  6
CONTINUOUS
 62
     6
 10
189.677557
 20
85.511425
 30
0.0
  0
VERTEX
  8
CSLAYER1
  6
CONTINUOUS
 62
     6
 10
189.537159
 20
85.386866
 30
0.0
  0
VERTEX
  8
CSLAYER1
  6
CONTINUOUS
 62
     6
 10
189.435291
 20
85.259286
 30
0.0
  0
VERTEX
  8
CSLAYER1
  6
CONTINUOUS
 62
     6
 10
189.372729
 20
85.129654
 30
0.0
  0
VERTEX
  8
CSLAYER1
  6
CONTINUOUS
 62
     6
 10
189.349948
 20
84.998958
 30
0.0
  0
VERTEX
  8
CSLAYER1
  6
CONTINUOUS
 62
     6
 10
189.349849
 20
84.989770
 30
0.0
  0
SEQEND
  0
POLYLINE
  8
CSLAYER1
  6
CONTINUOUS
 62
     6
 66
     1
 10
0.0
 20
0.0
 30
0.0
  0
VERTEX
  8
CSLAYER1
  6
CONTINUOUS
 62
     6
 10
193.719890
 20
85.925777
 30
0.0
  0
VERTEX
  8
CSLAYER1
  6
CONTINUOUS
 62
     6
 10
193.519293
 20
85.891537
 30
0.0
  0
VERTEX
  8
CSLAYER1
  6
CONTINUOUS
 62
     6
 10
193.326919
 20
85.850435
 30
0.0
  0
VERTEX
  8
CSLAYER1
  6
CONTINUOUS
 62
     6
 10
193.144234
 20
85.802783
 30
0.0
  0
VERTEX
  8
CSLAYER1
  6
CONTINUOUS
 62
     6
 10
192.972626
 20
85.748943
 30
0.0
  0
VERTEX
  8
CSLAYER1
  6
CONTINUOUS
 62
     6
 10
192.813402
 20
85.689325
 30
0.0
  0
VERTEX
  8
CSLAYER1
  6
CONTINUOUS
 62
     6
 10
192.667775
 20
85.624384
 30
0.0
  0
VERTEX
  8
CSLAYER1
  6
CONTINUOUS
 62
     6
 10
192.536851
 20
85.554612
 30
0.0
  0
VERTEX
  8
CSLAYER1
  6
CONTINUOUS
 62
     6
 10
192.421629
 20
85.480542
 30
0.0
  0
VERTEX
  8
CSLAYER1
  6
CONTINUOUS
 62
     6
 10
192.322984
 20
85.402737
 30
0.0
  0
VERTEX
  8
CSLAYER1
  6
CONTINUOUS
 62
     6
 10
192.241667
 20
85.321789
 30
0.0
  0
VERTEX
  8
CSLAYER1
  6
CONTINUOUS
 62
     6
 10
192.178297
 20
85.238313
 30
0.0
  0
VERTEX
  8
CSLAYER1
  6
CONTINUOUS
 62
     6
 10
192.133357
 20
85.152947
 30
0.0
  0
VERTEX
  8
CSLAYER1
  6
CONTINUOUS
 62
     6
 10
192.107188
 20
85.066338
 30
0.0
  0
VERTEX
  8
CSLAYER1
  6
CONTINUOUS
 62
     6
 10
192.099990
 20
84.979147
 30
0.0
  0
VERTEX
  8
CSLAYER1
  6
CONTINUOUS
 62
     6
 10
192.111818
 20
84.892037
 30
0.0
  0
VERTEX
  8
CSLAYER1
  6
CONTINUOUS
 62
     6
 10
192.142581
 20
84.805670
 30
0.0
  0
VERTEX
  8
CSLAYER1
  6
CONTINUOUS
 62
     6
 10
192.192045
 20
84.720705
 30
0.0
  0
VERTEX
  8
CSLAYER1
  6
CONTINUOUS
 62
     6
 10
192.259834
 20
84.637787
 30
0.0
  0
VERTEX
  8
CSLAYER1
  6
CONTINUOUS
 62
     6
 10
192.345432
 20
84.557548
 30
0.0
  0
VERTEX
  8
CSLAYER1
  6
CONTINUOUS
 62
     6
 10
192.448187
 20
84.480598
 30
0.0
  0
VERTEX
  8
CSLAYER1
  6
CONTINUOUS
 62
     6
 10
192.567318
 20
84.407524
 30
0.0
  0
VERTEX
  8
CSLAYER1
  6
CONTINUOUS
 62
     6
 10
192.701918
 20
84.338881
 30
0.0
  0
VERTEX
  8
CSLAYER1
  6
CONTINUOUS
 62
     6
 10
192.850962
 20
84.275192
 30
0.0
  0
VERTEX
  8
CSLAYER1
  6
CONTINUOUS
 62
     6
 10
193.013316
 20
84.216941
 30
0.0
  0
VERTEX
  8
CSLAYER1
  6
CONTINUOUS
 62
     6
 10
193.187745
 20
84.164571
 30
0.0
  0
VERTEX
  8
CSLAYER1
  6
CONTINUOUS
 62
     6
 10
193.372920
 20
84.118482
 30
0.0
  0
VERTEX
  8
CSLAYER1
  6
CONTINUOUS
 62
     6
 10
193.567434
 20
84.079024
 30
0.0
  0
VERTEX
  8
CSLAYER1
  6
CONTINUOUS
 62
     6
 10
193.769804
 20
84.046497
 30
0.0
  0
VERTEX
  8
CSLAYER1
  6
CONTINUOUS
 62
     6
 10
193.978492
 20
84.021150
 30
0.0
  0
VERTEX
  8
CSLAYER1
  6
CONTINUOUS
 62
     6
 10
194.191909
 20
84.003174
 30
0.0
  0
VERTEX
  8
CSLAYER1
  6
CONTINUOUS
 62
     6
 10
194.408430
 20
83.992706
 30
0.0
  0
VERTEX
  8
CSLAYER1
  6
CONTINUOUS
 62
     6
 10
194.626408
 20
83.989827
 30
0.0
  0
VERTEX
  8
CSLAYER1
  6
CONTINUOUS
 62
     6
 10
194.844184
 20
83.994558
 30
0.0
  0
VERTEX
  8
CSLAYER1
  6
CONTINUOUS
 62
     6
 10
195.060101
 20
84.006863
 30
0.0
  0
VERTEX
  8
CSLAYER1
  6
CONTINUOUS
 62
     6
 10
195.272514
 20
84.026649
 30
0.0
  0
VERTEX
  8
CSLAYER1
  6
CONTINUOUS
 62
     6
 10
195.479808
 20
84.053764
 30
0.0
  0
VERTEX
  8
CSLAYER1
  6
CONTINUOUS
 62
     6
 10
195.680406
 20
84.088003
 30
0.0
  0
VERTEX
  8
CSLAYER1
  6
CONTINUOUS
 62
     6
 10
195.872779
 20
84.129106
 30
0.0
  0
VERTEX
  8
CSLAYER1
  6
CONTINUOUS
 62
     6
 10
196.055465
 20
84.176758
 30
0.0
  0
VERTEX
  8
CSLAYER1
  6
CONTINUOUS
 62
     6
 10
196.227073
 20
84.230598
 30
0.0
  0
VERTEX
  8
CSLAYER1
  6
CONTINUOUS
 62
     6
 10
196.386296
 20
84.290216
 30
0.0
  0
VERTEX
  8
CSLAYER1
  6
CONTINUOUS
 62
     6
 10
196.531924
 20
84.355157
 30
0.0
  0
VERTEX
  8
CSLAYER1
  6
CONTINUOUS
 62
     6
 10
196.662847
 20
84.424929
 30
0.0
  0
VERTEX
  8
CSLAYER1
  6
CONTINUOUS
 62
     6
 10
196.778070
 20
84.498999
 30
0.0
  0
VERTEX
  8
CSLAYER1
  6
CONTINUOUS
 62
     6
 10
196.876715
 20
84.576804
 30
0.0
  0
VERTEX
  8
CSLAYER1
  6
CONTINUOUS
 62
     6
 10
196.958032
 20
84.657752
 30
0.0
  0
VERTEX
  8
CSLAYER1
  6
CONTINUOUS
 62
     6
 10
197.021402
 20
84.741228
 30
0.0
  0
VERTEX
  8
CSLAYER1
  6
CONTINUOUS
 62
     6
 10
197.066342
 20
84.826594
 30
0.0
  0
VERTEX
  8
CSLAYER1
  6
CONTINUOUS
 62
     6
 10
197.092510
 20
84.913203
 30
0.0
  0
VERTEX
  8
CSLAYER1
  6
CONTINUOUS
 62
     6
 10
197.099708
 20
85.000394
 30
0.0
  0
VERTEX
  8
CSLAYER1
  6
CONTINUOUS
 62
     6
 10
197.087881
 20
85.087504
 30
0.0
  0
VERTEX
  8
CSLAYER1
  6
CONTINUOUS
 62
     6
 10
197.057118
 20
85.173871
 30
0.0
  0
VERTEX
  8
CSLAYER1
  6
CONTINUOUS
 62
     6
 10
197.007654
 20
85.258836
 30
0.0
  0
VERTEX
  8
CSLAYER1
  6
CONTINUOUS
 62
     6
 10
196.939865
 20
85.341754
 30
0.0
  0
VERTEX
  8
CSLAYER1
  6
CONTINUOUS
 62
     6
 10
196.854267
 20
85.421993
 30
0.0
  0
VERTEX
  8
CSLAYER1
  6
CONTINUOUS
 62
     6
 10
196.751511
 20
85.498942
 30
0.0
  0
VERTEX
  8
CSLAYER1
  6
CONTINUOUS
 62
     6
 10
196.632380
 20
85.572017
 30
0.0
  0
VERTEX
  8
CSLAYER1
  6
CONTINUOUS
 62
     6
 10
196.497781
 20
85.640660
 30
0.0
  0
VERTEX
  8
CSLAYER1
  6
CONTINUOUS
 62
     6
 10
196.348737
 20
85.704349
 30
0.0
  0
VERTEX
  8
CSLAYER1
  6
CONTINUOUS
 62
     6
 10
196.186383
 20
85.762600
 30
0.0
  0
VERTEX
  8
CSLAYER1
  6
CONTINUOUS
 62
     6
 10
196.011954
 20
85.814970
 30
0.0
  0
VERTEX
  8
CSLAYER1
  6
CONTINUOUS
 62
     6
 10
195.826778
 20
85.861059
 30
0.0
  0
VERTEX
  8
CSLAYER1
  6
CONTINUOUS
 62
     6
 10
195.632265
 20
85.900517
 30
0.0
  0
VERTEX
  8
CSLAYER1
  6
CONTINUOUS
 62
     6
 10
195.479900
 20
85.925763
 30
0.0
  0
SEQEND
  0
POLYLINE
  8
CSLAYER1
  6
CONTINUOUS
 62
     3
 66
     1
 10
0.0
 20
0.0
 30
0.0
  0
VERTEX
  8
CSLAYER1
  6
CONTINUOUS
 62
     3
 10
196.472239
 20
85.152391
 30
0.0
  0
VERTEX
  8
CSLAYER1
  6
CONTINUOUS
 62
     3
 10
196.320736
 20
85.215145
 30
0.0
  0
VERTEX
  8
CSLAYER1
  6
CONTINUOUS
 62
     3
 10
196.156136
 20
85.272379
 30
0.0
  0
VERTEX
  8
CSLAYER1
  6
CONTINUOUS
 62
     3
 10
195.979692
 20
85.323656
 30
0.0
  0
VERTEX
  8
CSLAYER1
  6
CONTINUOUS
 62
     3
 10
195.792746
 20
85.368588
 30
0.0
  0
VERTEX
  8
CSLAYER1
  6
CONTINUOUS
 62
     3
 10
195.596722
 20
85.406831
 30
0.0
  0
VERTEX
  8
CSLAYER1
  6
CONTINUOUS
 62
     3
 10
195.479900
 20
85.425763
 30
0.0
  0
SEQEND
  0
POLYLINE
  8
CSLAYER1
  6
CONTINUOUS
 62
     3
 66
     1
 10
0.0
 20
0.0
 30
0.0
  0
VERTEX
  8
CSLAYER1
  6
CONTINUOUS
 62
     3
 10
193.719890
 20
85.425777
 30
0.0
  0
VERTEX
  8
CSLAYER1
  6
CONTINUOUS
 62
     3
 10
193.519293
 20
85.391537
 30
0.0
  0
VERTEX
  8
CSLAYER1
  6
CONTINUOUS
 62
     3
 10
193.326919
 20
85.350435
 30
0.0
  0
VERTEX
  8
CSLAYER1
  6
CONTINUOUS
 62
     3
 10
193.144234
 20
85.302783
 30
0.0
  0
VERTEX
  8
CSLAYER1
  6
CONTINUOUS
 62
     3
 10
192.972626
 20
85.248943
 30
0.0
  0
VERTEX
  8
CSLAYER1
  6
CONTINUOUS
 62
     3
 10
192.813402
 20
85.189325
 30
0.0
  0
VERTEX
  8
CSLAYER1
  6
CONTINUOUS
 62
     3
 10
192.727460
 20
85.152391
 30
0.0
  0
SEQEND
  0
POLYLINE
  8
CSLAYER1
  6
CONTINUOUS
 62
     3
 66
     1
 10
0.0
 20
0.0
 30
0.0
  0
VERTEX
  8
CSLAYER1
  6
CONTINUOUS
 62
     3
 10
190.679994
 20
83.826697
 30
0.0
  0
VERTEX
  8
CSLAYER1
  6
CONTINUOUS
 62
     3
 10
190.999298
 20
83.670341
 30
0.0
  0
VERTEX
  8
CSLAYER1
  6
CONTINUOUS
 62
     3
 10
191.346004
 20
83.527832
 30
0.0
  0
VERTEX
  8
CSLAYER1
  6
CONTINUOUS
 62
     3
 10
191.717473
 20
83.400254
 30
0.0
  0
VERTEX
  8
CSLAYER1
  6
CONTINUOUS
 62
     3
 10
192.110880
 20
83.288579
 30
0.0
  0
VERTEX
  8
CSLAYER1
  6
CONTINUOUS
 62
     3
 10
192.523229
 20
83.193656
 30
0.0
  0
VERTEX
  8
CSLAYER1
  6
CONTINUOUS
 62
     3
 10
192.951382
 20
83.116208
 30
0.0
  0
VERTEX
  8
CSLAYER1
  6
CONTINUOUS
 62
     3
 10
193.392081
 20
83.056824
 30
0.0
  0
VERTEX
  8
CSLAYER1
  6
CONTINUOUS
 62
     3
 10
193.841972
 20
83.015957
 30
0.0
  0
VERTEX
  8
CSLAYER1
  6
CONTINUOUS
 62
     3
 10
194.297631
 20
82.993916
 30
0.0
  0
VERTEX
  8
CSLAYER1
  6
CONTINUOUS
 62
     3
 10
194.755590
 20
82.990871
 30
0.0
  0
VERTEX
  8
CSLAYER1
  6
CONTINUOUS
 62
     3
 10
195.212363
 20
83.006843
 30
0.0
  0
VERTEX
  8
CSLAYER1
  6
CONTINUOUS
 62
     3
 10
195.664475
 20
83.041713
 30
0.0
  0
VERTEX
  8
CSLAYER1
  6
CONTINUOUS
 62
     3
 10
196.108485
 20
83.095213
 30
0.0
  0
VERTEX
  8
CSLAYER1
  6
CONTINUOUS
 62
     3
 10
196.541013
 20
83.166938
 30
0.0
  0
VERTEX
  8
CSLAYER1
  6
CONTINUOUS
 62
     3
 10
196.958767
 20
83.256340
 30
0.0
  0
VERTEX
  8
CSLAYER1
  6
CONTINUOUS
 62
     3
 10
197.358569
 20
83.362741
 30
0.0
  0
VERTEX
  8
CSLAYER1
  6
CONTINUOUS
 62
     3
 10
197.737375
 20
83.485329
 30
0.0
  0
VERTEX
  8
CSLAYER1
  6
CONTINUOUS
 62
     3
 10
198.092303
 20
83.623173
 30
0.0
  0
VERTEX
  8
CSLAYER1
  6
CONTINUOUS
 62
     3
 10
198.420651
 20
83.775222
 30
0.0
  0
VERTEX
  8
CSLAYER1
  6
CONTINUOUS
 62
     3
 10
198.519705
 20
83.826697
 30
0.0
  0
SEQEND
  0
LINE
  8
CSLAYER1
  6
CENTER
 62
     3
 10
194.599849
 20
218.926281
 11
194.599849
 21
196.686217
  0
LINE
  8
CSLAYER1
  6
CONTINUOUS
 62
     3
 10
195.479900
 20
215.183632
 11
195.479900
 21
214.683632
  0
ARC
  8
CSLAYER1
  6
CONTINUOUS
 62
     6
 10
182.872829
 20
204.794890
 40
12.607053
 50
332.536202
 51
359.942691
  0
ARC
  8
CSLAYER1
  6
CONTINUOUS
 62
     6
 10
182.872829
 20
204.794890
 40
10.847068
 50
332.536202
 51
359.942691
  0
ARC
  8
CSLAYER1
  6
CONTINUOUS
 62
     6
 10
195.039882
 20
204.032821
 40
0.879999
 50
60.000350
 51
120.000345
  0
ARC
  8
CSLAYER1
  6
CONTINUOUS
 62
     6
 10
194.159877
 20
204.032821
 40
0.879999
 50
60.000350
 51
120.000345
  0
ARC
  8
CSLAYER1
  6
CONTINUOUS
 62
     6
 10
194.159877
 20
205.557021
 40
0.879999
 50
240.000362
 51
300.000350
  0
LINE
  8
CSLAYER1
  6
CONTINUOUS
 62
     6
 10
193.023525
 20
199.518935
 11
191.729793
 21
197.168471
  0
LINE
  8
CSLAYER1
  6
CONTINUOUS
 62
     6
 10
193.414669
 20
199.315627
 11
192.153240
 21
196.909697
  0
LINE
  8
CSLAYER1
  6
CONTINUOUS
 62
     6
 10
193.733181
 20
199.150069
 11
192.611980
 21
196.686232
  0
LINE
  8
CSLAYER1
  6
CONTINUOUS
 62
     6
 10
192.497432
 20
199.792373
 11
194.059078
 21
198.980681
  0
ARC
  8
CSLAYER1
  6
CONTINUOUS
 62
     6
 10
206.326961
 20
204.794890
 40
12.607053
 50
201.534171
 51
207.463868
  0
ARC
  8
CSLAYER1
  6
CONTINUOUS
 62
     6
 10
206.326961
 20
204.794890
 40
10.847068
 50
179.999978
 51
207.463868
  0
LINE
  8
CSLAYER1
  6
CONTINUOUS
 62
     6
 10
196.176235
 20
199.518920
 11
197.469997
 21
197.168471
  0
LINE
  8
CSLAYER1
  6
CONTINUOUS
 62
     6
 10
195.785091
 20
199.315627
 11
197.046535
 21
196.909697
  0
LINE
  8
CSLAYER1
  6
CONTINUOUS
 62
     6
 10
195.466594
 20
199.150069
 11
196.587810
 21
196.686217
  0
LINE
  8
CSLAYER1
  6
CONTINUOUS
 62
     6
 10
196.702327
 20
199.792373
 11
195.140682
 21
198.980666
  0
ARC
  8
CSLAYER1
  6
CONTINUOUS
 62
     6
 10
194.159893
 20
207.886794
 40
0.880005
 50
240.000007
 51
299.999995
  0
ARC
  8
CSLAYER1
  6
CONTINUOUS
 62
     6
 10
195.039898
 20
207.886794
 40
0.880005
 50
240.000007
 51
299.999995
  0
ARC
  8
CSLAYER1
  6
CONTINUOUS
 62
     6
 10
195.039898
 20
206.362594
 40
0.880005
 50
60.000002
 51
120.000003
  0
LINE
  8
CSLAYER1
  6
CENTER
 62
     3
 10
186.349849
 20
213.682476
 11
202.849849
 21
213.682476
  0
POLYLINE
  8
CSLAYER1
  6
CONTINUOUS
 62
     3
 66
     1
 10
0.0
 20
0.0
 30
0.0
  0
VERTEX
  8
CSLAYER1
  6
CONTINUOUS
 62
     3
 10
199.849849
 20
213.682472
 30
0.0
  0
VERTEX
  8
CSLAYER1
  6
CONTINUOUS
 62
     3
 10
199.829872
 20
213.900362
 30
0.0
  0
VERTEX
  8
CSLAYER1
  6
CONTINUOUS
 62
     3
 10
199.770091
 20
214.116593
 30
0.0
  0
VERTEX
  8
CSLAYER1
  6
CONTINUOUS
 62
     3
 10
199.735005
 20
214.202523
 30
0.0
  0
SEQEND
  0
LINE
  8
CSLAYER1
  6
CONTINUOUS
 62
     6
 10
195.479900
 20
212.203703
 11
195.479900
 21
207.124694
  0
LINE
  8
CSLAYER1
  6
CONTINUOUS
 62
     6
 10
193.719890
 20
212.203698
 11
193.719890
 21
207.124694
  0
POLYLINE
  8
CSLAYER1
  6
CONTINUOUS
 62
     3
 66
     1
 10
0.0
 20
0.0
 30
0.0
  0
VERTEX
  8
CSLAYER1
  6
CONTINUOUS
 62
     3
 10
189.626998
 20
213.201557
 30
0.0
  0
VERTEX
  8
CSLAYER1
  6
CONTINUOUS
 62
     3
 10
189.792623
 20
213.079555
 30
0.0
  0
VERTEX
  8
CSLAYER1
  6
CONTINUOUS
 62
     3
 10
189.994835
 20
212.962141
 30
0.0
  0
VERTEX
  8
CSLAYER1
  6
CONTINUOUS
 62
     3
 10
190.147600
 20
212.887598
 30
0.0
  0
SEQEND
  0
POLYLINE
  8
CSLAYER1
  6
CONTINUOUS
 62
     3
 66
     1
 10
0.0
 20
0.0
 30
0.0
  0
VERTEX
  8
CSLAYER1
  6
CONTINUOUS
 62
     3
 10
199.464260
 20
214.622877
 30
0.0
  0
VERTEX
  8
CSLAYER1
  6
CONTINUOUS
 62
     3
 10
199.273631
 20
214.821185
 30
0.0
  0
VERTEX
  8
CSLAYER1
  6
CONTINUOUS
 62
     3
 10
199.047431
 20
215.010827
 30
0.0
  0
VERTEX
  8
CSLAYER1
  6
CONTINUOUS
 62
     3
 10
198.787383
 20
215.190359
 30
0.0
  0
VERTEX
  8
CSLAYER1
  6
CONTINUOUS
 62
     3
 10
198.689617
 20
215.250025
 30
0.0
  0
SEQEND
  0
POLYLINE
  8
CSLAYER1
  6
CONTINUOUS
 62
     3
 66
     1
 10
0.0
 20
0.0
 30
0.0
  0
VERTEX
  8
CSLAYER1
  6
CONTINUOUS
 62
     3
 10
198.244789
 20
215.481752
 30
0.0
  0
VERTEX
  8
CSLAYER1
  6
CONTINUOUS
 62
     3
 10
197.901603
 20
215.626180
 30
0.0
  0
VERTEX
  8
CSLAYER1
  6
CONTINUOUS
 62
     3
 10
197.533288
 20
215.755816
 30
0.0
  0
VERTEX
  8
CSLAYER1
  6
CONTINUOUS
 62
     3
 10
197.307701
 20
215.824277
 30
0.0
  0
SEQEND
  0
POLYLINE
  8
CSLAYER1
  6
CONTINUOUS
 62
     3
 66
     1
 10
0.0
 20
0.0
 30
0.0
  0
VERTEX
  8
CSLAYER1
  6
CONTINUOUS
 62
     3
 10
196.823060
 20
215.947253
 30
0.0
  0
VERTEX
  8
CSLAYER1
  6
CONTINUOUS
 62
     3
 10
196.400084
 20
216.030904
 30
0.0
  0
VERTEX
  8
CSLAYER1
  6
CONTINUOUS
 62
     3
 10
195.963408
 20
216.096682
 30
0.0
  0
VERTEX
  8
CSLAYER1
  6
CONTINUOUS
 62
     3
 10
195.837076
 20
216.112063
 30
0.0
  0
SEQEND
  0
POLYLINE
  8
CSLAYER1
  6
CONTINUOUS
 62
     3
 66
     1
 10
0.0
 20
0.0
 30
0.0
  0
VERTEX
  8
CSLAYER1
  6
CONTINUOUS
 62
     3
 10
195.339150
 20
216.157564
 30
0.0
  0
VERTEX
  8
CSLAYER1
  6
CONTINUOUS
 62
     3
 10
194.883329
 20
216.178829
 30
0.0
  0
VERTEX
  8
CSLAYER1
  6
CONTINUOUS
 62
     3
 10
194.425350
 20
216.181095
 30
0.0
  0
VERTEX
  8
CSLAYER1
  6
CONTINUOUS
 62
     3
 10
194.339648
 20
216.179403
 30
0.0
  0
SEQEND
  0
POLYLINE
  8
CSLAYER1
  6
CONTINUOUS
 62
     3
 66
     1
 10
0.0
 20
0.0
 30
0.0
  0
VERTEX
  8
CSLAYER1
  6
CONTINUOUS
 62
     3
 10
193.835693
 20
216.155852
 30
0.0
  0
VERTEX
  8
CSLAYER1
  6
CONTINUOUS
 62
     3
 10
193.385906
 20
216.114725
 30
0.0
  0
VERTEX
  8
CSLAYER1
  6
CONTINUOUS
 62
     3
 10
192.945358
 20
216.055088
 30
0.0
  0
VERTEX
  8
CSLAYER1
  6
CONTINUOUS
 62
     3
 10
192.847365
 20
216.039080
 30
0.0
  0
SEQEND
  0
POLYLINE
  8
CSLAYER1
  6
CONTINUOUS
 62
     3
 66
     1
 10
0.0
 20
0.0
 30
0.0
  0
VERTEX
  8
CSLAYER1
  6
CONTINUOUS
 62
     3
 10
192.356723
 20
215.942795
 30
0.0
  0
VERTEX
  8
CSLAYER1
  6
CONTINUOUS
 62
     3
 10
191.951559
 20
215.841098
 30
0.0
  0
VERTEX
  8
CSLAYER1
  6
CONTINUOUS
 62
     3
 10
191.566550
 20
215.722973
 30
0.0
  0
VERTEX
  8
CSLAYER1
  6
CONTINUOUS
 62
     3
 10
191.396599
 20
215.663204
 30
0.0
  0
SEQEND
  0
POLYLINE
  8
CSLAYER1
  6
CONTINUOUS
 62
     3
 66
     1
 10
0.0
 20
0.0
 30
0.0
  0
VERTEX
  8
CSLAYER1
  6
CONTINUOUS
 62
     3
 10
190.933179
 20
215.471712
 30
0.0
  0
VERTEX
  8
CSLAYER1
  6
CONTINUOUS
 62
     3
 10
190.619653
 20
215.312727
 30
0.0
  0
VERTEX
  8
CSLAYER1
  6
CONTINUOUS
 62
     3
 10
190.336419
 20
215.141334
 30
0.0
  0
VERTEX
  8
CSLAYER1
  6
CONTINUOUS
 62
     3
 10
190.085632
 20
214.958839
 30
0.0
  0
VERTEX
  8
CSLAYER1
  6
CONTINUOUS
 62
     3
 10
190.081222
 20
214.955295
 30
0.0
  0
SEQEND
  0
POLYLINE
  8
CSLAYER1
  6
CONTINUOUS
 62
     3
 66
     1
 10
0.0
 20
0.0
 30
0.0
  0
VERTEX
  8
CSLAYER1
  6
CONTINUOUS
 62
     3
 10
189.722244
 20
214.607250
 30
0.0
  0
VERTEX
  8
CSLAYER1
  6
CONTINUOUS
 62
     3
 10
189.571546
 20
214.401297
 30
0.0
  0
VERTEX
  8
CSLAYER1
  6
CONTINUOUS
 62
     3
 10
189.459117
 20
214.189874
 30
0.0
  0
VERTEX
  8
CSLAYER1
  6
CONTINUOUS
 62
     3
 10
189.385811
 20
213.974588
 30
0.0
  0
VERTEX
  8
CSLAYER1
  6
CONTINUOUS
 62
     3
 10
189.352188
 20
213.757080
 30
0.0
  0
VERTEX
  8
CSLAYER1
  6
CONTINUOUS
 62
     3
 10
189.349849
 20
213.682472
 30
0.0
  0
SEQEND
  0
LINE
  8
CSLAYER1
  6
CONTINUOUS
 62
     3
 10
195.479900
 20
214.183632
 11
195.479900
 21
213.682861
  0
LINE
  8
CSLAYER1
  6
CONTINUOUS
 62
     3
 10
195.479900
 20
213.183632
 11
195.479900
 21
212.683632
  0
LINE
  8
CSLAYER1
  6
CONTINUOUS
 62
     3
 10
193.719799
 20
215.183632
 11
193.719799
 21
214.683632
  0
LINE
  8
CSLAYER1
  6
CONTINUOUS
 62
     3
 10
193.719799
 20
214.183632
 11
193.719799
 21
213.682861
  0
LINE
  8
CSLAYER1
  6
CONTINUOUS
 62
     3
 10
193.719799
 20
213.183632
 11
193.719799
 21
212.683632
  0
POLYLINE
  8
CSLAYER1
  6
CONTINUOUS
 62
     3
 66
     1
 10
0.0
 20
0.0
 30
0.0
  0
VERTEX
  8
CSLAYER1
  6
CONTINUOUS
 62
     3
 10
199.038896
 20
212.881593
 30
0.0
  0
VERTEX
  8
CSLAYER1
  6
CONTINUOUS
 62
     3
 10
199.266310
 20
212.995180
 30
0.0
  0
VERTEX
  8
CSLAYER1
  6
CONTINUOUS
 62
     3
 10
199.458210
 20
213.113998
 30
0.0
  0
VERTEX
  8
CSLAYER1
  6
CONTINUOUS
 62
     3
 10
199.570615
 20
213.199800
 30
0.0
  0
SEQEND
  0
POLYLINE
  8
CSLAYER1
  6
CONTINUOUS
 62
     6
 66
     1
 10
0.0
 20
0.0
 30
0.0
  0
VERTEX
  8
CSLAYER1
  6
CONTINUOUS
 62
     6
 10
190.684326
 20
212.683247
 30
0.0
  0
VERTEX
  8
CSLAYER1
  6
CONTINUOUS
 62
     6
 10
191.004037
 20
212.589546
 30
0.0
  0
VERTEX
  8
CSLAYER1
  6
CONTINUOUS
 62
     6
 10
191.351113
 20
212.504163
 30
0.0
  0
VERTEX
  8
CSLAYER1
  6
CONTINUOUS
 62
     6
 10
191.722915
 20
212.427748
 30
0.0
  0
VERTEX
  8
CSLAYER1
  6
CONTINUOUS
 62
     6
 10
192.116612
 20
212.360883
 30
0.0
  0
VERTEX
  8
CSLAYER1
  6
CONTINUOUS
 62
     6
 10
192.529207
 20
212.304075
 30
0.0
  0
VERTEX
  8
CSLAYER1
  6
CONTINUOUS
 62
     6
 10
192.957562
 20
212.257758
 30
0.0
  0
VERTEX
  8
CSLAYER1
  6
CONTINUOUS
 62
     6
 10
193.398415
 20
212.222284
 30
0.0
  0
VERTEX
  8
CSLAYER1
  6
CONTINUOUS
 62
     6
 10
193.848412
 20
212.197923
 30
0.0
  0
VERTEX
  8
CSLAYER1
  6
CONTINUOUS
 62
     6
 10
194.304128
 20
212.184860
 30
0.0
  0
VERTEX
  8
CSLAYER1
  6
CONTINUOUS
 62
     6
 10
194.762095
 20
212.183195
 30
0.0
  0
VERTEX
  8
CSLAYER1
  6
CONTINUOUS
 62
     6
 10
195.218826
 20
212.192940
 30
0.0
  0
VERTEX
  8
CSLAYER1
  6
CONTINUOUS
 62
     6
 10
195.670847
 20
212.214022
 30
0.0
  0
VERTEX
  8
CSLAYER1
  6
CONTINUOUS
 62
     6
 10
196.114717
 20
212.246279
 30
0.0
  0
VERTEX
  8
CSLAYER1
  6
CONTINUOUS
 62
     6
 10
196.547058
 20
212.289467
 30
0.0
  0
VERTEX
  8
CSLAYER1
  6
CONTINUOUS
 62
     6
 10
196.964580
 20
212.343257
 30
0.0
  0
VERTEX
  8
CSLAYER1
  6
CONTINUOUS
 62
     6
 10
197.364104
 20
212.407238
 30
0.0
  0
VERTEX
  8
CSLAYER1
  6
CONTINUOUS
 62
     6
 10
197.742591
 20
212.480926
 30
0.0
  0
VERTEX
  8
CSLAYER1
  6
CONTINUOUS
 62
     6
 10
198.097160
 20
212.563757
 30
0.0
  0
VERTEX
  8
CSLAYER1
  6
CONTINUOUS
 62
     6
 10
198.425112
 20
212.655103
 30
0.0
  0
VERTEX
  8
CSLAYER1
  6
CONTINUOUS
 62
     6
 10
198.515373
 20
212.683247
 30
0.0
  0
SEQEND
  0
ARC
  8
CSLAYER1
  6
CONTINUOUS
 62
     6
 10
57.099834
 20
146.336119
 40
31.000000
 50
4.069573
 51
334.995759
  0
CIRCLE
  8
CSLAYER1
  6
CONTINUOUS
 62
     6
 10
57.099834
 20
146.336119
 40
30.000017
  0
ARC
  8
CSLAYER1
  6
CONTINUOUS
 62
     6
 10
219.599849
 20
146.336135
 40
8.000000
 50
179.442517
 51
180.557483
  0
LINE
  8
CSLAYER1
  6
CONTINUOUS
 62
     6
 10
92.339372
 20
148.536099
 11
87.019054
 21
148.536124
  0
LINE
  8
CSLAYER1
  6
CONTINUOUS
 62
     6
 10
92.339372
 20
144.136102
 11
87.019054
 21
144.136126
  0
LINE
  8
CSLAYER1
  6
CONTINUOUS
 62
     6
 10
92.339372
 20
146.336095
 11
87.019054
 21
146.336127
  0
ARC
  8
CSLAYER1
  6
CONTINUOUS
 62
     6
 10
95.251520
 20
162.095124
 40
15.759004
 50
270.000235
 51
297.463987
  0
ARC
  8
CSLAYER1
  6
CONTINUOUS
 62
     6
 10
95.251520
 20
162.095124
 40
13.559023
 50
270.000308
 51
297.464006
  0
ARC
  8
CSLAYER1
  6
CONTINUOUS
 62
     6
 10
91.386751
 20
146.886121
 40
1.099999
 50
-30.000130
 51
29.999858
  0
ARC
  8
CSLAYER1
  6
CONTINUOUS
 62
     6
 10
91.386751
 20
147.986119
 40
1.099999
 50
-30.000130
 51
29.999858
  0
ARC
  8
CSLAYER1
  6
CONTINUOUS
 62
     6
 10
93.291994
 20
147.986112
 40
1.099999
 50
149.999858
 51
209.999853
  0
ARC
  8
CSLAYER1
  6
CONTINUOUS
 62
     6
 10
96.204235
 20
147.986102
 40
1.099999
 50
149.999715
 51
209.999716
  0
ARC
  8
CSLAYER1
  6
CONTINUOUS
 62
     6
 10
96.204219
 20
146.886104
 40
1.099999
 50
149.999715
 51
209.999716
  0
ARC
  8
CSLAYER1
  6
CONTINUOUS
 62
     6
 10
94.298961
 20
146.886111
 40
1.099999
 50
-30.000267
 51
29.999721
  0
LINE
  8
CSLAYER1
  6
CONTINUOUS
 62
     6
 10
101.758464
 20
149.576182
 11
104.779463
 21
151.353027
  0
LINE
  8
CSLAYER1
  6
CONTINUOUS
 62
     6
 10
102.012112
 20
149.088167
 11
105.117669
 21
150.702344
  0
LINE
  8
CSLAYER1
  6
CONTINUOUS
 62
     6
 10
102.265765
 20
148.600154
 11
105.455875
 21
150.051661
  0
LINE
  8
CSLAYER1
  6
CONTINUOUS
 62
     6
 10
101.504810
 20
150.064195
 11
102.519427
 21
148.112146
  0
ARC
  8
CSLAYER1
  6
CONTINUOUS
 62
     6
 10
95.251692
 20
130.577141
 40
15.758933
 50
62.536539
 51
90.000397
  0
ARC
  8
CSLAYER1
  6
CONTINUOUS
 62
     6
 10
95.251692
 20
130.577141
 40
13.558951
 50
62.536637
 51
90.000417
  0
ARC
  8
CSLAYER1
  6
CONTINUOUS
 62
     6
 10
91.386751
 20
144.686078
 40
1.099999
 50
-29.999802
 51
30.000186
  0
ARC
  8
CSLAYER1
  6
CONTINUOUS
 62
     6
 10
91.386751
 20
145.786076
 40
1.099999
 50
-29.999802
 51
30.000186
  0
ARC
  8
CSLAYER1
  6
CONTINUOUS
 62
     6
 10
93.291994
 20
145.786084
 40
1.099999
 50
150.000186
 51
210.000181
  0
ARC
  8
CSLAYER1
  6
CONTINUOUS
 62
     6
 10
96.204204
 20
145.786098
 40
1.099999
 50
150.000350
 51
210.000345
  0
ARC
  8
CSLAYER1
  6
CONTINUOUS
 62
     6
 10
96.204219
 20
144.686099
 40
1.099999
 50
150.000350
 51
210.000345
  0
ARC
  8
CSLAYER1
  6
CONTINUOUS
 62
     6
 10
94.298961
 20
144.686088
 40
1.099999
 50
-29.999638
 51
30.000350
  0
LINE
  8
CSLAYER1
  6
CONTINUOUS
 62
     6
 10
101.758465
 20
143.096060
 11
104.779465
 21
141.319216
  0
LINE
  8
CSLAYER1
  6
CONTINUOUS
 62
     6
 10
102.012113
 20
143.584076
 11
105.117671
 21
141.969899
  0
LINE
  8
CSLAYER1
  6
CONTINUOUS
 62
     6
 10
102.265766
 20
144.072088
 11
105.455876
 21
142.620583
  0
LINE
  8
CSLAYER1
  6
CONTINUOUS
 62
     6
 10
101.504827
 20
142.608079
 11
102.519442
 21
144.560123
  0
LINE
  8
CSLAYER1
  6
CONTINUOUS
 62
     6
 10
89.099834
 20
148.536114
 11
89.099834
 21
172.336119
  0
LINE
  8
CSLAYER1
  6
CONTINUOUS
 62
     6
 10
84.613525
 20
133.276244
 11
87.413517
 21
143.396029
  0
LINE
  8
CSLAYER1
  6
CONTINUOUS
 62
     6
 10
86.459207
 20
134.321928
 11
88.459202
 21
141.550346
  0
ARC
  8
CSLAYER1
  6
CONTINUOUS
 62
     6
 10
87.013518
 20
141.950345
 40
1.500000
 50
-15.465967
 51
74.534033
  0
ARC
  8
CSLAYER1
  6
CONTINUOUS
 62
     6
 10
85.013524
 20
134.721927
 40
1.500000
 50
254.534033
 51
344.534033
  0
LINE
  8
CSLAYER1
  6
CONTINUOUS
 62
     6
 10
86.786741
 20
142.013091
 11
87.013518
 21
141.950345
  0
LINE
  8
CSLAYER1
  6
CONTINUOUS
 62
     6
 10
84.786747
 20
134.784673
 11
85.013524
 21
134.721927
  0
ARC
  8
CSLAYER1
  6
CONTINUOUS
 62
     6
 10
57.099834
 20
146.336119
 40
31.000000
 50
354.072307
 51
355.930431
  0
LINE
  8
CSLAYER1
  6
CONTINUOUS
 62
     6
 10
89.099834
 20
139.308336
 11
89.099834
 21
144.136116
  0
LINE
  8
CSLAYER1
  6
CONTINUOUS
 62
     6
 10
198.000211
 20
142.336136
 11
202.599849
 21
142.336136
  0
LINE
  8
CSLAYER1
  6
CONTINUOUS
 62
     6
 10
198.000223
 20
134.336136
 11
202.599849
 21
134.336136
  0
LINE
  8
CSLAYER1
  6
CONTINUOUS
 62
     6
 10
137.599834
 20
260.683296
 11
137.599834
 21
224.683253
  0
LINE
  8
CSLAYER1
  6
CONTINUOUS
 62
     6
 10
155.446126
 20
224.683251
 11
131.599834
 21
224.683254
  0
LINE
  8
CSLAYER1
  6
CENTER
 62
     3
 10
130.599834
 20
221.683254
 11
130.599834
 21
263.683254
  0
LINE
  8
CSLAYER1
  6
CONTINUOUS
 62
     6
 10
131.599834
 20
261.208049
 11
131.599834
 21
248.345617
  0
LINE
  8
CSLAYER1
  6
CONTINUOUS
 62
     6
 10
129.599834
 20
261.208115
 11
129.599834
 21
248.345617
  0
LINE
  8
CSLAYER1
  6
CONTINUOUS
 62
     6
 10
119.599823
 20
259.683255
 11
119.599845
 21
225.683255
  0
LINE
  8
CSLAYER1
  6
CONTINUOUS
 62
     6
 10
120.599828
 20
253.111738
 11
120.599845
 21
224.683255
  0
LINE
  8
CSLAYER1
  6
CONTINUOUS
 62
     6
 10
124.599828
 20
253.111741
 11
124.599825
 21
257.354417
  0
LINE
  8
CSLAYER1
  6
CONTINUOUS
 62
     6
 10
124.599825
 20
257.354417
 11
120.599825
 21
257.354414
  0
LINE
  8
CSLAYER1
  6
CONTINUOUS
 62
     6
 10
124.599828
 20
253.111741
 11
120.599828
 21
253.111738
  0
LINE
  8
CSLAYER1
  6
CONTINUOUS
 62
     6
 10
120.599825
 20
257.354414
 11
119.599826
 21
256.354413
  0
LINE
  8
CSLAYER1
  6
CONTINUOUS
 62
     6
 10
120.599828
 20
253.111738
 11
119.599828
 21
252.111738
  0
LINE
  8
CSLAYER1
  6
CONTINUOUS
 62
     6
 10
120.599825
 20
257.354414
 11
120.599823
 21
260.683255
  0
LINE
  8
CSLAYER1
  6
CONTINUOUS
 62
     6
 10
123.668857
 20
255.313644
 11
123.039035
 21
255.258529
  0
ARC
  8
CSLAYER1
  6
CONTINUOUS
 62
     6
 10
123.126194
 20
254.262314
 40
1.000000
 50
95.000143
 51
163.742637
  0
ARC
  8
CSLAYER1
  6
CONTINUOUS
 62
     6
 10
123.686283
 20
255.114365
 40
0.200000
 50
0.057345
 51
95.000171
  0
ARC
  8
CSLAYER1
  6
CONTINUOUS
 62
     6
 10
123.986270
 20
255.382614
 40
0.100000
 50
90.057354
 51
180.000044
  0
LINE
  8
CSLAYER1
  6
CONTINUOUS
 62
     6
 10
123.986270
 20
255.482651
 11
124.486270
 21
255.482651
  0
ARC
  8
CSLAYER1
  6
CONTINUOUS
 62
     6
 10
124.486270
 20
255.382615
 40
0.100000
 50
0.057345
 51
90.000035
  0
ARC
  8
CSLAYER1
  6
CONTINUOUS
 62
     6
 10
128.886266
 20
252.582630
 40
7.000000
 50
163.743019
 51
175.665197
  0
LINE
  8
CSLAYER1
  6
CONTINUOUS
 62
     6
 10
123.886266
 20
253.111740
 11
123.886264
 21
255.382614
  0
CIRCLE
  8
CSLAYER1
  6
CONTINUOUS
 62
     6
 10
130.599834
 20
242.683241
 40
5.750000
  0
LINE
  8
CSLAYER1
  6
CONTINUOUS
 62
     6
 10
129.599834
 20
230.683241
 11
129.599834
 21
224.175653
  0
LINE
  8
CSLAYER1
  6
CONTINUOUS
 62
     6
 10
131.599834
 20
230.683241
 11
131.599834
 21
224.175647
  0
LINE
  8
CSLAYER1
  6
CONTINUOUS
 62
     6
 10
130.099834
 20
239.683226
 11
130.099834
 21
245.683255
  0
LINE
  8
CSLAYER1
  6
CONTINUOUS
 62
     6
 10
131.099834
 20
239.683226
 11
131.099834
 21
245.683255
  0
LINE
  8
CSLAYER1
  6
CONTINUOUS
 62
     6
 10
129.599834
 20
224.683254
 11
120.599845
 21
224.683255
  0
ARC
  8
CSLAYER1
  6
CONTINUOUS
 62
     6
 10
130.599834
 20
224.944890
 40
1.261636
 50
217.568822
 51
322.431165
  0
ARC
  8
CSLAYER1
  6
CONTINUOUS
 62
     6
 10
130.599805
 20
260.393424
 40
1.289831
 50
39.166091
 51
140.829784
  0
LINE
  8
CSLAYER1
  6
CONTINUOUS
 62
     6
 10
130.099834
 20
239.683226
 11
131.099834
 21
239.683226
  0
LINE
  8
CSLAYER1
  6
CONTINUOUS
 62
     6
 10
130.099834
 20
245.683255
 11
131.099834
 21
245.683256
  0
LINE
  8
CSLAYER1
  6
CONTINUOUS
 62
     6
 10
129.199836
 20
237.106279
 11
129.199840
 21
230.683240
  0
LINE
  8
CSLAYER1
  6
CONTINUOUS
 62
     6
 10
131.999824
 20
237.106277
 11
131.999828
 21
230.683241
  0
LINE
  8
CSLAYER1
  6
CONTINUOUS
 62
     6
 10
131.999828
 20
230.683241
 11
129.199840
 21
230.683240
  0
LINE
  8
CSLAYER1
  6
CENTER
 62
     3
 10
132.099841
 20
232.183241
 11
129.099841
 21
232.183240
  0
CIRCLE
  8
CSLAYER1
  6
CONTINUOUS
 62
     6
 10
130.599841
 20
232.183241
 40
0.500000
  0
LINE
  8
CSLAYER1
  6
CONTINUOUS
 62
     6
 10
155.446019
 20
260.683251
 11
131.599834
 21
260.683254
  0
LINE
  8
CSLAYER1
  6
CONTINUOUS
 62
     6
 10
129.599834
 20
260.683254
 11
120.599823
 21
260.683255
  0
LINE
  8
CSLAYER1
  6
CONTINUOUS
 62
     6
 10
120.599823
 20
260.683255
 11
119.599823
 21
259.683255
  0
LINE
  8
CSLAYER1
  6
CONTINUOUS
 62
     6
 10
119.599845
 20
225.683255
 11
120.599845
 21
224.683255
  0
LINE
  8
CSLAYER1
  6
CONTINUOUS
 62
     6
 10
137.599834
 20
164.336135
 11
137.599834
 21
128.336180
  0
LINE
  8
CSLAYER1
  6
CONTINUOUS
 62
     6
 10
155.446880
 20
128.336180
 11
137.599834
 21
128.336180
  0
LINE
  8
CSLAYER1
  6
CONTINUOUS
 62
     6
 10
155.446087
 20
164.336135
 11
137.599834
 21
164.336135
  0
LINE
  8
CSLAYER1
  6
CENTER
 62
     3
 10
130.599834
 20
119.836211
 11
130.599834
 21
172.836211
  0
LINE
  8
CSLAYER1
  6
CONTINUOUS
 62
     6
 10
136.599834
 20
169.336211
 11
136.599834
 21
164.336107
  0
LINE
  8
CSLAYER1
  6
CONTINUOUS
 62
     6
 10
124.599834
 20
169.336211
 11
124.599834
 21
164.336135
  0
LINE
  8
CSLAYER1
  6
CONTINUOUS
 62
     6
 10
136.349834
 20
171.336211
 11
136.349834
 21
170.336211
  0
ARC
  8
CSLAYER1
  6
CONTINUOUS
 62
     6
 10
135.599834
 20
169.836211
 40
0.500000
 50
-89.999999
 51
90.000019
  0
LINE
  8
CSLAYER1
  6
CONTINUOUS
 62
     6
 10
124.849834
 20
171.336211
 11
124.849834
 21
170.336211
  0
ARC
  8
CSLAYER1
  6
CONTINUOUS
 62
     6
 10
125.599834
 20
169.836211
 40
0.500000
 50
90.000003
 51
269.942682
  0
LINE
  8
CSLAYER1
  6
CONTINUOUS
 62
     6
 10
136.349834
 20
171.336211
 11
124.849834
 21
171.336211
  0
LINE
  8
CSLAYER1
  6
CONTINUOUS
 62
     6
 10
136.349834
 20
170.336211
 11
124.849834
 21
170.336211
  0
LINE
  8
CSLAYER1
  6
CONTINUOUS
 62
     6
 10
124.599834
 20
169.336211
 11
136.599834
 21
169.336211
  0
LINE
  8
CSLAYER1
  6
CONTINUOUS
 62
     6
 10
131.599834
 20
129.309118
 11
131.599834
 21
163.363154
  0
LINE
  8
CSLAYER1
  6
CONTINUOUS
 62
     6
 10
129.599834
 20
129.309119
 11
129.599834
 21
163.363154
  0
LINE
  8
CSLAYER1
  6
CONTINUOUS
 62
     6
 10
119.599834
 20
129.336135
 11
119.599834
 21
163.336135
  0
LINE
  8
CSLAYER1
  6
CONTINUOUS
 62
     6
 10
124.599834
 20
128.336135
 11
120.599834
 21
128.336135
  0
LINE
  8
CSLAYER1
  6
CONTINUOUS
 62
     6
 10
124.599834
 20
164.336135
 11
120.599834
 21
164.336135
  0
LINE
  8
CSLAYER1
  6
CONTINUOUS
 62
     6
 10
124.599834
 20
135.907622
 11
124.599834
 21
131.664946
  0
LINE
  8
CSLAYER1
  6
CONTINUOUS
 62
     6
 10
134.099804
 20
169.336211
 11
134.099804
 21
165.336211
  0
LINE
  8
CSLAYER1
  6
CONTINUOUS
 62
     6
 10
127.099834
 20
169.336211
 11
127.099834
 21
165.336211
  0
LINE
  8
CSLAYER1
  6
CONTINUOUS
 62
     6
 10
124.599834
 20
131.664946
 11
120.599834
 21
131.664946
  0
LINE
  8
CSLAYER1
  6
CONTINUOUS
 62
     6
 10
124.599834
 20
135.907622
 11
120.599834
 21
135.907622
  0
LINE
  8
CSLAYER1
  6
CONTINUOUS
 62
     6
 10
120.599834
 20
131.664946
 11
119.599834
 21
132.664946
  0
LINE
  8
CSLAYER1
  6
CONTINUOUS
 62
     6
 10
120.599834
 20
135.907622
 11
119.599834
 21
136.907622
  0
LINE
  8
CSLAYER1
  6
CONTINUOUS
 62
     6
 10
120.599834
 20
131.664946
 11
120.599834
 21
128.336135
  0
LINE
  8
CSLAYER1
  6
CONTINUOUS
 62
     6
 10
123.668865
 20
133.705718
 11
123.039043
 21
133.760833
  0
ARC
  8
CSLAYER1
  6
CONTINUOUS
 62
     6
 10
123.126201
 20
134.757048
 40
1.000000
 50
196.257399
 51
264.999892
  0
ARC
  8
CSLAYER1
  6
CONTINUOUS
 62
     6
 10
123.686290
 20
133.904998
 40
0.200000
 50
264.999865
 51
359.942691
  0
ARC
  8
CSLAYER1
  6
CONTINUOUS
 62
     6
 10
123.986278
 20
133.636748
 40
0.100000
 50
179.999991
 51
269.942682
  0
LINE
  8
CSLAYER1
  6
CONTINUOUS
 62
     6
 10
123.986278
 20
133.536711
 11
124.486278
 21
133.536711
  0
ARC
  8
CSLAYER1
  6
CONTINUOUS
 62
     6
 10
124.486278
 20
133.636748
 40
0.100000
 50
270.000001
 51
359.942691
  0
ARC
  8
CSLAYER1
  6
CONTINUOUS
 62
     6
 10
128.886272
 20
136.436736
 40
7.000000
 50
184.334839
 51
196.257016
  0
LINE
  8
CSLAYER1
  6
CONTINUOUS
 62
     6
 10
123.886272
 20
135.907622
 11
123.886272
 21
133.636748
  0
LINE
  8
CSLAYER1
  6
CONTINUOUS
 62
     6
 10
132.599834
 20
166.736174
 11
132.599834
 21
169.336180
  0
LINE
  8
CSLAYER1
  6
CONTINUOUS
 62
     6
 10
128.599834
 20
166.736174
 11
128.599834
 21
169.336180
  0
LINE
  8
CSLAYER1
  6
CONTINUOUS
 62
     6
 10
128.599834
 20
167.236174
 11
132.599834
 21
167.236174
  0
LINE
  8
CSLAYER1
  6
CONTINUOUS
 62
     6
 10
129.199840
 20
165.430480
 11
129.199840
 21
167.236174
  0
LINE
  8
CSLAYER1
  6
CONTINUOUS
 62
     6
 10
131.999828
 20
165.430480
 11
131.999828
 21
167.236174
  0
LINE
  8
CSLAYER1
  6
CONTINUOUS
 62
     6
 10
129.199810
 20
166.736174
 11
128.599834
 21
166.736174
  0
LINE
  8
CSLAYER1
  6
CONTINUOUS
 62
     6
 10
131.999828
 20
166.736174
 11
132.599834
 21
166.736174
  0
LINE
  8
CSLAYER1
  6
CONTINUOUS
 62
     6
 10
129.325522
 20
165.336211
 11
127.099834
 21
165.336211
  0
LINE
  8
CSLAYER1
  6
CONTINUOUS
 62
     6
 10
131.874146
 20
165.336211
 11
134.099804
 21
165.336211
  0
LINE
  8
CSLAYER1
  6
CONTINUOUS
 62
     6
 10
131.595562
 20
165.347625
 11
129.595562
 21
165.347625
  0
LINE
  8
CSLAYER1
  6
CONTINUOUS
 62
     6
 10
129.199840
 20
165.644408
 11
129.595562
 21
165.347625
  0
LINE
  8
CSLAYER1
  6
CONTINUOUS
 62
     6
 10
131.595562
 20
165.347625
 11
131.999828
 21
165.650793
  0
LINE
  8
CSLAYER1
  6
CONTINUOUS
 62
     6
 10
129.599834
 20
165.130461
 11
131.599834
 21
165.130461
  0
LINE
  8
CSLAYER1
  6
CONTINUOUS
 62
     6
 10
129.199840
 20
165.430480
 11
129.599834
 21
165.130461
  0
LINE
  8
CSLAYER1
  6
CONTINUOUS
 62
     6
 10
131.599834
 20
165.130461
 11
131.999828
 21
165.430480
  0
CIRCLE
  8
CSLAYER1
  6
CONTINUOUS
 62
     6
 10
130.600933
 20
166.038237
 40
0.470497
  0
LINE
  8
CSLAYER1
  6
CONTINUOUS
 62
     6
 10
120.599834
 20
164.336135
 11
119.599834
 21
163.336135
  0
LINE
  8
CSLAYER1
  6
CONTINUOUS
 62
     6
 10
120.599834
 20
135.907622
 11
120.599834
 21
164.336135
  0
LINE
  8
CSLAYER1
  6
CONTINUOUS
 62
     6
 10
119.599834
 20
129.336135
 11
120.599834
 21
128.336135
  0
LINE
  8
CSLAYER1
  6
CONTINUOUS
 62
     6
 10
136.599834
 20
123.336058
 11
136.599834
 21
128.336160
  0
LINE
  8
CSLAYER1
  6
CONTINUOUS
 62
     6
 10
124.599834
 20
123.336058
 11
124.599834
 21
128.336171
  0
LINE
  8
CSLAYER1
  6
CONTINUOUS
 62
     6
 10
136.349834
 20
121.336058
 11
136.349834
 21
122.336058
  0
ARC
  8
CSLAYER1
  6
CONTINUOUS
 62
     6
 10
135.599834
 20
122.836058
 40
0.500000
 50
-90.000019
 51
89.999999
  0
LINE
  8
CSLAYER1
  6
CONTINUOUS
 62
     6
 10
124.849834
 20
121.336058
 11
124.849834
 21
122.336058
  0
ARC
  8
CSLAYER1
  6
CONTINUOUS
 62
     6
 10
125.599834
 20
122.836058
 40
0.500000
 50
90.057318
 51
269.999997
  0
LINE
  8
CSLAYER1
  6
CONTINUOUS
 62
     6
 10
136.349834
 20
121.336058
 11
124.849834
 21
121.336058
  0
LINE
  8
CSLAYER1
  6
CONTINUOUS
 62
     6
 10
136.349834
 20
122.336058
 11
124.849834
 21
122.336058
  0
LINE
  8
CSLAYER1
  6
CONTINUOUS
 62
     6
 10
124.599834
 20
123.336058
 11
136.599834
 21
123.336058
  0
LINE
  8
CSLAYER1
  6
CONTINUOUS
 62
     6
 10
134.099804
 20
123.336058
 11
134.099804
 21
127.336058
  0
LINE
  8
CSLAYER1
  6
CONTINUOUS
 62
     6
 10
127.099834
 20
123.336058
 11
127.099834
 21
127.336058
  0
LINE
  8
CSLAYER1
  6
CONTINUOUS
 62
     6
 10
132.599834
 20
125.936095
 11
132.599834
 21
123.336089
  0
LINE
  8
CSLAYER1
  6
CONTINUOUS
 62
     6
 10
128.599834
 20
125.936095
 11
128.599834
 21
123.336089
  0
LINE
  8
CSLAYER1
  6
CONTINUOUS
 62
     6
 10
128.599834
 20
125.436095
 11
132.599834
 21
125.436095
  0
LINE
  8
CSLAYER1
  6
CONTINUOUS
 62
     6
 10
129.199840
 20
127.241790
 11
129.199840
 21
125.436095
  0
LINE
  8
CSLAYER1
  6
CONTINUOUS
 62
     6
 10
131.999828
 20
127.241790
 11
131.999828
 21
125.436095
  0
LINE
  8
CSLAYER1
  6
CONTINUOUS
 62
     6
 10
129.199810
 20
125.936095
 11
128.599834
 21
125.936095
  0
LINE
  8
CSLAYER1
  6
CONTINUOUS
 62
     6
 10
131.999828
 20
125.936095
 11
132.599834
 21
125.936095
  0
LINE
  8
CSLAYER1
  6
CONTINUOUS
 62
     6
 10
129.325522
 20
127.336058
 11
127.099834
 21
127.336058
  0
LINE
  8
CSLAYER1
  6
CONTINUOUS
 62
     6
 10
131.874146
 20
127.336058
 11
134.099804
 21
127.336058
  0
LINE
  8
CSLAYER1
  6
CONTINUOUS
 62
     6
 10
131.595562
 20
127.324645
 11
129.595562
 21
127.324645
  0
LINE
  8
CSLAYER1
  6
CONTINUOUS
 62
     6
 10
129.199840
 20
127.027861
 11
129.595562
 21
127.324645
  0
LINE
  8
CSLAYER1
  6
CONTINUOUS
 62
     6
 10
131.595562
 20
127.324645
 11
131.999828
 21
127.021476
  0
LINE
  8
CSLAYER1
  6
CONTINUOUS
 62
     6
 10
129.599834
 20
127.541808
 11
131.599834
 21
127.541808
  0
LINE
  8
CSLAYER1
  6
CONTINUOUS
 62
     6
 10
129.199840
 20
127.241790
 11
129.599834
 21
127.541808
  0
LINE
  8
CSLAYER1
  6
CONTINUOUS
 62
     6
 10
131.599834
 20
127.541808
 11
131.999828
 21
127.241790
  0
CIRCLE
  8
CSLAYER1
  6
CONTINUOUS
 62
     6
 10
130.600933
 20
126.634032
 40
0.470497
  0
LINE
  8
CSLAYER1
  6
CONTINUOUS
 62
     6
 10
136.599834
 20
164.336107
 11
137.599834
 21
164.336107
  0
ARC
  8
CSLAYER1
  6
CONTINUOUS
 62
     6
 10
130.599834
 20
181.836107
 40
18.500000
 50
251.075356
 51
266.901421
  0
ARC
  8
CSLAYER1
  6
CONTINUOUS
 62
     6
 10
130.599834
 20
181.836107
 40
18.500000
 50
273.098579
 51
288.924644
  0
LINE
  8
CSLAYER1
  6
CONTINUOUS
 62
     6
 10
136.599826
 20
128.336163
 11
137.599826
 21
128.336162
  0
ARC
  8
CSLAYER1
  6
CONTINUOUS
 62
     6
 10
130.599817
 20
110.836165
 40
18.500000
 50
93.098552
 51
108.924617
  0
ARC
  8
CSLAYER1
  6
CONTINUOUS
 62
     6
 10
130.599817
 20
110.836165
 40
18.500000
 50
71.075329
 51
86.901394
  0
ARC
  8
CSLAYER1
  6
CONTINUOUS
 62
     6
 10
130.599834
 20
162.542444
 40
1.293664
 50
39.376084
 51
140.623916
  0
ARC
  8
CSLAYER1
  6
CONTINUOUS
 62
     6
 10
130.599831
 20
130.129838
 40
1.293673
 50
219.376242
 51
320.623679
  0
LINE
  8
CSLAYER1
  6
CONTINUOUS
 62
     6
 10
137.599834
 20
73.989068
 11
137.599834
 21
37.989026
  0
LINE
  8
CSLAYER1
  6
CONTINUOUS
 62
     6
 10
155.446126
 20
37.989024
 11
131.599834
 21
37.989027
  0
LINE
  8
CSLAYER1
  6
CENTER
 62
     3
 10
130.599834
 20
34.989027
 11
130.599834
 21
76.989027
  0
LINE
  8
CSLAYER1
  6
CONTINUOUS
 62
     6
 10
131.599830
 20
37.464233
 11
131.599833
 21
50.326664
  0
LINE
  8
CSLAYER1
  6
CONTINUOUS
 62
     6
 10
129.599830
 20
37.464167
 11
129.599833
 21
50.326665
  0
LINE
  8
CSLAYER1
  6
CONTINUOUS
 62
     6
 10
119.599823
 20
72.989028
 11
119.599845
 21
38.989028
  0
LINE
  8
CSLAYER1
  6
CONTINUOUS
 62
     6
 10
120.599828
 20
66.417511
 11
120.599845
 21
37.989028
  0
LINE
  8
CSLAYER1
  6
CONTINUOUS
 62
     6
 10
124.599828
 20
66.417514
 11
124.599825
 21
70.660189
  0
LINE
  8
CSLAYER1
  6
CONTINUOUS
 62
     6
 10
124.599825
 20
70.660189
 11
120.599825
 21
70.660187
  0
LINE
  8
CSLAYER1
  6
CONTINUOUS
 62
     6
 10
124.599828
 20
66.417514
 11
120.599828
 21
66.417511
  0
LINE
  8
CSLAYER1
  6
CONTINUOUS
 62
     6
 10
120.599825
 20
70.660187
 11
119.599826
 21
69.660186
  0
LINE
  8
CSLAYER1
  6
CONTINUOUS
 62
     6
 10
120.599828
 20
66.417511
 11
119.599828
 21
65.417511
  0
LINE
  8
CSLAYER1
  6
CONTINUOUS
 62
     6
 10
120.599825
 20
70.660187
 11
120.599823
 21
73.989028
  0
LINE
  8
CSLAYER1
  6
CONTINUOUS
 62
     6
 10
123.668857
 20
68.619417
 11
123.039035
 21
68.564302
  0
ARC
  8
CSLAYER1
  6
CONTINUOUS
 62
     6
 10
123.126194
 20
67.568087
 40
1.000000
 50
95.000143
 51
163.742637
  0
ARC
  8
CSLAYER1
  6
CONTINUOUS
 62
     6
 10
123.686283
 20
68.420138
 40
0.200000
 50
0.057345
 51
95.000171
  0
ARC
  8
CSLAYER1
  6
CONTINUOUS
 62
     6
 10
123.986270
 20
68.688387
 40
0.100000
 50
90.057354
 51
180.000044
  0
LINE
  8
CSLAYER1
  6
CONTINUOUS
 62
     6
 10
123.986270
 20
68.788424
 11
124.486270
 21
68.788424
  0
ARC
  8
CSLAYER1
  6
CONTINUOUS
 62
     6
 10
124.486270
 20
68.688388
 40
0.100000
 50
0.057345
 51
90.000035
  0
ARC
  8
CSLAYER1
  6
CONTINUOUS
 62
     6
 10
128.886266
 20
65.888403
 40
7.000000
 50
163.743019
 51
175.665197
  0
LINE
  8
CSLAYER1
  6
CONTINUOUS
 62
     6
 10
123.886266
 20
66.417513
 11
123.886264
 21
68.688387
  0
CIRCLE
  8
CSLAYER1
  6
CONTINUOUS
 62
     6
 10
130.599834
 20
55.989014
 40
5.750000
  0
LINE
  8
CSLAYER1
  6
CONTINUOUS
 62
     6
 10
129.599837
 20
67.989041
 11
129.599838
 21
74.496628
  0
LINE
  8
CSLAYER1
  6
CONTINUOUS
 62
     6
 10
131.599837
 20
67.989040
 11
131.599838
 21
74.496634
  0
LINE
  8
CSLAYER1
  6
CONTINUOUS
 62
     6
 10
130.099834
 20
52.988999
 11
130.099834
 21
58.989028
  0
LINE
  8
CSLAYER1
  6
CONTINUOUS
 62
     6
 10
131.099834
 20
52.988999
 11
131.099834
 21
58.989028
  0
LINE
  8
CSLAYER1
  6
CONTINUOUS
 62
     6
 10
129.599834
 20
37.989027
 11
120.599845
 21
37.989028
  0
ARC
  8
CSLAYER1
  6
CONTINUOUS
 62
     6
 10
130.599838
 20
73.727391
 40
1.261636
 50
37.568822
 51
142.431165
  0
ARC
  8
CSLAYER1
  6
CONTINUOUS
 62
     6
 10
130.599801
 20
38.278858
 40
1.289831
 50
219.170203
 51
320.833896
  0
LINE
  8
CSLAYER1
  6
CONTINUOUS
 62
     6
 10
130.099834
 20
52.988999
 11
131.099834
 21
52.988999
  0
LINE
  8
CSLAYER1
  6
CONTINUOUS
 62
     6
 10
130.099834
 20
58.989028
 11
131.099834
 21
58.989029
  0
LINE
  8
CSLAYER1
  6
CONTINUOUS
 62
     6
 10
129.199838
 20
61.566003
 11
129.199843
 21
67.989041
  0
LINE
  8
CSLAYER1
  6
CONTINUOUS
 62
     6
 10
131.999825
 20
61.566004
 11
131.999831
 21
67.989040
  0
LINE
  8
CSLAYER1
  6
CONTINUOUS
 62
     6
 10
131.999831
 20
67.989040
 11
129.199843
 21
67.989041
  0
LINE
  8
CSLAYER1
  6
CENTER
 62
     3
 10
132.099843
 20
66.489040
 11
129.099843
 21
66.489041
  0
CIRCLE
  8
CSLAYER1
  6
CONTINUOUS
 62
     6
 10
130.599843
 20
66.489040
 40
0.500000
  0
LINE
  8
CSLAYER1
  6
CONTINUOUS
 62
     6
 10
155.446019
 20
73.989024
 11
131.599834
 21
73.989027
  0
LINE
  8
CSLAYER1
  6
CONTINUOUS
 62
     6
 10
129.599834
 20
73.989027
 11
120.599823
 21
73.989028
  0
LINE
  8
CSLAYER1
  6
CONTINUOUS
 62
     6
 10
120.599823
 20
73.989028
 11
119.599823
 21
72.989028
  0
LINE
  8
CSLAYER1
  6
CONTINUOUS
 62
     6
 10
119.599845
 20
38.989028
 11
120.599845
 21
37.989028
  0
LINE
  8
CSLAYER1
  6
CENTER
 62
     3
 10
83.170148
 20
139.122855
 11
101.161589
 21
134.144893
  0
ARC
  8
CSLAYER1
  6
CONTINUOUS
 62
     6
 10
90.578115
 20
123.992429
 40
12.607053
 50
47.070225
 51
74.534143
  0
ARC
  8
CSLAYER1
  6
CONTINUOUS
 62
     6
 10
90.578115
 20
123.992429
 40
10.847068
 50
47.070225
 51
74.534116
  0
ARC
  8
CSLAYER1
  6
CONTINUOUS
 62
     6
 10
94.557166
 20
135.515704
 40
0.879999
 50
134.534377
 51
194.534365
  0
ARC
  8
CSLAYER1
  6
CONTINUOUS
 62
     6
 10
94.322498
 20
134.667565
 40
0.879999
 50
134.534377
 51
194.534365
  0
ARC
  8
CSLAYER1
  6
CONTINUOUS
 62
     6
 10
92.853491
 20
135.074017
 40
0.879999
 50
-45.465615
 51
14.534387
  0
LINE
  8
CSLAYER1
  6
CONTINUOUS
 62
     6
 10
99.940186
 20
130.836550
 11
98.369890
 21
132.368665
  0
LINE
  8
CSLAYER1
  6
CONTINUOUS
 62
     6
 10
100.271946
 20
131.190683
 11
98.670141
 21
132.691430
  0
LINE
  8
CSLAYER1
  6
CONTINUOUS
 62
     6
 10
100.580699
 20
131.559510
 11
98.914640
 21
132.954260
  0
LINE
  8
CSLAYER1
  6
CONTINUOUS
 62
     6
 10
97.966063
 20
131.934540
 11
99.164815
 21
133.223182
  0
ARC
  8
CSLAYER1
  6
CONTINUOUS
 62
     6
 10
91.571870
 20
135.428623
 40
0.880005
 50
-45.465970
 51
14.534032
  0
ARC
  8
CSLAYER1
  6
CONTINUOUS
 62
     6
 10
91.806537
 20
136.276762
 40
0.880005
 50
-45.465970
 51
14.534032
  0
ARC
  8
CSLAYER1
  6
CONTINUOUS
 62
     6
 10
93.275545
 20
135.870309
 40
0.880005
 50
134.534022
 51
194.534010
  0
ARC
  8
CSLAYER1
  6
CONTINUOUS
 62
     6
 10
97.301876
 20
148.293571
 40
12.607053
 50
254.533933
 51
281.997850
  0
ARC
  8
CSLAYER1
  6
CONTINUOUS
 62
     6
 10
97.301876
 20
148.293571
 40
10.847068
 50
254.533960
 51
281.997850
  0
ARC
  8
CSLAYER1
  6
CONTINUOUS
 62
     6
 10
95.026500
 20
137.211982
 40
0.879999
 50
134.533687
 51
194.533689
  0
ARC
  8
CSLAYER1
  6
CONTINUOUS
 62
     6
 10
94.791833
 20
136.363843
 40
0.879999
 50
134.533687
 51
194.533689
  0
ARC
  8
CSLAYER1
  6
CONTINUOUS
 62
     6
 10
93.322825
 20
136.770295
 40
0.879999
 50
-45.466311
 51
14.533690
  0
LINE
  8
CSLAYER1
  6
CONTINUOUS
 62
     6
 10
101.640485
 20
137.569226
 11
99.679945
 21
137.103491
  0
LINE
  8
CSLAYER1
  6
CONTINUOUS
 62
     6
 10
101.751824
 20
137.100505
 11
99.771587
 21
136.672295
  0
LINE
  8
CSLAYER1
  6
CONTINUOUS
 62
     6
 10
101.851643
 20
136.638897
 11
99.846213
 21
136.321168
  0
LINE
  8
CSLAYER1
  6
CONTINUOUS
 62
     6
 10
99.556700
 20
137.683449
 11
99.922577
 21
135.961898
  0
ARC
  8
CSLAYER1
  6
CONTINUOUS
 62
     6
 10
92.041205
 20
137.124901
 40
0.880005
 50
-45.465970
 51
14.534032
  0
ARC
  8
CSLAYER1
  6
CONTINUOUS
 62
     6
 10
92.275872
 20
137.973040
 40
0.880005
 50
-45.465970
 51
14.534032
  0
ARC
  8
CSLAYER1
  6
CONTINUOUS
 62
     6
 10
93.744880
 20
137.566587
 40
0.880005
 50
134.534022
 51
194.534010
  0
LINE
  8
CSLAYER1
  6
CONTINUOUS
 62
     6
 10
92.658375
 20
136.497605
 11
87.459188
 21
137.936142
  0
LINE
  8
CSLAYER1
  6
CONTINUOUS
 62
     6
 10
92.189040
 20
134.801327
 11
86.989853
 21
136.239864
  0
LINE
  8
CSLAYER1
  6
CONTINUOUS
 62
     6
 10
93.127710
 20
138.193883
 11
87.928522
 21
139.632420
  0
ARC
  8
CSLAYER1
  6
CONTINUOUS
 62
     6
 10
89.941719
 20
137.249268
 40
5.250000
 50
344.007657
 51
345.060304
  0
ENDSEC
  0
EOF
