  0
SECTION
  2
HEADER
  9
$ACADVER
  1
AC1015
  9
$ACADMAINTVER
 70
     6
  9
$DWGCODEPAGE
  3
ANSI_932
  9
$INSBASE
 10
0.0
 20
0.0
 30
0.0
  9
$EXTMIN
 10
0.0
 20
0.0
 30
0.0
  9
$EXTMAX
 10
420.0
 20
297.0
 30
0.0
  9
$LIMMIN
 10
0.0
 20
0.0
  9
$LIMMAX
 10
420.0
 20
297.0
  9
$ORTHOMODE
 70
     0
  9
$REGENMODE
 70
     1
  9
$FILLMODE
 70
     1
  9
$QTEXTMODE
 70
     0
  9
$MIRRTEXT
 70
     1
  9
$LTSCALE
 40
1.0
  9
$ATTMODE
 70
     1
  9
$TEXTSIZE
 40
2.5
  9
$TRACEWID
 40
1.0
  9
$TEXTSTYLE
  7
FX_VECTOR
  9
$CLAYER
  8
0
  9
$CELTYPE
  6
ByLayer
  9
$CECOLOR
 62
   256
  9
$CELTSCALE
 40
1.0
  9
$DISPSILH
 70
     0
  9
$DIMSCALE
 40
1.0
  9
$DIMASZ
 40
3.0
  9
$DIMEXO
 40
1.0
  9
$DIMDLI
 40
8.0
  9
$DIMRND
 40
0.0
  9
$DIMDLE
 40
6.0
  9
$DIMEXE
 40
1.0
  9
$DIMTP
 40
0.0
  9
$DIMTM
 40
0.0
  9
$DIMTXT
 40
3.5
  9
$DIMCEN
 40
2.5
  9
$DIMTSZ
 40
0.0
  9
$DIMTOL
 70
     0
  9
$DIMLIM
 70
     0
  9
$DIMTIH
 70
     0
  9
$DIMTOH
 70
     0
  9
$DIMSE1
 70
     0
  9
$DIMSE2
 70
     0
  9
$DIMTAD
 70
     1
  9
$DIMZIN
 70
     8
  9
$DIMBLK
  1

  9
$DIMASO
 70
     1
  9
$DIMSHO
 70
     1
  9
$DIMPOST
  1

  9
$DIMAPOST
  1

  9
$DIMALT
 70
     0
  9
$DIMALTD
 70
     3
  9
$DIMALTF
 40
0.03937
  9
$DIMLFAC
 40
1.0
  9
$DIMTOFL
 70
     1
  9
$DIMTVP
 40
0.0
  9
$DIMTIX
 70
     0
  9
$DIMSOXD
 70
     0
  9
$DIMSAH
 70
     1
  9
$DIMBLK1
  1
FXTIP_ARROW_S
  9
$DIMBLK2
  1
FXTIP_ARROW_E
  9
$DIMSTYLE
  2
FXDIMINFO
  9
$DIMCLRD
 70
     7
  9
$DIMCLRE
 70
     7
  9
$DIMCLRT
 70
     7
  9
$DIMTFAC
 40
1.0
  9
$DIMGAP
 40
0.5
  9
$DIMJUST
 70
     0
  9
$DIMSD1
 70
     0
  9
$DIMSD2
 70
     0
  9
$DIMTOLJ
 70
     1
  9
$DIMTZIN
 70
     8
  9
$DIMALTZ
 70
     0
  9
$DIMALTTZ
 70
     0
  9
$DIMUPT
 70
     0
  9
$DIMDEC
 70
     4
  9
$DIMTDEC
 70
     2
  9
$DIMALTU
 70
     2
  9
$DIMALTTD
 70
     3
  9
$DIMTXSTY
  7
FX_VECTOR
  9
$DIMAUNIT
 70
     0
  9
$DIMADEC
 70
     4
  9
$DIMALTRND
 40
0.0
  9
$DIMAZIN
 70
     2
  9
$DIMDSEP
 70
    46
  9
$DIMATFIT
 70
     3
  9
$DIMFRAC
 70
     0
  9
$DIMLDRBLK
  1
FXTIP_ARROW_S
  9
$DIMLUNIT
 70
     2
  9
$DIMLWD
 70
    -2
  9
$DIMLWE
 70
    -2
  9
$DIMTMOVE
 70
     0
  9
$LUNITS
 70
     2
  9
$LUPREC
 70
     4
  9
$SKETCHINC
 40
1.0
  9
$FILLETRAD
 40
10.0
  9
$AUNITS
 70
     0
  9
$AUPREC
 70
     0
  9
$MENU
  1
.
  9
$ELEVATION
 40
0.0
  9
$PELEVATION
 40
0.0
  9
$THICKNESS
 40
0.0
  9
$LIMCHECK
 70
     0
  9
$CHAMFERA
 40
10.0
  9
$CHAMFERB
 40
10.0
  9
$CHAMFERC
 40
20.0
  9
$CHAMFERD
 40
0.0
  9
$SKPOLY
 70
     0
  9
$TDCREATE
 40
2456323.604079861
  9
$TDUCREATE
 40
2456323.229079861
  9
$TDUPDATE
 40
2456323.604079873
  9
$TDUUPDATE
 40
2456323.229079873
  9
$TDINDWG
 40
0.0000000116
  9
$TDUSRTIMER
 40
0.0000000116
  9
$USRTIMER
 70
     1
  9
$ANGBASE
 50
0.0
  9
$ANGDIR
 70
     0
  9
$PDMODE
 70
     0
  9
$PDSIZE
 40
0.0
  9
$PLINEWID
 40
0.0
  9
$SPLFRAME
 70
     0
  9
$SPLINETYPE
 70
     6
  9
$SPLINESEGS
 70
     8
  9
$HANDSEED
  5
35C
  9
$SURFTAB1
 70
     6
  9
$SURFTAB2
 70
     6
  9
$SURFTYPE
 70
     6
  9
$SURFU
 70
     6
  9
$SURFV
 70
     6
  9
$UCSBASE
  2

  9
$UCSNAME
  2

  9
$UCSORG
 10
0.0
 20
0.0
 30
0.0
  9
$UCSXDIR
 10
1.0
 20
0.0
 30
0.0
  9
$UCSYDIR
 10
0.0
 20
1.0
 30
0.0
  9
$UCSORTHOREF
  2

  9
$UCSORTHOVIEW
 70
     0
  9
$UCSORGTOP
 10
0.0
 20
0.0
 30
0.0
  9
$UCSORGBOTTOM
 10
0.0
 20
0.0
 30
0.0
  9
$UCSORGLEFT
 10
0.0
 20
0.0
 30
0.0
  9
$UCSORGRIGHT
 10
0.0
 20
0.0
 30
0.0
  9
$UCSORGFRONT
 10
0.0
 20
0.0
 30
0.0
  9
$UCSORGBACK
 10
0.0
 20
0.0
 30
0.0
  9
$PUCSBASE
  2

  9
$PUCSNAME
  2

  9
$PUCSORG
 10
0.0
 20
0.0
 30
0.0
  9
$PUCSXDIR
 10
1.0
 20
0.0
 30
0.0
  9
$PUCSYDIR
 10
0.0
 20
1.0
 30
0.0
  9
$PUCSORTHOREF
  2

  9
$PUCSORTHOVIEW
 70
     0
  9
$PUCSORGTOP
 10
0.0
 20
0.0
 30
0.0
  9
$PUCSORGBOTTOM
 10
0.0
 20
0.0
 30
0.0
  9
$PUCSORGLEFT
 10
0.0
 20
0.0
 30
0.0
  9
$PUCSORGRIGHT
 10
0.0
 20
0.0
 30
0.0
  9
$PUCSORGFRONT
 10
0.0
 20
0.0
 30
0.0
  9
$PUCSORGBACK
 10
0.0
 20
0.0
 30
0.0
  9
$USERI1
 70
     0
  9
$USERI2
 70
     0
  9
$USERI3
 70
     0
  9
$USERI4
 70
     0
  9
$USERI5
 70
     0
  9
$USERR1
 40
0.0
  9
$USERR2
 40
0.0
  9
$USERR3
 40
0.0
  9
$USERR4
 40
0.0
  9
$USERR5
 40
0.0
  9
$WORLDVIEW
 70
     1
  9
$SHADEDGE
 70
     3
  9
$SHADEDIF
 70
    70
  9
$TILEMODE
 70
     1
  9
$MAXACTVP
 70
    64
  9
$PINSBASE
 10
0.0
 20
0.0
 30
0.0
  9
$PLIMCHECK
 70
     0
  9
$PEXTMIN
 10
1.000000000000000E+20
 20
1.000000000000000E+20
 30
1.000000000000000E+20
  9
$PEXTMAX
 10
-1.000000000000000E+20
 20
-1.000000000000000E+20
 30
-1.000000000000000E+20
  9
$PLIMMIN
 10
0.0
 20
0.0
  9
$PLIMMAX
 10
420.0
 20
297.0
  9
$UNITMODE
 70
     0
  9
$VISRETAIN
 70
     1
  9
$PLINEGEN
 70
     0
  9
$PSLTSCALE
 70
     1
  9
$TREEDEPTH
 70
  3020
  9
$CMLSTYLE
  2
Standard
  9
$CMLJUST
 70
     0
  9
$CMLSCALE
 40
20.0
  9
$PROXYGRAPHICS
 70
     1
  9
$MEASUREMENT
 70
     1
  9
$CELWEIGHT
370
    -1
  9
$ENDCAPS
280
     0
  9
$JOINSTYLE
280
     0
  9
$LWDISPLAY
290
     0
  9
$INSUNITS
 70
     4
  9
$HYPERLINKBASE
  1

  9
$STYLESHEET
  1

  9
$XEDIT
290
     1
  9
$CEPSNTYPE
380
     0
  9
$PSTYLEMODE
290
     1
  9
$FINGERPRINTGUID
  2
{82E750ED-2650-48AC-B639-6D3D113821C6}
  9
$VERSIONGUID
  2
{FAEB1C32-E019-11D5-929B-00C0DF256EC4}
  9
$EXTNAMES
290
     1
  9
$PSVPSCALE
 40
0.0
  9
$OLESTARTUP
290
     0
  0
ENDSEC
  0
SECTION
  2
CLASSES
  0
CLASS
  1
ACDBDICTIONARYWDFLT
  2
AcDbDictionaryWithDefault
  3
ObjectDBX Classes
 90
        0
280
     0
281
     0
  0
CLASS
  1
VISUALSTYLE
  2
AcDbVisualStyle
  3
ObjectDBX Classes
 90
     4095
280
     0
281
     0
  0
CLASS
  1
MATERIAL
  2
AcDbMaterial
  3
ObjectDBX Classes
 90
     1153
280
     0
281
     0
  0
CLASS
  1
DICTIONARYVAR
  2
AcDbDictionaryVar
  3
ObjectDBX Classes
 90
        0
280
     0
281
     0
  0
CLASS
  1
ACDBPLACEHOLDER
  2
AcDbPlaceHolder
  3
ObjectDBX Classes
 90
        0
280
     0
281
     0
  0
CLASS
  1
LAYOUT
  2
AcDbLayout
  3
ObjectDBX Classes
 90
        0
280
     0
281
     0
  0
ENDSEC
  0
SECTION
  2
TABLES
  0
TABLE
  2
VPORT
  5
8
330
0
100
AcDbSymbolTable
 70
     1
  0
VPORT
  5
29
330
8
100
AcDbSymbolTableRecord
100
AcDbViewportTableRecord
  2
*Active
 70
     0
 10
0.0
 20
0.0
 11
1.0
 21
1.0
 12
210.0
 22
148.5
 13
0.0
 23
0.0
 14
10.0
 24
10.0
 15
10.0
 25
10.0
 16
0.0
 26
0.0
 36
1.0
 17
0.0
 27
0.0
 37
0.0
 40
297.0
 41
1.414141414141414
 42
50.0
 43
0.0
 44
0.0
 50
0.0
 51
0.0
 71
     0
 72
   100
 73
     1
 74
     3
 75
     0
 76
     0
 77
     0
 78
     0
281
     0
 65
     1
110
0.0
120
0.0
130
0.0
111
1.0
121
0.0
131
0.0
112
0.0
122
1.0
132
0.0
 79
     0
146
0.0
  0
ENDTAB
  0
TABLE
  2
LTYPE
  5
5
330
0
100
AcDbSymbolTable
 70
     3
  0
LTYPE
  5
14
330
5
100
AcDbSymbolTableRecord
100
AcDbLinetypeTableRecord
  2
ByBlock
 70
     0
  3

 72
    65
 73
     0
 40
0.0
  0
LTYPE
  5
15
330
5
100
AcDbSymbolTableRecord
100
AcDbLinetypeTableRecord
  2
ByLayer
 70
     0
  3

 72
    65
 73
     0
 40
0.0
  0
LTYPE
  5
16
330
5
100
AcDbSymbolTableRecord
100
AcDbLinetypeTableRecord
  2
Continuous
 70
     0
  3
Solid line
 72
    65
 73
     0
 40
0.0
  0
LTYPE
  5
A8
330
5
100
AcDbSymbolTableRecord
100
AcDbLinetypeTableRecord
  2
実線
 70
     0
  3

 72
    65
 73
     0
 40
0.0
  0
LTYPE
  5
A9
330
5
100
AcDbSymbolTableRecord
100
AcDbLinetypeTableRecord
  2
一点鎖線
 70
     0
  3

 72
    65
 73
     4
 40
13.0
 49
10.0
 74
     0
 49
-1.0
 74
     0
 49
1.0
 74
     0
 49
-1.0
 74
     0
  0
ENDTAB
  0
TABLE
  2
LAYER
  5
2
330
0
100
AcDbSymbolTable
 70
     4
  0
LAYER
  5
10
330
2
100
AcDbSymbolTableRecord
100
AcDbLayerTableRecord
  2
0
 70
     0
 62
     7
  6
Continuous
370
    -3
390
F
  0
LAYER
  5
A7
330
2
100
AcDbSymbolTableRecord
100
AcDbLayerTableRecord
  2
GR1_01
 70
     0
 62
     1
  6
実線
370
    20
390
F
  0
LAYER
  5
E0
330
2
100
AcDbSymbolTableRecord
100
AcDbLayerTableRecord
  2
作図レイヤ
 70
     0
 62
     5
  6
実線
370
    40
390
F
  0
LAYER
  5
26A
330
2
100
AcDbSymbolTableRecord
100
AcDbLayerTableRecord
  2
基準ﾚｲﾔｸﾞﾙｰﾌﾟ_01
 70
     0
 62
     3
  6
実線
370
    20
390
F
  0
ENDTAB
  0
TABLE
  2
STYLE
  5
3
330
0
100
AcDbSymbolTable
 70
     3
  0
STYLE
  5
11
330
3
100
AcDbSymbolTableRecord
100
AcDbTextStyleTableRecord
  2
Standard
 70
     0
 40
0.0
 41
1.0
 50
0.0
 71
     0
 42
2.5
  3
txt
  4

  0
STYLE
  5
3F
330
3
100
AcDbSymbolTableRecord
100
AcDbTextStyleTableRecord
  2
FX_VECTOR
 70
     0
 40
0.0
 41
1.0
 50
0.0
 71
     0
 42
0.2
  3
MONOTXT.SHX
  4
BigFont.shx
  0
STYLE
  5
279
330
3
100
AcDbSymbolTableRecord
100
AcDbTextStyleTableRecord
  2
STYLE003
 70
     0
 40
0.0
 41
1.0
 50
0.0
 71
     0
 42
0.2
  3

  4

1001
ACAD
1000
ＭＳ ゴシック
1071
    32817
  0
ENDTAB
  0
TABLE
  2
VIEW
  5
6
330
0
100
AcDbSymbolTable
 70
     0
  0
ENDTAB
  0
TABLE
  2
UCS
  5
7
330
0
100
AcDbSymbolTable
 70
     0
  0
ENDTAB
  0
TABLE
  2
APPID
  5
9
330
0
100
AcDbSymbolTable
 70
     1
  0
APPID
  5
12
330
9
100
AcDbSymbolTableRecord
100
AcDbRegAppTableRecord
  2
ACAD
 70
     0
  0
ENDTAB
  0
TABLE
  2
DIMSTYLE
  5
A
330
0
100
AcDbSymbolTable
 70
     2
100
AcDbDimStyleTable
  0
DIMSTYLE
105
27
330
A
100
AcDbSymbolTableRecord
100
AcDbDimStyleTableRecord
  2
ISO-25
 70
     0
 41
2.5
 42
0.625
 43
3.75
 44
1.25
 73
     0
 74
     0
 77
     1
 78
     8
140
2.5
141
2.5
143
0.03937007874016
147
0.625
171
     3
172
     1
178
     0
271
     2
272
     2
274
     3
278
    44
283
     0
284
     8
340
11
  0
DIMSTYLE
105
A6
330
A
100
AcDbSymbolTableRecord
100
AcDbDimStyleTableRecord
  2
FXDIMINFO
 70
     0
 41
3.0
 42
1.0
 43
8.0
 44
1.0
 46
6.0
 73
     0
 74
     0
 77
     1
 78
     8
 79
     2
140
3.5
141
2.5
143
0.03937
147
0.5
171
     3
172
     1
173
     1
176
     7
177
     7
178
     7
179
     4
272
     2
274
     3
284
     8
340
3F
341
40
343
40
344
46
  0
ENDTAB
  0
TABLE
  2
BLOCK_RECORD
  5
1
330
0
100
AcDbSymbolTable
 70
    19
  0
BLOCK_RECORD
  5
1F
330
1
100
AcDbSymbolTableRecord
100
AcDbBlockTableRecord
  2
*Model_Space
340
22
  0
BLOCK_RECORD
  5
1B
330
1
100
AcDbSymbolTableRecord
100
AcDbBlockTableRecord
  2
*Paper_Space
340
1E
  0
BLOCK_RECORD
  5
23
330
1
100
AcDbSymbolTableRecord
100
AcDbBlockTableRecord
  2
*Paper_Space0
340
26
  0
BLOCK_RECORD
  5
40
330
1
100
AcDbSymbolTableRecord
100
AcDbBlockTableRecord
  2
FXTIP_ARROW_S
340
0
  0
BLOCK_RECORD
  5
46
330
1
100
AcDbSymbolTableRecord
100
AcDbBlockTableRecord
  2
FXTIP_ARROW_E
340
0
  0
BLOCK_RECORD
  5
4C
330
1
100
AcDbSymbolTableRecord
100
AcDbBlockTableRecord
  2
FXTIP_BLACKDOT_S
340
0
  0
BLOCK_RECORD
  5
52
330
1
100
AcDbSymbolTableRecord
100
AcDbBlockTableRecord
  2
FXTIP_BLACKDOT_E
340
0
  0
BLOCK_RECORD
  5
58
330
1
100
AcDbSymbolTableRecord
100
AcDbBlockTableRecord
  2
FXTIP_TRIANGLE_S
340
0
  0
BLOCK_RECORD
  5
5F
330
1
100
AcDbSymbolTableRecord
100
AcDbBlockTableRecord
  2
FXTIP_TRIANGLE_E
340
0
  0
BLOCK_RECORD
  5
66
330
1
100
AcDbSymbolTableRecord
100
AcDbBlockTableRecord
  2
FXTIP_ARCHITECT_S
340
0
  0
BLOCK_RECORD
  5
6C
330
1
100
AcDbSymbolTableRecord
100
AcDbBlockTableRecord
  2
FXTIP_ARCHITECT_E
340
0
  0
BLOCK_RECORD
  5
72
330
1
100
AcDbSymbolTableRecord
100
AcDbBlockTableRecord
  2
FXTIP_CIVIL_S
340
0
  0
BLOCK_RECORD
  5
78
330
1
100
AcDbSymbolTableRecord
100
AcDbBlockTableRecord
  2
FXTIP_CIVIL_E
340
0
  0
BLOCK_RECORD
  5
7E
330
1
100
AcDbSymbolTableRecord
100
AcDbBlockTableRecord
  2
FXTIP_WHITEDOT_S
340
0
  0
BLOCK_RECORD
  5
83
330
1
100
AcDbSymbolTableRecord
100
AcDbBlockTableRecord
  2
FXTIP_WHITEDOT_E
340
0
  0
BLOCK_RECORD
  5
88
330
1
100
AcDbSymbolTableRecord
100
AcDbBlockTableRecord
  2
FXTIP_UPARROW_S
340
0
  0
BLOCK_RECORD
  5
8D
330
1
100
AcDbSymbolTableRecord
100
AcDbBlockTableRecord
  2
FXTIP_UPARROW_E
340
0
  0
BLOCK_RECORD
  5
92
330
1
100
AcDbSymbolTableRecord
100
AcDbBlockTableRecord
  2
FXTIP_DOWNARROW_S
340
0
  0
BLOCK_RECORD
  5
97
330
1
100
AcDbSymbolTableRecord
100
AcDbBlockTableRecord
  2
FXTIP_DOWNARROW_E
340
0
  0
BLOCK_RECORD
  5
9C
330
1
100
AcDbSymbolTableRecord
100
AcDbBlockTableRecord
  2
FXTIP_BLACKTRIANGLE_S
340
0
  0
BLOCK_RECORD
  5
A1
330
1
100
AcDbSymbolTableRecord
100
AcDbBlockTableRecord
  2
FXTIP_BLACKTRIANGLE_E
340
0
  0
ENDTAB
  0
ENDSEC
  0
SECTION
  2
BLOCKS
  0
BLOCK
  5
20
330
1F
100
AcDbEntity
  8
0
100
AcDbBlockBegin
  2
*Model_Space
 70
     0
 10
0.0
 20
0.0
 30
0.0
  3
*Model_Space
  1

  0
ENDBLK
  5
21
330
1F
100
AcDbEntity
  8
0
100
AcDbBlockEnd
  0
BLOCK
  5
1C
330
1B
100
AcDbEntity
 67
     1
  8
0
100
AcDbBlockBegin
  2
*Paper_Space
 70
     0
 10
0.0
 20
0.0
 30
0.0
  3
*Paper_Space
  1

  0
ENDBLK
  5
1D
330
1B
100
AcDbEntity
 67
     1
  8
0
100
AcDbBlockEnd
  0
BLOCK
  5
24
330
23
100
AcDbEntity
  8
0
100
AcDbBlockBegin
  2
*Paper_Space0
 70
     0
 10
0.0
 20
0.0
 30
0.0
  3
*Paper_Space0
  1

  0
ENDBLK
  5
25
330
23
100
AcDbEntity
  8
0
100
AcDbBlockEnd
  0
BLOCK
  5
41
330
40
100
AcDbEntity
  8
0
100
AcDbBlockBegin
  2
FXTIP_ARROW_S
 70
     0
 10
0.0
 20
0.0
 30
0.0
  3
FXTIP_ARROW_S
  1

  0
LINE
  5
43
330
40
100
AcDbEntity
  8
0
  6
Continuous
 62
     0
370
    -2
100
AcDbLine
 10
0.0
 20
0.0
 30
0.0
 11
-1.0
 21
0.0000000000000001
 31
0.0
  0
LINE
  5
44
330
40
100
AcDbEntity
  8
0
  6
Continuous
 62
     0
370
    -2
100
AcDbLine
 10
0.0
 20
0.0
 30
0.0
 11
-0.9914448613738104
 21
-0.1305261922200515
 31
0.0
  0
LINE
  5
45
330
40
100
AcDbEntity
  8
0
  6
Continuous
 62
     0
370
    -2
100
AcDbLine
 10
0.0
 20
0.0
 30
0.0
 11
-0.9914448613738104
 21
0.1305261922200517
 31
0.0
  0
ENDBLK
  5
42
330
40
100
AcDbEntity
  8
0
100
AcDbBlockEnd
  0
BLOCK
  5
47
330
46
100
AcDbEntity
  8
0
100
AcDbBlockBegin
  2
FXTIP_ARROW_E
 70
     0
 10
0.0
 20
0.0
 30
0.0
  3
FXTIP_ARROW_E
  1

  0
LINE
  5
49
330
46
100
AcDbEntity
  8
0
  6
Continuous
 62
     0
370
    -2
100
AcDbLine
 10
0.0
 20
0.0
 30
0.0
 11
-1.0
 21
0.0
 31
0.0
  0
LINE
  5
4A
330
46
100
AcDbEntity
  8
0
  6
Continuous
 62
     0
370
    -2
100
AcDbLine
 10
0.0
 20
0.0
 30
0.0
 11
-0.9914448613738104
 21
0.1305261922200516
 31
0.0
  0
LINE
  5
4B
330
46
100
AcDbEntity
  8
0
  6
Continuous
 62
     0
370
    -2
100
AcDbLine
 10
0.0
 20
0.0
 30
0.0
 11
-0.9914448613738104
 21
-0.1305261922200516
 31
0.0
  0
ENDBLK
  5
48
330
46
100
AcDbEntity
  8
0
100
AcDbBlockEnd
  0
BLOCK
  5
4D
330
4C
100
AcDbEntity
  8
0
100
AcDbBlockBegin
  2
FXTIP_BLACKDOT_S
 70
     0
 10
0.0
 20
0.0
 30
0.0
  3
FXTIP_BLACKDOT_S
  1

  0
LINE
  5
4F
330
4C
100
AcDbEntity
  8
0
  6
Continuous
 62
     0
370
    -2
100
AcDbLine
 10
0.0
 20
0.0
 30
0.0
 11
-1.0
 21
0.0000000000000001
 31
0.0
  0
LWPOLYLINE
  5
50
330
4C
100
AcDbEntity
  8
0
  6
Continuous
 62
     0
370
    -2
100
AcDbPolyline
 90
        2
 70
     1
 10
-0.25
 20
0.0
 40
0.5
 41
0.5
 42
1.0
 10
0.25
 20
0.0
 40
0.5
 41
0.5
 42
1.0
  0
CIRCLE
  5
51
330
4C
100
AcDbEntity
  8
0
  6
Continuous
 62
     0
370
    -2
100
AcDbCircle
 10
0.0
 20
0.0
 30
0.0
 40
0.5
  0
ENDBLK
  5
4E
330
4C
100
AcDbEntity
  8
0
100
AcDbBlockEnd
  0
BLOCK
  5
53
330
52
100
AcDbEntity
  8
0
100
AcDbBlockBegin
  2
FXTIP_BLACKDOT_E
 70
     0
 10
0.0
 20
0.0
 30
0.0
  3
FXTIP_BLACKDOT_E
  1

  0
LINE
  5
55
330
52
100
AcDbEntity
  8
0
  6
Continuous
 62
     0
370
    -2
100
AcDbLine
 10
0.0
 20
0.0
 30
0.0
 11
-1.0
 21
0.0
 31
0.0
  0
LWPOLYLINE
  5
56
330
52
100
AcDbEntity
  8
0
  6
Continuous
 62
     0
370
    -2
100
AcDbPolyline
 90
        2
 70
     1
 10
-0.25
 20
0.0
 40
0.5
 41
0.5
 42
1.0
 10
0.25
 20
0.0
 40
0.5
 41
0.5
 42
1.0
  0
CIRCLE
  5
57
330
52
100
AcDbEntity
  8
0
  6
Continuous
 62
     0
370
    -2
100
AcDbCircle
 10
0.0
 20
0.0
 30
0.0
 40
0.5
  0
ENDBLK
  5
54
330
52
100
AcDbEntity
  8
0
100
AcDbBlockEnd
  0
BLOCK
  5
59
330
58
100
AcDbEntity
  8
0
100
AcDbBlockBegin
  2
FXTIP_TRIANGLE_S
 70
     0
 10
0.0
 20
0.0
 30
0.0
  3
FXTIP_TRIANGLE_S
  1

  0
LINE
  5
5B
330
58
100
AcDbEntity
  8
0
  6
Continuous
 62
     0
370
    -2
100
AcDbLine
 10
0.0
 20
0.0
 30
0.0
 11
-1.0
 21
0.0000000000000001
 31
0.0
  0
LINE
  5
5C
330
58
100
AcDbEntity
  8
0
  6
Continuous
 62
     0
370
    -2
100
AcDbLine
 10
0.0
 20
0.0
 30
0.0
 11
-0.9914448613738104
 21
-0.1305261922200515
 31
0.0
  0
LINE
  5
5D
330
58
100
AcDbEntity
  8
0
  6
Continuous
 62
     0
370
    -2
100
AcDbLine
 10
0.0
 20
0.0
 30
0.0
 11
-0.9914448613738104
 21
0.1305261922200517
 31
0.0
  0
LINE
  5
5E
330
58
100
AcDbEntity
  8
0
  6
Continuous
 62
     0
370
    -2
100
AcDbLine
 10
-0.9914448613738104
 20
-0.1305261922200515
 30
0.0
 11
-0.9914448613738104
 21
0.1305261922200517
 31
0.0
  0
ENDBLK
  5
5A
330
58
100
AcDbEntity
  8
0
100
AcDbBlockEnd
  0
BLOCK
  5
60
330
5F
100
AcDbEntity
  8
0
100
AcDbBlockBegin
  2
FXTIP_TRIANGLE_E
 70
     0
 10
0.0
 20
0.0
 30
0.0
  3
FXTIP_TRIANGLE_E
  1

  0
LINE
  5
62
330
5F
100
AcDbEntity
  8
0
  6
Continuous
 62
     0
370
    -2
100
AcDbLine
 10
0.0
 20
0.0
 30
0.0
 11
-1.0
 21
0.0
 31
0.0
  0
LINE
  5
63
330
5F
100
AcDbEntity
  8
0
  6
Continuous
 62
     0
370
    -2
100
AcDbLine
 10
0.0
 20
0.0
 30
0.0
 11
-0.9914448613738104
 21
0.1305261922200516
 31
0.0
  0
LINE
  5
64
330
5F
100
AcDbEntity
  8
0
  6
Continuous
 62
     0
370
    -2
100
AcDbLine
 10
0.0
 20
0.0
 30
0.0
 11
-0.9914448613738104
 21
-0.1305261922200516
 31
0.0
  0
LINE
  5
65
330
5F
100
AcDbEntity
  8
0
  6
Continuous
 62
     0
370
    -2
100
AcDbLine
 10
-0.9914448613738104
 20
0.1305261922200516
 30
0.0
 11
-0.9914448613738104
 21
-0.1305261922200516
 31
0.0
  0
ENDBLK
  5
61
330
5F
100
AcDbEntity
  8
0
100
AcDbBlockEnd
  0
BLOCK
  5
67
330
66
100
AcDbEntity
  8
0
100
AcDbBlockBegin
  2
FXTIP_ARCHITECT_S
 70
     0
 10
0.0
 20
0.0
 30
0.0
  3
FXTIP_ARCHITECT_S
  1

  0
LINE
  5
69
330
66
100
AcDbEntity
  8
0
  6
Continuous
 62
     0
370
    -2
100
AcDbLine
 10
0.0
 20
0.0
 30
0.0
 11
-1.0
 21
0.0000000000000001
 31
0.0
  0
LINE
  5
6A
330
66
100
AcDbEntity
  8
0
  6
Continuous
 62
     0
370
    -2
100
AcDbLine
 10
0.0
 20
0.0
 30
0.0
 11
-0.7071067811865476
 21
-0.7071067811865474
 31
0.0
  0
LINE
  5
6B
330
66
100
AcDbEntity
  8
0
  6
Continuous
 62
     0
370
    -2
100
AcDbLine
 10
0.0
 20
0.0
 30
0.0
 11
0.7071067811865476
 21
0.7071067811865474
 31
0.0
  0
ENDBLK
  5
68
330
66
100
AcDbEntity
  8
0
100
AcDbBlockEnd
  0
BLOCK
  5
6D
330
6C
100
AcDbEntity
  8
0
100
AcDbBlockBegin
  2
FXTIP_ARCHITECT_E
 70
     0
 10
0.0
 20
0.0
 30
0.0
  3
FXTIP_ARCHITECT_E
  1

  0
LINE
  5
6F
330
6C
100
AcDbEntity
  8
0
  6
Continuous
 62
     0
370
    -2
100
AcDbLine
 10
0.0
 20
0.0
 30
0.0
 11
-1.0
 21
0.0
 31
0.0
  0
LINE
  5
70
330
6C
100
AcDbEntity
  8
0
  6
Continuous
 62
     0
370
    -2
100
AcDbLine
 10
0.0
 20
0.0
 30
0.0
 11
0.7071067811865475
 21
0.7071067811865475
 31
0.0
  0
LINE
  5
71
330
6C
100
AcDbEntity
  8
0
  6
Continuous
 62
     0
370
    -2
100
AcDbLine
 10
0.0
 20
0.0
 30
0.0
 11
-0.7071067811865475
 21
-0.7071067811865475
 31
0.0
  0
ENDBLK
  5
6E
330
6C
100
AcDbEntity
  8
0
100
AcDbBlockEnd
  0
BLOCK
  5
73
330
72
100
AcDbEntity
  8
0
100
AcDbBlockBegin
  2
FXTIP_CIVIL_S
 70
     0
 10
0.0
 20
0.0
 30
0.0
  3
FXTIP_CIVIL_S
  1

  0
LINE
  5
75
330
72
100
AcDbEntity
  8
0
  6
Continuous
 62
     0
370
    -2
100
AcDbLine
 10
0.0
 20
0.0
 30
0.0
 11
-1.0
 21
0.0000000000000001
 31
0.0
  0
LINE
  5
76
330
72
100
AcDbEntity
  8
0
  6
Continuous
 62
     0
370
    -2
100
AcDbLine
 10
0.0
 20
-0.0833333333333333
 30
0.0
 11
-1.0
 21
-0.0833333333333332
 31
0.0
  0
LINE
  5
77
330
72
100
AcDbEntity
  8
0
  6
Continuous
 62
     0
370
    -2
100
AcDbLine
 10
0.0
 20
-0.1666666666666667
 30
0.0
 11
-1.0
 21
-0.1666666666666666
 31
0.0
  0
ENDBLK
  5
74
330
72
100
AcDbEntity
  8
0
100
AcDbBlockEnd
  0
BLOCK
  5
79
330
78
100
AcDbEntity
  8
0
100
AcDbBlockBegin
  2
FXTIP_CIVIL_E
 70
     0
 10
0.0
 20
0.0
 30
0.0
  3
FXTIP_CIVIL_E
  1

  0
LINE
  5
7B
330
78
100
AcDbEntity
  8
0
  6
Continuous
 62
     0
370
    -2
100
AcDbLine
 10
0.0
 20
0.0
 30
0.0
 11
-1.0
 21
0.0
 31
0.0
  0
LINE
  5
7C
330
78
100
AcDbEntity
  8
0
  6
Continuous
 62
     0
370
    -2
100
AcDbLine
 10
0.0
 20
0.0833333333333333
 30
0.0
 11
-1.0
 21
0.0833333333333333
 31
0.0
  0
LINE
  5
7D
330
78
100
AcDbEntity
  8
0
  6
Continuous
 62
     0
370
    -2
100
AcDbLine
 10
0.0
 20
0.1666666666666667
 30
0.0
 11
-1.0
 21
0.1666666666666667
 31
0.0
  0
ENDBLK
  5
7A
330
78
100
AcDbEntity
  8
0
100
AcDbBlockEnd
  0
BLOCK
  5
7F
330
7E
100
AcDbEntity
  8
0
100
AcDbBlockBegin
  2
FXTIP_WHITEDOT_S
 70
     0
 10
0.0
 20
0.0
 30
0.0
  3
FXTIP_WHITEDOT_S
  1

  0
LINE
  5
81
330
7E
100
AcDbEntity
  8
0
  6
Continuous
 62
     0
370
    -2
100
AcDbLine
 10
0.0
 20
0.0
 30
0.0
 11
-1.0
 21
0.0000000000000001
 31
0.0
  0
CIRCLE
  5
82
330
7E
100
AcDbEntity
  8
0
  6
Continuous
 62
     0
370
    -2
100
AcDbCircle
 10
0.0
 20
0.0
 30
0.0
 40
0.5
  0
ENDBLK
  5
80
330
7E
100
AcDbEntity
  8
0
100
AcDbBlockEnd
  0
BLOCK
  5
84
330
83
100
AcDbEntity
  8
0
100
AcDbBlockBegin
  2
FXTIP_WHITEDOT_E
 70
     0
 10
0.0
 20
0.0
 30
0.0
  3
FXTIP_WHITEDOT_E
  1

  0
LINE
  5
86
330
83
100
AcDbEntity
  8
0
  6
Continuous
 62
     0
370
    -2
100
AcDbLine
 10
0.0
 20
0.0
 30
0.0
 11
-1.0
 21
0.0
 31
0.0
  0
CIRCLE
  5
87
330
83
100
AcDbEntity
  8
0
  6
Continuous
 62
     0
370
    -2
100
AcDbCircle
 10
0.0
 20
0.0
 30
0.0
 40
0.5
  0
ENDBLK
  5
85
330
83
100
AcDbEntity
  8
0
100
AcDbBlockEnd
  0
BLOCK
  5
89
330
88
100
AcDbEntity
  8
0
100
AcDbBlockBegin
  2
FXTIP_UPARROW_S
 70
     0
 10
0.0
 20
0.0
 30
0.0
  3
FXTIP_UPARROW_S
  1

  0
LINE
  5
8B
330
88
100
AcDbEntity
  8
0
  6
Continuous
 62
     0
370
    -2
100
AcDbLine
 10
0.0
 20
0.0
 30
0.0
 11
-1.0
 21
0.0000000000000001
 31
0.0
  0
LINE
  5
8C
330
88
100
AcDbEntity
  8
0
  6
Continuous
 62
     0
370
    -2
100
AcDbLine
 10
0.0
 20
0.0
 30
0.0
 11
-0.9914448613738104
 21
-0.1305261922200515
 31
0.0
  0
ENDBLK
  5
8A
330
88
100
AcDbEntity
  8
0
100
AcDbBlockEnd
  0
BLOCK
  5
8E
330
8D
100
AcDbEntity
  8
0
100
AcDbBlockBegin
  2
FXTIP_UPARROW_E
 70
     0
 10
0.0
 20
0.0
 30
0.0
  3
FXTIP_UPARROW_E
  1

  0
LINE
  5
90
330
8D
100
AcDbEntity
  8
0
  6
Continuous
 62
     0
370
    -2
100
AcDbLine
 10
0.0
 20
0.0
 30
0.0
 11
-1.0
 21
0.0
 31
0.0
  0
LINE
  5
91
330
8D
100
AcDbEntity
  8
0
  6
Continuous
 62
     0
370
    -2
100
AcDbLine
 10
0.0
 20
0.0
 30
0.0
 11
-0.9914448613738104
 21
0.1305261922200516
 31
0.0
  0
ENDBLK
  5
8F
330
8D
100
AcDbEntity
  8
0
100
AcDbBlockEnd
  0
BLOCK
  5
93
330
92
100
AcDbEntity
  8
0
100
AcDbBlockBegin
  2
FXTIP_DOWNARROW_S
 70
     0
 10
0.0
 20
0.0
 30
0.0
  3
FXTIP_DOWNARROW_S
  1

  0
LINE
  5
95
330
92
100
AcDbEntity
  8
0
  6
Continuous
 62
     0
370
    -2
100
AcDbLine
 10
0.0
 20
0.0
 30
0.0
 11
-1.0
 21
0.0000000000000001
 31
0.0
  0
LINE
  5
96
330
92
100
AcDbEntity
  8
0
  6
Continuous
 62
     0
370
    -2
100
AcDbLine
 10
0.0
 20
0.0
 30
0.0
 11
-0.9914448613738104
 21
0.1305261922200517
 31
0.0
  0
ENDBLK
  5
94
330
92
100
AcDbEntity
  8
0
100
AcDbBlockEnd
  0
BLOCK
  5
98
330
97
100
AcDbEntity
  8
0
100
AcDbBlockBegin
  2
FXTIP_DOWNARROW_E
 70
     0
 10
0.0
 20
0.0
 30
0.0
  3
FXTIP_DOWNARROW_E
  1

  0
LINE
  5
9A
330
97
100
AcDbEntity
  8
0
  6
Continuous
 62
     0
370
    -2
100
AcDbLine
 10
0.0
 20
0.0
 30
0.0
 11
-1.0
 21
0.0
 31
0.0
  0
LINE
  5
9B
330
97
100
AcDbEntity
  8
0
  6
Continuous
 62
     0
370
    -2
100
AcDbLine
 10
0.0
 20
0.0
 30
0.0
 11
-0.9914448613738104
 21
-0.1305261922200516
 31
0.0
  0
ENDBLK
  5
99
330
97
100
AcDbEntity
  8
0
100
AcDbBlockEnd
  0
BLOCK
  5
9D
330
9C
100
AcDbEntity
  8
0
100
AcDbBlockBegin
  2
FXTIP_BLACKTRIANGLE_S
 70
     0
 10
0.0
 20
0.0
 30
0.0
  3
FXTIP_BLACKTRIANGLE_S
  1

  0
LINE
  5
9F
330
9C
100
AcDbEntity
  8
0
  6
Continuous
 62
     0
370
    -2
100
AcDbLine
 10
0.0
 20
0.0
 30
0.0
 11
-1.0
 21
0.0000000000000001
 31
0.0
  0
SOLID
  5
A0
330
9C
100
AcDbEntity
  8
0
  6
Continuous
 62
     0
370
    -2
100
AcDbTrace
 10
0.0
 20
0.0
 30
0.0
 11
-0.9914448613738104
 21
-0.1305261922200515
 31
0.0
 12
-0.9914448613738104
 22
0.1305261922200517
 32
0.0
 13
-0.9914448613738104
 23
0.1305261922200517
 33
0.0
  0
ENDBLK
  5
9E
330
9C
100
AcDbEntity
  8
0
100
AcDbBlockEnd
  0
BLOCK
  5
A2
330
A1
100
AcDbEntity
  8
0
100
AcDbBlockBegin
  2
FXTIP_BLACKTRIANGLE_E
 70
     0
 10
0.0
 20
0.0
 30
0.0
  3
FXTIP_BLACKTRIANGLE_E
  1

  0
LINE
  5
A4
330
A1
100
AcDbEntity
  8
0
  6
Continuous
 62
     0
370
    -2
100
AcDbLine
 10
0.0
 20
0.0
 30
0.0
 11
-1.0
 21
0.0
 31
0.0
  0
SOLID
  5
A5
330
A1
100
AcDbEntity
  8
0
  6
Continuous
 62
     0
370
    -2
100
AcDbTrace
 10
0.0
 20
0.0
 30
0.0
 11
-0.9914448613738104
 21
0.1305261922200516
 31
0.0
 12
-0.9914448613738104
 22
-0.1305261922200516
 32
0.0
 13
-0.9914448613738104
 23
-0.1305261922200516
 33
0.0
  0
ENDBLK
  5
A3
330
A1
100
AcDbEntity
  8
0
100
AcDbBlockEnd
  0
ENDSEC
  0
SECTION
  2
ENTITIES
  0
LINE
  5
AA
330
1F
100
AcDbEntity
  8
GR1_01
  6
一点鎖線
 62
     7
100
AcDbLine
 10
396.4197130596509
 20
112.7727305308322
 30
0.0
 11
310.4197130596509
 21
112.7727305308322
 31
0.0
  0
LINE
  5
AB
330
1F
100
AcDbEntity
  8
GR1_01
  6
一点鎖線
 62
     7
100
AcDbLine
 10
353.4197130596509
 20
155.7727305308323
 30
0.0
 11
353.4197130596509
 21
69.77273053083232
 31
0.0
  0
LINE
  5
AC
330
1F
100
AcDbEntity
  8
GR1_01
  6
一点鎖線
 62
     7
100
AcDbLine
 10
325.8425485933755
 20
140.3498949971076
 30
0.0
 11
314.5288400943908
 21
151.6636034960924
 31
0.0
  0
LINE
  5
AD
330
1F
100
AcDbEntity
  8
GR1_01
  6
一点鎖線
 62
     7
100
AcDbLine
 10
371.4197130596509
 20
127.7727305308323
 30
0.0
 11
335.4197130596509
 21
127.7727305308323
 31
0.0
  0
LINE
  5
AE
330
1F
100
AcDbEntity
  8
GR1_01
 62
     3
370
    40
100
AcDbLine
 10
387.4197130596509
 20
72.77273053083232
 30
0.0
 11
319.4197130596509
 21
72.77273053083232
 31
0.0
  0
LINE
  5
AF
330
1F
100
AcDbEntity
  8
GR1_01
 62
     3
370
    40
100
AcDbLine
 10
387.4197130596509
 20
152.7727305308323
 30
0.0
 11
319.4197130596509
 21
152.7727305308323
 31
0.0
  0
LINE
  5
B0
330
1F
100
AcDbEntity
  8
GR1_01
 62
     3
370
    40
100
AcDbLine
 10
393.4197130596509
 20
146.7727305308323
 30
0.0
 11
393.4197130596509
 21
78.77273053083232
 31
0.0
  0
LINE
  5
B1
330
1F
100
AcDbEntity
  8
GR1_01
 62
     3
370
    40
100
AcDbLine
 10
313.4197130596509
 20
146.7727305308323
 30
0.0
 11
313.4197130596509
 21
78.77273053083232
 31
0.0
  0
ARC
  5
B2
330
1F
100
AcDbEntity
  8
GR1_01
  6
一点鎖線
 62
     7
100
AcDbCircle
 10
353.4197130596509
 20
112.7727305308322
 30
0.0
 40
47.00000000000001
100
AcDbArc
 50
125.2357153350537
 51
144.7642846649462
  0
LINE
  5
B3
330
1F
100
AcDbEntity
  8
GR1_01
  6
一点鎖線
 62
     7
100
AcDbLine
 10
196.1360520509351
 20
146.0067512557646
 30
0.0
 11
270.3636363636384
 21
146.0067512557646
 31
0.0
  0
LINE
  5
B4
330
1F
100
AcDbEntity
  8
GR1_01
  6
一点鎖線
 62
     7
100
AcDbLine
 10
196.136052050935
 20
79.53872242538529
 30
0.0
 11
270.3636363636355
 21
79.53870676152937
 31
0.0
  0
LINE
  5
B5
330
1F
100
AcDbEntity
  8
GR1_01
  6
一点鎖線
 62
     7
100
AcDbLine
 10
253.863636363637
 20
112.7727305308322
 30
0.0
 11
127.8636363636395
 21
112.7727305308323
 31
0.0
  0
LINE
  5
B6
330
1F
100
AcDbEntity
  8
GR1_01
  6
一点鎖線
 62
     7
100
AcDbLine
 10
380.9968775259262
 20
140.3498949971076
 30
0.0
 11
392.3105860249109
 21
151.6636034960924
 31
0.0
  0
LINE
  5
B7
330
1F
100
AcDbEntity
  8
GR1_01
  6
一点鎖線
 62
     7
100
AcDbLine
 10
325.8425485933755
 20
85.19556606455683
 30
0.0
 11
314.5288400943908
 21
73.88185756557203
 31
0.0
  0
LINE
  5
B8
330
1F
100
AcDbEntity
  8
GR1_01
  6
一点鎖線
 62
     7
100
AcDbLine
 10
380.9968775259262
 20
85.19556606455683
 30
0.0
 11
392.310586024911
 21
73.88185756557206
 31
0.0
  0
ARC
  5
B9
330
1F
100
AcDbEntity
  8
GR1_01
  6
一点鎖線
 62
     7
100
AcDbCircle
 10
353.4197130596509
 20
112.7727305308321
 30
0.0
 40
47.00000000000001
100
AcDbArc
 50
305.2357153350537
 51
324.7642846649462
  0
ARC
  5
BA
330
1F
100
AcDbEntity
  8
GR1_01
  6
一点鎖線
 62
     7
100
AcDbCircle
 10
353.4197130596511
 20
112.7727305308321
 30
0.0
 40
47.00000000000001
100
AcDbArc
 50
34.21344157550455
 51
54.7642846649466
  0
ARC
  5
BB
330
1F
100
AcDbEntity
  8
GR1_01
  6
一点鎖線
 62
     7
100
AcDbCircle
 10
353.419713059651
 20
112.7727305308317
 30
0.0
 40
47.00000000000001
100
AcDbArc
 50
213.032677472305
 51
234.7642846649458
  0
ARC
  5
BC
330
1F
100
AcDbEntity
  8
GR1_01
 62
     3
370
    40
100
AcDbCircle
 10
387.4197130596509
 20
146.7727305308323
 30
0.0
 40
6.0
100
AcDbArc
 50
0.0
 51
90.0
  0
ARC
  5
BD
330
1F
100
AcDbEntity
  8
GR1_01
 62
     3
370
    40
100
AcDbCircle
 10
319.4197130596509
 20
146.7727305308323
 30
0.0
 40
6.0
100
AcDbArc
 50
90.0
 51
180.0
  0
ARC
  5
BE
330
1F
100
AcDbEntity
  8
GR1_01
 62
     3
370
    40
100
AcDbCircle
 10
319.4197130596509
 20
78.77273053083232
 30
0.0
 40
6.0
100
AcDbArc
 50
180.0
 51
270.0
  0
ARC
  5
BF
330
1F
100
AcDbEntity
  8
GR1_01
 62
     3
370
    40
100
AcDbCircle
 10
387.4197130596509
 20
78.77273053083232
 30
0.0
 40
6.0
100
AcDbArc
 50
270.0
 51
0.0
  0
LINE
  5
C0
330
1F
100
AcDbEntity
  8
GR1_01
 62
     3
370
    40
100
AcDbLine
 10
344.4197130596509
 20
76.63064979382978
 30
0.0
 11
344.4197130596509
 21
72.77273053083232
 31
0.0
  0
LINE
  5
C1
330
1F
100
AcDbEntity
  8
GR1_01
 62
     3
370
    40
100
AcDbLine
 10
362.4197130596509
 20
76.63064979382978
 30
0.0
 11
362.4197130596509
 21
72.77273053083232
 31
0.0
  0
ARC
  5
C2
330
1F
100
AcDbEntity
  8
GR1_01
 62
     3
370
    40
100
AcDbCircle
 10
353.4197130596509
 20
112.7727305308322
 30
0.0
 40
36.5
100
AcDbArc
 50
285.4660099534206
 51
15.04505060019204
  0
LINE
  5
C3
330
1F
100
AcDbEntity
  8
GR1_01
  6
一点鎖線
 62
     7
100
AcDbLine
 10
360.0392158477378
 20
81.7727305308322
 30
0.0
 11
346.6189704489647
 21
81.7727305308322
 31
0.0
  0
CIRCLE
  5
C4
330
1F
100
AcDbEntity
  8
GR1_01
 62
     3
370
    40
100
AcDbCircle
 10
353.4197130596508
 20
81.7727305308322
 30
0.0
 40
4.0
  0
LINE
  5
C5
330
1F
100
AcDbEntity
  8
GR1_01
  6
一点鎖線
 62
     7
100
AcDbLine
 10
376.956749182925
 20
134.0053881057374
 30
0.0
 11
383.6668718823115
 21
122.3831146653787
 31
0.0
  0
CIRCLE
  5
C6
330
1F
100
AcDbEntity
  8
GR1_01
 62
     3
370
    40
100
AcDbCircle
 10
380.2665005769684
 20
128.2727305308321
 30
0.0
 40
4.0
  0
LINE
  5
C7
330
1F
100
AcDbEntity
  8
GR1_01
  6
一点鎖線
 62
     7
100
AcDbLine
 10
374.5763879924511
 20
124.9875424984418
 30
0.0
 11
385.8501982079666
 21
131.4964798611624
 31
0.0
  0
LINE
  5
C8
330
1F
100
AcDbEntity
  8
GR1_01
  6
一点鎖線
 62
     7
100
AcDbLine
 10
329.8826769363768
 20
134.0053881057374
 30
0.0
 11
323.1725542369902
 21
122.3831146653787
 31
0.0
  0
CIRCLE
  5
C9
330
1F
100
AcDbEntity
  8
GR1_01
 62
     3
370
    40
100
AcDbCircle
 10
326.5729255423333
 20
128.2727305308321
 30
0.0
 40
4.0
  0
LINE
  5
CA
330
1F
100
AcDbEntity
  8
GR1_01
  6
一点鎖線
 62
     7
100
AcDbLine
 10
332.2630381268506
 20
124.9875424984418
 30
0.0
 11
320.9892279113351
 21
131.4964798611624
 31
0.0
  0
ARC
  5
CB
330
1F
100
AcDbEntity
  8
GR1_01
 62
     3
370
    40
100
AcDbCircle
 10
326.5729255423333
 20
128.2727305308321
 30
0.0
 40
10.0
100
AcDbArc
 50
88.38799460902253
 51
211.6120053909777
  0
ARC
  5
CC
330
1F
100
AcDbEntity
  8
GR1_01
 62
     3
370
    40
100
AcDbCircle
 10
380.2665005769684
 20
128.2727305308321
 30
0.0
 40
10.0
100
AcDbArc
 50
328.3879946090228
 51
91.61200539097752
  0
ARC
  5
CD
330
1F
100
AcDbEntity
  8
GR1_01
 62
     3
370
    40
100
AcDbCircle
 10
353.4197130596509
 20
112.7727305308322
 30
0.0
 40
36.5
100
AcDbArc
 50
44.95494939980806
 51
135.045050600192
  0
ARC
  5
CE
330
1F
100
AcDbEntity
  8
GR1_01
 62
     3
370
    40
100
AcDbCircle
 10
353.4197130596509
 20
112.7727305308322
 30
0.0
 40
36.5
100
AcDbArc
 50
164.954949399808
 51
254.5339900465794
  0
ARC
  5
CF
330
1F
100
AcDbEntity
  8
GR1_01
 62
     3
370
    40
100
AcDbCircle
 10
343.4197130596509
 20
76.63064979382978
 30
0.0
 40
1.0
100
AcDbArc
 50
0.0
 51
74.53399004658014
  0
ARC
  5
D0
330
1F
100
AcDbEntity
  8
GR1_01
 62
     3
370
    40
100
AcDbCircle
 10
363.4197130596509
 20
76.63064979382978
 30
0.0
 40
1.0
100
AcDbArc
 50
105.4660099534194
 51
180.0
  0
ARC
  5
D1
330
1F
100
AcDbEntity
  8
GR1_01
 62
     3
370
    40
100
AcDbCircle
 10
389.6342889276924
 20
122.5069225721815
 30
0.0
 40
1.0
100
AcDbArc
 50
148.3879946090232
 51
195.0450506001924
  0
ARC
  5
D2
330
1F
100
AcDbEntity
  8
GR1_01
 62
     3
370
    40
100
AcDbCircle
 10
379.9570585867963
 20
139.2683771991604
 30
0.0
 40
1.0
100
AcDbArc
 50
224.9549493998071
 51
271.6120053909762
  0
ARC
  5
D3
330
1F
100
AcDbEntity
  8
GR1_01
 62
     3
370
    40
100
AcDbCircle
 10
326.8823675325054
 20
139.2683771991604
 30
0.0
 40
1.0
100
AcDbArc
 50
268.3879946090206
 51
315.0450506001894
  0
ARC
  5
D4
330
1F
100
AcDbEntity
  8
GR1_01
 62
     3
370
    40
100
AcDbCircle
 10
317.2051371916094
 20
122.5069225721814
 30
0.0
 40
1.0
100
AcDbArc
 50
344.9549493998099
 51
31.61200539097651
  0
CIRCLE
  5
D5
330
1F
100
AcDbEntity
  8
GR1_01
 62
     3
370
    40
100
AcDbCircle
 10
353.4197130596509
 20
127.7727305308323
 30
0.0
 40
15.0
  0
CIRCLE
  5
D6
330
1F
100
AcDbEntity
  8
GR1_01
 62
     3
370
    40
100
AcDbCircle
 10
353.4197130596508
 20
127.7727305308323
 30
0.0
 40
4.0
  0
CIRCLE
  5
D7
330
1F
100
AcDbEntity
  8
GR1_01
 62
     3
370
    40
100
AcDbCircle
 10
353.4197130596508
 20
127.7727305308323
 30
0.0
 40
5.0
  0
LINE
  5
D8
330
1F
100
AcDbEntity
  8
GR1_01
 62
     3
370
    40
100
AcDbLine
 10
350.7739580542469
 20
130.7727272727272
 30
0.0
 11
356.0654680650547
 21
130.7727272727272
 31
0.0
  0
LINE
  5
D9
330
1F
100
AcDbEntity
  8
GR1_01
  6
一点鎖線
 62
     7
100
AcDbLine
 10
285.3636372324655
 20
127.7727272727273
 30
0.0
 11
244.363636363637
 21
127.7727272727273
 31
0.0
  0
ARC
  5
DA
330
1F
100
AcDbEntity
  8
GR1_01
 62
     3
370
    40
100
AcDbCircle
 10
59.08915635794986
 20
112.7727305308321
 30
0.0
 40
25.0
100
AcDbArc
 50
192.7090329943953
 51
347.2909670056047
  0
ARC
  5
DB
330
1F
100
AcDbEntity
  8
GR1_01
 62
     3
370
    40
100
AcDbCircle
 10
59.08915635794986
 20
112.7727305308321
 30
0.0
 40
25.0
100
AcDbArc
 50
12.70903299439556
 51
167.2909670056045
  0
LINE
  5
DC
330
1F
100
AcDbEntity
  8
GR1_01
  6
一点鎖線
 62
     7
100
AcDbLine
 10
54.05365320405167
 20
93.2727305308322
 30
0.0
 11
64.19936841152133
 21
93.2727305308322
 31
0.0
  0
LINE
  5
DD
330
1F
100
AcDbEntity
  8
GR1_01
  6
一点鎖線
 62
     7
100
AcDbLine
 10
64.19936841152133
 20
132.2727305308322
 30
0.0
 11
53.84666154682793
 21
132.2727305308322
 31
0.0
  0
LINE
  5
DE
330
1F
100
AcDbEntity
  8
GR1_01
  6
一点鎖線
 62
     7
100
AcDbLine
 10
59.08915635794986
 20
140.7727305308321
 30
0.0
 11
59.08915635794986
 21
84.77273053083215
 31
0.0
  0
LINE
  5
DF
330
1F
100
AcDbEntity
  8
GR1_01
  6
一点鎖線
 62
     7
100
AcDbLine
 10
89.58915635794989
 20
112.7727305308322
 30
0.0
 11
28.5891563579499
 21
112.7727305308322
 31
0.0
  0
LINE
  5
E1
330
1F
100
AcDbEntity
  8
作図レイヤ
  6
一点鎖線
 62
     7
370
    20
100
AcDbLine
 10
285.3636372324656
 20
222.7481354306739
 30
0.0
 11
127.8636363935073
 21
222.7481354306741
 31
0.0
  0
LINE
  5
E2
330
1F
100
AcDbEntity
  8
GR1_01
 62
     3
370
    40
100
AcDbLine
 10
202.363636363637
 20
73.77273053083218
 30
0.0
 11
202.3636363636369
 21
151.7727305308322
 31
0.0
  0
LINE
  5
E3
330
1F
100
AcDbEntity
  8
GR1_01
 62
     3
370
    40
100
AcDbLine
 10
208.3636363636371
 20
72.77273053083218
 30
0.0
 11
203.363636363637
 21
72.77273053083218
 31
0.0
  0
LINE
  5
E4
330
1F
100
AcDbEntity
  8
GR1_01
 62
     3
370
    40
100
AcDbLine
 10
208.3636363636369
 20
152.7727305308321
 30
0.0
 11
203.3636363636369
 21
152.7727305308322
 31
0.0
  0
ARC
  5
E5
330
1F
100
AcDbEntity
  8
GR1_01
 62
     3
370
    40
100
AcDbCircle
 10
203.3636363636369
 20
151.7727305308322
 30
0.0
 40
1.0
100
AcDbArc
 50
90.0
 51
180.0
  0
ARC
  5
E6
330
1F
100
AcDbEntity
  8
GR1_01
 62
     3
370
    40
100
AcDbCircle
 10
203.363636363637
 20
73.77273053083218
 30
0.0
 40
1.0
100
AcDbArc
 50
180.0
 51
270.0
  0
LINE
  5
E7
330
1F
100
AcDbEntity
  8
GR1_01
 62
     3
370
    40
100
AcDbLine
 10
201.863636363637
 20
87.7727305308322
 30
0.0
 11
201.8636363636369
 21
137.7727305308322
 31
0.0
  0
LINE
  5
E8
330
1F
100
AcDbEntity
  8
GR1_01
 62
     3
370
    40
100
AcDbLine
 10
202.363636363637
 20
87.77273053083218
 30
0.0
 11
201.863636363637
 21
87.77273053083218
 31
0.0
  0
LINE
  5
E9
330
1F
100
AcDbEntity
  8
GR1_01
 62
     3
370
    40
100
AcDbLine
 10
202.3636363636369
 20
137.7727305308322
 30
0.0
 11
201.8636363636369
 21
137.7727305308322
 31
0.0
  0
LINE
  5
EA
330
1F
100
AcDbEntity
  8
GR1_01
 62
     3
370
    40
100
AcDbLine
 10
208.3636363636371
 20
72.77273053083218
 30
0.0
 11
208.3636363636369
 21
152.7727305308321
 31
0.0
  0
CIRCLE
  5
EB
330
1F
100
AcDbEntity
  8
GR1_01
 62
     3
370
    40
100
AcDbCircle
 10
353.4197130596508
 20
81.7727305308322
 30
0.0
 40
3.5
  0
LINE
  5
EC
330
1F
100
AcDbEntity
  8
GR1_01
 62
     3
370
    40
100
AcDbLine
 10
352.9197130596508
 20
83.8727305308322
 30
0.0
 11
353.9197130596508
 21
83.8727305308322
 31
0.0
  0
LINE
  5
ED
330
1F
100
AcDbEntity
  8
GR1_01
 62
     3
370
    40
100
AcDbLine
 10
355.5197130596508
 20
82.2727305308322
 30
0.0
 11
355.5197130596508
 21
81.2727305308322
 31
0.0
  0
LINE
  5
EE
330
1F
100
AcDbEntity
  8
GR1_01
 62
     3
370
    40
100
AcDbLine
 10
352.9197130596508
 20
79.67273053083221
 30
0.0
 11
353.9197130596508
 21
79.67273053083221
 31
0.0
  0
LINE
  5
EF
330
1F
100
AcDbEntity
  8
GR1_01
 62
     3
370
    40
100
AcDbLine
 10
351.3197130596508
 20
82.2727305308322
 30
0.0
 11
351.3197130596508
 21
81.2727305308322
 31
0.0
  0
ARC
  5
F0
330
1F
100
AcDbEntity
  8
GR1_01
 62
     3
370
    40
100
AcDbCircle
 10
355.5197130596508
 20
83.8727305308322
 30
0.0
 40
1.600000000000023
100
AcDbArc
 50
180.0
 51
270.0
  0
ARC
  5
F1
330
1F
100
AcDbEntity
  8
GR1_01
 62
     3
370
    40
100
AcDbCircle
 10
351.3197130596508
 20
83.8727305308322
 30
0.0
 40
1.600000000000023
100
AcDbArc
 50
270.0
 51
0.0
  0
ARC
  5
F2
330
1F
100
AcDbEntity
  8
GR1_01
 62
     3
370
    40
100
AcDbCircle
 10
351.3197130596508
 20
79.67273053083221
 30
0.0
 40
1.600000000000023
100
AcDbArc
 50
0.0
 51
90.0
  0
ARC
  5
F3
330
1F
100
AcDbEntity
  8
GR1_01
 62
     3
370
    40
100
AcDbCircle
 10
355.5197130596508
 20
79.67273053083221
 30
0.0
 40
1.600000000000023
100
AcDbArc
 50
90.0
 51
180.0
  0
CIRCLE
  5
F4
330
1F
100
AcDbEntity
  8
GR1_01
 62
     3
370
    40
100
AcDbCircle
 10
380.2665005769684
 20
128.2727305308321
 30
0.0
 40
3.5
  0
LINE
  5
F5
330
1F
100
AcDbEntity
  8
GR1_01
 62
     3
370
    40
100
AcDbLine
 10
378.6978472290211
 20
126.7897178289399
 30
0.0
 11
378.1978472290212
 21
127.6557432327243
 31
0.0
  0
LINE
  5
F6
330
1F
100
AcDbEntity
  8
GR1_01
 62
     3
370
    40
100
AcDbLine
 10
378.7834878750763
 20
129.8413838787795
 30
0.0
 11
379.6495132788607
 21
130.3413838787795
 31
0.0
  0
LINE
  5
F7
330
1F
100
AcDbEntity
  8
GR1_01
 62
     3
370
    40
100
AcDbLine
 10
382.3351539249157
 20
128.8897178289399
 30
0.0
 11
381.8351539249158
 21
129.7557432327243
 31
0.0
  0
LINE
  5
F8
330
1F
100
AcDbEntity
  8
GR1_01
 62
     3
370
    40
100
AcDbLine
 10
380.8834878750762
 20
126.2040771828848
 30
0.0
 11
381.7495132788607
 21
126.7040771828848
 31
0.0
  0
ARC
  5
F9
330
1F
100
AcDbEntity
  8
GR1_01
 62
     3
370
    40
100
AcDbCircle
 10
377.3978472290212
 20
129.0413838787795
 30
0.0
 40
1.600000000000023
100
AcDbArc
 50
300.0
 51
30.00000000000002
  0
ARC
  5
FA
330
1F
100
AcDbEntity
  8
GR1_01
 62
     3
370
    40
100
AcDbCircle
 10
379.4978472290211
 20
125.4040771828848
 30
0.0
 40
1.600000000000023
100
AcDbArc
 50
30.0
 51
120.0
  0
ARC
  5
FB
330
1F
100
AcDbEntity
  8
GR1_01
 62
     3
370
    40
100
AcDbCircle
 10
383.1351539249158
 20
127.5040771828848
 30
0.0
 40
1.600000000000023
100
AcDbArc
 50
120.0
 51
210.0
  0
ARC
  5
FC
330
1F
100
AcDbEntity
  8
GR1_01
 62
     3
370
    40
100
AcDbCircle
 10
381.0351539249158
 20
131.1413838787795
 30
0.0
 40
1.600000000000023
100
AcDbArc
 50
210.0
 51
300.0
  0
CIRCLE
  5
FD
330
1F
100
AcDbEntity
  8
GR1_01
 62
     3
370
    40
100
AcDbCircle
 10
326.5729255423333
 20
128.2727305308321
 30
0.0
 40
3.5
  0
LINE
  5
FE
330
1F
100
AcDbEntity
  8
GR1_01
 62
     3
370
    40
100
AcDbLine
 10
328.1415788902806
 20
126.7897178289399
 30
0.0
 11
328.6415788902805
 21
127.6557432327243
 31
0.0
  0
LINE
  5
FF
330
1F
100
AcDbEntity
  8
GR1_01
 62
     3
370
    40
100
AcDbLine
 10
328.0559382442254
 20
129.8413838787795
 30
0.0
 11
327.189912840441
 21
130.3413838787795
 31
0.0
  0
LINE
  5
100
330
1F
100
AcDbEntity
  8
GR1_01
 62
     3
370
    40
100
AcDbLine
 10
324.504272194386
 20
128.8897178289399
 30
0.0
 11
325.0042721943859
 21
129.7557432327243
 31
0.0
  0
LINE
  5
101
330
1F
100
AcDbEntity
  8
GR1_01
 62
     3
370
    40
100
AcDbLine
 10
325.9559382442255
 20
126.2040771828848
 30
0.0
 11
325.0899128404411
 21
126.7040771828848
 31
0.0
  0
ARC
  5
102
330
1F
100
AcDbEntity
  8
GR1_01
 62
     3
370
    40
100
AcDbCircle
 10
329.4415788902805
 20
129.0413838787795
 30
0.0
 40
1.600000000000023
100
AcDbArc
 50
149.9999999999995
 51
240.0
  0
ARC
  5
103
330
1F
100
AcDbEntity
  8
GR1_01
 62
     3
370
    40
100
AcDbCircle
 10
327.3415788902806
 20
125.4040771828848
 30
0.0
 40
1.600000000000023
100
AcDbArc
 50
60.00000000000001
 51
149.9999999999995
  0
ARC
  5
104
330
1F
100
AcDbEntity
  8
GR1_01
 62
     3
370
    40
100
AcDbCircle
 10
323.704272194386
 20
127.5040771828848
 30
0.0
 40
1.600000000000023
100
AcDbArc
 50
329.9999999999995
 51
59.99999999999999
  0
ARC
  5
105
330
1F
100
AcDbEntity
  8
GR1_01
 62
     3
370
    40
100
AcDbCircle
 10
325.8042721943859
 20
131.1413838787795
 30
0.0
 40
1.600000000000023
100
AcDbArc
 50
240.0
 51
329.9999999999995
  0
LINE
  5
106
330
1F
100
AcDbEntity
  8
GR1_01
 62
     3
370
    40
100
AcDbLine
 10
152.863636363637
 20
137.7727305308322
 30
0.0
 11
152.863636363637
 21
87.7727305308322
 31
0.0
  0
LINE
  5
107
330
1F
100
AcDbEntity
  8
GR1_01
 62
     3
370
    40
100
AcDbLine
 10
201.863636363637
 20
137.7727305308322
 30
0.0
 11
201.863636363637
 21
87.7727305308322
 31
0.0
  0
LINE
  5
108
330
1F
100
AcDbEntity
  8
GR1_01
 62
     3
370
    40
100
AcDbLine
 10
151.8636363636369
 20
136.7727305308322
 30
0.0
 11
151.863636363637
 21
88.77273053083218
 31
0.0
  0
LINE
  5
109
330
1F
100
AcDbEntity
  8
GR1_01
 62
     3
370
    40
100
AcDbLine
 10
201.863636363637
 20
137.7727305308322
 30
0.0
 11
152.8636363636369
 21
137.7727305308322
 31
0.0
  0
LINE
  5
10A
330
1F
100
AcDbEntity
  8
GR1_01
 62
     3
370
    40
100
AcDbLine
 10
201.8636363636369
 20
87.77273053083218
 30
0.0
 11
152.863636363637
 21
87.77273053083218
 31
0.0
  0
LINE
  5
10B
330
1F
100
AcDbEntity
  8
GR1_01
 62
     3
370
    40
100
AcDbLine
 10
151.8636363636369
 20
136.7727305308322
 30
0.0
 11
152.8636363636369
 21
137.7727305308322
 31
0.0
  0
LINE
  5
10C
330
1F
100
AcDbEntity
  8
GR1_01
 62
     3
370
    40
100
AcDbLine
 10
151.863636363637
 20
88.77273053083218
 30
0.0
 11
152.863636363637
 21
87.77273053083218
 31
0.0
  0
LINE
  5
10D
330
1F
100
AcDbEntity
  8
GR1_01
 62
     3
370
    40
100
AcDbLine
 10
282.3636372324654
 20
123.7727272727273
 30
0.0
 11
256.3636363636371
 21
123.7727272727273
 31
0.0
  0
LINE
  5
10E
330
1F
100
AcDbEntity
  8
GR1_01
 62
     3
370
    40
100
AcDbLine
 10
268.3636372324654
 20
131.7727272727273
 30
0.0
 11
256.363636363637
 21
131.7727272727273
 31
0.0
  0
LINE
  5
10F
330
1F
100
AcDbEntity
  8
GR1_01
 62
     3
370
    40
100
AcDbLine
 10
282.3636372324654
 20
130.7727272727273
 30
0.0
 11
268.3636372324654
 21
130.7727272727273
 31
0.0
  0
LINE
  5
110
330
1F
100
AcDbEntity
  8
GR1_01
 62
     3
370
    40
100
AcDbLine
 10
268.3636372324654
 20
130.7727272727273
 30
0.0
 11
268.3636372324654
 21
131.7727272727274
 31
0.0
  0
LINE
  5
111
330
1F
100
AcDbEntity
  8
GR1_01
 62
     3
370
    40
100
AcDbLine
 10
250.363636363637
 20
73.77273053083215
 30
0.0
 11
250.3636363636369
 21
151.7727305308321
 31
0.0
  0
LINE
  5
112
330
1F
100
AcDbEntity
  8
GR1_01
 62
     3
370
    40
100
AcDbLine
 10
249.363636363637
 20
72.77273053083215
 30
0.0
 11
208.363636363637
 21
72.77273053083215
 31
0.0
  0
LINE
  5
113
330
1F
100
AcDbEntity
  8
GR1_01
 62
     3
370
    40
100
AcDbLine
 10
249.3636363636369
 20
152.7727305308321
 30
0.0
 11
208.363636363637
 21
152.7727305308322
 31
0.0
  0
LINE
  5
114
330
1F
100
AcDbEntity
  8
GR1_01
 62
     3
370
    40
100
AcDbLine
 10
256.363636363637
 20
113.7727272727274
 30
0.0
 11
256.3636363636369
 21
141.7727272727273
 31
0.0
  0
LINE
  5
115
330
1F
100
AcDbEntity
  8
GR1_01
 62
     3
370
    40
100
AcDbLine
 10
255.363636363637
 20
112.7727272727274
 30
0.0
 11
250.363636363637
 21
112.7727272727273
 31
0.0
  0
ARC
  5
116
330
1F
100
AcDbEntity
  8
GR1_01
 62
     3
370
    40
100
AcDbCircle
 10
249.3636363636369
 20
151.7727305308321
 30
0.0
 40
1.0
100
AcDbArc
 50
0.0
 51
90.0
  0
ARC
  5
117
330
1F
100
AcDbEntity
  8
GR1_01
 62
     3
370
    40
100
AcDbCircle
 10
249.363636363637
 20
73.77273053083215
 30
0.0
 40
1.0
100
AcDbArc
 50
270.0
 51
0.0
  0
ARC
  5
118
330
1F
100
AcDbEntity
  8
GR1_01
 62
     3
370
    40
100
AcDbCircle
 10
255.363636363637
 20
113.7727272727274
 30
0.0
 40
1.0
100
AcDbArc
 50
270.0
 51
0.0
  0
ARC
  5
119
330
1F
100
AcDbEntity
  8
GR1_01
 62
     3
370
    40
100
AcDbCircle
 10
255.363636363637
 20
141.7727272727273
 30
0.0
 40
1.0
100
AcDbArc
 50
0.0
 51
90.00000000000162
  0
LINE
  5
11A
330
1F
100
AcDbEntity
  8
GR1_01
 62
     3
370
    40
100
AcDbLine
 10
208.363636363637
 20
72.77273053083215
 30
0.0
 11
208.3636363636369
 21
152.7727305308322
 31
0.0
  0
LINE
  5
11B
330
1F
100
AcDbEntity
  8
GR1_01
 62
     3
370
    40
100
AcDbLine
 10
202.3636354211593
 20
75.03872111121109
 30
0.0
 11
200.9721386425571
 21
75.11164665949201
 31
0.0
  0
LINE
  5
11C
330
1F
100
AcDbEntity
  8
GR1_01
 62
     3
370
    40
100
AcDbLine
 10
202.3636373061148
 20
84.03872111121092
 30
0.0
 11
200.9721404969658
 21
83.9657961457988
 31
0.0
  0
LINE
  5
11D
330
1F
100
AcDbEntity
  8
GR1_01
 62
     3
370
    40
100
AcDbLine
 10
202.3636354211593
 20
75.03872111121109
 30
0.0
 11
202.3636373061148
 21
84.03872111121092
 31
0.0
  0
ARC
  5
11E
330
1F
100
AcDbEntity
  8
GR1_01
 62
     3
370
    40
100
AcDbCircle
 10
201.0558765071898
 20
76.70945389756133
 30
0.0
 40
1.6
100
AcDbArc
 50
195.7859776410124
 51
266.9999879999995
  0
ARC
  5
11F
330
1F
100
AcDbEntity
  8
GR1_01
 62
     3
370
    40
100
AcDbCircle
 10
201.0558776923106
 20
82.3679888726536
 30
0.0
 40
1.6
100
AcDbArc
 50
92.99998800000054
 51
164.2139983589876
  0
ARC
  5
120
330
1F
100
AcDbEntity
  8
GR1_01
 62
     3
370
    40
100
AcDbCircle
 10
211.0636363636368
 20
79.53871928908725
 30
0.0
 40
12.0
100
AcDbArc
 50
164.2139983589876
 51
195.7859776410124
  0
LINE
  5
121
330
1F
100
AcDbEntity
  8
GR1_01
 62
     3
370
    40
100
AcDbLine
 10
255.3636358400382
 20
77.03871001091699
 30
0.0
 11
266.5636358400369
 21
77.0387076651945
 31
0.0
  0
LINE
  5
122
330
1F
100
AcDbEntity
  8
GR1_01
 62
     3
370
    40
100
AcDbLine
 10
255.3636368872357
 20
82.0387100109169
 30
0.0
 11
266.5636368872344
 21
82.03870766519438
 31
0.0
  0
LINE
  5
123
330
1F
100
AcDbEntity
  8
GR1_01
 62
     3
370
    40
100
AcDbLine
 10
267.3636360075885
 20
77.83870749764287
 30
0.0
 11
267.3636367196828
 21
81.23870749764279
 31
0.0
  0
LINE
  5
124
330
1F
100
AcDbEntity
  8
GR1_01
 62
     7
100
AcDbLine
 10
255.3636359447579
 20
77.53871001091699
 30
0.0
 11
267.0636359447566
 21
77.53870756047476
 31
0.0
  0
LINE
  5
125
330
1F
100
AcDbEntity
  8
GR1_01
 62
     7
100
AcDbLine
 10
255.3636367825159
 20
81.5387100109169
 30
0.0
 11
267.0636367825146
 21
81.53870756047468
 31
0.0
  0
LINE
  5
126
330
1F
100
AcDbEntity
  8
GR1_01
 62
     3
370
    40
100
AcDbLine
 10
267.3636367196828
 20
81.23870749764279
 30
0.0
 11
266.5636368872344
 21
82.03870766519438
 31
0.0
  0
LINE
  5
127
330
1F
100
AcDbEntity
  8
GR1_01
 62
     3
370
    40
100
AcDbLine
 10
266.5636358400369
 20
77.0387076651945
 30
0.0
 11
267.3636360075885
 21
77.83870749764287
 31
0.0
  0
LINE
  5
128
330
1F
100
AcDbEntity
  8
GR1_01
 62
     3
370
    40
100
AcDbLine
 10
266.5636358400369
 20
77.0387076651945
 30
0.0
 11
266.5636368872344
 21
82.03870766519438
 31
0.0
  0
LINE
  5
129
330
1F
100
AcDbEntity
  8
GR1_01
 62
     3
370
    40
100
AcDbLine
 10
202.3636354211592
 20
141.5067512119745
 30
0.0
 11
200.972138642557
 21
141.5796767602554
 31
0.0
  0
LINE
  5
12A
330
1F
100
AcDbEntity
  8
GR1_01
 62
     3
370
    40
100
AcDbLine
 10
202.3636373061148
 20
150.5067512119743
 30
0.0
 11
200.9721404969657
 21
150.4338262465622
 31
0.0
  0
LINE
  5
12B
330
1F
100
AcDbEntity
  8
GR1_01
 62
     3
370
    40
100
AcDbLine
 10
202.3636354211592
 20
141.5067512119745
 30
0.0
 11
202.3636373061148
 21
150.5067512119743
 31
0.0
  0
ARC
  5
12C
330
1F
100
AcDbEntity
  8
GR1_01
 62
     3
370
    40
100
AcDbCircle
 10
201.0558765071897
 20
143.1774839983247
 30
0.0
 40
1.6
100
AcDbArc
 50
195.7859776410124
 51
266.9999879999995
  0
ARC
  5
12D
330
1F
100
AcDbEntity
  8
GR1_01
 62
     3
370
    40
100
AcDbCircle
 10
201.0558776923105
 20
148.836018973417
 30
0.0
 40
1.6
100
AcDbArc
 50
92.99998800000054
 51
164.2139983589876
  0
ARC
  5
12E
330
1F
100
AcDbEntity
  8
GR1_01
 62
     3
370
    40
100
AcDbCircle
 10
211.0636363636368
 20
146.0067493898507
 30
0.0
 40
12.0
100
AcDbArc
 50
164.2139983589876
 51
195.7859776410124
  0
LINE
  5
12F
330
1F
100
AcDbEntity
  8
GR1_01
 62
     3
370
    40
100
AcDbLine
 10
255.3636363636369
 20
143.5067401116803
 30
0.0
 11
266.5636358400368
 21
143.5067377659579
 31
0.0
  0
LINE
  5
130
330
1F
100
AcDbEntity
  8
GR1_01
 62
     3
370
    40
100
AcDbLine
 10
255.3636363636369
 20
148.5067401116804
 30
0.0
 11
266.5636368872343
 21
148.5067377659578
 31
0.0
  0
LINE
  5
131
330
1F
100
AcDbEntity
  8
GR1_01
 62
     3
370
    40
100
AcDbLine
 10
267.3636360075884
 20
144.3067375984063
 30
0.0
 11
267.3636367196827
 21
147.7067375984062
 31
0.0
  0
LINE
  5
132
330
1F
100
AcDbEntity
  8
GR1_01
 62
     7
100
AcDbLine
 10
255.3636363636369
 20
144.0067401116802
 30
0.0
 11
267.0636359447565
 21
144.0067376612382
 31
0.0
  0
LINE
  5
133
330
1F
100
AcDbEntity
  8
GR1_01
 62
     7
100
AcDbLine
 10
255.3636363636369
 20
148.0067401116804
 30
0.0
 11
267.0636367825145
 21
148.0067376612381
 31
0.0
  0
LINE
  5
134
330
1F
100
AcDbEntity
  8
GR1_01
 62
     3
370
    40
100
AcDbLine
 10
267.3636367196827
 20
147.7067375984062
 30
0.0
 11
266.5636368872343
 21
148.5067377659578
 31
0.0
  0
LINE
  5
135
330
1F
100
AcDbEntity
  8
GR1_01
 62
     3
370
    40
100
AcDbLine
 10
266.5636358400368
 20
143.5067377659579
 30
0.0
 11
267.3636360075884
 21
144.3067375984063
 31
0.0
  0
LINE
  5
136
330
1F
100
AcDbEntity
  8
GR1_01
 62
     3
370
    40
100
AcDbLine
 10
266.5636358400368
 20
143.5067377659579
 30
0.0
 11
266.5636368872343
 21
148.5067377659578
 31
0.0
  0
LINE
  5
137
330
1F
100
AcDbEntity
  8
GR1_01
 62
     3
370
    40
100
AcDbLine
 10
255.0063707737287
 20
150.6255534092816
 30
0.0
 11
255.3636363636369
 21
150.0067512557646
 31
0.0
  0
LINE
  5
138
330
1F
100
AcDbEntity
  8
GR1_01
 62
     3
370
    40
100
AcDbLine
 10
255.3636363636369
 20
150.0067512557646
 30
0.0
 11
255.3636363636369
 21
142.0067512557646
 31
0.0
  0
LINE
  5
139
330
1F
100
AcDbEntity
  8
GR1_01
 62
     3
370
    40
100
AcDbLine
 10
255.3636363636369
 20
142.0067512557646
 30
0.0
 11
255.0063707737287
 21
141.3879491022476
 31
0.0
  0
ARC
  5
13A
330
1F
100
AcDbEntity
  8
GR1_01
 62
     3
370
    40
100
AcDbCircle
 10
253.3189781648984
 20
149.4708528709024
 30
0.0
 40
2.044658198738488
100
AcDbArc
 50
325.6157525319576
 51
34.38424746804297
  0
ARC
  5
13B
330
1F
100
AcDbEntity
  8
GR1_01
 62
     3
370
    40
100
AcDbCircle
 10
247.7209019535452
 20
146.0067512557646
 30
0.0
 40
7.642734410091681
100
AcDbArc
 50
342.4120462260055
 51
17.58795377399368
  0
ARC
  5
13C
330
1F
100
AcDbEntity
  8
GR1_01
 62
     3
370
    40
100
AcDbCircle
 10
253.3189781648984
 20
142.5426496406268
 30
0.0
 40
2.044658198738488
100
AcDbArc
 50
325.6157525319576
 51
34.38424746804297
  0
LINE
  5
13D
330
1F
100
AcDbEntity
  8
GR1_01
 62
     3
370
    40
100
AcDbLine
 10
255.0063707737287
 20
141.3879491022476
 30
0.0
 11
251.3636363636369
 21
141.3879491022476
 31
0.0
  0
LINE
  5
13E
330
1F
100
AcDbEntity
  8
GR1_01
 62
     3
370
    40
100
AcDbLine
 10
251.3636363636369
 20
141.3879491022476
 30
0.0
 11
251.3636363636369
 21
150.6255534092816
 31
0.0
  0
LINE
  5
13F
330
1F
100
AcDbEntity
  8
GR1_01
 62
     3
370
    40
100
AcDbLine
 10
251.3636363636369
 20
150.6255534092816
 30
0.0
 11
255.0063707737287
 21
150.6255534092816
 31
0.0
  0
LINE
  5
140
330
1F
100
AcDbEntity
  8
GR1_01
 62
     3
370
    40
100
AcDbLine
 10
255.0063707737287
 20
148.3161523325231
 30
0.0
 11
251.3636363636369
 21
148.3161523325231
 31
0.0
  0
LINE
  5
141
330
1F
100
AcDbEntity
  8
GR1_01
 62
     3
370
    40
100
AcDbLine
 10
255.0063707737287
 20
143.6973501790061
 30
0.0
 11
251.3636363636369
 21
143.6973501790061
 31
0.0
  0
LINE
  5
142
330
1F
100
AcDbEntity
  8
GR1_01
 62
     3
370
    40
100
AcDbLine
 10
251.3636363636369
 20
151.0067512557646
 30
0.0
 11
251.3636363636369
 21
141.0067512557646
 31
0.0
  0
LINE
  5
143
330
1F
100
AcDbEntity
  8
GR1_01
 62
     3
370
    40
100
AcDbLine
 10
251.3636363636369
 20
141.0067512557646
 30
0.0
 11
250.3636363636369
 21
141.0067512557646
 31
0.0
  0
LINE
  5
144
330
1F
100
AcDbEntity
  8
GR1_01
 62
     3
370
    40
100
AcDbLine
 10
250.3636363636369
 20
141.0067512557646
 30
0.0
 11
250.3636363636369
 21
151.0067512557646
 31
0.0
  0
LINE
  5
145
330
1F
100
AcDbEntity
  8
GR1_01
 62
     3
370
    40
100
AcDbLine
 10
250.3636363636369
 20
151.0067512557646
 30
0.0
 11
251.3636363636369
 21
151.0067512557646
 31
0.0
  0
LINE
  5
146
330
1F
100
AcDbEntity
  8
GR1_01
 62
     3
370
    40
100
AcDbLine
 10
255.0063717410884
 20
84.15751205765645
 30
0.0
 11
255.363637201395
 21
83.53870982931394
 31
0.0
  0
LINE
  5
147
330
1F
100
AcDbEntity
  8
GR1_01
 62
     3
370
    40
100
AcDbLine
 10
255.363637201395
 20
83.53870982931394
 30
0.0
 11
255.3636355258789
 21
75.53870982931412
 31
0.0
  0
LINE
  5
148
330
1F
100
AcDbEntity
  8
GR1_01
 62
     3
370
    40
100
AcDbLine
 10
255.3636355258789
 20
75.53870982931412
 30
0.0
 11
255.0063698063691
 21
74.91990775062266
 31
0.0
  0
ARC
  5
149
330
1F
100
AcDbEntity
  8
GR1_01
 62
     3
370
    40
100
AcDbCircle
 10
253.3189788904182
 20
83.0028118726839
 30
0.0
 40
2.044658198738519
100
AcDbArc
 50
325.6157405319592
 51
34.38423546804272
  0
ARC
  5
14A
330
1F
100
AcDbEntity
  8
GR1_01
 62
     3
370
    40
100
AcDbCircle
 10
247.7209019535454
 20
79.53871143000458
 30
0.0
 40
7.64273441009171
100
AcDbArc
 50
342.4120342260063
 51
17.58794177399414
  0
ARC
  5
14B
330
1F
100
AcDbEntity
  8
GR1_01
 62
     3
370
    40
100
AcDbCircle
 10
253.3189774393787
 20
76.07460864240858
 30
0.0
 40
2.044658198738519
100
AcDbArc
 50
325.6157405319592
 51
34.38423546804272
  0
LINE
  5
14C
330
1F
100
AcDbEntity
  8
GR1_01
 62
     3
370
    40
100
AcDbLine
 10
255.0063698063691
 20
74.91990775062266
 30
0.0
 11
251.3636353962773
 21
74.91990851355516
 31
0.0
  0
LINE
  5
14D
330
1F
100
AcDbEntity
  8
GR1_01
 62
     3
370
    40
100
AcDbLine
 10
251.3636353962773
 20
74.91990851355516
 30
0.0
 11
251.3636373309967
 21
84.15751282058898
 31
0.0
  0
LINE
  5
14E
330
1F
100
AcDbEntity
  8
GR1_01
 62
     3
370
    40
100
AcDbLine
 10
251.3636373309967
 20
84.15751282058898
 30
0.0
 11
255.0063717410884
 21
84.15751205765645
 31
0.0
  0
LINE
  5
14F
330
1F
100
AcDbEntity
  8
GR1_01
 62
     3
370
    40
100
AcDbLine
 10
255.0063712574086
 20
81.84811098089799
 30
0.0
 11
251.3636368473168
 21
81.84811174383051
 31
0.0
  0
LINE
  5
150
330
1F
100
AcDbEntity
  8
GR1_01
 62
     3
370
    40
100
AcDbLine
 10
255.0063702900489
 20
77.22930882738112
 30
0.0
 11
251.3636358799572
 21
77.22930959031362
 31
0.0
  0
LINE
  5
151
330
1F
100
AcDbEntity
  8
GR1_01
 62
     3
370
    40
100
AcDbLine
 10
251.3636374108346
 20
84.53871066707194
 30
0.0
 11
251.3636353164395
 21
74.53871066707217
 31
0.0
  0
LINE
  5
152
330
1F
100
AcDbEntity
  8
GR1_01
 62
     3
370
    40
100
AcDbLine
 10
251.3636353164395
 20
74.53871066707217
 30
0.0
 11
250.3636353164395
 21
74.53871087651169
 31
0.0
  0
LINE
  5
153
330
1F
100
AcDbEntity
  8
GR1_01
 62
     3
370
    40
100
AcDbLine
 10
250.3636353164395
 20
74.53871087651169
 30
0.0
 11
250.3636374108346
 21
84.53871087651146
 31
0.0
  0
LINE
  5
154
330
1F
100
AcDbEntity
  8
GR1_01
 62
     3
370
    40
100
AcDbLine
 10
250.3636374108346
 20
84.53871087651146
 30
0.0
 11
251.3636374108346
 21
84.53871066707194
 31
0.0
  0
LINE
  5
155
330
1F
100
AcDbEntity
  8
GR1_01
 62
     3
370
    40
100
AcDbLine
 10
320.1856943438831
 20
150.625551400117
 30
0.0
 11
316.1856943438831
 21
148.3161503233585
 31
0.0
  0
LINE
  5
156
330
1F
100
AcDbEntity
  8
GR1_01
 62
     3
370
    40
100
AcDbLine
 10
316.1856943438831
 20
148.3161503233585
 30
0.0
 11
316.1856943438831
 21
143.6973481698415
 31
0.0
  0
LINE
  5
157
330
1F
100
AcDbEntity
  8
GR1_01
 62
     3
370
    40
100
AcDbLine
 10
316.1856943438831
 20
143.6973481698415
 30
0.0
 11
320.1856943438831
 21
141.387947093083
 31
0.0
  0
LINE
  5
158
330
1F
100
AcDbEntity
  8
GR1_01
 62
     3
370
    40
100
AcDbLine
 10
320.1856943438831
 20
141.387947093083
 30
0.0
 11
324.1856943438831
 21
143.6973481698415
 31
0.0
  0
LINE
  5
159
330
1F
100
AcDbEntity
  8
GR1_01
 62
     3
370
    40
100
AcDbLine
 10
324.1856943438831
 20
143.6973481698415
 30
0.0
 11
324.1856943438831
 21
148.3161503233585
 31
0.0
  0
LINE
  5
15A
330
1F
100
AcDbEntity
  8
GR1_01
 62
     3
370
    40
100
AcDbLine
 10
324.1856943438831
 20
148.3161503233585
 30
0.0
 11
320.1856943438831
 21
150.625551400117
 31
0.0
  0
CIRCLE
  5
15B
330
1F
100
AcDbEntity
  8
GR1_01
 62
     3
370
    40
100
AcDbCircle
 10
320.1856943438831
 20
146.0067492466
 30
0.0
 40
3.9
  0
CIRCLE
  5
15C
330
1F
100
AcDbEntity
  8
GR1_01
 62
     3
370
    40
100
AcDbCircle
 10
320.1856943438831
 20
146.0067492466
 30
0.0
 40
5.0
  0
LINE
  5
15D
330
1F
100
AcDbEntity
  8
GR1_01
 62
     3
370
    40
100
AcDbLine
 10
386.6537317754186
 20
150.625551400117
 30
0.0
 11
382.6537317754186
 21
148.3161503233585
 31
0.0
  0
LINE
  5
15E
330
1F
100
AcDbEntity
  8
GR1_01
 62
     3
370
    40
100
AcDbLine
 10
382.6537317754186
 20
148.3161503233585
 30
0.0
 11
382.6537317754186
 21
143.6973481698415
 31
0.0
  0
LINE
  5
15F
330
1F
100
AcDbEntity
  8
GR1_01
 62
     3
370
    40
100
AcDbLine
 10
382.6537317754186
 20
143.6973481698415
 30
0.0
 11
386.6537317754186
 21
141.387947093083
 31
0.0
  0
LINE
  5
160
330
1F
100
AcDbEntity
  8
GR1_01
 62
     3
370
    40
100
AcDbLine
 10
386.6537317754186
 20
141.387947093083
 30
0.0
 11
390.6537317754186
 21
143.6973481698415
 31
0.0
  0
LINE
  5
161
330
1F
100
AcDbEntity
  8
GR1_01
 62
     3
370
    40
100
AcDbLine
 10
390.6537317754186
 20
143.6973481698415
 30
0.0
 11
390.6537317754186
 21
148.3161503233585
 31
0.0
  0
LINE
  5
162
330
1F
100
AcDbEntity
  8
GR1_01
 62
     3
370
    40
100
AcDbLine
 10
390.6537317754186
 20
148.3161503233585
 30
0.0
 11
386.6537317754186
 21
150.625551400117
 31
0.0
  0
CIRCLE
  5
163
330
1F
100
AcDbEntity
  8
GR1_01
 62
     3
370
    40
100
AcDbCircle
 10
386.6537317754186
 20
146.0067492466
 30
0.0
 40
3.9
  0
CIRCLE
  5
164
330
1F
100
AcDbEntity
  8
GR1_01
 62
     3
370
    40
100
AcDbCircle
 10
386.6537317754186
 20
146.0067492466
 30
0.0
 40
5.0
  0
LINE
  5
165
330
1F
100
AcDbEntity
  8
GR1_01
 62
     3
370
    40
100
AcDbLine
 10
320.185694343883
 20
84.15751396858121
 30
0.0
 11
316.185694343883
 21
81.84811289182272
 31
0.0
  0
LINE
  5
166
330
1F
100
AcDbEntity
  8
GR1_01
 62
     3
370
    40
100
AcDbLine
 10
316.185694343883
 20
81.84811289182272
 30
0.0
 11
316.185694343883
 21
77.22931073830574
 31
0.0
  0
LINE
  5
167
330
1F
100
AcDbEntity
  8
GR1_01
 62
     3
370
    40
100
AcDbLine
 10
316.185694343883
 20
77.22931073830574
 30
0.0
 11
320.185694343883
 21
74.91990966154725
 31
0.0
  0
LINE
  5
168
330
1F
100
AcDbEntity
  8
GR1_01
 62
     3
370
    40
100
AcDbLine
 10
320.185694343883
 20
74.91990966154725
 30
0.0
 11
324.185694343883
 21
77.22931073830574
 31
0.0
  0
LINE
  5
169
330
1F
100
AcDbEntity
  8
GR1_01
 62
     3
370
    40
100
AcDbLine
 10
324.185694343883
 20
77.22931073830574
 30
0.0
 11
324.185694343883
 21
81.84811289182272
 31
0.0
  0
LINE
  5
16A
330
1F
100
AcDbEntity
  8
GR1_01
 62
     3
370
    40
100
AcDbLine
 10
324.185694343883
 20
81.84811289182272
 30
0.0
 11
320.185694343883
 21
84.15751396858121
 31
0.0
  0
CIRCLE
  5
16B
330
1F
100
AcDbEntity
  8
GR1_01
 62
     3
370
    40
100
AcDbCircle
 10
320.185694343883
 20
79.53871181506423
 30
0.0
 40
3.9
  0
CIRCLE
  5
16C
330
1F
100
AcDbEntity
  8
GR1_01
 62
     3
370
    40
100
AcDbCircle
 10
320.185694343883
 20
79.53871181506423
 30
0.0
 40
5.0
  0
LINE
  5
16D
330
1F
100
AcDbEntity
  8
GR1_01
 62
     3
370
    40
100
AcDbLine
 10
386.6537317754186
 20
84.15751396858138
 30
0.0
 11
382.6537317754186
 21
81.8481128918229
 31
0.0
  0
LINE
  5
16E
330
1F
100
AcDbEntity
  8
GR1_01
 62
     3
370
    40
100
AcDbLine
 10
382.6537317754186
 20
81.8481128918229
 30
0.0
 11
382.6537317754186
 21
77.22931073830591
 31
0.0
  0
LINE
  5
16F
330
1F
100
AcDbEntity
  8
GR1_01
 62
     3
370
    40
100
AcDbLine
 10
382.6537317754186
 20
77.22931073830591
 30
0.0
 11
386.6537317754186
 21
74.91990966154742
 31
0.0
  0
LINE
  5
170
330
1F
100
AcDbEntity
  8
GR1_01
 62
     3
370
    40
100
AcDbLine
 10
386.6537317754186
 20
74.91990966154742
 30
0.0
 11
390.6537317754186
 21
77.22931073830591
 31
0.0
  0
LINE
  5
171
330
1F
100
AcDbEntity
  8
GR1_01
 62
     3
370
    40
100
AcDbLine
 10
390.6537317754186
 20
77.22931073830591
 30
0.0
 11
390.6537317754186
 21
81.8481128918229
 31
0.0
  0
LINE
  5
172
330
1F
100
AcDbEntity
  8
GR1_01
 62
     3
370
    40
100
AcDbLine
 10
390.6537317754186
 20
81.8481128918229
 30
0.0
 11
386.6537317754186
 21
84.15751396858138
 31
0.0
  0
CIRCLE
  5
173
330
1F
100
AcDbEntity
  8
GR1_01
 62
     3
370
    40
100
AcDbCircle
 10
386.6537317754186
 20
79.5387118150644
 30
0.0
 40
3.9
  0
CIRCLE
  5
174
330
1F
100
AcDbEntity
  8
GR1_01
 62
     3
370
    40
100
AcDbCircle
 10
386.6537317754186
 20
79.5387118150644
 30
0.0
 40
5.0
  0
LINE
  5
175
330
1F
100
AcDbEntity
  8
GR1_01
 62
     3
370
    40
100
AcDbLine
 10
151.8636289830872
 20
89.13227805001173
 30
0.0
 11
151.8636438564303
 21
136.772707478203
 31
0.0
  0
LINE
  5
176
330
1F
100
AcDbEntity
  8
GR1_01
 62
     3
370
    40
100
AcDbLine
 10
151.8636354270369
 20
109.7727305029838
 30
0.0
 11
139.8636201682463
 21
109.7727305029838
 31
0.0
  0
LINE
  5
177
330
1F
100
AcDbEntity
  8
GR1_01
 62
     3
370
    40
100
AcDbLine
 10
151.8636363636369
 20
108.2727305029837
 30
0.0
 11
140.8636211048464
 21
108.2727305029837
 31
0.0
  0
LINE
  5
178
330
1F
100
AcDbEntity
  8
GR1_01
 62
     3
370
    40
100
AcDbLine
 10
151.8636360514369
 20
107.2727305029837
 30
0.0
 11
140.8636207926464
 21
107.2727305029837
 31
0.0
  0
LINE
  5
179
330
1F
100
AcDbEntity
  8
GR1_01
 62
     3
370
    40
100
AcDbLine
 10
151.8636363636371
 20
115.7727305029838
 30
0.0
 11
139.8636220414464
 21
115.7727305029838
 31
0.0
  0
LINE
  5
17A
330
1F
100
AcDbEntity
  8
GR1_01
 62
     3
370
    40
100
AcDbLine
 10
151.863636675837
 20
117.2727305029837
 30
0.0
 11
140.8636214170464
 21
117.2727305029837
 31
0.0
  0
LINE
  5
17B
330
1F
100
AcDbEntity
  8
GR1_01
 62
     3
370
    40
100
AcDbLine
 10
151.8636363636369
 20
118.2727305029837
 30
0.0
 11
140.8636211048464
 21
118.2727305029837
 31
0.0
  0
LINE
  5
17C
330
1F
100
AcDbEntity
  8
GR1_01
 62
     3
370
    40
100
AcDbLine
 10
140.8636207926464
 20
107.2727305029837
 30
0.0
 11
140.8636248512466
 21
118.2727305029837
 31
0.0
  0
LINE
  5
17D
330
1F
100
AcDbEntity
  8
GR1_01
 62
     3
370
    40
100
AcDbLine
 10
150.8636354270369
 20
109.7727305029838
 30
0.0
 11
150.863637300237
 21
115.7727305029837
 31
0.0
  0
LINE
  5
17E
330
1F
100
AcDbEntity
  8
GR1_01
 62
     3
370
    40
100
AcDbLine
 10
139.8636201682463
 20
109.7727305029838
 30
0.0
 11
139.8636203555663
 21
110.3727305029838
 31
0.0
  0
LINE
  5
17F
330
1F
100
AcDbEntity
  8
GR1_01
 62
     3
370
    40
100
AcDbLine
 10
139.8636203555663
 20
110.3727305029838
 30
0.0
 11
133.863620355566
 21
110.3727305029838
 31
0.0
  0
LINE
  5
180
330
1F
100
AcDbEntity
  8
GR1_01
 62
     3
370
    40
100
AcDbLine
 10
139.8636203555663
 20
115.1727305029838
 30
0.0
 11
133.8636218541261
 21
115.1727305029838
 31
0.0
  0
LINE
  5
181
330
1F
100
AcDbEntity
  8
GR1_01
 62
     3
370
    40
100
AcDbLine
 10
139.8636218541264
 20
115.1727305029837
 30
0.0
 11
139.8636220414464
 21
115.7727305029837
 31
0.0
  0
LINE
  5
182
330
1F
100
AcDbEntity
  8
GR1_01
 62
     3
370
    40
100
AcDbLine
 10
133.863620355566
 20
110.3727305029838
 30
0.0
 11
133.8636218541261
 21
115.1727305029838
 31
0.0
  0
CIRCLE
  5
183
330
1F
100
AcDbEntity
  8
GR1_01
 62
     3
370
    40
100
AcDbCircle
 10
135.8636211048462
 20
112.7727305029838
 30
0.0
 40
1.0
  0
LINE
  5
184
330
1F
100
AcDbEntity
  8
GR1_01
  6
一点鎖線
 62
     7
100
AcDbLine
 10
135.8636205012595
 20
110.8393971696509
 30
0.0
 11
135.8636217084329
 21
114.7060638363171
 31
0.0
  0
LINE
  5
185
330
1F
100
AcDbEntity
  8
GR1_01
 62
     3
370
    40
100
AcDbLine
 10
143.8636201682465
 20
109.7727305029838
 30
0.0
 11
143.8636220414466
 21
115.7727305029838
 31
0.0
  0
LINE
  5
186
330
1F
100
AcDbEntity
  8
GR1_01
 62
     3
370
    40
100
AcDbLine
 10
144.8636201682466
 20
109.7727305029838
 30
0.0
 11
144.8636220414467
 21
115.7727305029838
 31
0.0
  0
LINE
  5
187
330
1F
100
AcDbEntity
  8
GR1_01
 62
     3
370
    40
100
AcDbLine
 10
137.363636363637
 20
90.24477043542095
 30
0.0
 11
137.363636363637
 21
106.7727305029837
 31
0.0
  0
LINE
  5
188
330
1F
100
AcDbEntity
  8
GR1_01
 62
     3
370
    40
100
AcDbLine
 10
151.8636363636369
 20
88.7727305029837
 30
0.0
 11
151.863636363637
 21
136.7727305029837
 31
0.0
  0
LINE
  5
189
330
1F
100
AcDbEntity
  8
GR1_01
 62
     3
370
    40
100
AcDbLine
 10
151.8636288708365
 20
88.77273076463803
 30
0.0
 11
138.3287368669345
 21
89.24537960840235
 31
0.0
  0
LINE
  5
18A
330
1F
100
AcDbEntity
  8
GR1_01
 62
     3
370
    40
100
AcDbLine
 10
151.863636363637
 20
136.7727305029837
 30
0.0
 11
138.3287368669345
 21
136.3000813975656
 31
0.0
  0
LINE
  5
18B
330
1F
100
AcDbEntity
  8
GR1_01
 62
     3
370
    40
100
AcDbLine
 10
149.8636363636369
 20
89.13227867440935
 30
0.0
 11
149.863637924637
 21
107.2727305029837
 31
0.0
  0
LINE
  5
18C
330
1F
100
AcDbEntity
  8
GR1_01
 62
     3
370
    40
100
AcDbLine
 10
149.8636382368371
 20
118.2727305029837
 30
0.0
 11
149.863636363637
 21
136.413182331558
 31
0.0
  0
LINE
  5
18D
330
1F
100
AcDbEntity
  8
GR1_01
 62
     3
370
    40
100
AcDbLine
 10
137.363636363637
 20
118.7727305029838
 30
0.0
 11
140.863636363637
 21
116.7427305029838
 31
0.0
  0
LINE
  5
18E
330
1F
100
AcDbEntity
  8
GR1_01
 62
     3
370
    40
100
AcDbLine
 10
137.363636363637
 20
106.7727305029837
 30
0.0
 11
140.863636363637
 21
108.8027305029838
 31
0.0
  0
LINE
  5
18F
330
1F
100
AcDbEntity
  8
GR1_01
 62
     3
370
    40
100
AcDbLine
 10
137.363636363637
 20
135.3006905705466
 30
0.0
 11
137.363636363637
 21
118.7727305029837
 31
0.0
  0
LINE
  5
190
330
1F
100
AcDbEntity
  8
GR1_01
 62
     3
370
    40
100
AcDbLine
 10
149.863636363637
 20
136.413182331558
 30
0.0
 11
138.3287368669345
 21
136.0103747651231
 31
0.0
  0
LINE
  5
191
330
1F
100
AcDbEntity
  8
GR1_01
 62
     3
370
    40
100
AcDbLine
 10
149.863636363637
 20
135.1235694134139
 30
0.0
 11
138.3287368669345
 21
134.720761846979
 31
0.0
  0
ARC
  5
192
330
1F
100
AcDbEntity
  8
GR1_01
 62
     3
370
    40
100
AcDbCircle
 10
138.363636363637
 20
135.3006905705466
 30
0.0
 40
1.0
100
AcDbArc
 50
91.99999999999946
 51
179.9999999999999
  0
ARC
  5
193
330
1F
100
AcDbEntity
  8
GR1_01
 62
     3
370
    40
100
AcDbCircle
 10
138.363636363637
 20
135.0109839381041
 30
0.0
 40
1.0
100
AcDbArc
 50
92.00000000000031
 51
179.9999999999999
  0
ARC
  5
194
330
1F
100
AcDbEntity
  8
GR1_01
 62
     3
370
    40
100
AcDbCircle
 10
138.363636363637
 20
133.7213710199599
 30
0.0
 40
1.0
100
AcDbArc
 50
92.00000000000026
 51
179.9999999999999
  0
LINE
  5
195
330
1F
100
AcDbEntity
  8
GR1_01
 62
     3
370
    40
100
AcDbLine
 10
149.8636363636369
 20
89.1322786744094
 30
0.0
 11
138.3287368669344
 21
89.53508624084435
 31
0.0
  0
LINE
  5
196
330
1F
100
AcDbEntity
  8
GR1_01
 62
     3
370
    40
100
AcDbLine
 10
149.8636363636369
 20
90.4218915925535
 30
0.0
 11
138.3287368669345
 21
90.82469915898844
 31
0.0
  0
ARC
  5
197
330
1F
100
AcDbEntity
  8
GR1_01
 62
     3
370
    40
100
AcDbCircle
 10
138.3636363636369
 20
90.24477043542095
 30
0.0
 40
1.0
100
AcDbArc
 50
179.9999999999999
 51
268.0000000000003
  0
ARC
  5
198
330
1F
100
AcDbEntity
  8
GR1_01
 62
     3
370
    40
100
AcDbCircle
 10
138.3636363636369
 20
90.53447706786346
 30
0.0
 40
1.0
100
AcDbArc
 50
179.9999999999999
 51
267.9999999999995
  0
ARC
  5
199
330
1F
100
AcDbEntity
  8
GR1_01
 62
     3
370
    40
100
AcDbCircle
 10
138.363636363637
 20
91.82408998600755
 30
0.0
 40
1.0
100
AcDbArc
 50
179.9999999999999
 51
267.9999999999995
  0
LINE
  5
19A
330
1F
100
AcDbEntity
  8
GR1_01
 62
     3
370
    40
100
AcDbLine
 10
130.8636362291297
 20
123.5800566020209
 30
0.0
 11
130.8636365009694
 21
101.7384191533314
 31
0.0
  0
LINE
  5
19B
330
1F
100
AcDbEntity
  8
GR1_01
 62
     3
370
    40
100
AcDbLine
 10
131.8201631210429
 20
122.2264110224103
 30
0.0
 11
136.4071093684271
 21
122.4260086670819
 31
0.0
  0
LINE
  5
19C
330
1F
100
AcDbEntity
  8
GR1_01
 62
     3
370
    40
100
AcDbLine
 10
131.820163139573
 20
120.7375653549086
 30
0.0
 11
136.885372824231
 21
120.9579742867556
 31
0.0
  0
ARC
  5
19D
330
1F
100
AcDbEntity
  8
GR1_01
 62
     3
370
    40
100
AcDbCircle
 10
136.3636362310587
 20
123.4250632633514
 30
0.0
 40
1.0
100
AcDbArc
 50
272.49161253616
 51
0.00000071309985
  0
LINE
  5
19E
330
1F
100
AcDbEntity
  8
GR1_01
 62
     3
370
    40
100
AcDbLine
 10
131.8201633563628
 20
103.3190497584482
 30
0.0
 11
136.4071096087153
 21
103.1194522279543
 31
0.0
  0
LINE
  5
19F
330
1F
100
AcDbEntity
  8
GR1_01
 62
     3
370
    40
100
AcDbLine
 10
131.8201633378327
 20
104.8078954259499
 30
0.0
 11
136.8853730279771
 21
104.5874866201855
 31
0.0
  0
ARC
  5
1A0
330
1F
100
AcDbEntity
  8
GR1_01
 62
     3
370
    40
100
AcDbCircle
 10
136.3636364962153
 20
102.1203976306026
 30
0.0
 40
1.0
100
AcDbArc
 50
0.000000713099837
 51
87.50838889003967
  0
ARC
  5
1A1
330
1F
100
AcDbEntity
  8
GR1_01
 62
     3
370
    40
100
AcDbCircle
 10
131.8636364503327
 20
105.8069500233016
 30
0.0
 40
1.0
100
AcDbArc
 50
180.0000007130998
 51
267.5083888900396
  0
ARC
  5
1A2
330
1F
100
AcDbEntity
  8
GR1_01
 62
     3
370
    40
100
AcDbCircle
 10
131.8636362769413
 20
119.738510758639
 30
0.0
 40
1.0
100
AcDbArc
 50
92.49161253615995
 51
180.0000007130998
  0
ARC
  5
1A3
330
1F
100
AcDbEntity
  8
GR1_01
 62
     3
370
    40
100
AcDbCircle
 10
131.8636362584112
 20
121.2273564261407
 30
0.0
 40
1.0
100
AcDbArc
 50
92.49161253615986
 51
180.0000007130998
  0
ARC
  5
1A4
330
1F
100
AcDbEntity
  8
GR1_01
 62
     3
370
    40
100
AcDbCircle
 10
131.8636364688628
 20
104.3181043557999
 30
0.0
 40
1.0
100
AcDbArc
 50
180.0000007130998
 51
267.5083888900396
  0
ARC
  5
1A5
330
1F
100
AcDbEntity
  8
GR1_01
 62
     3
370
    40
100
AcDbCircle
 10
136.8636362555468
 20
121.4575015848903
 30
0.0
 40
0.5
100
AcDbArc
 50
272.4916125361598
 51
0.0000007130997991
  0
ARC
  5
1A6
330
1F
100
AcDbEntity
  8
GR1_01
 62
     3
370
    40
100
AcDbCircle
 10
136.8636364717271
 20
104.0879593215097
 30
0.0
 40
0.5
100
AcDbArc
 50
0.0000007130997801
 51
87.50838889003954
  0
LINE
  5
1A7
330
1F
100
AcDbEntity
  8
GR1_01
 62
     3
370
    40
100
AcDbLine
 10
131.8287370138802
 20
100.9660133400203
 30
0.0
 11
136.3985360092713
 21
100.8064324996234
 31
0.0
  0
ARC
  5
1A8
330
1F
100
AcDbEntity
  8
GR1_01
 62
     3
370
    40
100
AcDbCircle
 10
136.3636365250071
 20
99.80704167216993
 30
0.0
 40
1.0
100
AcDbArc
 50
0.0000007130997801
 51
88.00000071309938
  0
ARC
  5
1A9
330
1F
100
AcDbEntity
  8
GR1_01
 62
     3
370
    40
100
AcDbCircle
 10
131.8636364981444
 20
101.9654041674738
 30
0.0
 40
1.0
100
AcDbArc
 50
180.0000007131006
 51
268.0000007130994
  0
LINE
  5
1AA
330
1F
100
AcDbEntity
  8
GR1_01
 62
     3
370
    40
100
AcDbLine
 10
131.8287367199889
 20
124.5794474410516
 30
0.0
 11
136.3985357114076
 21
124.7390283951993
 31
0.0
  0
ARC
  5
1AB
330
1F
100
AcDbEntity
  8
GR1_01
 62
     3
370
    40
100
AcDbCircle
 10
136.3636362022667
 20
125.7384192217841
 30
0.0
 40
1.0
100
AcDbArc
 50
272.0000007131001
 51
0.0000007130997991
  0
ARC
  5
1AC
330
1F
100
AcDbEntity
  8
GR1_01
 62
     3
370
    40
100
AcDbCircle
 10
131.8636362291297
 20
123.5800566144669
 30
0.0
 40
1.0
100
AcDbArc
 50
92.00000071310019
 51
180.0000007130998
  0
CIRCLE
  5
1AD
330
1F
100
AcDbEntity
  8
GR1_01
 62
     3
370
    40
100
AcDbCircle
 10
59.08915635794986
 20
112.7727305308323
 30
0.0
 40
9.0
  0
LINE
  5
1AE
330
1F
100
AcDbEntity
  8
GR1_01
 62
     3
370
    40
100
AcDbLine
 10
32.98915635794992
 20
108.7727305308322
 30
0.0
 11
32.98915635794992
 21
109.7727305308322
 31
0.0
  0
LINE
  5
1AF
330
1F
100
AcDbEntity
  8
GR1_01
 62
     3
370
    40
100
AcDbLine
 10
32.98915635794992
 20
109.7727305308322
 30
0.0
 11
31.58915635794989
 21
109.7727305308322
 31
0.0
  0
LINE
  5
1B0
330
1F
100
AcDbEntity
  8
GR1_01
 62
     3
370
    40
100
AcDbLine
 10
32.58915635794989
 20
109.7727305308322
 30
0.0
 11
32.58915635794989
 21
115.7727305308322
 31
0.0
  0
LINE
  5
1B1
330
1F
100
AcDbEntity
  8
GR1_01
 62
     3
370
    40
100
AcDbLine
 10
32.98915635794992
 20
115.7727305308322
 30
0.0
 11
31.58915635794989
 21
115.7727305308322
 31
0.0
  0
LINE
  5
1B2
330
1F
100
AcDbEntity
  8
GR1_01
 62
     3
370
    40
100
AcDbLine
 10
32.98915635794992
 20
115.7727305308322
 30
0.0
 11
32.98915635794992
 21
116.7727305308322
 31
0.0
  0
LINE
  5
1B3
330
1F
100
AcDbEntity
  8
GR1_01
 62
     3
370
    40
100
AcDbLine
 10
32.98915635794992
 20
116.7727305308322
 30
0.0
 11
34.58915635794989
 21
116.7727305308322
 31
0.0
  0
LINE
  5
1B4
330
1F
100
AcDbEntity
  8
GR1_01
 62
     3
370
    40
100
AcDbLine
 10
34.58915635794989
 20
116.7727305308322
 30
0.0
 11
34.58915635794989
 21
108.7727305308322
 31
0.0
  0
LINE
  5
1B5
330
1F
100
AcDbEntity
  8
GR1_01
 62
     3
370
    40
100
AcDbLine
 10
34.58915635794989
 20
108.7727305308322
 30
0.0
 11
32.98915635794992
 21
108.7727305308322
 31
0.0
  0
LINE
  5
1B6
330
1F
100
AcDbEntity
  8
GR1_01
 62
     3
370
    40
100
AcDbLine
 10
34.08915635794989
 20
108.7727305308322
 30
0.0
 11
34.08915635794989
 21
116.7727305308322
 31
0.0
  0
LINE
  5
1B7
330
1F
100
AcDbEntity
  8
GR1_01
 62
     3
370
    40
100
AcDbLine
 10
34.08915635794989
 20
115.6727305308322
 30
0.0
 11
34.58915635794989
 21
115.6727305308322
 31
0.0
  0
LINE
  5
1B8
330
1F
100
AcDbEntity
  8
GR1_01
 62
     3
370
    40
100
AcDbLine
 10
34.58915635794989
 20
115.1727305308322
 30
0.0
 11
34.08915635794989
 21
115.1727305308322
 31
0.0
  0
LINE
  5
1B9
330
1F
100
AcDbEntity
  8
GR1_01
 62
     3
370
    40
100
AcDbLine
 10
85.18915635794991
 20
116.7727305308322
 30
0.0
 11
83.58915635794989
 21
116.7727305308322
 31
0.0
  0
LINE
  5
1BA
330
1F
100
AcDbEntity
  8
GR1_01
 62
     3
370
    40
100
AcDbLine
 10
83.58915635794989
 20
116.7727305308322
 30
0.0
 11
83.58915635794989
 21
108.7727305308322
 31
0.0
  0
LINE
  5
1BB
330
1F
100
AcDbEntity
  8
GR1_01
 62
     3
370
    40
100
AcDbLine
 10
83.58915635794989
 20
108.7727305308322
 30
0.0
 11
85.18915635794991
 21
108.7727305308322
 31
0.0
  0
LINE
  5
1BC
330
1F
100
AcDbEntity
  8
GR1_01
 62
     3
370
    40
100
AcDbLine
 10
85.18915635794991
 20
108.7727305308322
 30
0.0
 11
85.18915635794991
 21
109.7727305308322
 31
0.0
  0
LINE
  5
1BD
330
1F
100
AcDbEntity
  8
GR1_01
 62
     3
370
    40
100
AcDbLine
 10
85.18915635794991
 20
109.7727305308322
 30
0.0
 11
86.58915635794989
 21
109.7727305308322
 31
0.0
  0
LINE
  5
1BE
330
1F
100
AcDbEntity
  8
GR1_01
 62
     3
370
    40
100
AcDbLine
 10
85.58915635794989
 20
109.7727305308322
 30
0.0
 11
85.58915635794989
 21
115.7727305308322
 31
0.0
  0
LINE
  5
1BF
330
1F
100
AcDbEntity
  8
GR1_01
 62
     3
370
    40
100
AcDbLine
 10
85.18915635794991
 20
115.7727305308322
 30
0.0
 11
86.58915635794989
 21
115.7727305308322
 31
0.0
  0
LINE
  5
1C0
330
1F
100
AcDbEntity
  8
GR1_01
 62
     3
370
    40
100
AcDbLine
 10
85.18915635794991
 20
115.7727305308322
 30
0.0
 11
85.18915635794991
 21
116.7727305308322
 31
0.0
  0
LINE
  5
1C1
330
1F
100
AcDbEntity
  8
GR1_01
 62
     3
370
    40
100
AcDbLine
 10
84.08915635794989
 20
116.7727305308322
 30
0.0
 11
84.08915635794989
 21
108.7727305308322
 31
0.0
  0
LINE
  5
1C2
330
1F
100
AcDbEntity
  8
GR1_01
 62
     3
370
    40
100
AcDbLine
 10
84.08915635794989
 20
109.8727305308322
 30
0.0
 11
83.58915635794989
 21
109.8727305308322
 31
0.0
  0
LINE
  5
1C3
330
1F
100
AcDbEntity
  8
GR1_01
 62
     3
370
    40
100
AcDbLine
 10
83.58915635794989
 20
110.3727305308322
 30
0.0
 11
84.08915635794989
 21
110.3727305308322
 31
0.0
  0
LINE
  5
1C4
330
1F
100
AcDbEntity
  8
GR1_01
 62
     3
370
    40
100
AcDbLine
 10
34.58915635794989
 20
109.8727305308322
 30
0.0
 11
34.08915635794989
 21
109.8727305308322
 31
0.0
  0
LINE
  5
1C5
330
1F
100
AcDbEntity
  8
GR1_01
 62
     3
370
    40
100
AcDbLine
 10
34.08915635794989
 20
110.3727305308322
 30
0.0
 11
34.58915635794989
 21
110.3727305308322
 31
0.0
  0
LINE
  5
1C6
330
1F
100
AcDbEntity
  8
GR1_01
 62
     3
370
    40
100
AcDbLine
 10
83.58915635794989
 20
115.1727305308322
 30
0.0
 11
84.08915635794989
 21
115.1727305308322
 31
0.0
  0
LINE
  5
1C7
330
1F
100
AcDbEntity
  8
GR1_01
 62
     3
370
    40
100
AcDbLine
 10
84.08915635794989
 20
115.6727305308322
 30
0.0
 11
83.58915635794989
 21
115.6727305308322
 31
0.0
  0
LINE
  5
1C8
330
1F
100
AcDbEntity
  8
GR1_01
  6
一点鎖線
 62
     7
100
AcDbLine
 10
39.08915635794992
 20
109.6270234198628
 30
0.0
 11
39.08915635794992
 21
115.8342539683322
 31
0.0
  0
LINE
  5
1C9
330
1F
100
AcDbEntity
  8
GR1_01
  6
一点鎖線
 62
     7
100
AcDbLine
 10
79.08915635794992
 20
115.8342539683322
 30
0.0
 11
79.08915635794992
 21
109.6270234198628
 31
0.0
  0
LINE
  5
1CA
330
1F
100
AcDbEntity
  8
GR1_01
 62
     3
370
    40
100
AcDbLine
 10
86.58915635794992
 20
117.2727305308322
 30
0.0
 11
86.58915635794992
 21
108.2727305308322
 31
0.0
  0
LINE
  5
1CB
330
1F
100
AcDbEntity
  8
GR1_01
 62
     3
370
    40
100
AcDbLine
 10
31.58915635794992
 20
108.2727305308322
 30
0.0
 11
31.58915635794992
 21
117.2727305308321
 31
0.0
  0
ARC
  5
1CC
330
1F
100
AcDbEntity
  8
GR1_01
 62
     3
370
    40
100
AcDbCircle
 10
80.33915635794992
 20
112.7727305308322
 30
0.0
 40
0.25
100
AcDbArc
 50
270.0
 51
90.0
  0
LINE
  5
1CD
330
1F
100
AcDbEntity
  8
GR1_01
 62
     3
370
    40
100
AcDbLine
 10
80.33915635794992
 20
112.5227305308322
 30
0.0
 11
79.33915635794995
 21
112.5227305308322
 31
0.0
  0
LINE
  5
1CE
330
1F
100
AcDbEntity
  8
GR1_01
 62
     3
370
    40
100
AcDbLine
 10
79.33915635794995
 20
112.5227305308322
 30
0.0
 11
79.33915635794995
 21
111.5227305308322
 31
0.0
  0
ARC
  5
1CF
330
1F
100
AcDbEntity
  8
GR1_01
 62
     3
370
    40
100
AcDbCircle
 10
79.08915635794995
 20
111.5227305308322
 30
0.0
 40
0.25
100
AcDbArc
 50
180.0
 51
0.0
  0
LINE
  5
1D0
330
1F
100
AcDbEntity
  8
GR1_01
 62
     3
370
    40
100
AcDbLine
 10
78.83915635794995
 20
111.5227305308322
 30
0.0
 11
78.83915635794995
 21
112.5227305308322
 31
0.0
  0
LINE
  5
1D1
330
1F
100
AcDbEntity
  8
GR1_01
 62
     3
370
    40
100
AcDbLine
 10
78.83915635794995
 20
112.5227305308322
 30
0.0
 11
77.83915635794992
 21
112.5227305308322
 31
0.0
  0
ARC
  5
1D2
330
1F
100
AcDbEntity
  8
GR1_01
 62
     3
370
    40
100
AcDbCircle
 10
77.83915635794992
 20
112.7727305308322
 30
0.0
 40
0.25
100
AcDbArc
 50
90.0
 51
270.0
  0
LINE
  5
1D3
330
1F
100
AcDbEntity
  8
GR1_01
 62
     3
370
    40
100
AcDbLine
 10
77.83915635794992
 20
113.0227305308322
 30
0.0
 11
78.83915635794995
 21
113.0227305308322
 31
0.0
  0
LINE
  5
1D4
330
1F
100
AcDbEntity
  8
GR1_01
 62
     3
370
    40
100
AcDbLine
 10
78.83915635794995
 20
113.0227305308322
 30
0.0
 11
78.83915635794995
 21
114.0227305308322
 31
0.0
  0
ARC
  5
1D5
330
1F
100
AcDbEntity
  8
GR1_01
 62
     3
370
    40
100
AcDbCircle
 10
79.08915635794995
 20
114.0227305308322
 30
0.0
 40
0.25
100
AcDbArc
 50
0.0
 51
180.0
  0
LINE
  5
1D6
330
1F
100
AcDbEntity
  8
GR1_01
 62
     3
370
    40
100
AcDbLine
 10
79.33915635794995
 20
114.0227305308322
 30
0.0
 11
79.33915635794995
 21
113.0227305308322
 31
0.0
  0
LINE
  5
1D7
330
1F
100
AcDbEntity
  8
GR1_01
 62
     3
370
    40
100
AcDbLine
 10
79.33915635794995
 20
113.0227305308322
 30
0.0
 11
80.33915635794992
 21
113.0227305308322
 31
0.0
  0
LINE
  5
1D8
330
1F
100
AcDbEntity
  8
GR1_01
 62
     3
370
    40
100
AcDbLine
 10
39.33915635794989
 20
111.5227305308322
 30
0.0
 11
39.33915635794989
 21
114.0227305308322
 31
0.0
  0
ARC
  5
1D9
330
1F
100
AcDbEntity
  8
GR1_01
 62
     3
370
    40
100
AcDbCircle
 10
39.08915635794989
 20
111.5227305308322
 30
0.0
 40
0.25
100
AcDbArc
 50
180.0
 51
0.0
  0
LINE
  5
1DA
330
1F
100
AcDbEntity
  8
GR1_01
 62
     3
370
    40
100
AcDbLine
 10
38.83915635794989
 20
111.5227305308322
 30
0.0
 11
38.83915635794989
 21
114.0227305308322
 31
0.0
  0
ARC
  5
1DB
330
1F
100
AcDbEntity
  8
GR1_01
 62
     3
370
    40
100
AcDbCircle
 10
39.08915635794989
 20
114.0227305308322
 30
0.0
 40
0.25
100
AcDbArc
 50
0.0
 51
180.0
  0
LINE
  5
1DC
330
1F
100
AcDbEntity
  8
GR1_01
 62
     3
370
    40
100
AcDbLine
 10
85.58915635794997
 20
118.2727305308322
 30
0.0
 11
81.65192832297711
 21
118.2727305308322
 31
0.0
  0
LINE
  5
1DD
330
1F
100
AcDbEntity
  8
GR1_01
 62
     3
370
    40
100
AcDbLine
 10
85.58915635794997
 20
107.2727305308322
 30
0.0
 11
81.65192832297708
 21
107.2727305308322
 31
0.0
  0
LINE
  5
1DE
330
1F
100
AcDbEntity
  8
GR1_01
 62
     3
370
    40
100
AcDbLine
 10
86.58915635794997
 20
117.2727305308322
 30
0.0
 11
85.58915635794997
 21
118.2727305308322
 31
0.0
  0
LINE
  5
1DF
330
1F
100
AcDbEntity
  8
GR1_01
 62
     3
370
    40
100
AcDbLine
 10
86.58915635794997
 20
108.2727305308322
 30
0.0
 11
85.58915635794997
 21
107.2727305308322
 31
0.0
  0
LINE
  5
1E0
330
1F
100
AcDbEntity
  8
GR1_01
 62
     3
370
    40
100
AcDbLine
 10
32.58915635794992
 20
118.2727305308322
 30
0.0
 11
36.55763292044986
 21
118.2727305308322
 31
0.0
  0
LINE
  5
1E1
330
1F
100
AcDbEntity
  8
GR1_01
 62
     3
370
    40
100
AcDbLine
 10
32.58915635794992
 20
107.2727305308322
 30
0.0
 11
36.53863995336701
 21
107.2727305308322
 31
0.0
  0
LINE
  5
1E2
330
1F
100
AcDbEntity
  8
GR1_01
 62
     3
370
    40
100
AcDbLine
 10
31.58915635794992
 20
117.2727305308322
 30
0.0
 11
32.58915635794992
 21
118.2727305308322
 31
0.0
  0
LINE
  5
1E3
330
1F
100
AcDbEntity
  8
GR1_01
 62
     3
370
    40
100
AcDbLine
 10
31.58915635794992
 20
108.2727305308322
 30
0.0
 11
32.58915635794992
 21
107.2727305308322
 31
0.0
  0
ARC
  5
1E4
330
1F
100
AcDbEntity
  8
GR1_01
 62
     3
370
    40
100
AcDbCircle
 10
59.08915635794995
 20
112.7727305308322
 30
0.0
 40
24.0
100
AcDbArc
 50
194.175803515867
 51
345.824196484133
  0
ARC
  5
1E5
330
1F
100
AcDbEntity
  8
GR1_01
 62
     3
370
    40
100
AcDbCircle
 10
59.08915635794995
 20
112.7727305308322
 30
0.0
 40
24.0
100
AcDbArc
 50
14.17580351586702
 51
165.824196484133
  0
ARC
  5
1E6
330
1F
100
AcDbEntity
  8
GR1_01
 62
     3
370
    40
100
AcDbCircle
 10
82.84310339838936
 20
118.7727305308322
 30
0.0
 40
0.5
100
AcDbArc
 50
194.1758035158667
 51
270.0
  0
ARC
  5
1E7
330
1F
100
AcDbEntity
  8
GR1_01
 62
     3
370
    40
100
AcDbCircle
 10
82.84310339838936
 20
106.7727305308322
 30
0.0
 40
0.5
100
AcDbArc
 50
90.0
 51
165.8241964841334
  0
ARC
  5
1E8
330
1F
100
AcDbEntity
  8
GR1_01
 62
     3
370
    40
100
AcDbCircle
 10
35.33520931751053
 20
106.7727305308322
 30
0.0
 40
0.5
100
AcDbArc
 50
14.17580351586668
 51
90.0
  0
ARC
  5
1E9
330
1F
100
AcDbEntity
  8
GR1_01
 62
     3
370
    40
100
AcDbCircle
 10
35.33520931751053
 20
118.7727305308322
 30
0.0
 40
0.5
100
AcDbArc
 50
270.0
 51
345.8241964841333
  0
LINE
  5
1EA
330
1F
100
AcDbEntity
  8
GR1_01
 62
     3
370
    40
100
AcDbLine
 10
71.4256874749212
 20
109.6727305308322
 30
0.0
 11
81.58915635794992
 21
109.6727305308322
 31
0.0
  0
LINE
  5
1EB
330
1F
100
AcDbEntity
  8
GR1_01
 62
     3
370
    40
100
AcDbLine
 10
71.4256874749212
 20
115.8727305308322
 30
0.0
 11
81.58915635794992
 21
115.8727305308323
 31
0.0
  0
ARC
  5
1EC
330
1F
100
AcDbEntity
  8
GR1_01
 62
     3
370
    40
100
AcDbCircle
 10
71.4256874749212
 20
108.6727305308322
 30
0.0
 40
1.0
100
AcDbArc
 50
90.0
 51
161.6159657715024
  0
ARC
  5
1ED
330
1F
100
AcDbEntity
  8
GR1_01
 62
     3
370
    40
100
AcDbCircle
 10
71.4256874749212
 20
116.8727305308322
 30
0.0
 40
1.0
100
AcDbArc
 50
198.3840342284976
 51
270.0
  0
LINE
  5
1EE
330
1F
100
AcDbEntity
  8
GR1_01
 62
     3
370
    40
100
AcDbLine
 10
70.0436075080533
 20
106.7727305308322
 30
0.0
 11
79.78752585895168
 21
106.7727305308322
 31
0.0
  0
LINE
  5
1EF
330
1F
100
AcDbEntity
  8
GR1_01
 62
     3
370
    40
100
AcDbLine
 10
70.04360750805324
 20
118.7727305308322
 30
0.0
 11
79.78752585895168
 21
118.7727305308322
 31
0.0
  0
ARC
  5
1F0
330
1F
100
AcDbEntity
  8
GR1_01
 62
     3
370
    40
100
AcDbCircle
 10
70.0436075080533
 20
105.7727305308322
 30
0.0
 40
1.0
100
AcDbArc
 50
90.0
 51
147.4210296071958
  0
ARC
  5
1F1
330
1F
100
AcDbEntity
  8
GR1_01
 62
     3
370
    40
100
AcDbCircle
 10
70.04360750805324
 20
119.7727305308322
 30
0.0
 40
1.0
100
AcDbArc
 50
212.5789703928043
 51
270.0
  0
LINE
  5
1F2
330
1F
100
AcDbEntity
  8
GR1_01
 62
     3
370
    40
100
AcDbLine
 10
46.75262524097857
 20
109.6727305308322
 30
0.0
 11
36.45041743547458
 21
109.6727305308322
 31
0.0
  0
LINE
  5
1F3
330
1F
100
AcDbEntity
  8
GR1_01
 62
     3
370
    40
100
AcDbLine
 10
46.75262524097857
 20
115.8727305308322
 30
0.0
 11
36.45041743547458
 21
115.8727305308322
 31
0.0
  0
ARC
  5
1F4
330
1F
100
AcDbEntity
  8
GR1_01
 62
     3
370
    40
100
AcDbCircle
 10
46.75262524097857
 20
108.6727305308322
 30
0.0
 40
1.0
100
AcDbArc
 50
18.38403422849757
 51
90.0
  0
ARC
  5
1F5
330
1F
100
AcDbEntity
  8
GR1_01
 62
     3
370
    40
100
AcDbCircle
 10
46.75262524097857
 20
116.8727305308322
 30
0.0
 40
1.0
100
AcDbArc
 50
270.0
 51
341.6159657715024
  0
LINE
  5
1F6
330
1F
100
AcDbEntity
  8
GR1_01
 62
     3
370
    40
100
AcDbLine
 10
48.13470520784648
 20
106.7727305308322
 30
0.0
 11
38.39078685694815
 21
106.7727305308322
 31
0.0
  0
LINE
  5
1F7
330
1F
100
AcDbEntity
  8
GR1_01
 62
     3
370
    40
100
AcDbLine
 10
48.13470520784654
 20
118.7727305308322
 30
0.0
 11
38.39078685694815
 21
118.7727305308322
 31
0.0
  0
ARC
  5
1F8
330
1F
100
AcDbEntity
  8
GR1_01
 62
     3
370
    40
100
AcDbCircle
 10
48.13470520784648
 20
105.7727305308322
 30
0.0
 40
1.0
100
AcDbArc
 50
32.57897039280351
 51
90.0
  0
ARC
  5
1F9
330
1F
100
AcDbEntity
  8
GR1_01
 62
     3
370
    40
100
AcDbCircle
 10
48.13470520784654
 20
119.7727305308322
 30
0.0
 40
1.0
100
AcDbArc
 50
270.0
 51
327.4210296071959
  0
ARC
  5
1FA
330
1F
100
AcDbEntity
  8
GR1_01
 62
     3
370
    40
100
AcDbCircle
 10
81.65192832297708
 20
106.7727305308322
 30
0.0
 40
0.5
100
AcDbArc
 50
90.0
 51
164.8783346850901
  0
ARC
  5
1FB
330
1F
100
AcDbEntity
  8
GR1_01
 62
     3
370
    40
100
AcDbCircle
 10
81.65192832297711
 20
118.7727305308322
 30
0.0
 40
0.5
100
AcDbArc
 50
195.1216653149099
 51
270.0
  0
ARC
  5
1FC
330
1F
100
AcDbEntity
  8
GR1_01
 62
     3
370
    40
100
AcDbCircle
 10
36.53863995336701
 20
106.7727305308322
 30
0.0
 40
0.5
100
AcDbArc
 50
15.12166531491147
 51
90.0
  0
ARC
  5
1FD
330
1F
100
AcDbEntity
  8
GR1_01
 62
     3
370
    40
100
AcDbCircle
 10
36.54800813507805
 20
118.7727305308322
 30
0.0
 40
0.5
100
AcDbArc
 50
270.0
 51
344.8783346850901
  0
ARC
  5
1FE
330
1F
100
AcDbEntity
  8
GR1_01
 62
     3
370
    40
100
AcDbCircle
 10
59.08915635794992
 20
112.7727305308322
 30
0.0
 40
22.85
100
AcDbArc
 50
281.9979950098526
 51
349.9588266534112
  0
ARC
  5
1FF
330
1F
100
AcDbEntity
  8
GR1_01
 62
     3
370
    40
100
AcDbCircle
 10
79.78752585895168
 20
105.7727305308322
 30
0.0
 40
1.0
100
AcDbArc
 50
341.3149315208776
 51
90.0
  0
ARC
  5
200
330
1F
100
AcDbEntity
  8
GR1_01
 62
     3
370
    40
100
AcDbCircle
 10
79.78752585895168
 20
119.7727305308322
 30
0.0
 40
1.0
100
AcDbArc
 50
270.0
 51
18.68506847912293
  0
ARC
  5
201
330
1F
100
AcDbEntity
  8
GR1_01
 62
     3
370
    40
100
AcDbCircle
 10
38.39078685694815
 20
105.7727305308322
 30
0.0
 40
1.0
100
AcDbArc
 50
90.0
 51
198.6850684791232
  0
ARC
  5
202
330
1F
100
AcDbEntity
  8
GR1_01
 62
     3
370
    40
100
AcDbCircle
 10
38.39078685694815
 20
119.7727305308322
 30
0.0
 40
1.0
100
AcDbArc
 50
161.3149315208771
 51
270.0
  0
LINE
  5
203
330
1F
100
AcDbEntity
  8
GR1_01
 62
     3
370
    40
100
AcDbLine
 10
63.08915635794995
 20
89.10841139843373
 30
0.0
 11
63.83915635794989
 21
90.42189162040202
 31
0.0
  0
LINE
  5
204
330
1F
100
AcDbEntity
  8
GR1_01
 62
     3
370
    40
100
AcDbLine
 10
55.08915635794983
 20
89.10841139843373
 30
0.0
 11
54.33915635794989
 21
90.42189162040202
 31
0.0
  0
LINE
  5
205
330
1F
100
AcDbEntity
  8
GR1_01
 62
     3
370
    40
100
AcDbLine
 10
63.08915635794995
 20
136.4370496632307
 30
0.0
 11
63.83915635794989
 21
135.1235694412624
 31
0.0
  0
LINE
  5
206
330
1F
100
AcDbEntity
  8
GR1_01
 62
     3
370
    40
100
AcDbLine
 10
55.08915635794983
 20
136.4370496632307
 30
0.0
 11
54.33915635794989
 21
135.1235694412624
 31
0.0
  0
ARC
  5
207
330
1F
100
AcDbEntity
  8
GR1_01
 62
     3
370
    40
100
AcDbCircle
 10
59.08915635794992
 20
112.7727305308322
 30
0.0
 40
22.85
100
AcDbArc
 50
101.9979950098528
 51
172.2027860708269
  0
ARC
  5
208
330
1F
100
AcDbEntity
  8
GR1_01
 62
     3
370
    40
100
AcDbCircle
 10
59.08915635794992
 20
112.7727305308322
 30
0.0
 40
22.85
100
AcDbArc
 50
10.04117334658872
 51
78.00200499014726
  0
LINE
  5
209
330
1F
100
AcDbEntity
  8
GR1_01
 62
     3
370
    40
100
AcDbLine
 10
36.45041743547458
 20
109.6727305308322
 30
0.0
 11
36.45041743547458
 21
115.8727305308322
 31
0.0
  0
ARC
  5
20A
330
1F
100
AcDbEntity
  8
GR1_01
 62
     3
370
    40
100
AcDbCircle
 10
59.08915635794992
 20
112.7727305308322
 30
0.0
 40
22.85
100
AcDbArc
 50
187.7972139291731
 51
258.0020049901472
  0
LINE
  5
20B
330
1F
100
AcDbEntity
  8
GR1_01
 62
     3
370
    40
100
AcDbLine
 10
81.58915635794992
 20
116.7567611532045
 30
0.0
 11
81.58915635794992
 21
108.7886999084599
 31
0.0
  0
ARC
  5
20C
330
1F
100
AcDbEntity
  8
GR1_01
 62
     3
370
    40
100
AcDbCircle
 10
59.08915635794995
 20
112.7727305308322
 30
0.0
 40
12.0
100
AcDbArc
 50
320.9680959742635
 51
39.03190402573726
  0
ARC
  5
20D
330
1F
100
AcDbEntity
  8
GR1_01
 62
     3
370
    40
100
AcDbCircle
 10
59.08915635794995
 20
112.7727305308322
 30
0.0
 40
12.0
100
AcDbArc
 50
50.96809597426387
 51
129.031904025737
  0
ARC
  5
20E
330
1F
100
AcDbEntity
  8
GR1_01
 62
     3
370
    40
100
AcDbCircle
 10
59.08915635794995
 20
112.7727305308322
 30
0.0
 40
12.0
100
AcDbArc
 50
140.9680959742637
 51
219.0319040257367
  0
ARC
  5
20F
330
1F
100
AcDbEntity
  8
GR1_01
 62
     3
370
    40
100
AcDbCircle
 10
59.08915635794995
 20
112.7727305308322
 30
0.0
 40
12.0
100
AcDbArc
 50
230.9680959742633
 51
309.0319040257369
  0
ARC
  5
210
330
1F
100
AcDbEntity
  8
GR1_01
 62
     3
370
    40
100
AcDbCircle
 10
67.57443773218839
 20
121.2580119050708
 30
0.0
 40
1.0
100
AcDbArc
 50
325.3398908939312
 51
124.6601091060697
  0
ARC
  5
211
330
1F
100
AcDbEntity
  8
GR1_01
 62
     3
370
    40
100
AcDbCircle
 10
68.643739978882
 20
120.518692822931
 30
0.0
 40
0.3
100
AcDbArc
 50
145.3398908939336
 51
219.0319040257359
  0
ARC
  5
212
330
1F
100
AcDbEntity
  8
GR1_01
 62
     3
370
    40
100
AcDbCircle
 10
66.8351186500486
 20
122.3273141517644
 30
0.0
 40
0.3
100
AcDbArc
 50
230.9680959742642
 51
304.660109106068
  0
ARC
  5
213
330
1F
100
AcDbEntity
  8
GR1_01
 62
     3
370
    40
100
AcDbCircle
 10
50.60387498371134
 20
121.2580119050707
 30
0.0
 40
1.0
100
AcDbArc
 50
55.33989089393128
 51
214.6601091060697
  0
ARC
  5
214
330
1F
100
AcDbEntity
  8
GR1_01
 62
     3
370
    40
100
AcDbCircle
 10
51.34319406585109
 20
122.3273141517643
 30
0.0
 40
0.3
100
AcDbArc
 50
235.3398908939336
 51
309.0319040257359
  0
ARC
  5
215
330
1F
100
AcDbEntity
  8
GR1_01
 62
     3
370
    40
100
AcDbCircle
 10
49.53457273701773
 20
120.5186928229309
 30
0.0
 40
0.3
100
AcDbArc
 50
320.9680959742642
 51
34.66010910606801
  0
ARC
  5
216
330
1F
100
AcDbEntity
  8
GR1_01
 62
     3
370
    40
100
AcDbCircle
 10
50.60387498371139
 20
104.2874491565937
 30
0.0
 40
1.0
100
AcDbArc
 50
145.3398908939313
 51
304.6601091060697
  0
ARC
  5
217
330
1F
100
AcDbEntity
  8
GR1_01
 62
     3
370
    40
100
AcDbCircle
 10
49.53457273701778
 20
105.0267682387334
 30
0.0
 40
0.3
100
AcDbArc
 50
325.3398908939336
 51
39.03190402573589
  0
ARC
  5
218
330
1F
100
AcDbEntity
  8
GR1_01
 62
     3
370
    40
100
AcDbCircle
 10
51.34319406585118
 20
103.2181469099001
 30
0.0
 40
0.3
100
AcDbArc
 50
50.96809597426419
 51
124.660109106068
  0
ARC
  5
219
330
1F
100
AcDbEntity
  8
GR1_01
 62
     3
370
    40
100
AcDbCircle
 10
67.57443773218844
 20
104.2874491565937
 30
0.0
 40
1.0
100
AcDbArc
 50
235.3398908939313
 51
34.6601091060697
  0
ARC
  5
21A
330
1F
100
AcDbEntity
  8
GR1_01
 62
     3
370
    40
100
AcDbCircle
 10
66.83511865004868
 20
103.2181469099001
 30
0.0
 40
0.3
100
AcDbArc
 50
55.33989089393361
 51
129.031904025736
  0
ARC
  5
21B
330
1F
100
AcDbEntity
  8
GR1_01
 62
     3
370
    40
100
AcDbCircle
 10
68.64373997888205
 20
105.0267682387335
 30
0.0
 40
0.3
100
AcDbArc
 50
140.9680959742642
 51
214.660109106068
  0
LINE
  5
21C
330
1F
100
AcDbEntity
  8
GR1_01
 62
     3
370
    40
100
AcDbLine
 10
63.13060824227724
 20
132.2727305308322
 30
0.0
 11
61.10988230011355
 21
135.7727305308322
 31
0.0
  0
LINE
  5
21D
330
1F
100
AcDbEntity
  8
GR1_01
 62
     3
370
    40
100
AcDbLine
 10
61.10988230011355
 20
135.7727305308322
 30
0.0
 11
57.06843041578617
 21
135.7727305308322
 31
0.0
  0
LINE
  5
21E
330
1F
100
AcDbEntity
  8
GR1_01
 62
     3
370
    40
100
AcDbLine
 10
57.06843041578617
 20
135.7727305308322
 30
0.0
 11
55.04770447362248
 21
132.2727305308322
 31
0.0
  0
LINE
  5
21F
330
1F
100
AcDbEntity
  8
GR1_01
 62
     3
370
    40
100
AcDbLine
 10
55.04770447362248
 20
132.2727305308322
 30
0.0
 11
57.06843041578617
 21
128.7727305308322
 31
0.0
  0
LINE
  5
220
330
1F
100
AcDbEntity
  8
GR1_01
 62
     3
370
    40
100
AcDbLine
 10
57.06843041578617
 20
128.7727305308322
 30
0.0
 11
61.10988230011355
 21
128.7727305308322
 31
0.0
  0
LINE
  5
221
330
1F
100
AcDbEntity
  8
GR1_01
 62
     3
370
    40
100
AcDbLine
 10
61.10988230011355
 20
128.7727305308322
 30
0.0
 11
63.13060824227724
 21
132.2727305308322
 31
0.0
  0
CIRCLE
  5
222
330
1F
100
AcDbEntity
  8
GR1_01
 62
     3
370
    40
100
AcDbCircle
 10
59.08915635794986
 20
132.2727305308322
 30
0.0
 40
3.4
  0
CIRCLE
  5
223
330
1F
100
AcDbEntity
  8
GR1_01
 62
     3
370
    40
100
AcDbCircle
 10
59.08915635794986
 20
132.2727305308322
 30
0.0
 40
1.6
  0
ARC
  5
224
330
1F
100
AcDbEntity
  8
GR1_01
 62
     7
100
AcDbCircle
 10
59.08915635794986
 20
132.2727305308322
 30
0.0
 40
2.0
100
AcDbArc
 50
80.0
 51
349.9999999999999
  0
LINE
  5
225
330
1F
100
AcDbEntity
  8
GR1_01
 62
     3
370
    40
100
AcDbLine
 10
63.13060824227725
 20
93.2727305308322
 30
0.0
 11
61.10988230011356
 21
96.7727305308322
 31
0.0
  0
LINE
  5
226
330
1F
100
AcDbEntity
  8
GR1_01
 62
     3
370
    40
100
AcDbLine
 10
61.10988230011356
 20
96.7727305308322
 30
0.0
 11
57.06843041578618
 21
96.7727305308322
 31
0.0
  0
LINE
  5
227
330
1F
100
AcDbEntity
  8
GR1_01
 62
     3
370
    40
100
AcDbLine
 10
57.06843041578618
 20
96.7727305308322
 30
0.0
 11
55.04770447362249
 21
93.2727305308322
 31
0.0
  0
LINE
  5
228
330
1F
100
AcDbEntity
  8
GR1_01
 62
     3
370
    40
100
AcDbLine
 10
55.04770447362249
 20
93.2727305308322
 30
0.0
 11
57.06843041578617
 21
89.7727305308322
 31
0.0
  0
LINE
  5
229
330
1F
100
AcDbEntity
  8
GR1_01
 62
     3
370
    40
100
AcDbLine
 10
57.06843041578617
 20
89.7727305308322
 30
0.0
 11
61.10988230011356
 21
89.7727305308322
 31
0.0
  0
LINE
  5
22A
330
1F
100
AcDbEntity
  8
GR1_01
 62
     3
370
    40
100
AcDbLine
 10
61.10988230011356
 20
89.7727305308322
 30
0.0
 11
63.13060824227725
 21
93.2727305308322
 31
0.0
  0
CIRCLE
  5
22B
330
1F
100
AcDbEntity
  8
GR1_01
 62
     3
370
    40
100
AcDbCircle
 10
59.08915635794987
 20
93.2727305308322
 30
0.0
 40
3.4
  0
CIRCLE
  5
22C
330
1F
100
AcDbEntity
  8
GR1_01
 62
     3
370
    40
100
AcDbCircle
 10
59.08915635794987
 20
93.2727305308322
 30
0.0
 40
1.6
  0
ARC
  5
22D
330
1F
100
AcDbEntity
  8
GR1_01
 62
     7
100
AcDbCircle
 10
59.08915635794987
 20
93.2727305308322
 30
0.0
 40
2.0
100
AcDbArc
 50
80.0
 51
349.9999999999999
  0
LINE
  5
22E
330
1F
100
AcDbEntity
  8
作図レイヤ
 62
     3
100
AcDbLine
 10
151.863628900714
 20
246.7481124058886
 30
0.0
 11
152.863628588514
 21
247.7481127180885
 31
0.0
  0
LINE
  5
22F
330
1F
100
AcDbEntity
  8
作図レイヤ
 62
     3
100
AcDbLine
 10
151.8636438863102
 20
198.7481276646809
 30
0.0
 11
152.8636441985102
 21
197.748127976881
 31
0.0
  0
LINE
  5
230
330
1F
100
AcDbEntity
  8
作図レイヤ
 62
     3
100
AcDbLine
 10
152.863643847294
 20
247.7481127180933
 30
0.0
 11
152.8636594572949
 21
197.7481127180957
 31
0.0
  0
LINE
  5
231
330
1F
100
AcDbEntity
  8
作図レイヤ
 62
     3
100
AcDbLine
 10
151.863628900714
 20
246.7481124058886
 30
0.0
 11
151.8636438863006
 21
198.7481584554549
 31
0.0
  0
LINE
  5
232
330
1F
100
AcDbEntity
  8
作図レイヤ
 62
     3
100
AcDbLine
 10
201.863636363637
 20
197.7481395652459
 30
0.0
 11
152.8636441985102
 21
197.748127976881
 31
0.0
  0
LINE
  5
233
330
1F
100
AcDbEntity
  8
作図レイヤ
 62
     3
100
AcDbLine
 10
201.8636363636369
 20
247.7481358652718
 30
0.0
 11
152.863643847294
 21
247.7481127180933
 31
0.0
  0
LINE
  5
234
330
1F
100
AcDbEntity
  8
作図レイヤ
 62
     3
100
AcDbLine
 10
151.8636363935073
 20
246.7481354306742
 30
0.0
 11
151.8636363935074
 21
198.7481354306741
 31
0.0
  0
LINE
  5
235
330
1F
100
AcDbEntity
  8
作図レイヤ
 62
     3
100
AcDbLine
 10
151.8636363935072
 20
195.2481354306741
 30
0.0
 11
151.8636363935074
 21
250.2481354306741
 31
0.0
  0
LINE
  5
236
330
1F
100
AcDbEntity
  8
作図レイヤ
 62
     3
100
AcDbLine
 10
151.8636363935072
 20
195.2481354306741
 30
0.0
 11
140.8636363935073
 21
195.248135430674
 31
0.0
  0
LINE
  5
237
330
1F
100
AcDbEntity
  8
作図レイヤ
 62
     3
100
AcDbLine
 10
137.3636363935072
 20
201.9000329030884
 30
0.0
 11
137.3636363935073
 21
243.5962379582598
 31
0.0
  0
LINE
  5
238
330
1F
100
AcDbEntity
  8
作図レイヤ
 62
     3
100
AcDbLine
 10
149.8636363935073
 20
199.3868426582268
 30
0.0
 11
151.8636363935073
 21
199.3868426582268
 31
0.0
  0
LINE
  5
239
330
1F
100
AcDbEntity
  8
作図レイヤ
 62
     3
100
AcDbLine
 10
137.3636363935074
 20
218.7481354306741
 30
0.0
 11
149.8636363935072
 21
218.7481354306741
 31
0.0
  0
LINE
  5
23A
330
1F
100
AcDbEntity
  8
作図レイヤ
 62
     3
100
AcDbLine
 10
137.3636363935074
 20
218.0481354306741
 30
0.0
 11
149.8636363935072
 21
218.0481354306741
 31
0.0
  0
LINE
  5
23B
330
1F
100
AcDbEntity
  8
作図レイヤ
 62
     3
100
AcDbLine
 10
151.8636363935074
 20
250.2481354306741
 30
0.0
 11
140.8636363935074
 21
250.2481354306741
 31
0.0
  0
LINE
  5
23C
330
1F
100
AcDbEntity
  8
作図レイヤ
 62
     3
100
AcDbLine
 10
149.8636363935074
 20
246.1094282031214
 30
0.0
 11
151.8636363935074
 21
246.1094282031214
 31
0.0
  0
LINE
  5
23D
330
1F
100
AcDbEntity
  8
作図レイヤ
 62
     3
100
AcDbLine
 10
137.3636363935074
 20
226.7481354306741
 30
0.0
 11
149.8636363935072
 21
226.7481354306741
 31
0.0
  0
LINE
  5
23E
330
1F
100
AcDbEntity
  8
作図レイヤ
 62
     3
100
AcDbLine
 10
137.3636363935074
 20
227.4481354306741
 30
0.0
 11
149.8636363935072
 21
227.4481354306741
 31
0.0
  0
LINE
  5
23F
330
1F
100
AcDbEntity
  8
作図レイヤ
 62
     3
100
AcDbLine
 10
151.8636363935073
 20
196.2481354306741
 30
0.0
 11
140.8636363935073
 21
196.2481354306741
 31
0.0
  0
LINE
  5
240
330
1F
100
AcDbEntity
  8
作図レイヤ
 62
     3
100
AcDbLine
 10
151.8636363935074
 20
249.2481354306741
 30
0.0
 11
140.8636363935074
 21
249.2481354306742
 31
0.0
  0
LINE
  5
241
330
1F
100
AcDbEntity
  8
作図レイヤ
 62
     3
100
AcDbLine
 10
140.8636363935073
 20
195.2481354306741
 30
0.0
 11
140.8636363935073
 21
200.5699366760412
 31
0.0
  0
LINE
  5
242
330
1F
100
AcDbEntity
  8
作図レイヤ
 62
     3
100
AcDbLine
 10
140.8636363935074
 20
250.2481354306741
 30
0.0
 11
140.8636363935073
 21
244.926334185307
 31
0.0
  0
LINE
  5
243
330
1F
100
AcDbEntity
  8
作図レイヤ
 62
     3
100
AcDbLine
 10
149.8636363935073
 20
218.7481354306741
 30
0.0
 11
149.8636363935073
 21
199.3868426582268
 31
0.0
  0
LINE
  5
244
330
1F
100
AcDbEntity
  8
作図レイヤ
 62
     3
100
AcDbLine
 10
149.8636363935073
 20
226.7481354306741
 30
0.0
 11
149.8636363935074
 21
246.1094282031214
 31
0.0
  0
LINE
  5
245
330
1F
100
AcDbEntity
  8
作図レイヤ
 62
     3
100
AcDbLine
 10
138.1412196057873
 20
200.9250812260601
 30
0.0
 11
140.8636363935073
 21
200.3040133197974
 31
0.0
  0
LINE
  5
246
330
1F
100
AcDbEntity
  8
作図レイヤ
 62
     3
100
AcDbLine
 10
140.8636363935073
 20
200.5699366760412
 30
0.0
 11
149.8636363935073
 21
200.5699366760412
 31
0.0
  0
LINE
  5
247
330
1F
100
AcDbEntity
  8
作図レイヤ
 62
     3
100
AcDbLine
 10
138.1412196057875
 20
244.5711896352881
 30
0.0
 11
140.8636363935073
 21
245.1922575415508
 31
0.0
  0
LINE
  5
248
330
1F
100
AcDbEntity
  8
作図レイヤ
 62
     3
100
AcDbLine
 10
140.8636363935073
 20
244.926334185307
 30
0.0
 11
149.8636363935074
 21
244.926334185307
 31
0.0
  0
ARC
  5
249
330
1F
100
AcDbEntity
  8
作図レイヤ
 62
     3
100
AcDbCircle
 10
138.3636363935072
 20
201.9000329030884
 30
0.0
 40
1.0
100
AcDbArc
 50
180.0
 51
257.1489776641743
  0
ARC
  5
24A
330
1F
100
AcDbEntity
  8
作図レイヤ
 62
     3
100
AcDbCircle
 10
138.3636363935073
 20
243.5962379582598
 30
0.0
 40
1.0
100
AcDbArc
 50
102.8510223358265
 51
180.0
  0
LINE
  5
24B
330
1F
100
AcDbEntity
  8
作図レイヤ
 62
     3
100
AcDbLine
 10
140.8636211347174
 20
248.2481124058897
 30
0.0
 11
133.8636211347173
 21
248.2481124058897
 31
0.0
  0
LINE
  5
24C
330
1F
100
AcDbEntity
  8
作図レイヤ
 62
     3
100
AcDbLine
 10
133.8636211347173
 20
248.2481124058897
 30
0.0
 11
133.8636211347173
 21
247.7481124058897
 31
0.0
  0
LINE
  5
24D
330
1F
100
AcDbEntity
  8
作図レイヤ
 62
     3
100
AcDbLine
 10
133.8636211347173
 20
247.7481124058897
 30
0.0
 11
140.8636211347174
 21
247.7481124058897
 31
0.0
  0
LINE
  5
24E
330
1F
100
AcDbEntity
  8
作図レイヤ
 62
     3
100
AcDbLine
 10
140.8636211347173
 20
197.7481276646798
 30
0.0
 11
133.8636211347173
 21
197.7481276646798
 31
0.0
  0
LINE
  5
24F
330
1F
100
AcDbEntity
  8
作図レイヤ
 62
     3
100
AcDbLine
 10
133.8636211347173
 20
197.7481276646798
 30
0.0
 11
133.8636211347173
 21
197.2481276646797
 31
0.0
  0
LINE
  5
250
330
1F
100
AcDbEntity
  8
作図レイヤ
 62
     3
100
AcDbLine
 10
133.8636211347173
 20
197.2481276646797
 30
0.0
 11
140.8636211347173
 21
197.2481276646797
 31
0.0
  0
LINE
  5
251
330
1F
100
AcDbEntity
  8
作図レイヤ
 62
     3
100
AcDbLine
 10
130.8636363935072
 20
211.9408137340778
 30
0.0
 11
130.8636363935073
 21
233.5554661810709
 31
0.0
  0
LINE
  5
252
330
1F
100
AcDbEntity
  8
作図レイヤ
 62
     3
100
AcDbLine
 10
131.8201632685731
 20
213.2944593255933
 30
0.0
 11
136.4071095184415
 21
213.0948617380106
 31
0.0
  0
LINE
  5
253
330
1F
100
AcDbEntity
  8
作図レイヤ
 62
     3
100
AcDbLine
 10
131.8201632685731
 20
214.783304993095
 30
0.0
 11
136.8853729559744
 21
214.5628961242894
 31
0.0
  0
ARC
  5
254
330
1F
100
AcDbEntity
  8
作図レイヤ
 62
     3
100
AcDbCircle
 10
136.3636363935073
 20
212.0958071411999
 30
0.0
 40
1.0
100
AcDbArc
 50
0.0
 51
87.50838817693999
  0
LINE
  5
255
330
1F
100
AcDbEntity
  8
作図レイヤ
 62
     3
100
AcDbLine
 10
131.8201632685732
 20
232.2018205895555
 30
0.0
 11
136.4071095184415
 21
232.4014181771382
 31
0.0
  0
LINE
  5
256
330
1F
100
AcDbEntity
  8
作図レイヤ
 62
     3
100
AcDbLine
 10
131.8201632685732
 20
230.7129749220537
 30
0.0
 11
136.8853729559744
 21
230.9333837908594
 31
0.0
  0
ARC
  5
257
330
1F
100
AcDbEntity
  8
作図レイヤ
 62
     3
100
AcDbCircle
 10
136.3636363935073
 20
233.4004727739488
 30
0.0
 40
1.0
100
AcDbArc
 50
272.49161182306
 51
359.9999999999968
  0
ARC
  5
258
330
1F
100
AcDbEntity
  8
作図レイヤ
 62
     3
100
AcDbCircle
 10
131.8636363935073
 20
214.293513922404
 30
0.0
 40
1.0
100
AcDbArc
 50
180.0
 51
267.5083881769398
  0
ARC
  5
259
330
1F
100
AcDbEntity
  8
作図レイヤ
 62
     3
100
AcDbCircle
 10
131.8636363935073
 20
215.7823595899056
 30
0.0
 40
1.0
100
AcDbArc
 50
180.0
 51
267.5083881769397
  0
ARC
  5
25A
330
1F
100
AcDbEntity
  8
作図レイヤ
 62
     3
100
AcDbCircle
 10
131.8636363935074
 20
229.7139203252431
 30
0.0
 40
1.0
100
AcDbArc
 50
92.49161182306017
 51
180.0
  0
ARC
  5
25B
330
1F
100
AcDbEntity
  8
作図レイヤ
 62
     3
100
AcDbCircle
 10
131.8636363935074
 20
231.2027659927448
 30
0.0
 40
1.0
100
AcDbArc
 50
92.49161182305994
 51
180.0
  0
ARC
  5
25C
330
1F
100
AcDbEntity
  8
作図レイヤ
 62
     3
100
AcDbCircle
 10
136.8636363935073
 20
214.063368825884
 30
0.0
 40
0.5
100
AcDbArc
 50
0.0
 51
87.50838817694004
  0
ARC
  5
25D
330
1F
100
AcDbEntity
  8
作図レイヤ
 62
     3
100
AcDbCircle
 10
136.8636363935074
 20
231.4329110892647
 30
0.0
 40
0.5
100
AcDbArc
 50
272.4916118230603
 51
0.0
  0
LINE
  5
25E
330
1F
100
AcDbEntity
  8
作図レイヤ
 62
     3
100
AcDbLine
 10
131.8287368968049
 20
234.55485700809
 30
0.0
 11
137.3636363935074
 21
234.7481399575743
 31
0.0
  0
ARC
  5
25F
330
1F
100
AcDbEntity
  8
作図レイヤ
 62
     3
100
AcDbCircle
 10
131.8636363935074
 20
233.5554661810709
 30
0.0
 40
1.0
100
AcDbArc
 50
92.00000000000041
 51
179.9999999999984
  0
LINE
  5
260
330
1F
100
AcDbEntity
  8
作図レイヤ
 62
     3
100
AcDbLine
 10
131.8287368968048
 20
210.9414229070587
 30
0.0
 11
137.3636363935073
 21
210.7481399575744
 31
0.0
  0
ARC
  5
261
330
1F
100
AcDbEntity
  8
作図レイヤ
 62
     3
100
AcDbCircle
 10
131.8636363935073
 20
211.9408137340778
 30
0.0
 40
1.0
100
AcDbArc
 50
180.0
 51
267.9999999999997
  0
ARC
  5
262
330
1F
100
AcDbEntity
  8
GR1_01
 62
     7
100
AcDbCircle
 10
320.1856943438831
 20
146.0067492466
 30
0.0
 40
2.0
100
AcDbArc
 50
80.0
 51
349.9999999999999
  0
CIRCLE
  5
263
330
1F
100
AcDbEntity
  8
GR1_01
 62
     3
370
    40
100
AcDbCircle
 10
320.1856943438831
 20
146.0067492466
 30
0.0
 40
2.499999999999992
  0
ARC
  5
264
330
1F
100
AcDbEntity
  8
GR1_01
 62
     7
100
AcDbCircle
 10
386.6537317754186
 20
146.0067492466
 30
0.0
 40
2.0
100
AcDbArc
 50
80.0
 51
349.9999999999999
  0
CIRCLE
  5
265
330
1F
100
AcDbEntity
  8
GR1_01
 62
     3
370
    40
100
AcDbCircle
 10
386.6537317754186
 20
146.0067492466
 30
0.0
 40
2.499999999999992
  0
ARC
  5
266
330
1F
100
AcDbEntity
  8
GR1_01
 62
     7
100
AcDbCircle
 10
386.6537317754186
 20
79.53871181506443
 30
0.0
 40
2.0
100
AcDbArc
 50
80.0
 51
349.9999999999999
  0
CIRCLE
  5
267
330
1F
100
AcDbEntity
  8
GR1_01
 62
     3
370
    40
100
AcDbCircle
 10
386.6537317754186
 20
79.53871181506443
 30
0.0
 40
2.499999999999992
  0
ARC
  5
268
330
1F
100
AcDbEntity
  8
GR1_01
 62
     7
100
AcDbCircle
 10
320.185694343883
 20
79.53871181506426
 30
0.0
 40
2.0
100
AcDbArc
 50
80.0
 51
349.9999999999999
  0
CIRCLE
  5
269
330
1F
100
AcDbEntity
  8
GR1_01
 62
     3
370
    40
100
AcDbCircle
 10
320.185694343883
 20
79.53871181506426
 30
0.0
 40
2.499999999999992
  0
LINE
  5
26B
330
1F
100
AcDbEntity
  8
基準ﾚｲﾔｸﾞﾙｰﾌﾟ_01
370
    40
100
AcDbLine
 10
255.363636363637
 20
193.5141156708409
 30
0.0
 11
255.363636363637
 21
185.5141156708409
 31
0.0
  0
LINE
  5
26C
330
1F
100
AcDbEntity
  8
基準ﾚｲﾔｸﾞﾙｰﾌﾟ_01
370
    40
100
AcDbLine
 10
255.363636363637
 20
185.5141156708409
 30
0.0
 11
251.363636363637
 21
185.5141156708409
 31
0.0
  0
LINE
  5
26D
330
1F
100
AcDbEntity
  8
基準ﾚｲﾔｸﾞﾙｰﾌﾟ_01
370
    40
100
AcDbLine
 10
251.363636363637
 20
185.5141156708409
 30
0.0
 11
251.363636363637
 21
193.5141156708409
 31
0.0
  0
LINE
  5
26E
330
1F
100
AcDbEntity
  8
基準ﾚｲﾔｸﾞﾙｰﾌﾟ_01
370
    40
100
AcDbLine
 10
251.363636363637
 20
193.5141156708409
 30
0.0
 11
255.363636363637
 21
193.5141156708409
 31
0.0
  0
LINE
  5
26F
330
1F
100
AcDbEntity
  8
基準ﾚｲﾔｸﾞﾙｰﾌﾟ_01
370
    40
100
AcDbLine
 10
255.0063707737289
 20
189.5141156708409
 30
0.0
 11
251.363636363637
 21
189.5141156708409
 31
0.0
  0
ARC
  5
270
330
1F
100
AcDbEntity
  8
基準ﾚｲﾔｸﾞﾙｰﾌﾟ_01
370
    40
100
AcDbCircle
 10
249.5869273573292
 20
191.5141156708409
 30
0.0
 40
5.77670900630777
100
AcDbArc
 50
339.743841999585
 51
20.25615800041498
  0
ARC
  5
271
330
1F
100
AcDbEntity
  8
基準ﾚｲﾔｸﾞﾙｰﾌﾟ_01
370
    40
100
AcDbCircle
 10
249.5869273573292
 20
187.5141156708409
 30
0.0
 40
5.77670900630777
100
AcDbArc
 50
339.743841999585
 51
20.25615800041498
  0
LINE
  5
272
330
1F
100
AcDbEntity
  8
GR1_01
 62
     7
100
AcDbLine
 10
160.863636363637
 20
137.7727305308323
 30
0.0
 11
160.8636363636369
 21
126.7727305308322
 31
0.0
  0
LINE
  5
273
330
1F
100
AcDbEntity
  8
GR1_01
 62
     7
100
AcDbLine
 10
161.8636363636369
 20
125.7727305308322
 30
0.0
 11
191.863651622427
 21
125.7727305308322
 31
0.0
  0
LINE
  5
274
330
1F
100
AcDbEntity
  8
GR1_01
 62
     7
100
AcDbLine
 10
192.863651622427
 20
126.7727305308322
 30
0.0
 11
192.8636349603772
 21
137.7727305308323
 31
0.0
  0
ARC
  5
275
330
1F
100
AcDbEntity
  8
GR1_01
 62
     7
100
AcDbCircle
 10
161.8636363636369
 20
126.7727305308322
 30
0.0
 40
1.0
100
AcDbArc
 50
180.00001866933
 51
270.0000280039999
  0
ARC
  5
276
330
1F
100
AcDbEntity
  8
GR1_01
 62
     7
100
AcDbCircle
 10
191.863651622427
 20
126.7727305308322
 30
0.0
 40
1.0
100
AcDbArc
 50
270.0000280039999
 51
359.9426910704
  0
TEXT
  5
277
330
1F
100
AcDbEntity
  8
GR1_01
 62
     7
100
AcDbText
 10
174.8475952148438
 20
135.5581970214844
 30
0.0
 40
3.5
  1
ＮＰ
 50
270.0000076293945
 41
1.272727272727274
 51
10.0
  7
FX_VECTOR
 72
     5
 11
174.8475961469501
 21
128.5581970214844
 31
0.0
100
AcDbText
  0
LINE
  5
278
330
1F
100
AcDbEntity
  8
GR1_01
 62
     3
370
    40
100
AcDbLine
 10
282.3636372324654
 20
123.7727272727273
 30
0.0
 11
282.3636372324654
 21
130.7727272727273
 31
0.0
  0
TEXT
  5
27A
330
1F
100
AcDbEntity
  8
GR1_01
 62
     7
100
AcDbText
 10
57.60549791759876
 20
105.0342066505033
 30
0.0
 40
1.406249962747097
  1
Ｒ
 50
354.6524047851563
 41
0.8277136284763988
  7
STYLE003
 72
     1
 11
58.33426666259766
 21
104.7079849243164
 31
0.0
100
AcDbText
 73
     1
  0
TEXT
  5
27B
330
1F
100
AcDbEntity
  8
GR1_01
 62
     7
100
AcDbText
 10
56.19511808793694
 20
105.4439850574206
 30
0.0
 40
1.406249962747097
  1
Ｕ
 50
343.9571838378906
 41
0.8277136284763988
  7
STYLE003
 72
     1
 11
56.85068511962891
 21
104.9881820678711
 31
0.0
100
AcDbText
 73
     1
  0
TEXT
  5
27C
330
1F
100
AcDbEntity
  8
GR1_01
 62
     7
100
AcDbText
 10
54.88528896046178
 20
106.1083893363013
 30
0.0
 40
1.406249962747097
  1
Ｍ
 50
333.261962890625
 41
0.8277136284763988
  7
STYLE003
 72
     1
 11
55.44487762451172
 21
105.5388412475586
 31
0.0
100
AcDbText
 73
     1
  0
TEXT
  5
27D
330
1F
100
AcDbEntity
  8
GR1_01
 62
     7
100
AcDbText
 10
53.72153420561606
 20
107.0043328329662
 30
0.0
 40
1.406249962747097
  1
Ａ
 50
322.5667724609375
 41
0.8277136284763988
  7
STYLE003
 72
     1
 11
54.16570281982422
 21
106.3408279418945
 31
0.0
100
AcDbText
 73
     1
  0
TEXT
  5
27E
330
1F
100
AcDbEntity
  8
GR1_01
 62
     7
100
AcDbText
 10
52.74424746667027
 20
108.1006891506242
 30
0.0
 40
1.406249962747097
  1
Ｗ
 50
311.8715515136719
 41
0.8277136284763988
  7
STYLE003
 72
     1
 11
53.05756378173828
 21
107.3662796020508
 31
0.0
100
AcDbText
 73
     1
  0
TEXT
  5
27F
330
1F
100
AcDbEntity
  8
GR1_01
 62
     7
100
AcDbText
 10
51.98741062354308
 20
109.3593805057803
 30
0.0
 40
1.406249962747097
  1
Ａ
 50
301.1763305664062
 41
0.8277136284763988
  7
STYLE003
 72
     1
 11
52.15898895263672
 21
108.5795822143555
 31
0.0
100
AcDbText
 73
     1
  0
TEXT
  5
280
330
1F
100
AcDbEntity
  8
GR1_01
 62
     7
100
AcDbText
 10
51.47730300945638
 20
110.736654631648
 30
0.0
 40
1.406249962747097
  1
Ｓ
 50
290.4811401367188
 41
0.8277136284763988
  7
STYLE003
 72
     1
 11
51.50118255615234
 21
109.9385604858398
 31
0.0
100
AcDbText
 73
     1
  0
TEXT
  5
281
330
1F
100
AcDbEntity
  8
GR1_01
 62
     7
100
AcDbText
 10
59.06741237929571
 20
104.8932917355888
 30
0.0
 40
1.406249962747097
  1
Ａ
 50
5.34759521484375
 41
0.8277136284763988
  7
STYLE003
 72
     1
 11
59.84406280517578
 21
104.7079849243164
 31
0.0
100
AcDbText
 73
     1
  0
TEXT
  5
282
330
1F
100
AcDbEntity
  8
GR1_01
 62
     3
370
    40
100
AcDbText
 10
60.53009557569604
 20
105.026135379842
 30
0.0
 40
1.406249962747097
  1
　
 50
16.04281616210938
 41
0.8277136284763988
  7
STYLE003
 72
     1
 11
61.32764434814453
 21
104.9881820678711
 31
0.0
100
AcDbText
 73
     1
  0
TEXT
  5
283
330
1F
100
AcDbEntity
  8
GR1_01
 62
     7
100
AcDbText
 10
61.94271431278003
 20
105.4281224315815
 30
0.0
 40
1.406249962747097
  1
Ｄ
 50
26.738037109375
 41
0.8277136284763988
  7
STYLE003
 72
     1
 11
62.73345184326172
 21
105.5388412475586
 31
0.0
100
AcDbText
 73
     1
  0
TEXT
  5
284
330
1F
100
AcDbEntity
  8
GR1_01
 62
     7
100
AcDbText
 10
63.25618079527127
 20
106.0852841535058
 30
0.0
 40
1.406249962747097
  1
Ｅ
 50
37.4332275390625
 41
0.8277136284763988
  7
STYLE003
 72
     1
 11
64.01263427734375
 21
106.3408279418945
 31
0.0
100
AcDbText
 73
     1
  0
TEXT
  5
285
330
1F
100
AcDbEntity
  8
GR1_01
 62
     7
100
AcDbText
 10
64.4248857374869
 20
106.9747888905536
 30
0.0
 40
1.406249962747097
  1
Ｎ
 50
48.12844848632812
 41
0.8277136284763988
  7
STYLE003
 72
     1
 11
65.12077331542969
 21
107.3662796020508
 31
0.0
100
AcDbText
 73
     1
  0
TEXT
  5
286
330
1F
100
AcDbEntity
  8
GR1_01
 62
     7
100
AcDbText
 10
65.40820399956367
 20
108.065746314096
 30
0.0
 40
1.406249962747097
  1
Ｋ
 50
58.82366943359375
 41
0.8277136284763988
  7
STYLE003
 72
     1
 11
66.01934814453125
 21
108.5795822143555
 31
0.0
100
AcDbText
 73
     1
  0
TEXT
  5
287
330
1F
100
AcDbEntity
  8
GR1_01
 62
     7
100
AcDbText
 10
66.1719714912939
 20
109.3202320930518
 30
0.0
 40
1.406249962747097
  1
Ｉ
 50
69.51885986328125
 41
0.8277136284763988
  7
STYLE003
 72
     1
 11
66.67713928222656
 21
109.9385604858398
 31
0.0
100
AcDbText
 73
     1
  0
LINE
  5
288
330
1F
100
AcDbEntity
  8
GR1_01
  6
一点鎖線
 62
     7
100
AcDbLine
 10
196.1360520509351
 20
255.9821561556064
 30
0.0
 11
270.3636363636384
 21
255.9821561556064
 31
0.0
  0
LINE
  5
289
330
1F
100
AcDbEntity
  8
GR1_01
  6
一点鎖線
 62
     7
100
AcDbLine
 10
196.136052050935
 20
189.514127325227
 30
0.0
 11
270.3636363636355
 21
189.5141116613711
 31
0.0
  0
LINE
  5
28A
330
1F
100
AcDbEntity
  8
GR1_01
 62
     3
370
    40
100
AcDbLine
 10
202.363636363637
 20
183.7481354306739
 30
0.0
 11
202.3636363636369
 21
261.7481354306739
 31
0.0
  0
LINE
  5
28B
330
1F
100
AcDbEntity
  8
GR1_01
 62
     3
370
    40
100
AcDbLine
 10
208.3636363636371
 20
182.7481354306739
 30
0.0
 11
203.363636363637
 21
182.7481354306739
 31
0.0
  0
LINE
  5
28C
330
1F
100
AcDbEntity
  8
GR1_01
 62
     3
370
    40
100
AcDbLine
 10
208.3636363636369
 20
262.7481354306739
 30
0.0
 11
203.3636363636369
 21
262.7481354306739
 31
0.0
  0
ARC
  5
28D
330
1F
100
AcDbEntity
  8
GR1_01
 62
     3
370
    40
100
AcDbCircle
 10
203.3636363636369
 20
261.7481354306739
 30
0.0
 40
1.0
100
AcDbArc
 50
90.0
 51
180.0
  0
ARC
  5
28E
330
1F
100
AcDbEntity
  8
GR1_01
 62
     3
370
    40
100
AcDbCircle
 10
203.363636363637
 20
183.7481354306739
 30
0.0
 40
1.0
100
AcDbArc
 50
180.0
 51
270.0
  0
LINE
  5
28F
330
1F
100
AcDbEntity
  8
GR1_01
 62
     3
370
    40
100
AcDbLine
 10
201.863636363637
 20
197.7481354306739
 30
0.0
 11
201.8636363636369
 21
247.7481354306739
 31
0.0
  0
LINE
  5
290
330
1F
100
AcDbEntity
  8
GR1_01
 62
     3
370
    40
100
AcDbLine
 10
202.363636363637
 20
197.7481354306739
 30
0.0
 11
201.863636363637
 21
197.7481354306739
 31
0.0
  0
LINE
  5
291
330
1F
100
AcDbEntity
  8
GR1_01
 62
     3
370
    40
100
AcDbLine
 10
202.3636363636369
 20
247.7481354306739
 30
0.0
 11
201.8636363636369
 21
247.748135430674
 31
0.0
  0
LINE
  5
292
330
1F
100
AcDbEntity
  8
GR1_01
 62
     3
370
    40
100
AcDbLine
 10
208.3636363636371
 20
182.7481354306739
 30
0.0
 11
208.3636363636369
 21
262.7481354306738
 31
0.0
  0
LINE
  5
293
330
1F
100
AcDbEntity
  8
GR1_01
 62
     3
370
    40
100
AcDbLine
 10
201.863636363637
 20
247.7481354306739
 30
0.0
 11
201.863636363637
 21
197.7481354306739
 31
0.0
  0
LINE
  5
294
330
1F
100
AcDbEntity
  8
GR1_01
 62
     3
370
    40
100
AcDbLine
 10
282.3636372324654
 20
218.7481354306739
 30
0.0
 11
256.3636363636371
 21
218.7481354306739
 31
0.0
  0
LINE
  5
295
330
1F
100
AcDbEntity
  8
GR1_01
 62
     3
370
    40
100
AcDbLine
 10
282.3636372324654
 20
226.748135430674
 30
0.0
 11
256.363636363637
 21
226.7481354306739
 31
0.0
  0
LINE
  5
296
330
1F
100
AcDbEntity
  8
GR1_01
 62
     3
370
    40
100
AcDbLine
 10
268.3636372324655
 20
220.1023804252701
 30
0.0
 11
268.3636372324654
 21
225.3938904360778
 31
0.0
  0
LINE
  5
297
330
1F
100
AcDbEntity
  8
GR1_01
 62
     3
370
    40
100
AcDbLine
 10
250.363636363637
 20
183.7481354306739
 30
0.0
 11
250.3636363636369
 21
261.7481354306739
 31
0.0
  0
LINE
  5
298
330
1F
100
AcDbEntity
  8
GR1_01
 62
     3
370
    40
100
AcDbLine
 10
249.363636363637
 20
182.7481354306739
 30
0.0
 11
208.363636363637
 21
182.7481354306739
 31
0.0
  0
LINE
  5
299
330
1F
100
AcDbEntity
  8
GR1_01
 62
     3
370
    40
100
AcDbLine
 10
249.3636363636369
 20
262.7481354306739
 30
0.0
 11
208.363636363637
 21
262.7481354306739
 31
0.0
  0
LINE
  5
29A
330
1F
100
AcDbEntity
  8
GR1_01
 62
     3
370
    40
100
AcDbLine
 10
256.363636363637
 20
208.748135430674
 30
0.0
 11
256.3636363636369
 21
236.7481354306739
 31
0.0
  0
LINE
  5
29B
330
1F
100
AcDbEntity
  8
GR1_01
 62
     3
370
    40
100
AcDbLine
 10
255.363636363637
 20
207.748135430674
 30
0.0
 11
250.363636363637
 21
207.7481354306739
 31
0.0
  0
ARC
  5
29C
330
1F
100
AcDbEntity
  8
GR1_01
 62
     3
370
    40
100
AcDbCircle
 10
249.3636363636369
 20
261.7481354306739
 30
0.0
 40
1.0
100
AcDbArc
 50
0.0
 51
90.0
  0
ARC
  5
29D
330
1F
100
AcDbEntity
  8
GR1_01
 62
     3
370
    40
100
AcDbCircle
 10
249.363636363637
 20
183.7481354306739
 30
0.0
 40
1.0
100
AcDbArc
 50
270.0
 51
0.0
  0
ARC
  5
29E
330
1F
100
AcDbEntity
  8
GR1_01
 62
     3
370
    40
100
AcDbCircle
 10
255.363636363637
 20
208.748135430674
 30
0.0
 40
1.0
100
AcDbArc
 50
270.0
 51
0.0
  0
ARC
  5
29F
330
1F
100
AcDbEntity
  8
GR1_01
 62
     3
370
    40
100
AcDbCircle
 10
255.363636363637
 20
236.7481354306739
 30
0.0
 40
1.0
100
AcDbArc
 50
0.0
 51
90.00000000000162
  0
LINE
  5
2A0
330
1F
100
AcDbEntity
  8
GR1_01
 62
     3
370
    40
100
AcDbLine
 10
208.363636363637
 20
182.7481354306739
 30
0.0
 11
208.3636363636369
 21
262.7481354306739
 31
0.0
  0
LINE
  5
2A1
330
1F
100
AcDbEntity
  8
GR1_01
 62
     3
370
    40
100
AcDbLine
 10
202.3636354211593
 20
185.0141260110528
 30
0.0
 11
200.9721386425571
 21
185.0870515593338
 31
0.0
  0
LINE
  5
2A2
330
1F
100
AcDbEntity
  8
GR1_01
 62
     3
370
    40
100
AcDbLine
 10
202.3636373061148
 20
194.0141260110527
 30
0.0
 11
200.9721404969658
 21
193.9412010456405
 31
0.0
  0
LINE
  5
2A3
330
1F
100
AcDbEntity
  8
GR1_01
 62
     3
370
    40
100
AcDbLine
 10
202.3636354211593
 20
185.0141260110528
 30
0.0
 11
202.3636373061148
 21
194.0141260110527
 31
0.0
  0
ARC
  5
2A4
330
1F
100
AcDbEntity
  8
GR1_01
 62
     3
370
    40
100
AcDbCircle
 10
201.0558765071898
 20
186.6848587974031
 30
0.0
 40
1.6
100
AcDbArc
 50
195.7859776410124
 51
266.9999879999995
  0
ARC
  5
2A5
330
1F
100
AcDbEntity
  8
GR1_01
 62
     3
370
    40
100
AcDbCircle
 10
201.0558776923106
 20
192.3433937724953
 30
0.0
 40
1.6
100
AcDbArc
 50
92.99998800000054
 51
164.2139983589876
  0
ARC
  5
2A6
330
1F
100
AcDbEntity
  8
GR1_01
 62
     3
370
    40
100
AcDbCircle
 10
211.0636363636368
 20
189.514124188929
 30
0.0
 40
12.0
100
AcDbArc
 50
164.2139983589876
 51
195.7859776410124
  0
LINE
  5
2A7
330
1F
100
AcDbEntity
  8
GR1_01
 62
     3
370
    40
100
AcDbLine
 10
255.3636358400382
 20
187.0141149107587
 30
0.0
 11
266.5636358400369
 21
187.0141125650362
 31
0.0
  0
LINE
  5
2A8
330
1F
100
AcDbEntity
  8
GR1_01
 62
     3
370
    40
100
AcDbLine
 10
255.3636368872357
 20
192.0141149107586
 30
0.0
 11
266.5636368872344
 21
192.0141125650361
 31
0.0
  0
LINE
  5
2A9
330
1F
100
AcDbEntity
  8
GR1_01
 62
     3
370
    40
100
AcDbLine
 10
267.3636360075885
 20
187.8141123974846
 30
0.0
 11
267.3636367196828
 21
191.2141123974845
 31
0.0
  0
LINE
  5
2AA
330
1F
100
AcDbEntity
  8
GR1_01
 62
     7
100
AcDbLine
 10
255.3636359447579
 20
187.5141149107587
 30
0.0
 11
267.0636359447566
 21
187.5141124603165
 31
0.0
  0
LINE
  5
2AB
330
1F
100
AcDbEntity
  8
GR1_01
 62
     7
100
AcDbLine
 10
255.3636367825159
 20
191.5141149107586
 30
0.0
 11
267.0636367825146
 21
191.5141124603164
 31
0.0
  0
LINE
  5
2AC
330
1F
100
AcDbEntity
  8
GR1_01
 62
     3
370
    40
100
AcDbLine
 10
267.3636367196828
 20
191.2141123974845
 30
0.0
 11
266.5636368872344
 21
192.0141125650361
 31
0.0
  0
LINE
  5
2AD
330
1F
100
AcDbEntity
  8
GR1_01
 62
     3
370
    40
100
AcDbLine
 10
266.5636358400369
 20
187.0141125650362
 30
0.0
 11
267.3636360075885
 21
187.8141123974846
 31
0.0
  0
LINE
  5
2AE
330
1F
100
AcDbEntity
  8
GR1_01
 62
     3
370
    40
100
AcDbLine
 10
266.5636358400369
 20
187.0141125650362
 30
0.0
 11
266.5636368872344
 21
192.0141125650361
 31
0.0
  0
LINE
  5
2AF
330
1F
100
AcDbEntity
  8
GR1_01
 62
     3
370
    40
100
AcDbLine
 10
202.3636354211592
 20
251.4821561118162
 30
0.0
 11
200.972138642557
 21
251.5550816600971
 31
0.0
  0
LINE
  5
2B0
330
1F
100
AcDbEntity
  8
GR1_01
 62
     3
370
    40
100
AcDbLine
 10
202.3636373061148
 20
260.482156111816
 30
0.0
 11
200.9721404969657
 21
260.409231146404
 31
0.0
  0
LINE
  5
2B1
330
1F
100
AcDbEntity
  8
GR1_01
 62
     3
370
    40
100
AcDbLine
 10
202.3636354211592
 20
251.4821561118162
 30
0.0
 11
202.3636373061148
 21
260.482156111816
 31
0.0
  0
ARC
  5
2B2
330
1F
100
AcDbEntity
  8
GR1_01
 62
     3
370
    40
100
AcDbCircle
 10
201.0558765071897
 20
253.1528888981665
 30
0.0
 40
1.6
100
AcDbArc
 50
195.7859776410124
 51
266.9999879999995
  0
ARC
  5
2B3
330
1F
100
AcDbEntity
  8
GR1_01
 62
     3
370
    40
100
AcDbCircle
 10
201.0558776923105
 20
258.8114238732587
 30
0.0
 40
1.6
100
AcDbArc
 50
92.99998800000054
 51
164.2139983589876
  0
ARC
  5
2B4
330
1F
100
AcDbEntity
  8
GR1_01
 62
     3
370
    40
100
AcDbCircle
 10
211.0636363636368
 20
255.9821542896924
 30
0.0
 40
12.0
100
AcDbArc
 50
164.2139983589876
 51
195.7859776410124
  0
LINE
  5
2B5
330
1F
100
AcDbEntity
  8
GR1_01
 62
     3
370
    40
100
AcDbLine
 10
255.3636363636369
 20
253.482145011522
 30
0.0
 11
266.5636358400368
 21
253.4821426657996
 31
0.0
  0
LINE
  5
2B6
330
1F
100
AcDbEntity
  8
GR1_01
 62
     3
370
    40
100
AcDbLine
 10
255.3636363636369
 20
258.4821450115222
 30
0.0
 11
266.5636368872343
 21
258.4821426657995
 31
0.0
  0
LINE
  5
2B7
330
1F
100
AcDbEntity
  8
GR1_01
 62
     3
370
    40
100
AcDbLine
 10
267.3636360075884
 20
254.282142498248
 30
0.0
 11
267.3636367196827
 21
257.6821424982479
 31
0.0
  0
LINE
  5
2B8
330
1F
100
AcDbEntity
  8
GR1_01
 62
     7
100
AcDbLine
 10
255.3636363636369
 20
253.982145011522
 30
0.0
 11
267.0636359447565
 21
253.9821425610799
 31
0.0
  0
LINE
  5
2B9
330
1F
100
AcDbEntity
  8
GR1_01
 62
     7
100
AcDbLine
 10
255.3636363636369
 20
257.9821450115221
 30
0.0
 11
267.0636367825145
 21
257.9821425610798
 31
0.0
  0
LINE
  5
2BA
330
1F
100
AcDbEntity
  8
GR1_01
 62
     3
370
    40
100
AcDbLine
 10
267.3636367196827
 20
257.6821424982479
 30
0.0
 11
266.5636368872343
 21
258.4821426657995
 31
0.0
  0
LINE
  5
2BB
330
1F
100
AcDbEntity
  8
GR1_01
 62
     3
370
    40
100
AcDbLine
 10
266.5636358400368
 20
253.4821426657996
 30
0.0
 11
267.3636360075884
 21
254.282142498248
 31
0.0
  0
LINE
  5
2BC
330
1F
100
AcDbEntity
  8
GR1_01
 62
     3
370
    40
100
AcDbLine
 10
266.5636358400368
 20
253.4821426657996
 30
0.0
 11
266.5636368872343
 21
258.4821426657995
 31
0.0
  0
LINE
  5
2BD
330
1F
100
AcDbEntity
  8
GR1_01
 62
     3
370
    40
100
AcDbLine
 10
251.3636363636369
 20
260.9821561556063
 30
0.0
 11
251.3636363636369
 21
250.9821561556063
 31
0.0
  0
LINE
  5
2BE
330
1F
100
AcDbEntity
  8
GR1_01
 62
     3
370
    40
100
AcDbLine
 10
251.3636363636369
 20
250.9821561556063
 30
0.0
 11
250.3636363636369
 21
250.9821561556063
 31
0.0
  0
LINE
  5
2BF
330
1F
100
AcDbEntity
  8
GR1_01
 62
     3
370
    40
100
AcDbLine
 10
250.3636363636369
 20
250.9821561556063
 30
0.0
 11
250.3636363636369
 21
260.9821561556063
 31
0.0
  0
LINE
  5
2C0
330
1F
100
AcDbEntity
  8
GR1_01
 62
     3
370
    40
100
AcDbLine
 10
250.3636363636369
 20
260.9821561556063
 30
0.0
 11
251.3636363636369
 21
260.9821561556063
 31
0.0
  0
LINE
  5
2C1
330
1F
100
AcDbEntity
  8
GR1_01
 62
     3
370
    40
100
AcDbLine
 10
251.3636374108346
 20
194.5141155669137
 30
0.0
 11
251.3636353164395
 21
184.5141155669139
 31
0.0
  0
LINE
  5
2C2
330
1F
100
AcDbEntity
  8
GR1_01
 62
     3
370
    40
100
AcDbLine
 10
251.3636353164395
 20
184.5141155669139
 30
0.0
 11
250.3636353164395
 21
184.5141157763534
 31
0.0
  0
LINE
  5
2C3
330
1F
100
AcDbEntity
  8
GR1_01
 62
     3
370
    40
100
AcDbLine
 10
250.3636353164395
 20
184.5141157763534
 30
0.0
 11
250.3636374108346
 21
194.5141157763532
 31
0.0
  0
LINE
  5
2C4
330
1F
100
AcDbEntity
  8
GR1_01
 62
     3
370
    40
100
AcDbLine
 10
250.3636374108346
 20
194.5141157763532
 30
0.0
 11
251.3636374108346
 21
194.5141155669137
 31
0.0
  0
LINE
  5
2C5
330
1F
100
AcDbEntity
  8
基準ﾚｲﾔｸﾞﾙｰﾌﾟ_01
370
    40
100
AcDbLine
 10
255.3636363636369
 20
259.9821561556064
 30
0.0
 11
255.3636363636369
 21
251.9821561556064
 31
0.0
  0
LINE
  5
2C6
330
1F
100
AcDbEntity
  8
基準ﾚｲﾔｸﾞﾙｰﾌﾟ_01
370
    40
100
AcDbLine
 10
255.3636363636369
 20
251.9821561556064
 30
0.0
 11
251.3636363636369
 21
251.9821561556064
 31
0.0
  0
LINE
  5
2C7
330
1F
100
AcDbEntity
  8
基準ﾚｲﾔｸﾞﾙｰﾌﾟ_01
370
    40
100
AcDbLine
 10
251.3636363636369
 20
251.9821561556064
 30
0.0
 11
251.3636363636369
 21
259.9821561556064
 31
0.0
  0
LINE
  5
2C8
330
1F
100
AcDbEntity
  8
基準ﾚｲﾔｸﾞﾙｰﾌﾟ_01
370
    40
100
AcDbLine
 10
251.3636363636369
 20
259.9821561556064
 30
0.0
 11
255.3636363636369
 21
259.9821561556064
 31
0.0
  0
LINE
  5
2C9
330
1F
100
AcDbEntity
  8
基準ﾚｲﾔｸﾞﾙｰﾌﾟ_01
370
    40
100
AcDbLine
 10
255.0063707737287
 20
255.9821561556064
 30
0.0
 11
251.3636363636369
 21
255.9821561556064
 31
0.0
  0
ARC
  5
2CA
330
1F
100
AcDbEntity
  8
基準ﾚｲﾔｸﾞﾙｰﾌﾟ_01
370
    40
100
AcDbCircle
 10
249.5869273573291
 20
257.9821561556064
 30
0.0
 40
5.77670900630777
100
AcDbArc
 50
339.743841999585
 51
20.25615800041498
  0
ARC
  5
2CB
330
1F
100
AcDbEntity
  8
基準ﾚｲﾔｸﾞﾙｰﾌﾟ_01
370
    40
100
AcDbCircle
 10
249.5869273573291
 20
253.9821561556064
 30
0.0
 40
5.77670900630777
100
AcDbArc
 50
339.743841999585
 51
20.25615800041498
  0
LINE
  5
2CC
330
1F
100
AcDbEntity
  8
GR1_01
 62
     3
370
    40
100
AcDbLine
 10
282.3636372324654
 20
218.7481354306739
 30
0.0
 11
282.3636372324654
 21
226.748135430674
 31
0.0
  0
LINE
  5
2CD
330
1F
100
AcDbEntity
  8
GR1_01
 62
     3
370
    40
100
AcDbLine
 10
255.3636363636371
 20
237.7481354306739
 30
0.0
 11
250.3636363636371
 21
237.748135430674
 31
0.0
  0
LINE
  5
2CE
330
1F
100
AcDbEntity
  8
基準ﾚｲﾔｸﾞﾙｰﾌﾟ_01
370
    40
100
AcDbLine
 10
282.3636372324654
 20
225.3938904360778
 30
0.0
 11
268.3636372324654
 21
225.3938904360778
 31
0.0
  0
LINE
  5
2CF
330
1F
100
AcDbEntity
  8
基準ﾚｲﾔｸﾞﾙｰﾌﾟ_01
370
    40
100
AcDbLine
 10
282.3636372324654
 20
220.1023804252701
 30
0.0
 11
268.3636372324654
 21
220.1023804252701
 31
0.0
  0
LINE
  5
2D0
330
1F
100
AcDbEntity
  8
作図レイヤ
 62
     7
370
    20
100
AcDbLine
 10
160.8636363636342
 20
202.748135430674
 30
0.0
 11
160.8636363636342
 21
242.748135430674
 31
0.0
  0
LINE
  5
2D1
330
1F
100
AcDbEntity
  8
作図レイヤ
 62
     7
370
    20
100
AcDbLine
 10
192.8636349603744
 20
202.748135430674
 30
0.0
 11
192.8636349603743
 21
242.7481354306739
 31
0.0
  0
LINE
  5
2D2
330
1F
100
AcDbEntity
  8
作図レイヤ
 62
     7
370
    20
100
AcDbLine
 10
191.8636349603744
 20
201.748135430674
 30
0.0
 11
161.8636363636342
 21
201.748135430674
 31
0.0
  0
LINE
  5
2D3
330
1F
100
AcDbEntity
  8
作図レイヤ
 62
     7
370
    20
100
AcDbLine
 10
191.8636349603743
 20
243.7481354306739
 30
0.0
 11
161.8636363636342
 21
243.748135430674
 31
0.0
  0
ARC
  5
2D4
330
1F
100
AcDbEntity
  8
作図レイヤ
 62
     7
370
    20
100
AcDbCircle
 10
161.8636363636342
 20
242.748135430674
 30
0.0
 40
1.0
100
AcDbArc
 50
90.0
 51
180.0
  0
ARC
  5
2D5
330
1F
100
AcDbEntity
  8
作図レイヤ
 62
     7
370
    20
100
AcDbCircle
 10
161.8636363636342
 20
202.748135430674
 30
0.0
 40
1.0
100
AcDbArc
 50
180.0
 51
270.0
  0
ARC
  5
2D6
330
1F
100
AcDbEntity
  8
作図レイヤ
 62
     7
370
    20
100
AcDbCircle
 10
191.8636349603744
 20
202.748135430674
 30
0.0
 40
1.0
100
AcDbArc
 50
270.0
 51
0.0
  0
ARC
  5
2D7
330
1F
100
AcDbEntity
  8
作図レイヤ
 62
     7
370
    20
100
AcDbCircle
 10
191.8636349603743
 20
242.7481354306739
 30
0.0
 40
1.0
100
AcDbArc
 50
0.0
 51
90.0
  0
TEXT
  5
2D8
330
1F
100
AcDbEntity
  8
作図レイヤ
 62
     7
370
    20
100
AcDbText
 10
175.1136322021484
 20
227.8321685791016
 30
0.0
 40
3.5
  1
ＮＰ
 50
270.0
 41
1.818181818181818
 51
10.0
  7
FX_VECTOR
 72
     5
 11
175.1136322021484
 21
217.8321685791016
 31
0.0
100
AcDbText
  0
LINE
  5
2D9
330
1F
100
AcDbEntity
  8
基準ﾚｲﾔｸﾞﾙｰﾌﾟ_01
 62
     7
100
AcDbLine
 10
268.3636372324654
 20
225.3938904360778
 30
0.0
 11
282.3636372324654
 21
220.1023804252701
 31
0.0
  0
LINE
  5
2DA
330
1F
100
AcDbEntity
  8
基準ﾚｲﾔｸﾞﾙｰﾌﾟ_01
 62
     7
100
AcDbLine
 10
268.3636372324655
 20
220.1023804252702
 30
0.0
 11
282.3636372324654
 21
225.3938904360778
 31
0.0
  0
LINE
  5
2DB
330
1F
100
AcDbEntity
  8
GR1_01
  6
一点鎖線
 62
     7
100
AcDbLine
 10
31.51199189167454
 20
140.3498949971076
 30
0.0
 11
20.1982833926898
 21
151.6636034960924
 31
0.0
  0
LINE
  5
2DC
330
1F
100
AcDbEntity
  8
GR1_01
 62
     3
370
    40
100
AcDbLine
 10
93.08915635794989
 20
72.77273053083232
 30
0.0
 11
25.08915635794989
 21
72.77273053083232
 31
0.0
  0
LINE
  5
2DD
330
1F
100
AcDbEntity
  8
GR1_01
 62
     3
370
    40
100
AcDbLine
 10
93.08915635794989
 20
152.7727305308323
 30
0.0
 11
25.08915635794989
 21
152.7727305308323
 31
0.0
  0
LINE
  5
2DE
330
1F
100
AcDbEntity
  8
GR1_01
 62
     3
370
    40
100
AcDbLine
 10
99.08915635794989
 20
146.7727305308323
 30
0.0
 11
99.08915635794989
 21
78.77273053083232
 31
0.0
  0
LINE
  5
2DF
330
1F
100
AcDbEntity
  8
GR1_01
 62
     3
370
    40
100
AcDbLine
 10
19.08915635794989
 20
146.7727305308323
 30
0.0
 11
19.08915635794989
 21
78.77273053083232
 31
0.0
  0
ARC
  5
2E0
330
1F
100
AcDbEntity
  8
GR1_01
  6
一点鎖線
 62
     7
100
AcDbCircle
 10
59.08915635794989
 20
112.7727305308322
 30
0.0
 40
47.00000000000001
100
AcDbArc
 50
125.2357153350537
 51
144.7642846649462
  0
LINE
  5
2E1
330
1F
100
AcDbEntity
  8
GR1_01
  6
一点鎖線
 62
     7
100
AcDbLine
 10
86.66632082422524
 20
140.3498949971076
 30
0.0
 11
97.98002932320998
 21
151.6636034960924
 31
0.0
  0
LINE
  5
2E2
330
1F
100
AcDbEntity
  8
GR1_01
  6
一点鎖線
 62
     7
100
AcDbLine
 10
31.51199189167454
 20
85.19556606455683
 30
0.0
 11
20.1982833926898
 21
73.88185756557203
 31
0.0
  0
LINE
  5
2E3
330
1F
100
AcDbEntity
  8
GR1_01
  6
一点鎖線
 62
     7
100
AcDbLine
 10
86.66632082422524
 20
85.19556606455683
 30
0.0
 11
97.98002932321003
 21
73.88185756557206
 31
0.0
  0
ARC
  5
2E4
330
1F
100
AcDbEntity
  8
GR1_01
  6
一点鎖線
 62
     7
100
AcDbCircle
 10
59.08915635794989
 20
112.7727305308321
 30
0.0
 40
47.00000000000001
100
AcDbArc
 50
305.2357153350537
 51
324.7642846649462
  0
ARC
  5
2E5
330
1F
100
AcDbEntity
  8
GR1_01
  6
一点鎖線
 62
     7
100
AcDbCircle
 10
59.08915635795012
 20
112.7727305308321
 30
0.0
 40
47.00000000000001
100
AcDbArc
 50
34.21344157550455
 51
54.7642846649466
  0
ARC
  5
2E6
330
1F
100
AcDbEntity
  8
GR1_01
  6
一点鎖線
 62
     7
100
AcDbCircle
 10
59.08915635795
 20
112.7727305308317
 30
0.0
 40
47.00000000000001
100
AcDbArc
 50
213.032677472305
 51
234.7642846649458
  0
ARC
  5
2E7
330
1F
100
AcDbEntity
  8
GR1_01
 62
     3
370
    40
100
AcDbCircle
 10
93.08915635794989
 20
146.7727305308323
 30
0.0
 40
6.0
100
AcDbArc
 50
0.0
 51
90.0
  0
ARC
  5
2E8
330
1F
100
AcDbEntity
  8
GR1_01
 62
     3
370
    40
100
AcDbCircle
 10
25.08915635794989
 20
146.7727305308323
 30
0.0
 40
6.0
100
AcDbArc
 50
90.0
 51
180.0
  0
ARC
  5
2E9
330
1F
100
AcDbEntity
  8
GR1_01
 62
     3
370
    40
100
AcDbCircle
 10
25.08915635794989
 20
78.77273053083232
 30
0.0
 40
6.0
100
AcDbArc
 50
180.0
 51
270.0
  0
ARC
  5
2EA
330
1F
100
AcDbEntity
  8
GR1_01
 62
     3
370
    40
100
AcDbCircle
 10
93.08915635794989
 20
78.77273053083232
 30
0.0
 40
6.0
100
AcDbArc
 50
270.0
 51
0.0
  0
CIRCLE
  5
2EB
330
1F
100
AcDbEntity
  8
GR1_01
 62
     3
370
    35
100
AcDbCircle
 10
25.85516910361208
 20
79.53870359497753
 30
0.0
 40
4.5
  0
ARC
  5
2EC
330
1F
100
AcDbEntity
  8
GR1_01
 62
     3
370
    35
100
AcDbCircle
 10
25.85516910361208
 20
79.53870359497753
 30
0.0
 40
2.397500038147
100
AcDbArc
 50
253.39843360359
 51
286.60159508366
  0
ARC
  5
2ED
330
1F
100
AcDbEntity
  8
GR1_01
 62
     3
370
    35
100
AcDbCircle
 10
25.85516910361208
 20
79.53870359497753
 30
0.0
 40
2.397500038147
100
AcDbArc
 50
163.39842426892
 51
196.60158574899
  0
ARC
  5
2EE
330
1F
100
AcDbEntity
  8
GR1_01
 62
     3
370
    35
100
AcDbCircle
 10
25.85516910361208
 20
79.53870359497753
 30
0.0
 40
2.397500038147
100
AcDbArc
 50
73.398442255008
 51
106.60157641433
  0
ARC
  5
2EF
330
1F
100
AcDbEntity
  8
GR1_01
 62
     3
370
    35
100
AcDbCircle
 10
25.85516910361208
 20
79.53870359497753
 30
0.0
 40
2.397500038147
100
AcDbArc
 50
343.3984156175
 51
16.60160441832998
  0
LINE
  5
2F0
330
1F
100
AcDbEntity
  8
GR1_01
 62
     3
370
    35
100
AcDbLine
 10
25.17017154502209
 20
80.90869871216753
 30
0.0
 11
25.17017154502209
 21
81.83626524048753
 31
0.0
  0
LINE
  5
2F1
330
1F
100
AcDbEntity
  8
GR1_01
 62
     3
370
    35
100
AcDbLine
 10
25.17017154502209
 20
78.16870847778753
 30
0.0
 11
25.17017154502209
 21
77.24114194946753
 31
0.0
  0
LINE
  5
2F2
330
1F
100
AcDbEntity
  8
GR1_01
 62
     3
370
    35
100
AcDbLine
 10
26.54016666220208
 20
80.90869871216753
 30
0.0
 11
26.54016666220208
 21
81.83626524048753
 31
0.0
  0
LINE
  5
2F3
330
1F
100
AcDbEntity
  8
GR1_01
 62
     3
370
    35
100
AcDbLine
 10
26.54016666220208
 20
78.16870847778753
 30
0.0
 11
26.54016666220208
 21
77.24114194946753
 31
0.0
  0
LINE
  5
2F4
330
1F
100
AcDbEntity
  8
GR1_01
 62
     3
370
    35
100
AcDbLine
 10
24.48517398642208
 20
78.85370603638754
 30
0.0
 11
23.55762271689208
 21
78.85370603638754
 31
0.0
  0
LINE
  5
2F5
330
1F
100
AcDbEntity
  8
GR1_01
 62
     3
370
    35
100
AcDbLine
 10
27.22516422080209
 20
78.85370603638754
 30
0.0
 11
28.15271549033208
 21
78.85370603638754
 31
0.0
  0
LINE
  5
2F6
330
1F
100
AcDbEntity
  8
GR1_01
 62
     3
370
    35
100
AcDbLine
 10
24.48517398642208
 20
80.22370115357754
 30
0.0
 11
23.55762271689208
 21
80.22370115357754
 31
0.0
  0
LINE
  5
2F7
330
1F
100
AcDbEntity
  8
GR1_01
 62
     3
370
    35
100
AcDbLine
 10
27.22516422080209
 20
80.22370115357754
 30
0.0
 11
28.15271549033208
 21
80.22370115357754
 31
0.0
  0
ARC
  5
2F8
330
1F
100
AcDbEntity
  8
GR1_01
 62
     3
370
    35
100
AcDbCircle
 10
24.48517398642208
 20
80.90869871216753
 30
0.0
 40
0.68500000238419
100
AcDbArc
 50
270.00000068325
 51
359.9426910704
  0
ARC
  5
2F9
330
1F
100
AcDbEntity
  8
GR1_01
 62
     3
370
    35
100
AcDbCircle
 10
27.22516422080209
 20
80.90869871216753
 30
0.0
 40
0.68500000238419
100
AcDbArc
 50
180.00000500896
 51
270.00000068325
  0
ARC
  5
2FA
330
1F
100
AcDbEntity
  8
GR1_01
 62
     3
370
    35
100
AcDbCircle
 10
27.22516422080209
 20
78.16870847778753
 30
0.0
 40
0.68500000238419
100
AcDbArc
 50
90.000009334667
 51
180.00000500896
  0
ARC
  5
2FB
330
1F
100
AcDbEntity
  8
GR1_01
 62
     3
370
    35
100
AcDbCircle
 10
24.48517398642208
 20
78.16870847778753
 30
0.0
 40
0.68500000238419
100
AcDbArc
 50
0.0
 51
90.000009334667
  0
CIRCLE
  5
2FC
330
1F
100
AcDbEntity
  8
GR1_01
 62
     3
370
    35
100
AcDbCircle
 10
92.32320653514772
 20
79.53870359497772
 30
0.0
 40
4.5
  0
ARC
  5
2FD
330
1F
100
AcDbEntity
  8
GR1_01
 62
     3
370
    35
100
AcDbCircle
 10
92.32320653514772
 20
79.53870359497772
 30
0.0
 40
2.397500038147
100
AcDbArc
 50
253.39843360359
 51
286.60159508366
  0
ARC
  5
2FE
330
1F
100
AcDbEntity
  8
GR1_01
 62
     3
370
    35
100
AcDbCircle
 10
92.32320653514772
 20
79.53870359497772
 30
0.0
 40
2.397500038147
100
AcDbArc
 50
163.39842426892
 51
196.60158574899
  0
ARC
  5
2FF
330
1F
100
AcDbEntity
  8
GR1_01
 62
     3
370
    35
100
AcDbCircle
 10
92.32320653514772
 20
79.53870359497772
 30
0.0
 40
2.397500038147
100
AcDbArc
 50
73.398442255008
 51
106.60157641433
  0
ARC
  5
300
330
1F
100
AcDbEntity
  8
GR1_01
 62
     3
370
    35
100
AcDbCircle
 10
92.32320653514772
 20
79.53870359497772
 30
0.0
 40
2.397500038147
100
AcDbArc
 50
343.3984156175
 51
16.60160441832998
  0
LINE
  5
301
330
1F
100
AcDbEntity
  8
GR1_01
 62
     3
370
    35
100
AcDbLine
 10
91.63820897655772
 20
80.90869871216772
 30
0.0
 11
91.63820897655772
 21
81.83626524048772
 31
0.0
  0
LINE
  5
302
330
1F
100
AcDbEntity
  8
GR1_01
 62
     3
370
    35
100
AcDbLine
 10
91.63820897655772
 20
78.16870847778772
 30
0.0
 11
91.63820897655772
 21
77.24114194946772
 31
0.0
  0
LINE
  5
303
330
1F
100
AcDbEntity
  8
GR1_01
 62
     3
370
    35
100
AcDbLine
 10
93.00820409373772
 20
80.90869871216772
 30
0.0
 11
93.00820409373772
 21
81.83626524048772
 31
0.0
  0
LINE
  5
304
330
1F
100
AcDbEntity
  8
GR1_01
 62
     3
370
    35
100
AcDbLine
 10
93.00820409373772
 20
78.16870847778772
 30
0.0
 11
93.00820409373772
 21
77.24114194946772
 31
0.0
  0
LINE
  5
305
330
1F
100
AcDbEntity
  8
GR1_01
 62
     3
370
    35
100
AcDbLine
 10
90.95321141795772
 20
78.85370603638772
 30
0.0
 11
90.02566014842772
 21
78.85370603638772
 31
0.0
  0
LINE
  5
306
330
1F
100
AcDbEntity
  8
GR1_01
 62
     3
370
    35
100
AcDbLine
 10
93.69320165233772
 20
78.85370603638772
 30
0.0
 11
94.62075292186772
 21
78.85370603638772
 31
0.0
  0
LINE
  5
307
330
1F
100
AcDbEntity
  8
GR1_01
 62
     3
370
    35
100
AcDbLine
 10
90.95321141795772
 20
80.22370115357772
 30
0.0
 11
90.02566014842772
 21
80.22370115357772
 31
0.0
  0
LINE
  5
308
330
1F
100
AcDbEntity
  8
GR1_01
 62
     3
370
    35
100
AcDbLine
 10
93.69320165233772
 20
80.22370115357772
 30
0.0
 11
94.62075292186772
 21
80.22370115357772
 31
0.0
  0
ARC
  5
309
330
1F
100
AcDbEntity
  8
GR1_01
 62
     3
370
    35
100
AcDbCircle
 10
90.95321141795772
 20
80.90869871216772
 30
0.0
 40
0.68500000238419
100
AcDbArc
 50
270.00000068325
 51
359.9426910704
  0
ARC
  5
30A
330
1F
100
AcDbEntity
  8
GR1_01
 62
     3
370
    35
100
AcDbCircle
 10
93.69320165233772
 20
80.90869871216772
 30
0.0
 40
0.68500000238419
100
AcDbArc
 50
180.00000500896
 51
270.00000068325
  0
ARC
  5
30B
330
1F
100
AcDbEntity
  8
GR1_01
 62
     3
370
    35
100
AcDbCircle
 10
93.69320165233772
 20
78.16870847778772
 30
0.0
 40
0.68500000238419
100
AcDbArc
 50
90.000009334667
 51
180.00000500896
  0
ARC
  5
30C
330
1F
100
AcDbEntity
  8
GR1_01
 62
     3
370
    35
100
AcDbCircle
 10
90.95321141795772
 20
78.16870847778772
 30
0.0
 40
0.68500000238419
100
AcDbArc
 50
0.0
 51
90.000009334667
  0
CIRCLE
  5
30D
330
1F
100
AcDbEntity
  8
GR1_01
 62
     3
370
    35
100
AcDbCircle
 10
92.32320653514772
 20
146.0067410265133
 30
0.0
 40
4.5
  0
ARC
  5
30E
330
1F
100
AcDbEntity
  8
GR1_01
 62
     3
370
    35
100
AcDbCircle
 10
92.32320653514772
 20
146.0067410265133
 30
0.0
 40
2.397500038147
100
AcDbArc
 50
253.39843360359
 51
286.60159508366
  0
ARC
  5
30F
330
1F
100
AcDbEntity
  8
GR1_01
 62
     3
370
    35
100
AcDbCircle
 10
92.32320653514772
 20
146.0067410265133
 30
0.0
 40
2.397500038147
100
AcDbArc
 50
163.39842426892
 51
196.60158574899
  0
ARC
  5
310
330
1F
100
AcDbEntity
  8
GR1_01
 62
     3
370
    35
100
AcDbCircle
 10
92.32320653514772
 20
146.0067410265133
 30
0.0
 40
2.397500038147
100
AcDbArc
 50
73.398442255008
 51
106.60157641433
  0
ARC
  5
311
330
1F
100
AcDbEntity
  8
GR1_01
 62
     3
370
    35
100
AcDbCircle
 10
92.32320653514772
 20
146.0067410265133
 30
0.0
 40
2.397500038147
100
AcDbArc
 50
343.3984156175
 51
16.60160441832998
  0
LINE
  5
312
330
1F
100
AcDbEntity
  8
GR1_01
 62
     3
370
    35
100
AcDbLine
 10
91.63820897655772
 20
147.3767361437033
 30
0.0
 11
91.63820897655772
 21
148.3043026720233
 31
0.0
  0
LINE
  5
313
330
1F
100
AcDbEntity
  8
GR1_01
 62
     3
370
    35
100
AcDbLine
 10
91.63820897655772
 20
144.6367459093233
 30
0.0
 11
91.63820897655772
 21
143.7091793810033
 31
0.0
  0
LINE
  5
314
330
1F
100
AcDbEntity
  8
GR1_01
 62
     3
370
    35
100
AcDbLine
 10
93.00820409373772
 20
147.3767361437033
 30
0.0
 11
93.00820409373772
 21
148.3043026720233
 31
0.0
  0
LINE
  5
315
330
1F
100
AcDbEntity
  8
GR1_01
 62
     3
370
    35
100
AcDbLine
 10
93.00820409373772
 20
144.6367459093233
 30
0.0
 11
93.00820409373772
 21
143.7091793810033
 31
0.0
  0
LINE
  5
316
330
1F
100
AcDbEntity
  8
GR1_01
 62
     3
370
    35
100
AcDbLine
 10
90.95321141795772
 20
145.3217434679233
 30
0.0
 11
90.02566014842772
 21
145.3217434679233
 31
0.0
  0
LINE
  5
317
330
1F
100
AcDbEntity
  8
GR1_01
 62
     3
370
    35
100
AcDbLine
 10
93.69320165233772
 20
145.3217434679233
 30
0.0
 11
94.62075292186772
 21
145.3217434679233
 31
0.0
  0
LINE
  5
318
330
1F
100
AcDbEntity
  8
GR1_01
 62
     3
370
    35
100
AcDbLine
 10
90.95321141795772
 20
146.6917385851133
 30
0.0
 11
90.02566014842772
 21
146.6917385851133
 31
0.0
  0
LINE
  5
319
330
1F
100
AcDbEntity
  8
GR1_01
 62
     3
370
    35
100
AcDbLine
 10
93.69320165233772
 20
146.6917385851133
 30
0.0
 11
94.62075292186772
 21
146.6917385851133
 31
0.0
  0
ARC
  5
31A
330
1F
100
AcDbEntity
  8
GR1_01
 62
     3
370
    35
100
AcDbCircle
 10
90.95321141795772
 20
147.3767361437033
 30
0.0
 40
0.68500000238419
100
AcDbArc
 50
270.00000068325
 51
359.9426910704
  0
ARC
  5
31B
330
1F
100
AcDbEntity
  8
GR1_01
 62
     3
370
    35
100
AcDbCircle
 10
93.69320165233772
 20
147.3767361437033
 30
0.0
 40
0.68500000238419
100
AcDbArc
 50
180.00000500896
 51
270.00000068325
  0
ARC
  5
31C
330
1F
100
AcDbEntity
  8
GR1_01
 62
     3
370
    35
100
AcDbCircle
 10
93.69320165233772
 20
144.6367459093233
 30
0.0
 40
0.68500000238419
100
AcDbArc
 50
90.000009334667
 51
180.00000500896
  0
ARC
  5
31D
330
1F
100
AcDbEntity
  8
GR1_01
 62
     3
370
    35
100
AcDbCircle
 10
90.95321141795772
 20
144.6367459093233
 30
0.0
 40
0.68500000238419
100
AcDbArc
 50
0.0
 51
90.000009334667
  0
CIRCLE
  5
31E
330
1F
100
AcDbEntity
  8
GR1_01
 62
     3
370
    35
100
AcDbCircle
 10
25.85516910361227
 20
146.0067410265133
 30
0.0
 40
4.5
  0
ARC
  5
31F
330
1F
100
AcDbEntity
  8
GR1_01
 62
     3
370
    35
100
AcDbCircle
 10
25.85516910361227
 20
146.0067410265133
 30
0.0
 40
2.397500038147
100
AcDbArc
 50
253.39843360359
 51
286.60159508366
  0
ARC
  5
320
330
1F
100
AcDbEntity
  8
GR1_01
 62
     3
370
    35
100
AcDbCircle
 10
25.85516910361227
 20
146.0067410265133
 30
0.0
 40
2.397500038147
100
AcDbArc
 50
163.39842426892
 51
196.60158574899
  0
ARC
  5
321
330
1F
100
AcDbEntity
  8
GR1_01
 62
     3
370
    35
100
AcDbCircle
 10
25.85516910361227
 20
146.0067410265133
 30
0.0
 40
2.397500038147
100
AcDbArc
 50
73.398442255008
 51
106.60157641433
  0
ARC
  5
322
330
1F
100
AcDbEntity
  8
GR1_01
 62
     3
370
    35
100
AcDbCircle
 10
25.85516910361227
 20
146.0067410265133
 30
0.0
 40
2.397500038147
100
AcDbArc
 50
343.3984156175
 51
16.60160441832998
  0
LINE
  5
323
330
1F
100
AcDbEntity
  8
GR1_01
 62
     3
370
    35
100
AcDbLine
 10
25.17017154502227
 20
147.3767361437033
 30
0.0
 11
25.17017154502227
 21
148.3043026720233
 31
0.0
  0
LINE
  5
324
330
1F
100
AcDbEntity
  8
GR1_01
 62
     3
370
    35
100
AcDbLine
 10
25.17017154502227
 20
144.6367459093233
 30
0.0
 11
25.17017154502227
 21
143.7091793810033
 31
0.0
  0
LINE
  5
325
330
1F
100
AcDbEntity
  8
GR1_01
 62
     3
370
    35
100
AcDbLine
 10
26.54016666220227
 20
147.3767361437033
 30
0.0
 11
26.54016666220227
 21
148.3043026720233
 31
0.0
  0
LINE
  5
326
330
1F
100
AcDbEntity
  8
GR1_01
 62
     3
370
    35
100
AcDbLine
 10
26.54016666220227
 20
144.6367459093233
 30
0.0
 11
26.54016666220227
 21
143.7091793810033
 31
0.0
  0
LINE
  5
327
330
1F
100
AcDbEntity
  8
GR1_01
 62
     3
370
    35
100
AcDbLine
 10
24.48517398642227
 20
145.3217434679233
 30
0.0
 11
23.55762271689227
 21
145.3217434679233
 31
0.0
  0
LINE
  5
328
330
1F
100
AcDbEntity
  8
GR1_01
 62
     3
370
    35
100
AcDbLine
 10
27.22516422080227
 20
145.3217434679233
 30
0.0
 11
28.15271549033227
 21
145.3217434679233
 31
0.0
  0
LINE
  5
329
330
1F
100
AcDbEntity
  8
GR1_01
 62
     3
370
    35
100
AcDbLine
 10
24.48517398642227
 20
146.6917385851133
 30
0.0
 11
23.55762271689227
 21
146.6917385851133
 31
0.0
  0
LINE
  5
32A
330
1F
100
AcDbEntity
  8
GR1_01
 62
     3
370
    35
100
AcDbLine
 10
27.22516422080227
 20
146.6917385851133
 30
0.0
 11
28.15271549033227
 21
146.6917385851133
 31
0.0
  0
ARC
  5
32B
330
1F
100
AcDbEntity
  8
GR1_01
 62
     3
370
    35
100
AcDbCircle
 10
24.48517398642227
 20
147.3767361437033
 30
0.0
 40
0.68500000238419
100
AcDbArc
 50
270.00000068325
 51
359.9426910704
  0
ARC
  5
32C
330
1F
100
AcDbEntity
  8
GR1_01
 62
     3
370
    35
100
AcDbCircle
 10
27.22516422080227
 20
147.3767361437033
 30
0.0
 40
0.68500000238419
100
AcDbArc
 50
180.00000500896
 51
270.00000068325
  0
ARC
  5
32D
330
1F
100
AcDbEntity
  8
GR1_01
 62
     3
370
    35
100
AcDbCircle
 10
27.22516422080227
 20
144.6367459093233
 30
0.0
 40
0.68500000238419
100
AcDbArc
 50
90.000009334667
 51
180.00000500896
  0
ARC
  5
32E
330
1F
100
AcDbEntity
  8
GR1_01
 62
     3
370
    35
100
AcDbCircle
 10
24.48517398642227
 20
144.6367459093233
 30
0.0
 40
0.68500000238419
100
AcDbArc
 50
0.0
 51
90.000009334667
  0
ENDSEC
  0
SECTION
  2
OBJECTS
  0
DICTIONARY
  5
C
330
0
100
AcDbDictionary
281
     1
  3
ACAD_GROUP
350
D
  3
ACAD_LAYOUT
350
1A
  3
ACAD_MATERIAL
350
3B
  3
ACAD_MLEADERSTYLE
350
331
  3
ACAD_MLINESTYLE
350
17
  3
ACAD_PLOTSETTINGS
350
19
  3
ACAD_PLOTSTYLENAME
350
E
  3
ACAD_VISUALSTYLE
350
2A
  3
AcDbVariableDictionary
350
32F
  0
DICTIONARY
  5
D
102
{ACAD_REACTORS
330
C
102
}
330
C
100
AcDbDictionary
281
     1
  0
DICTIONARY
  5
1A
102
{ACAD_REACTORS
330
C
102
}
330
C
100
AcDbDictionary
281
     1
  3
Layout1
350
1E
  3
Layout2
350
26
  3
Model
350
22
  0
DICTIONARY
  5
3B
102
{ACAD_REACTORS
330
C
102
}
330
C
100
AcDbDictionary
281
     1
  3
ByBlock
350
3D
  3
ByLayer
350
3C
  3
Global
350
3E
  0
DICTIONARY
  5
331
102
{ACAD_REACTORS
330
C
102
}
330
C
100
AcDbDictionary
281
     1
  0
DICTIONARY
  5
17
102
{ACAD_REACTORS
330
C
102
}
330
C
100
AcDbDictionary
281
     1
  3
Standard
350
18
  0
DICTIONARY
  5
19
102
{ACAD_REACTORS
330
C
102
}
330
C
100
AcDbDictionary
281
     1
  0
ACDBDICTIONARYWDFLT
  5
E
102
{ACAD_REACTORS
330
C
102
}
330
C
100
AcDbDictionary
281
     1
  3
Normal
350
F
100
AcDbDictionaryWithDefault
340
F
  0
DICTIONARY
  5
2A
102
{ACAD_REACTORS
330
C
102
}
330
C
100
AcDbDictionary
281
     1
  3
2dWireframe
350
2F
  3
3D Hidden
350
31
  3
3dWireframe
350
30
  3
Basic
350
32
  3
Brighten
350
36
  3
ColorChange
350
3A
  3
Conceptual
350
34
  3
Dim
350
35
  3
Facepattern
350
39
  3
Flat
350
2B
  3
FlatWithEdges
350
2C
  3
Gouraud
350
2D
  3
GouraudWithEdges
350
2E
  3
Linepattern
350
38
  3
Realistic
350
33
  3
Thicken
350
37
  0
DICTIONARY
  5
32F
102
{ACAD_REACTORS
330
C
102
}
330
C
100
AcDbDictionary
281
     1
  3
DIMASSOC
350
334
  3
HIDETEXT
350
335
  3
PSOLHEIGHT
350
333
  3
PSOLWIDTH
350
332
  0
LAYOUT
  5
1E
102
{ACAD_REACTORS
330
1A
102
}
330
1A
100
AcDbPlotSettings
  1

  2
none_device
  4

  6

 40
0.0
 41
0.0
 42
0.0
 43
0.0
 44
0.0
 45
0.0
 46
0.0
 47
0.0
 48
0.0
 49
0.0
140
0.0
141
0.0
142
1.0
143
1.0
 70
   688
 72
     0
 73
     0
 74
     5
  7

 75
    16
147
1.0
148
0.0
149
0.0
100
AcDbLayout
  1
Layout1
 70
     1
 71
     1
 10
0.0
 20
0.0
 11
420.0
 21
297.0
 12
0.0
 22
0.0
 32
0.0
 14
1.000000000000000E+20
 24
1.000000000000000E+20
 34
1.000000000000000E+20
 15
-1.000000000000000E+20
 25
-1.000000000000000E+20
 35
-1.000000000000000E+20
146
0.0
 13
0.0
 23
0.0
 33
0.0
 16
1.0
 26
0.0
 36
0.0
 17
0.0
 27
1.0
 37
0.0
 76
     0
330
1B
  0
LAYOUT
  5
26
102
{ACAD_REACTORS
330
1A
102
}
330
1A
100
AcDbPlotSettings
  1

  2
none_device
  4

  6

 40
0.0
 41
0.0
 42
0.0
 43
0.0
 44
0.0
 45
0.0
 46
0.0
 47
0.0
 48
0.0
 49
0.0
140
0.0
141
0.0
142
1.0
143
1.0
 70
   688
 72
     0
 73
     0
 74
     5
  7

 75
    16
147
1.0
148
0.0
149
0.0
100
AcDbLayout
  1
Layout2
 70
     1
 71
     2
 10
0.0
 20
0.0
 11
0.0
 21
0.0
 12
0.0
 22
0.0
 32
0.0
 14
0.0
 24
0.0
 34
0.0
 15
0.0
 25
0.0
 35
0.0
146
0.0
 13
0.0
 23
0.0
 33
0.0
 16
1.0
 26
0.0
 36
0.0
 17
0.0
 27
1.0
 37
0.0
 76
     0
330
23
  0
LAYOUT
  5
22
102
{ACAD_REACTORS
330
1A
102
}
330
1A
100
AcDbPlotSettings
  1

  2
none_device
  4

  6

 40
0.0
 41
0.0
 42
0.0
 43
0.0
 44
0.0
 45
0.0
 46
0.0
 47
0.0
 48
0.0
 49
0.0
140
0.0
141
0.0
142
1.0
143
1.0
 70
  1712
 72
     0
 73
     0
 74
     0
  7

 75
     0
147
1.0
148
0.0
149
0.0
100
AcDbLayout
  1
Model
 70
     1
 71
     0
 10
0.0
 20
0.0
 11
420.0
 21
297.0
 12
0.0
 22
0.0
 32
0.0
 14
0.0
 24
0.0
 34
0.0
 15
420.0
 25
297.0
 35
0.0
146
0.0
 13
0.0
 23
0.0
 33
0.0
 16
1.0
 26
0.0
 36
0.0
 17
0.0
 27
1.0
 37
0.0
 76
     0
330
1F
331
29
  0
MATERIAL
  5
3D
102
{ACAD_REACTORS
330
3B
102
}
102
{ACAD_XDICTIONARY
360
358
102
}
330
3B
100
AcDbMaterial
  1
ByBlock
  0
MATERIAL
  5
3C
102
{ACAD_REACTORS
330
3B
102
}
102
{ACAD_XDICTIONARY
360
356
102
}
330
3B
100
AcDbMaterial
  1
ByLayer
  0
MATERIAL
  5
3E
102
{ACAD_REACTORS
330
3B
102
}
102
{ACAD_XDICTIONARY
360
35A
102
}
330
3B
100
AcDbMaterial
  1
Global
  0
MLINESTYLE
  5
18
102
{ACAD_REACTORS
330
17
102
}
330
17
100
AcDbMlineStyle
  2
Standard
 70
     0
  3

 62
   256
 51
90.0
 52
90.0
 71
     2
 49
0.5
 62
   256
  6
BYLAYER
 49
-0.5
 62
   256
  6
BYLAYER
  0
ACDBPLACEHOLDER
  5
F
102
{ACAD_REACTORS
330
E
102
}
330
E
  0
VISUALSTYLE
  5
2F
102
{ACAD_REACTORS
330
2A
102
}
102
{ACAD_XDICTIONARY
360
33E
102
}
330
2A
100
AcDbVisualStyle
  2
2dWireframe
 70
     4
 71
     0
 72
     2
 73
     0
 90
        0
 40
-0.6
 41
-30.0
 62
     5
 63
     7
 74
     1
 91
        4
 64
     7
 65
   257
 75
     1
175
     1
 42
1.0
 92
        0
 66
   257
 43
1.0
 76
     1
 77
     6
 78
     2
 67
     7
 79
     5
170
     0
171
     0
290
     0
174
     0
 93
        1
 44
0.0
173
     0
291
     0
 45
0.0
1001
ACAD
1000
AcDbSavedByObjectVersion
1070
     0
  0
VISUALSTYLE
  5
31
102
{ACAD_REACTORS
330
2A
102
}
102
{ACAD_XDICTIONARY
360
342
102
}
330
2A
100
AcDbVisualStyle
  2
3D Hidden
 70
     6
 71
     1
 72
     2
 73
     2
 90
        0
 40
-0.6
 41
-30.0
 62
     5
 63
     7
 74
     2
 91
        2
 64
     7
 65
   257
 75
     2
175
     1
 42
40.0
 92
        0
 66
   257
 43
1.0
 76
     1
 77
     6
 78
     2
 67
     7
 79
     3
170
     0
171
     0
290
     0
174
     0
 93
        1
 44
0.0
173
     0
291
     0
 45
0.0
1001
ACAD
1000
AcDbSavedByObjectVersion
1070
     0
  0
VISUALSTYLE
  5
30
102
{ACAD_REACTORS
330
2A
102
}
102
{ACAD_XDICTIONARY
360
340
102
}
330
2A
100
AcDbVisualStyle
  2
3dWireframe
 70
     5
 71
     0
 72
     2
 73
     0
 90
        0
 40
-0.6
 41
-30.0
 62
     5
 63
     7
 74
     1
 91
        4
 64
     7
 65
   257
 75
     1
175
     1
 42
1.0
 92
        0
 66
   257
 43
1.0
 76
     1
 77
     6
 78
     2
 67
     7
 79
     5
170
     0
171
     0
290
     0
174
     0
 93
        1
 44
0.0
173
     0
291
     0
 45
0.0
1001
ACAD
1000
AcDbSavedByObjectVersion
1070
     0
  0
VISUALSTYLE
  5
32
102
{ACAD_REACTORS
330
2A
102
}
102
{ACAD_XDICTIONARY
360
344
102
}
330
2A
100
AcDbVisualStyle
  2
Basic
 70
     7
 71
     1
 72
     0
 73
     1
 90
        0
 40
-0.6
 41
-30.0
 62
     5
 63
     7
 74
     0
 91
        4
 64
     7
 65
   257
 75
     1
175
     1
 42
1.0
 92
        8
 66
     7
 43
1.0
 76
     1
 77
     6
 78
     2
 67
     7
 79
     5
170
     0
171
     0
290
     0
174
     0
 93
        1
 44
0.0
173
     0
291
     1
 45
0.0
1001
ACAD
1000
AcDbSavedByObjectVersion
1070
     0
  0
VISUALSTYLE
  5
36
102
{ACAD_REACTORS
330
2A
102
}
102
{ACAD_XDICTIONARY
360
34C
102
}
330
2A
100
AcDbVisualStyle
  2
Brighten
 70
    12
 71
     2
 72
     2
 73
     0
 90
        0
 40
-0.6
 41
-30.0
 62
     5
 63
     7
 74
     1
 91
        4
 64
     7
 65
   257
 75
     1
175
     1
 42
1.0
 92
        8
 66
     7
 43
1.0
 76
     1
 77
     6
 78
     2
 67
     7
 79
     5
170
     0
171
     0
290
     0
174
     0
 93
        1
 44
50.0
173
     0
291
     1
 45
0.0
1001
ACAD
1000
AcDbSavedByObjectVersion
1070
     0
  0
VISUALSTYLE
  5
3A
102
{ACAD_REACTORS
330
2A
102
}
102
{ACAD_XDICTIONARY
360
354
102
}
330
2A
100
AcDbVisualStyle
  2
ColorChange
 70
    16
 71
     2
 72
     2
 73
     3
 90
        0
 40
-0.6
 41
-30.0
 62
     5
 63
     8
 74
     1
 91
        4
 64
     7
 65
   257
 75
     1
175
     1
 42
1.0
 92
        8
 66
     8
 43
1.0
 76
     1
 77
     6
 78
     2
 67
     7
 79
     5
170
     0
171
     0
290
     0
174
     0
 93
        1
 44
0.0
173
     0
291
     1
 45
0.0
1001
ACAD
1000
AcDbSavedByObjectVersion
1070
     0
  0
VISUALSTYLE
  5
34
102
{ACAD_REACTORS
330
2A
102
}
102
{ACAD_XDICTIONARY
360
348
102
}
330
2A
100
AcDbVisualStyle
  2
Conceptual
 70
     9
 71
     3
 72
     2
 73
     0
 90
        0
 40
-0.6
 41
-30.0
 62
     5
 63
     7
 74
     2
 91
        2
 64
     7
 65
   257
 75
     1
175
     1
 42
40.0
 92
        8
 66
     7
 43
1.0
 76
     1
 77
     6
 78
     2
 67
     7
 79
     3
170
     0
171
     0
290
     0
174
     0
 93
        1
 44
0.0
173
     0
291
     0
 45
0.0
1001
ACAD
1000
AcDbSavedByObjectVersion
1070
     0
  0
VISUALSTYLE
  5
35
102
{ACAD_REACTORS
330
2A
102
}
102
{ACAD_XDICTIONARY
360
34A
102
}
330
2A
100
AcDbVisualStyle
  2
Dim
 70
    11
 71
     2
 72
     2
 73
     0
 90
        0
 40
-0.6
 41
-30.0
 62
     5
 63
     7
 74
     1
 91
        4
 64
     7
 65
   257
 75
     1
175
     1
 42
1.0
 92
        8
 66
     7
 43
1.0
 76
     1
 77
     6
 78
     2
 67
     7
 79
     5
170
     0
171
     0
290
     0
174
     0
 93
        1
 44
-50.0
173
     0
291
     1
 45
0.0
1001
ACAD
1000
AcDbSavedByObjectVersion
1070
     0
  0
VISUALSTYLE
  5
39
102
{ACAD_REACTORS
330
2A
102
}
102
{ACAD_XDICTIONARY
360
352
102
}
330
2A
100
AcDbVisualStyle
  2
Facepattern
 70
    15
 71
     2
 72
     2
 73
     0
 90
        0
 40
-0.6
 41
-30.0
 62
     5
 63
     7
 74
     1
 91
        4
 64
     7
 65
   257
 75
     1
175
     1
 42
1.0
 92
        8
 66
     7
 43
1.0
 76
     1
 77
     6
 78
     2
 67
     7
 79
     5
170
     0
171
     0
290
     0
174
     0
 93
        1
 44
0.0
173
     0
291
     1
 45
0.0
1001
ACAD
1000
AcDbSavedByObjectVersion
1070
     0
  0
VISUALSTYLE
  5
2B
102
{ACAD_REACTORS
330
2A
102
}
102
{ACAD_XDICTIONARY
360
336
102
}
330
2A
100
AcDbVisualStyle
  2
Flat
 70
     0
 71
     2
 72
     1
 73
     1
 90
        2
 40
-0.6
 41
30.0
 62
     5
 63
     7
 74
     0
 91
        4
 64
     7
 65
   257
 75
     1
175
     1
 42
1.0
 92
        8
 66
     7
 43
1.0
 76
     1
 77
     6
 78
     2
 67
     7
 79
     5
170
     0
171
     0
290
     0
174
     0
 93
       13
 44
0.0
173
     0
291
     1
 45
0.0
1001
ACAD
1000
AcDbSavedByObjectVersion
1070
     0
  0
VISUALSTYLE
  5
2C
102
{ACAD_REACTORS
330
2A
102
}
102
{ACAD_XDICTIONARY
360
338
102
}
330
2A
100
AcDbVisualStyle
  2
FlatWithEdges
 70
     1
 71
     2
 72
     1
 73
     1
 90
        2
 40
-0.6
 41
30.0
 62
     5
 63
     7
 74
     1
 91
        4
 64
     7
 65
   257
 75
     1
175
     1
 42
1.0
 92
        0
 66
   257
 43
1.0
 76
     1
 77
     6
 78
     2
 67
     7
 79
     5
170
     0
171
     0
290
     0
174
     0
 93
       13
 44
0.0
173
     0
291
     1
 45
0.0
1001
ACAD
1000
AcDbSavedByObjectVersion
1070
     0
  0
VISUALSTYLE
  5
2D
102
{ACAD_REACTORS
330
2A
102
}
102
{ACAD_XDICTIONARY
360
33A
102
}
330
2A
100
AcDbVisualStyle
  2
Gouraud
 70
     2
 71
     2
 72
     2
 73
     1
 90
        2
 40
-0.6
 41
30.0
 62
     5
 63
     7
 74
     0
 91
        4
 64
     7
 65
   257
 75
     1
175
     1
 42
1.0
 92
        0
 66
     7
 43
1.0
 76
     1
 77
     6
 78
     2
 67
     7
 79
     5
170
     0
171
     0
290
     0
174
     0
 93
       13
 44
0.0
173
     0
291
     1
 45
0.0
1001
ACAD
1000
AcDbSavedByObjectVersion
1070
     0
  0
VISUALSTYLE
  5
2E
102
{ACAD_REACTORS
330
2A
102
}
102
{ACAD_XDICTIONARY
360
33C
102
}
330
2A
100
AcDbVisualStyle
  2
GouraudWithEdges
 70
     3
 71
     2
 72
     2
 73
     1
 90
        2
 40
-0.6
 41
30.0
 62
     5
 63
     7
 74
     1
 91
        4
 64
     7
 65
   257
 75
     1
175
     1
 42
1.0
 92
        0
 66
   257
 43
1.0
 76
     1
 77
     6
 78
     2
 67
     7
 79
     5
170
     0
171
     0
290
     0
174
     0
 93
       13
 44
0.0
173
     0
291
     1
 45
0.0
1001
ACAD
1000
AcDbSavedByObjectVersion
1070
     0
  0
VISUALSTYLE
  5
38
102
{ACAD_REACTORS
330
2A
102
}
102
{ACAD_XDICTIONARY
360
350
102
}
330
2A
100
AcDbVisualStyle
  2
Linepattern
 70
    14
 71
     2
 72
     2
 73
     0
 90
        0
 40
-0.6
 41
-30.0
 62
     5
 63
     7
 74
     1
 91
        4
 64
     7
 65
   257
 75
     7
175
     7
 42
1.0
 92
        8
 66
     7
 43
1.0
 76
     1
 77
     6
 78
     2
 67
     7
 79
     5
170
     0
171
     0
290
     0
174
     0
 93
        1
 44
0.0
173
     0
291
     1
 45
0.0
1001
ACAD
1000
AcDbSavedByObjectVersion
1070
     0
  0
VISUALSTYLE
  5
33
102
{ACAD_REACTORS
330
2A
102
}
102
{ACAD_XDICTIONARY
360
346
102
}
330
2A
100
AcDbVisualStyle
  2
Realistic
 70
     8
 71
     2
 72
     2
 73
     0
 90
        0
 40
-0.6
 41
-30.0
 62
     5
 63
     7
 74
     1
 91
        0
 64
     7
 65
   257
 75
     1
175
     1
 42
1.0
 92
        8
 66
     8
 43
1.0
 76
     1
 77
     6
 78
     2
 67
     7
 79
     5
170
     0
171
     0
290
     0
174
     0
 93
       13
 44
0.0
173
     0
291
     0
 45
0.0
1001
ACAD
1000
AcDbSavedByObjectVersion
1070
     0
  0
VISUALSTYLE
  5
37
102
{ACAD_REACTORS
330
2A
102
}
102
{ACAD_XDICTIONARY
360
34E
102
}
330
2A
100
AcDbVisualStyle
  2
Thicken
 70
    13
 71
     2
 72
     2
 73
     0
 90
        0
 40
-0.6
 41
-30.0
 62
     5
 63
     7
 74
     1
 91
        4
 64
     7
 65
   257
 75
     1
175
     1
 42
1.0
 92
       12
 66
     7
 43
1.0
 76
     1
 77
     6
 78
     2
 67
     7
 79
     5
170
     0
171
     0
290
     0
174
     0
 93
        1
 44
0.0
173
     0
291
     1
 45
0.0
1001
ACAD
1000
AcDbSavedByObjectVersion
1070
     0
  0
DICTIONARYVAR
  5
334
102
{ACAD_REACTORS
330
32F
102
}
330
32F
100
DictionaryVariables
280
     0
  1
2
  0
DICTIONARYVAR
  5
335
102
{ACAD_REACTORS
330
32F
102
}
330
32F
100
DictionaryVariables
280
     0
  1
1
  0
DICTIONARYVAR
  5
333
102
{ACAD_REACTORS
330
32F
102
}
330
32F
100
DictionaryVariables
280
     0
  1
80.000000
  0
DICTIONARYVAR
  5
332
102
{ACAD_REACTORS
330
32F
102
}
330
32F
100
DictionaryVariables
280
     0
  1
5.000000
  0
DICTIONARY
  5
358
330
3D
100
AcDbDictionary
280
     1
281
     1
  3
ACAD_XREC_ROUNDTRIP
360
359
  0
DICTIONARY
  5
356
330
3C
100
AcDbDictionary
280
     1
281
     1
  3
ACAD_XREC_ROUNDTRIP
360
357
  0
DICTIONARY
  5
35A
330
3E
100
AcDbDictionary
280
     1
281
     1
  3
ACAD_XREC_ROUNDTRIP
360
35B
  0
DICTIONARY
  5
33E
330
2F
100
AcDbDictionary
280
     1
281
     1
  3
ACAD_XREC_ROUNDTRIP
360
33F
  0
DICTIONARY
  5
342
330
31
100
AcDbDictionary
280
     1
281
     1
  3
ACAD_XREC_ROUNDTRIP
360
343
  0
DICTIONARY
  5
340
330
30
100
AcDbDictionary
280
     1
281
     1
  3
ACAD_XREC_ROUNDTRIP
360
341
  0
DICTIONARY
  5
344
330
32
100
AcDbDictionary
280
     1
281
     1
  3
ACAD_XREC_ROUNDTRIP
360
345
  0
DICTIONARY
  5
34C
330
36
100
AcDbDictionary
280
     1
281
     1
  3
ACAD_XREC_ROUNDTRIP
360
34D
  0
DICTIONARY
  5
354
330
3A
100
AcDbDictionary
280
     1
281
     1
  3
ACAD_XREC_ROUNDTRIP
360
355
  0
DICTIONARY
  5
348
330
34
100
AcDbDictionary
280
     1
281
     1
  3
ACAD_XREC_ROUNDTRIP
360
349
  0
DICTIONARY
  5
34A
330
35
100
AcDbDictionary
280
     1
281
     1
  3
ACAD_XREC_ROUNDTRIP
360
34B
  0
DICTIONARY
  5
352
330
39
100
AcDbDictionary
280
     1
281
     1
  3
ACAD_XREC_ROUNDTRIP
360
353
  0
DICTIONARY
  5
336
330
2B
100
AcDbDictionary
280
     1
281
     1
  3
ACAD_XREC_ROUNDTRIP
360
337
  0
DICTIONARY
  5
338
330
2C
100
AcDbDictionary
280
     1
281
     1
  3
ACAD_XREC_ROUNDTRIP
360
339
  0
DICTIONARY
  5
33A
330
2D
100
AcDbDictionary
280
     1
281
     1
  3
ACAD_XREC_ROUNDTRIP
360
33B
  0
DICTIONARY
  5
33C
330
2E
100
AcDbDictionary
280
     1
281
     1
  3
ACAD_XREC_ROUNDTRIP
360
33D
  0
DICTIONARY
  5
350
330
38
100
AcDbDictionary
280
     1
281
     1
  3
ACAD_XREC_ROUNDTRIP
360
351
  0
DICTIONARY
  5
346
330
33
100
AcDbDictionary
280
     1
281
     1
  3
ACAD_XREC_ROUNDTRIP
360
347
  0
DICTIONARY
  5
34E
330
37
100
AcDbDictionary
280
     1
281
     1
  3
ACAD_XREC_ROUNDTRIP
360
34F
  0
XRECORD
  5
359
102
{ACAD_REACTORS
330
358
102
}
330
358
100
AcDbXrecord
280
     1
102
MATERIAL
148
0.0
149
0.0
149
0.0
 93
        0
 94
      127
282
     0
 72
     1
 77
     1
171
     1
175
     1
179
     1
273
     0
  0
XRECORD
  5
357
102
{ACAD_REACTORS
330
356
102
}
330
356
100
AcDbXrecord
280
     1
102
MATERIAL
148
0.0
149
0.0
149
0.0
 93
        0
 94
      127
282
     0
 72
     1
 77
     1
171
     1
175
     1
179
     1
273
     0
  0
XRECORD
  5
35B
102
{ACAD_REACTORS
330
35A
102
}
330
35A
100
AcDbXrecord
280
     1
102
MATERIAL
148
0.0
149
0.0
149
0.0
 93
        0
 94
      127
282
     0
 72
     1
 77
     1
171
     1
175
     1
179
     1
273
     0
  0
XRECORD
  5
33F
102
{ACAD_REACTORS
330
33E
102
}
330
33E
100
AcDbXrecord
280
     1
102
RTVSPropertyOp0
 70
     1
102
RTVSPropertyOp1
 70
     1
102
RTVSPropertyOp2
 70
     1
102
RTVSPropertyOp3
 70
     1
102
RTVSPropertyOp4
 70
     1
102
RTVSPropertyOp5
 70
     1
102
RTVSPropertyOp6
 70
     1
102
RTVSPropertyOp7
 70
     1
102
RTVSPropertyOp8
 70
     1
102
RTVSPropertyOp9
 70
     1
102
RTVSPropertyOp10
 70
     1
102
RTVSPropertyOp11
 70
     1
102
RTVSPropertyOp12
 70
     1
102
RTVSPropertyOp13
 70
     1
102
RTVSPropertyOp14
 70
     1
102
RTVSPropertyOp15
 70
     1
102
RTVSPropertyOp16
 70
     1
102
RTVSPropertyOp17
 70
     1
102
RTVSPropertyOp18
 70
     1
102
RTVSPropertyOp19
 70
     1
102
RTVSPropertyOp20
 70
     1
102
RTVSPropertyOp21
 70
     1
102
RTVSPropertyOp22
 70
     1
102
RTVSPropertyOp23
 70
     1
102
RTVSPropertyOp24
 70
     1
102
RTVSPropertyOp25
 70
     1
102
RTVSPropertyOp26
 70
     1
102
RTVSPropertyOp27
 70
     1
  0
XRECORD
  5
343
102
{ACAD_REACTORS
330
342
102
}
330
342
100
AcDbXrecord
280
     1
102
RTVSPropertyOp0
 70
     1
102
RTVSPropertyOp1
 70
     1
102
RTVSPropertyOp2
 70
     1
102
RTVSPropertyOp3
 70
     1
102
RTVSPropertyOp4
 70
     1
102
RTVSPropertyOp5
 70
     1
102
RTVSPropertyOp6
 70
     1
102
RTVSPropertyOp7
 70
     1
102
RTVSPropertyOp8
 70
     1
102
RTVSPropertyOp9
 70
     1
102
RTVSPropertyOp10
 70
     1
102
RTVSPropertyOp11
 70
     1
102
RTVSPropertyOp12
 70
     1
102
RTVSPropertyOp13
 70
     1
102
RTVSPropertyOp14
 70
     1
102
RTVSPropertyOp15
 70
     1
102
RTVSPropertyOp16
 70
     1
102
RTVSPropertyOp17
 70
     1
102
RTVSPropertyOp18
 70
     1
102
RTVSPropertyOp19
 70
     1
102
RTVSPropertyOp20
 70
     1
102
RTVSPropertyOp21
 70
     1
102
RTVSPropertyOp22
 70
     1
102
RTVSPropertyOp23
 70
     1
102
RTVSPropertyOp24
 70
     1
102
RTVSPropertyOp25
 70
     1
102
RTVSPropertyOp26
 70
     1
102
RTVSPropertyOp27
 70
     1
  0
XRECORD
  5
341
102
{ACAD_REACTORS
330
340
102
}
330
340
100
AcDbXrecord
280
     1
102
RTVSPropertyOp0
 70
     1
102
RTVSPropertyOp1
 70
     1
102
RTVSPropertyOp2
 70
     1
102
RTVSPropertyOp3
 70
     1
102
RTVSPropertyOp4
 70
     1
102
RTVSPropertyOp5
 70
     1
102
RTVSPropertyOp6
 70
     1
102
RTVSPropertyOp7
 70
     1
102
RTVSPropertyOp8
 70
     1
102
RTVSPropertyOp9
 70
     1
102
RTVSPropertyOp10
 70
     1
102
RTVSPropertyOp11
 70
     1
102
RTVSPropertyOp12
 70
     1
102
RTVSPropertyOp13
 70
     1
102
RTVSPropertyOp14
 70
     1
102
RTVSPropertyOp15
 70
     1
102
RTVSPropertyOp16
 70
     1
102
RTVSPropertyOp17
 70
     1
102
RTVSPropertyOp18
 70
     1
102
RTVSPropertyOp19
 70
     1
102
RTVSPropertyOp20
 70
     1
102
RTVSPropertyOp21
 70
     1
102
RTVSPropertyOp22
 70
     1
102
RTVSPropertyOp23
 70
     1
102
RTVSPropertyOp24
 70
     1
102
RTVSPropertyOp25
 70
     1
102
RTVSPropertyOp26
 70
     1
102
RTVSPropertyOp27
 70
     1
  0
XRECORD
  5
345
102
{ACAD_REACTORS
330
344
102
}
330
344
100
AcDbXrecord
280
     1
102
RTVSPropertyOp0
 70
     1
102
RTVSPropertyOp1
 70
     1
102
RTVSPropertyOp2
 70
     1
102
RTVSPropertyOp3
 70
     1
102
RTVSPropertyOp4
 70
     1
102
RTVSPropertyOp5
 70
     1
102
RTVSPropertyOp6
 70
     1
102
RTVSPropertyOp7
 70
     1
102
RTVSPropertyOp8
 70
     1
102
RTVSPropertyOp9
 70
     1
102
RTVSPropertyOp10
 70
     1
102
RTVSPropertyOp11
 70
     1
102
RTVSPropertyOp12
 70
     1
102
RTVSPropertyOp13
 70
     1
102
RTVSPropertyOp14
 70
     1
102
RTVSPropertyOp15
 70
     1
102
RTVSPropertyOp16
 70
     1
102
RTVSPropertyOp17
 70
     1
102
RTVSPropertyOp18
 70
     1
102
RTVSPropertyOp19
 70
     1
102
RTVSPropertyOp20
 70
     1
102
RTVSPropertyOp21
 70
     1
102
RTVSPropertyOp22
 70
     1
102
RTVSPropertyOp23
 70
     1
102
RTVSPropertyOp24
 70
     1
102
RTVSPropertyOp25
 70
     1
102
RTVSPropertyOp26
 70
     1
102
RTVSPropertyOp27
 70
     1
  0
XRECORD
  5
34D
102
{ACAD_REACTORS
330
34C
102
}
330
34C
100
AcDbXrecord
280
     1
102
RTVSPropertyOp0
 70
     1
102
RTVSPropertyOp1
 70
     1
102
RTVSPropertyOp2
 70
     1
102
RTVSPropertyOp3
 70
     1
102
RTVSPropertyOp4
 70
     1
102
RTVSPropertyOp5
 70
     1
102
RTVSPropertyOp6
 70
     1
102
RTVSPropertyOp7
 70
     1
102
RTVSPropertyOp8
 70
     1
102
RTVSPropertyOp9
 70
     1
102
RTVSPropertyOp10
 70
     1
102
RTVSPropertyOp11
 70
     1
102
RTVSPropertyOp12
 70
     1
102
RTVSPropertyOp13
 70
     1
102
RTVSPropertyOp14
 70
     1
102
RTVSPropertyOp15
 70
     1
102
RTVSPropertyOp16
 70
     1
102
RTVSPropertyOp17
 70
     1
102
RTVSPropertyOp18
 70
     1
102
RTVSPropertyOp19
 70
     1
102
RTVSPropertyOp20
 70
     1
102
RTVSPropertyOp21
 70
     1
102
RTVSPropertyOp22
 70
     1
102
RTVSPropertyOp23
 70
     1
102
RTVSPropertyOp24
 70
     1
102
RTVSPropertyOp25
 70
     1
102
RTVSPropertyOp26
 70
     1
102
RTVSPropertyOp27
 70
     1
  0
XRECORD
  5
355
102
{ACAD_REACTORS
330
354
102
}
330
354
100
AcDbXrecord
280
     1
102
RTVSPropertyOp0
 70
     1
102
RTVSPropertyOp1
 70
     1
102
RTVSPropertyOp2
 70
     1
102
RTVSPropertyOp3
 70
     1
102
RTVSPropertyOp4
 70
     1
102
RTVSPropertyOp5
 70
     1
102
RTVSPropertyOp6
 70
     1
102
RTVSPropertyOp7
 70
     1
102
RTVSPropertyOp8
 70
     1
102
RTVSPropertyOp9
 70
     1
102
RTVSPropertyOp10
 70
     1
102
RTVSPropertyOp11
 70
     1
102
RTVSPropertyOp12
 70
     1
102
RTVSPropertyOp13
 70
     1
102
RTVSPropertyOp14
 70
     1
102
RTVSPropertyOp15
 70
     1
102
RTVSPropertyOp16
 70
     1
102
RTVSPropertyOp17
 70
     1
102
RTVSPropertyOp18
 70
     1
102
RTVSPropertyOp19
 70
     1
102
RTVSPropertyOp20
 70
     1
102
RTVSPropertyOp21
 70
     1
102
RTVSPropertyOp22
 70
     1
102
RTVSPropertyOp23
 70
     1
102
RTVSPropertyOp24
 70
     1
102
RTVSPropertyOp25
 70
     1
102
RTVSPropertyOp26
 70
     1
102
RTVSPropertyOp27
 70
     1
  0
XRECORD
  5
349
102
{ACAD_REACTORS
330
348
102
}
330
348
100
AcDbXrecord
280
     1
102
RTVSPropertyOp0
 70
     1
102
RTVSPropertyOp1
 70
     1
102
RTVSPropertyOp2
 70
     1
102
RTVSPropertyOp3
 70
     1
102
RTVSPropertyOp4
 70
     1
102
RTVSPropertyOp5
 70
     1
102
RTVSPropertyOp6
 70
     1
102
RTVSPropertyOp7
 70
     1
102
RTVSPropertyOp8
 70
     1
102
RTVSPropertyOp9
 70
     1
102
RTVSPropertyOp10
 70
     1
102
RTVSPropertyOp11
 70
     1
102
RTVSPropertyOp12
 70
     1
102
RTVSPropertyOp13
 70
     1
102
RTVSPropertyOp14
 70
     1
102
RTVSPropertyOp15
 70
     1
102
RTVSPropertyOp16
 70
     1
102
RTVSPropertyOp17
 70
     1
102
RTVSPropertyOp18
 70
     1
102
RTVSPropertyOp19
 70
     1
102
RTVSPropertyOp20
 70
     1
102
RTVSPropertyOp21
 70
     1
102
RTVSPropertyOp22
 70
     1
102
RTVSPropertyOp23
 70
     1
102
RTVSPropertyOp24
 70
     1
102
RTVSPropertyOp25
 70
     1
102
RTVSPropertyOp26
 70
     1
102
RTVSPropertyOp27
 70
     1
  0
XRECORD
  5
34B
102
{ACAD_REACTORS
330
34A
102
}
330
34A
100
AcDbXrecord
280
     1
102
RTVSPropertyOp0
 70
     1
102
RTVSPropertyOp1
 70
     1
102
RTVSPropertyOp2
 70
     1
102
RTVSPropertyOp3
 70
     1
102
RTVSPropertyOp4
 70
     1
102
RTVSPropertyOp5
 70
     1
102
RTVSPropertyOp6
 70
     1
102
RTVSPropertyOp7
 70
     1
102
RTVSPropertyOp8
 70
     1
102
RTVSPropertyOp9
 70
     1
102
RTVSPropertyOp10
 70
     1
102
RTVSPropertyOp11
 70
     1
102
RTVSPropertyOp12
 70
     1
102
RTVSPropertyOp13
 70
     1
102
RTVSPropertyOp14
 70
     1
102
RTVSPropertyOp15
 70
     1
102
RTVSPropertyOp16
 70
     1
102
RTVSPropertyOp17
 70
     1
102
RTVSPropertyOp18
 70
     1
102
RTVSPropertyOp19
 70
     1
102
RTVSPropertyOp20
 70
     1
102
RTVSPropertyOp21
 70
     1
102
RTVSPropertyOp22
 70
     1
102
RTVSPropertyOp23
 70
     1
102
RTVSPropertyOp24
 70
     1
102
RTVSPropertyOp25
 70
     1
102
RTVSPropertyOp26
 70
     1
102
RTVSPropertyOp27
 70
     1
  0
XRECORD
  5
353
102
{ACAD_REACTORS
330
352
102
}
330
352
100
AcDbXrecord
280
     1
102
RTVSPropertyOp0
 70
     1
102
RTVSPropertyOp1
 70
     1
102
RTVSPropertyOp2
 70
     1
102
RTVSPropertyOp3
 70
     1
102
RTVSPropertyOp4
 70
     1
102
RTVSPropertyOp5
 70
     1
102
RTVSPropertyOp6
 70
     1
102
RTVSPropertyOp7
 70
     1
102
RTVSPropertyOp8
 70
     1
102
RTVSPropertyOp9
 70
     1
102
RTVSPropertyOp10
 70
     1
102
RTVSPropertyOp11
 70
     1
102
RTVSPropertyOp12
 70
     1
102
RTVSPropertyOp13
 70
     1
102
RTVSPropertyOp14
 70
     1
102
RTVSPropertyOp15
 70
     1
102
RTVSPropertyOp16
 70
     1
102
RTVSPropertyOp17
 70
     1
102
RTVSPropertyOp18
 70
     1
102
RTVSPropertyOp19
 70
     1
102
RTVSPropertyOp20
 70
     1
102
RTVSPropertyOp21
 70
     1
102
RTVSPropertyOp22
 70
     1
102
RTVSPropertyOp23
 70
     1
102
RTVSPropertyOp24
 70
     1
102
RTVSPropertyOp25
 70
     1
102
RTVSPropertyOp26
 70
     1
102
RTVSPropertyOp27
 70
     1
  0
XRECORD
  5
337
102
{ACAD_REACTORS
330
336
102
}
330
336
100
AcDbXrecord
280
     1
102
RTVSPropertyOp0
 70
     1
102
RTVSPropertyOp1
 70
     1
102
RTVSPropertyOp2
 70
     1
102
RTVSPropertyOp3
 70
     1
102
RTVSPropertyOp4
 70
     1
102
RTVSPropertyOp5
 70
     1
102
RTVSPropertyOp6
 70
     1
102
RTVSPropertyOp7
 70
     1
102
RTVSPropertyOp8
 70
     1
102
RTVSPropertyOp9
 70
     1
102
RTVSPropertyOp10
 70
     1
102
RTVSPropertyOp11
 70
     1
102
RTVSPropertyOp12
 70
     1
102
RTVSPropertyOp13
 70
     1
102
RTVSPropertyOp14
 70
     1
102
RTVSPropertyOp15
 70
     1
102
RTVSPropertyOp16
 70
     1
102
RTVSPropertyOp17
 70
     1
102
RTVSPropertyOp18
 70
     1
102
RTVSPropertyOp19
 70
     1
102
RTVSPropertyOp20
 70
     1
102
RTVSPropertyOp21
 70
     1
102
RTVSPropertyOp22
 70
     1
102
RTVSPropertyOp23
 70
     1
102
RTVSPropertyOp24
 70
     1
102
RTVSPropertyOp25
 70
     1
102
RTVSPropertyOp26
 70
     1
102
RTVSPropertyOp27
 70
     1
  0
XRECORD
  5
339
102
{ACAD_REACTORS
330
338
102
}
330
338
100
AcDbXrecord
280
     1
102
RTVSPropertyOp0
 70
     1
102
RTVSPropertyOp1
 70
     1
102
RTVSPropertyOp2
 70
     1
102
RTVSPropertyOp3
 70
     1
102
RTVSPropertyOp4
 70
     1
102
RTVSPropertyOp5
 70
     1
102
RTVSPropertyOp6
 70
     1
102
RTVSPropertyOp7
 70
     1
102
RTVSPropertyOp8
 70
     1
102
RTVSPropertyOp9
 70
     1
102
RTVSPropertyOp10
 70
     1
102
RTVSPropertyOp11
 70
     1
102
RTVSPropertyOp12
 70
     1
102
RTVSPropertyOp13
 70
     1
102
RTVSPropertyOp14
 70
     1
102
RTVSPropertyOp15
 70
     1
102
RTVSPropertyOp16
 70
     1
102
RTVSPropertyOp17
 70
     1
102
RTVSPropertyOp18
 70
     1
102
RTVSPropertyOp19
 70
     1
102
RTVSPropertyOp20
 70
     1
102
RTVSPropertyOp21
 70
     1
102
RTVSPropertyOp22
 70
     1
102
RTVSPropertyOp23
 70
     1
102
RTVSPropertyOp24
 70
     1
102
RTVSPropertyOp25
 70
     1
102
RTVSPropertyOp26
 70
     1
102
RTVSPropertyOp27
 70
     1
  0
XRECORD
  5
33B
102
{ACAD_REACTORS
330
33A
102
}
330
33A
100
AcDbXrecord
280
     1
102
RTVSPropertyOp0
 70
     1
102
RTVSPropertyOp1
 70
     1
102
RTVSPropertyOp2
 70
     1
102
RTVSPropertyOp3
 70
     1
102
RTVSPropertyOp4
 70
     1
102
RTVSPropertyOp5
 70
     1
102
RTVSPropertyOp6
 70
     1
102
RTVSPropertyOp7
 70
     1
102
RTVSPropertyOp8
 70
     1
102
RTVSPropertyOp9
 70
     1
102
RTVSPropertyOp10
 70
     1
102
RTVSPropertyOp11
 70
     1
102
RTVSPropertyOp12
 70
     1
102
RTVSPropertyOp13
 70
     1
102
RTVSPropertyOp14
 70
     1
102
RTVSPropertyOp15
 70
     1
102
RTVSPropertyOp16
 70
     1
102
RTVSPropertyOp17
 70
     1
102
RTVSPropertyOp18
 70
     1
102
RTVSPropertyOp19
 70
     1
102
RTVSPropertyOp20
 70
     1
102
RTVSPropertyOp21
 70
     1
102
RTVSPropertyOp22
 70
     1
102
RTVSPropertyOp23
 70
     1
102
RTVSPropertyOp24
 70
     1
102
RTVSPropertyOp25
 70
     1
102
RTVSPropertyOp26
 70
     1
102
RTVSPropertyOp27
 70
     1
  0
XRECORD
  5
33D
102
{ACAD_REACTORS
330
33C
102
}
330
33C
100
AcDbXrecord
280
     1
102
RTVSPropertyOp0
 70
     1
102
RTVSPropertyOp1
 70
     1
102
RTVSPropertyOp2
 70
     1
102
RTVSPropertyOp3
 70
     1
102
RTVSPropertyOp4
 70
     1
102
RTVSPropertyOp5
 70
     1
102
RTVSPropertyOp6
 70
     1
102
RTVSPropertyOp7
 70
     1
102
RTVSPropertyOp8
 70
     1
102
RTVSPropertyOp9
 70
     1
102
RTVSPropertyOp10
 70
     1
102
RTVSPropertyOp11
 70
     1
102
RTVSPropertyOp12
 70
     1
102
RTVSPropertyOp13
 70
     1
102
RTVSPropertyOp14
 70
     1
102
RTVSPropertyOp15
 70
     1
102
RTVSPropertyOp16
 70
     1
102
RTVSPropertyOp17
 70
     1
102
RTVSPropertyOp18
 70
     1
102
RTVSPropertyOp19
 70
     1
102
RTVSPropertyOp20
 70
     1
102
RTVSPropertyOp21
 70
     1
102
RTVSPropertyOp22
 70
     1
102
RTVSPropertyOp23
 70
     1
102
RTVSPropertyOp24
 70
     1
102
RTVSPropertyOp25
 70
     1
102
RTVSPropertyOp26
 70
     1
102
RTVSPropertyOp27
 70
     1
  0
XRECORD
  5
351
102
{ACAD_REACTORS
330
350
102
}
330
350
100
AcDbXrecord
280
     1
102
RTVSPropertyOp0
 70
     1
102
RTVSPropertyOp1
 70
     1
102
RTVSPropertyOp2
 70
     1
102
RTVSPropertyOp3
 70
     1
102
RTVSPropertyOp4
 70
     1
102
RTVSPropertyOp5
 70
     1
102
RTVSPropertyOp6
 70
     1
102
RTVSPropertyOp7
 70
     1
102
RTVSPropertyOp8
 70
     1
102
RTVSPropertyOp9
 70
     1
102
RTVSPropertyOp10
 70
     1
102
RTVSPropertyOp11
 70
     1
102
RTVSPropertyOp12
 70
     1
102
RTVSPropertyOp13
 70
     1
102
RTVSPropertyOp14
 70
     1
102
RTVSPropertyOp15
 70
     1
102
RTVSPropertyOp16
 70
     1
102
RTVSPropertyOp17
 70
     1
102
RTVSPropertyOp18
 70
     1
102
RTVSPropertyOp19
 70
     1
102
RTVSPropertyOp20
 70
     1
102
RTVSPropertyOp21
 70
     1
102
RTVSPropertyOp22
 70
     1
102
RTVSPropertyOp23
 70
     1
102
RTVSPropertyOp24
 70
     1
102
RTVSPropertyOp25
 70
     1
102
RTVSPropertyOp26
 70
     1
102
RTVSPropertyOp27
 70
     1
  0
XRECORD
  5
347
102
{ACAD_REACTORS
330
346
102
}
330
346
100
AcDbXrecord
280
     1
102
RTVSPropertyOp0
 70
     1
102
RTVSPropertyOp1
 70
     1
102
RTVSPropertyOp2
 70
     1
102
RTVSPropertyOp3
 70
     1
102
RTVSPropertyOp4
 70
     1
102
RTVSPropertyOp5
 70
     1
102
RTVSPropertyOp6
 70
     1
102
RTVSPropertyOp7
 70
     1
102
RTVSPropertyOp8
 70
     1
102
RTVSPropertyOp9
 70
     1
102
RTVSPropertyOp10
 70
     1
102
RTVSPropertyOp11
 70
     1
102
RTVSPropertyOp12
 70
     1
102
RTVSPropertyOp13
 70
     1
102
RTVSPropertyOp14
 70
     1
102
RTVSPropertyOp15
 70
     1
102
RTVSPropertyOp16
 70
     1
102
RTVSPropertyOp17
 70
     1
102
RTVSPropertyOp18
 70
     1
102
RTVSPropertyOp19
 70
     1
102
RTVSPropertyOp20
 70
     1
102
RTVSPropertyOp21
 70
     1
102
RTVSPropertyOp22
 70
     1
102
RTVSPropertyOp23
 70
     1
102
RTVSPropertyOp24
 70
     1
102
RTVSPropertyOp25
 70
     1
102
RTVSPropertyOp26
 70
     1
102
RTVSPropertyOp27
 70
     1
  0
XRECORD
  5
34F
102
{ACAD_REACTORS
330
34E
102
}
330
34E
100
AcDbXrecord
280
     1
102
RTVSPropertyOp0
 70
     1
102
RTVSPropertyOp1
 70
     1
102
RTVSPropertyOp2
 70
     1
102
RTVSPropertyOp3
 70
     1
102
RTVSPropertyOp4
 70
     1
102
RTVSPropertyOp5
 70
     1
102
RTVSPropertyOp6
 70
     1
102
RTVSPropertyOp7
 70
     1
102
RTVSPropertyOp8
 70
     1
102
RTVSPropertyOp9
 70
     1
102
RTVSPropertyOp10
 70
     1
102
RTVSPropertyOp11
 70
     1
102
RTVSPropertyOp12
 70
     1
102
RTVSPropertyOp13
 70
     1
102
RTVSPropertyOp14
 70
     1
102
RTVSPropertyOp15
 70
     1
102
RTVSPropertyOp16
 70
     1
102
RTVSPropertyOp17
 70
     1
102
RTVSPropertyOp18
 70
     1
102
RTVSPropertyOp19
 70
     1
102
RTVSPropertyOp20
 70
     1
102
RTVSPropertyOp21
 70
     1
102
RTVSPropertyOp22
 70
     1
102
RTVSPropertyOp23
 70
     1
102
RTVSPropertyOp24
 70
     1
102
RTVSPropertyOp25
 70
     1
102
RTVSPropertyOp26
 70
     1
102
RTVSPropertyOp27
 70
     1
  0
ENDSEC
  0
EOF
