  0
SECTION
  2
HEADER
  9
$ACADVER
  1
AC1015
  9
$ACADMAINTVER
 70
     6
  9
$DWGCODEPAGE
  3
ANSI_932
  9
$INSBASE
 10
0.0
 20
0.0
 30
0.0
  9
$EXTMIN
 10
0.0
 20
0.0
 30
0.0
  9
$EXTMAX
 10
420.0
 20
297.0
 30
0.0
  9
$LIMMIN
 10
0.0
 20
0.0
  9
$LIMMAX
 10
420.0
 20
297.0
  9
$ORTHOMODE
 70
     0
  9
$REGENMODE
 70
     1
  9
$FILLMODE
 70
     1
  9
$QTEXTMODE
 70
     0
  9
$MIRRTEXT
 70
     1
  9
$LTSCALE
 40
1.0
  9
$ATTMODE
 70
     1
  9
$TEXTSIZE
 40
0.2
  9
$TRACEWID
 40
1.0
  9
$TEXTSTYLE
  7
FX_VECTOR
  9
$CLAYER
  8
0
  9
$CELTYPE
  6
ByLayer
  9
$CECOLOR
 62
   256
  9
$CELTSCALE
 40
1.0
  9
$DISPSILH
 70
     0
  9
$DIMSCALE
 40
1.0
  9
$DIMASZ
 40
3.0
  9
$DIMEXO
 40
1.0
  9
$DIMDLI
 40
8.0
  9
$DIMRND
 40
0.0
  9
$DIMDLE
 40
5.0
  9
$DIMEXE
 40
1.0
  9
$DIMTP
 40
0.0
  9
$DIMTM
 40
0.0
  9
$DIMTXT
 40
3.5
  9
$DIMCEN
 40
2.5
  9
$DIMTSZ
 40
0.0
  9
$DIMTOL
 70
     0
  9
$DIMLIM
 70
     0
  9
$DIMTIH
 70
     0
  9
$DIMTOH
 70
     0
  9
$DIMSE1
 70
     0
  9
$DIMSE2
 70
     0
  9
$DIMTAD
 70
     1
  9
$DIMZIN
 70
     8
  9
$DIMBLK
  1

  9
$DIMASO
 70
     1
  9
$DIMSHO
 70
     1
  9
$DIMPOST
  1

  9
$DIMAPOST
  1

  9
$DIMALT
 70
     0
  9
$DIMALTD
 70
     3
  9
$DIMALTF
 40
0.03937
  9
$DIMLFAC
 40
1.0
  9
$DIMTOFL
 70
     1
  9
$DIMTVP
 40
0.0
  9
$DIMTIX
 70
     0
  9
$DIMSOXD
 70
     0
  9
$DIMSAH
 70
     1
  9
$DIMBLK1
  1
FXTIP_ARROW_S
  9
$DIMBLK2
  1
FXTIP_ARROW_E
  9
$DIMSTYLE
  2
FX_DIMINFO
  9
$DIMCLRD
 70
     7
  9
$DIMCLRE
 70
     7
  9
$DIMCLRT
 70
     7
  9
$DIMTFAC
 40
1.0
  9
$DIMGAP
 40
0.5
  9
$DIMJUST
 70
     0
  9
$DIMSD1
 70
     0
  9
$DIMSD2
 70
     0
  9
$DIMTOLJ
 70
     1
  9
$DIMTZIN
 70
     8
  9
$DIMALTZ
 70
     0
  9
$DIMALTTZ
 70
     0
  9
$DIMUPT
 70
     0
  9
$DIMDEC
 70
     4
  9
$DIMTDEC
 70
     2
  9
$DIMALTU
 70
     2
  9
$DIMALTTD
 70
     3
  9
$DIMTXSTY
  7
FX_VECTOR
  9
$DIMAUNIT
 70
     0
  9
$DIMADEC
 70
     4
  9
$DIMALTRND
 40
0.0
  9
$DIMAZIN
 70
     2
  9
$DIMDSEP
 70
    46
  9
$DIMATFIT
 70
     3
  9
$DIMFRAC
 70
     0
  9
$DIMLDRBLK
  1
FXTIP_ARROW_S
  9
$DIMLUNIT
 70
     2
  9
$DIMLWD
 70
    -2
  9
$DIMLWE
 70
    -2
  9
$DIMTMOVE
 70
     0
  9
$LUNITS
 70
     2
  9
$LUPREC
 70
     4
  9
$SKETCHINC
 40
1.0
  9
$FILLETRAD
 40
10.0
  9
$AUNITS
 70
     0
  9
$AUPREC
 70
     0
  9
$MENU
  1
.
  9
$ELEVATION
 40
0.0
  9
$PELEVATION
 40
0.0
  9
$THICKNESS
 40
0.0
  9
$LIMCHECK
 70
     0
  9
$CHAMFERA
 40
10.0
  9
$CHAMFERB
 40
10.0
  9
$CHAMFERC
 40
20.0
  9
$CHAMFERD
 40
0.0
  9
$SKPOLY
 70
     0
  9
$TDCREATE
 40
2456268.346242072
  9
$TDUCREATE
 40
2456267.971242072
  9
$TDUPDATE
 40
2456268.346249618
  9
$TDUUPDATE
 40
2456267.971249618
  9
$TDINDWG
 40
0.0000000116
  9
$TDUSRTIMER
 40
0.0000000116
  9
$USRTIMER
 70
     1
  9
$ANGBASE
 50
0.0
  9
$ANGDIR
 70
     0
  9
$PDMODE
 70
     0
  9
$PDSIZE
 40
0.0
  9
$PLINEWID
 40
0.0
  9
$SPLFRAME
 70
     0
  9
$SPLINETYPE
 70
     6
  9
$SPLINESEGS
 70
     8
  9
$HANDSEED
  5
4BC
  9
$SURFTAB1
 70
     6
  9
$SURFTAB2
 70
     6
  9
$SURFTYPE
 70
     6
  9
$SURFU
 70
     6
  9
$SURFV
 70
     6
  9
$UCSBASE
  2

  9
$UCSNAME
  2

  9
$UCSORG
 10
0.0
 20
0.0
 30
0.0
  9
$UCSXDIR
 10
1.0
 20
0.0
 30
0.0
  9
$UCSYDIR
 10
0.0
 20
1.0
 30
0.0
  9
$UCSORTHOREF
  2

  9
$UCSORTHOVIEW
 70
     0
  9
$UCSORGTOP
 10
0.0
 20
0.0
 30
0.0
  9
$UCSORGBOTTOM
 10
0.0
 20
0.0
 30
0.0
  9
$UCSORGLEFT
 10
0.0
 20
0.0
 30
0.0
  9
$UCSORGRIGHT
 10
0.0
 20
0.0
 30
0.0
  9
$UCSORGFRONT
 10
0.0
 20
0.0
 30
0.0
  9
$UCSORGBACK
 10
0.0
 20
0.0
 30
0.0
  9
$PUCSBASE
  2

  9
$PUCSNAME
  2

  9
$PUCSORG
 10
0.0
 20
0.0
 30
0.0
  9
$PUCSXDIR
 10
1.0
 20
0.0
 30
0.0
  9
$PUCSYDIR
 10
0.0
 20
1.0
 30
0.0
  9
$PUCSORTHOREF
  2

  9
$PUCSORTHOVIEW
 70
     0
  9
$PUCSORGTOP
 10
0.0
 20
0.0
 30
0.0
  9
$PUCSORGBOTTOM
 10
0.0
 20
0.0
 30
0.0
  9
$PUCSORGLEFT
 10
0.0
 20
0.0
 30
0.0
  9
$PUCSORGRIGHT
 10
0.0
 20
0.0
 30
0.0
  9
$PUCSORGFRONT
 10
0.0
 20
0.0
 30
0.0
  9
$PUCSORGBACK
 10
0.0
 20
0.0
 30
0.0
  9
$USERI1
 70
     0
  9
$USERI2
 70
     0
  9
$USERI3
 70
     0
  9
$USERI4
 70
     0
  9
$USERI5
 70
     0
  9
$USERR1
 40
0.0
  9
$USERR2
 40
0.0
  9
$USERR3
 40
0.0
  9
$USERR4
 40
0.0
  9
$USERR5
 40
0.0
  9
$WORLDVIEW
 70
     1
  9
$SHADEDGE
 70
     3
  9
$SHADEDIF
 70
    70
  9
$TILEMODE
 70
     1
  9
$MAXACTVP
 70
    64
  9
$PINSBASE
 10
0.0
 20
0.0
 30
0.0
  9
$PLIMCHECK
 70
     0
  9
$PEXTMIN
 10
1.000000000000000E+20
 20
1.000000000000000E+20
 30
1.000000000000000E+20
  9
$PEXTMAX
 10
-1.000000000000000E+20
 20
-1.000000000000000E+20
 30
-1.000000000000000E+20
  9
$PLIMMIN
 10
0.0
 20
0.0
  9
$PLIMMAX
 10
420.0
 20
297.0
  9
$UNITMODE
 70
     0
  9
$VISRETAIN
 70
     1
  9
$PLINEGEN
 70
     0
  9
$PSLTSCALE
 70
     1
  9
$TREEDEPTH
 70
  3020
  9
$CMLSTYLE
  2
Standard
  9
$CMLJUST
 70
     0
  9
$CMLSCALE
 40
20.0
  9
$PROXYGRAPHICS
 70
     1
  9
$MEASUREMENT
 70
     1
  9
$CELWEIGHT
370
    -1
  9
$ENDCAPS
280
     0
  9
$JOINSTYLE
280
     0
  9
$LWDISPLAY
290
     0
  9
$INSUNITS
 70
     4
  9
$HYPERLINKBASE
  1

  9
$STYLESHEET
  1

  9
$XEDIT
290
     1
  9
$CEPSNTYPE
380
     0
  9
$PSTYLEMODE
290
     1
  9
$FINGERPRINTGUID
  2
{B880CF11-25A1-4ED9-B8DF-756FCFE490DB}
  9
$VERSIONGUID
  2
{FAEB1C32-E019-11D5-929B-00C0DF256EC4}
  9
$EXTNAMES
290
     1
  9
$PSVPSCALE
 40
0.0
  9
$OLESTARTUP
290
     0
  0
ENDSEC
  0
SECTION
  2
CLASSES
  0
CLASS
  1
ACDBDICTIONARYWDFLT
  2
AcDbDictionaryWithDefault
  3
ObjectDBX Classes
 90
        0
280
     0
281
     0
  0
CLASS
  1
VISUALSTYLE
  2
AcDbVisualStyle
  3
ObjectDBX Classes
 90
     4095
280
     0
281
     0
  0
CLASS
  1
MATERIAL
  2
AcDbMaterial
  3
ObjectDBX Classes
 90
     1153
280
     0
281
     0
  0
CLASS
  1
SUN
  2
AcDbSun
  3
SCENEOE
 90
     1024
280
     0
281
     0
  0
CLASS
  1
DICTIONARYVAR
  2
AcDbDictionaryVar
  3
ObjectDBX Classes
 90
        0
280
     0
281
     0
  0
CLASS
  1
ACDBPLACEHOLDER
  2
AcDbPlaceHolder
  3
ObjectDBX Classes
 90
        0
280
     0
281
     0
  0
CLASS
  1
LAYOUT
  2
AcDbLayout
  3
ObjectDBX Classes
 90
        0
280
     0
281
     0
  0
ENDSEC
  0
SECTION
  2
TABLES
  0
TABLE
  2
VPORT
  5
8
330
0
100
AcDbSymbolTable
 70
     1
  0
VPORT
  5
29
330
8
100
AcDbSymbolTableRecord
100
AcDbViewportTableRecord
  2
*Active
 70
     0
 10
0.0
 20
0.0
 11
1.0
 21
1.0
 12
210.0
 22
148.5
 13
0.0
 23
0.0
 14
10.0
 24
10.0
 15
10.0
 25
10.0
 16
0.0
 26
0.0
 36
1.0
 17
0.0
 27
0.0
 37
0.0
 40
297.0
 41
1.414141414141414
 42
50.0
 43
0.0
 44
0.0
 50
0.0
 51
0.0
 71
     0
 72
   100
 73
     1
 74
     3
 75
     0
 76
     0
 77
     0
 78
     0
281
     0
 65
     1
110
0.0
120
0.0
130
0.0
111
1.0
121
0.0
131
0.0
112
0.0
122
1.0
132
0.0
 79
     0
146
0.0
  0
ENDTAB
  0
TABLE
  2
LTYPE
  5
5
330
0
100
AcDbSymbolTable
 70
     5
  0
LTYPE
  5
14
330
5
100
AcDbSymbolTableRecord
100
AcDbLinetypeTableRecord
  2
ByBlock
 70
     0
  3

 72
    65
 73
     0
 40
0.0
  0
LTYPE
  5
15
330
5
100
AcDbSymbolTableRecord
100
AcDbLinetypeTableRecord
  2
ByLayer
 70
     0
  3

 72
    65
 73
     0
 40
0.0
  0
LTYPE
  5
16
330
5
100
AcDbSymbolTableRecord
100
AcDbLinetypeTableRecord
  2
Continuous
 70
     0
  3
Continuous ___________________________________
 72
    65
 73
     0
 40
0.0
  0
LTYPE
  5
40
330
5
100
AcDbSymbolTableRecord
100
AcDbLinetypeTableRecord
  2
DASHDOT
 70
     0
  3
Dash dot __ . __ . __ . __ . __ . __ . __ . __
 72
    65
 73
     4
 40
13.0
 49
10.0
 74
     0
 49
-1.0
 74
     0
 49
1.0
 74
     0
 49
-1.0
 74
     0
  0
ENDTAB
  0
TABLE
  2
LAYER
  5
2
330
0
100
AcDbSymbolTable
 70
     9
  0
LAYER
  5
10
330
2
100
AcDbSymbolTableRecord
100
AcDbLayerTableRecord
  2
0
 70
     0
 62
     7
  6
Continuous
370
    -3
390
F
  0
LAYER
  5
B1
330
2
100
AcDbSymbolTableRecord
100
AcDbLayerTableRecord
  2
Defpoints
 70
     0
 62
     7
  6
Continuous
290
     0
370
    -3
390
F
  0
LAYER
  5
B3
330
2
100
AcDbSymbolTableRecord
100
AcDbLayerTableRecord
  2
基準ﾚｲﾔｸﾞﾙｰﾌﾟ_01
 70
     0
 62
     7
  6
Continuous
370
    -3
390
F
  0
LAYER
  5
187
330
2
100
AcDbSymbolTableRecord
100
AcDbLayerTableRecord
  2
GR1_01
 70
     0
 62
     7
  6
Continuous
370
    -3
390
F
  0
LAYER
  5
231
330
2
100
AcDbSymbolTableRecord
100
AcDbLayerTableRecord
  2
Layer1
 70
     0
 62
     7
  6
Continuous
370
    -3
390
F
  0
LAYER
  5
25B
330
2
100
AcDbSymbolTableRecord
100
AcDbLayerTableRecord
  2
LAYER007
 70
     0
 62
     7
  6
Continuous
370
    -3
390
F
  0
LAYER
  5
431
330
2
100
AcDbSymbolTableRecord
100
AcDbLayerTableRecord
  2
作図レイヤ
 70
     0
 62
     7
  6
Continuous
370
    -3
390
F
  0
ENDTAB
  0
TABLE
  2
STYLE
  5
3
330
0
100
AcDbSymbolTable
 70
     4
  0
STYLE
  5
11
330
3
100
AcDbSymbolTableRecord
100
AcDbTextStyleTableRecord
  2
Standard
 70
     0
 40
0.0
 41
1.0
 50
0.0
 71
     0
 42
2.5
  3
txt
  4

  0
STYLE
  5
46
330
3
100
AcDbSymbolTableRecord
100
AcDbTextStyleTableRecord
  2
FX_VECTOR
 70
     0
 40
0.0
 41
1.0
 50
0.0
 71
     0
 42
0.2
  3
MONOTXT.SHX
  4
BigFont.shx
1001
ACAD
1000

1071
    32770
  0
STYLE
  5
B2
330
3
100
AcDbSymbolTableRecord
100
AcDbTextStyleTableRecord
  2
DEFAULT
 70
     0
 40
0.0
 41
1.0
 50
0.0
 71
     0
 42
0.2
  3

  4

1001
ACAD
1000
ＭＳ ゴシック
1071
    32817
  0
STYLE
  5
164
330
3
100
AcDbSymbolTableRecord
100
AcDbTextStyleTableRecord
  2
ＭＳ ゴシック
 70
     0
 40
0.0
 41
1.0
 50
0.0
 71
     0
 42
0.2
  3

  4

1001
ACAD
1000
ＭＳ ゴシック
1071
    32817
  0
ENDTAB
  0
TABLE
  2
VIEW
  5
6
330
0
100
AcDbSymbolTable
 70
     0
  0
ENDTAB
  0
TABLE
  2
UCS
  5
7
330
0
100
AcDbSymbolTable
 70
     0
  0
ENDTAB
  0
TABLE
  2
APPID
  5
9
330
0
100
AcDbSymbolTable
 70
     1
  0
APPID
  5
12
330
9
100
AcDbSymbolTableRecord
100
AcDbRegAppTableRecord
  2
ACAD
 70
     0
  0
ENDTAB
  0
TABLE
  2
DIMSTYLE
  5
A
330
0
100
AcDbSymbolTable
 70
     2
100
AcDbDimStyleTable
  0
DIMSTYLE
105
27
330
A
100
AcDbSymbolTableRecord
100
AcDbDimStyleTableRecord
  2
ISO-25
 70
     0
 41
2.5
 42
0.625
 43
3.75
 44
1.25
 73
     0
 74
     0
 77
     1
 78
     8
140
2.5
141
2.5
143
0.03937007874016
147
0.625
171
     3
172
     1
178
     0
271
     2
272
     2
274
     3
278
    44
283
     0
284
     8
340
11
  0
DIMSTYLE
105
B0
330
A
100
AcDbSymbolTableRecord
100
AcDbDimStyleTableRecord
  2
FX_DIMINFO
 70
     0
 41
3.0
 42
1.0
 43
8.0
 44
1.0
 46
5.0
 73
     0
 74
     0
 77
     1
 78
     8
 79
     2
140
3.5
141
2.5
143
0.03937
147
0.5
171
     3
172
     1
173
     1
176
     7
177
     7
178
     7
179
     4
272
     2
274
     3
284
     8
340
46
341
4A
343
4A
344
50
  0
ENDTAB
  0
TABLE
  2
BLOCK_RECORD
  5
1
330
0
100
AcDbSymbolTable
 70
    53
  0
BLOCK_RECORD
  5
1F
330
1
100
AcDbSymbolTableRecord
100
AcDbBlockTableRecord
  2
*Model_Space
340
22
  0
BLOCK_RECORD
  5
1B
330
1
100
AcDbSymbolTableRecord
100
AcDbBlockTableRecord
  2
*Paper_Space
340
1E
  0
BLOCK_RECORD
  5
23
330
1
100
AcDbSymbolTableRecord
100
AcDbBlockTableRecord
  2
*Paper_Space0
340
26
  0
BLOCK_RECORD
  5
47
330
1
100
AcDbSymbolTableRecord
100
AcDbBlockTableRecord
  2
FXTIP_NONE
340
0
  0
BLOCK_RECORD
  5
4A
330
1
100
AcDbSymbolTableRecord
100
AcDbBlockTableRecord
  2
FXTIP_ARROW_S
340
0
102
{BLKREFS
331
1AA
331
1F1
331
1F7
331
1FD
331
203
331
20A
331
210
331
216
331
21E
331
223
331
228
331
22D
331
281
331
284
331
28F
331
291
331
298
331
29F
331
2AA
331
2B0
331
40F
331
411
331
481
102
}
  0
BLOCK_RECORD
  5
50
330
1
100
AcDbSymbolTableRecord
100
AcDbBlockTableRecord
  2
FXTIP_ARROW_E
340
0
102
{BLKREFS
331
1AB
331
1F2
331
1F8
331
1FE
331
204
331
20B
331
211
331
217
331
21F
331
229
331
22E
331
27F
331
285
331
28D
331
299
331
2A0
331
2AB
331
2B1
331
482
102
}
  0
BLOCK_RECORD
  5
56
330
1
100
AcDbSymbolTableRecord
100
AcDbBlockTableRecord
  2
FXTIP_BLACKDOT_S
340
0
  0
BLOCK_RECORD
  5
5C
330
1
100
AcDbSymbolTableRecord
100
AcDbBlockTableRecord
  2
FXTIP_BLACKDOT_E
340
0
  0
BLOCK_RECORD
  5
62
330
1
100
AcDbSymbolTableRecord
100
AcDbBlockTableRecord
  2
FXTIP_TRIANGLE_S
340
0
  0
BLOCK_RECORD
  5
69
330
1
100
AcDbSymbolTableRecord
100
AcDbBlockTableRecord
  2
FXTIP_TRIANGLE_E
340
0
  0
BLOCK_RECORD
  5
70
330
1
100
AcDbSymbolTableRecord
100
AcDbBlockTableRecord
  2
FXTIP_ARCHITECT_S
340
0
  0
BLOCK_RECORD
  5
76
330
1
100
AcDbSymbolTableRecord
100
AcDbBlockTableRecord
  2
FXTIP_ARCHITECT_E
340
0
  0
BLOCK_RECORD
  5
7C
330
1
100
AcDbSymbolTableRecord
100
AcDbBlockTableRecord
  2
FXTIP_CIVIL_S
340
0
  0
BLOCK_RECORD
  5
82
330
1
100
AcDbSymbolTableRecord
100
AcDbBlockTableRecord
  2
FXTIP_CIVIL_E
340
0
  0
BLOCK_RECORD
  5
88
330
1
100
AcDbSymbolTableRecord
100
AcDbBlockTableRecord
  2
FXTIP_WHITEDOT_S
340
0
  0
BLOCK_RECORD
  5
8D
330
1
100
AcDbSymbolTableRecord
100
AcDbBlockTableRecord
  2
FXTIP_WHITEDOT_E
340
0
  0
BLOCK_RECORD
  5
92
330
1
100
AcDbSymbolTableRecord
100
AcDbBlockTableRecord
  2
FXTIP_UPARROW_S
340
0
  0
BLOCK_RECORD
  5
97
330
1
100
AcDbSymbolTableRecord
100
AcDbBlockTableRecord
  2
FXTIP_UPARROW_E
340
0
  0
BLOCK_RECORD
  5
9C
330
1
100
AcDbSymbolTableRecord
100
AcDbBlockTableRecord
  2
FXTIP_DOWNARROW_S
340
0
  0
BLOCK_RECORD
  5
A1
330
1
100
AcDbSymbolTableRecord
100
AcDbBlockTableRecord
  2
FXTIP_DOWNARROW_E
340
0
  0
BLOCK_RECORD
  5
A6
330
1
100
AcDbSymbolTableRecord
100
AcDbBlockTableRecord
  2
FXTIP_BLACKTRIANGLE_S
340
0
  0
BLOCK_RECORD
  5
AB
330
1
100
AcDbSymbolTableRecord
100
AcDbBlockTableRecord
  2
FXTIP_BLACKTRIANGLE_E
340
0
  0
BLOCK_RECORD
  5
B7
330
1
100
AcDbSymbolTableRecord
100
AcDbBlockTableRecord
  2
BLKF023
340
0
102
{BLKREFS
331
BA
102
}
  0
BLOCK_RECORD
  5
E5
330
1
100
AcDbSymbolTableRecord
100
AcDbBlockTableRecord
  2
BLKF024
340
0
102
{BLKREFS
331
E8
102
}
  0
BLOCK_RECORD
  5
104
330
1
100
AcDbSymbolTableRecord
100
AcDbBlockTableRecord
  2
BLKF025
340
0
102
{BLKREFS
331
107
102
}
  0
BLOCK_RECORD
  5
10C
330
1
100
AcDbSymbolTableRecord
100
AcDbBlockTableRecord
  2
BLKF026
340
0
102
{BLKREFS
331
10F
102
}
  0
BLOCK_RECORD
  5
114
330
1
100
AcDbSymbolTableRecord
100
AcDbBlockTableRecord
  2
BLKF027
340
0
102
{BLKREFS
331
117
102
}
  0
BLOCK_RECORD
  5
11C
330
1
100
AcDbSymbolTableRecord
100
AcDbBlockTableRecord
  2
BLKF028
340
0
102
{BLKREFS
331
11F
102
}
  0
BLOCK_RECORD
  5
124
330
1
100
AcDbSymbolTableRecord
100
AcDbBlockTableRecord
  2
BLKF029
340
0
102
{BLKREFS
331
127
102
}
  0
BLOCK_RECORD
  5
12C
330
1
100
AcDbSymbolTableRecord
100
AcDbBlockTableRecord
  2
BLKF030
340
0
102
{BLKREFS
331
12F
102
}
  0
BLOCK_RECORD
  5
138
330
1
100
AcDbSymbolTableRecord
100
AcDbBlockTableRecord
  2
BLKF031
340
0
102
{BLKREFS
331
13B
102
}
  0
BLOCK_RECORD
  5
142
330
1
100
AcDbSymbolTableRecord
100
AcDbBlockTableRecord
  2
BLKF032
340
0
102
{BLKREFS
331
145
102
}
  0
BLOCK_RECORD
  5
19A
330
1
100
AcDbSymbolTableRecord
100
AcDbBlockTableRecord
  2
BLKF033
340
0
102
{BLKREFS
331
19D
102
}
  0
BLOCK_RECORD
  5
1B7
330
1
100
AcDbSymbolTableRecord
100
AcDbBlockTableRecord
  2
BLKF034
340
0
102
{BLKREFS
331
1BA
102
}
  0
BLOCK_RECORD
  5
1C6
330
1
100
AcDbSymbolTableRecord
100
AcDbBlockTableRecord
  2
BLKF035
340
0
102
{BLKREFS
331
1C9
102
}
  0
BLOCK_RECORD
  5
1D6
330
1
100
AcDbSymbolTableRecord
100
AcDbBlockTableRecord
  2
BLKF036
340
0
102
{BLKREFS
331
1D9
102
}
  0
BLOCK_RECORD
  5
265
330
1
100
AcDbSymbolTableRecord
100
AcDbBlockTableRecord
  2
BLKF037
340
0
102
{BLKREFS
331
268
102
}
  0
BLOCK_RECORD
  5
26C
330
1
100
AcDbSymbolTableRecord
100
AcDbBlockTableRecord
  2
BLKF038
340
0
102
{BLKREFS
331
26F
102
}
  0
BLOCK_RECORD
  5
2B9
330
1
100
AcDbSymbolTableRecord
100
AcDbBlockTableRecord
  2
BLKF039
340
0
102
{BLKREFS
331
2BC
102
}
  0
BLOCK_RECORD
  5
2CC
330
1
100
AcDbSymbolTableRecord
100
AcDbBlockTableRecord
  2
BLKF040
340
0
102
{BLKREFS
331
2CF
102
}
  0
BLOCK_RECORD
  5
2DE
330
1
100
AcDbSymbolTableRecord
100
AcDbBlockTableRecord
  2
BLKF041
340
0
102
{BLKREFS
331
2E1
102
}
  0
BLOCK_RECORD
  5
2F0
330
1
100
AcDbSymbolTableRecord
100
AcDbBlockTableRecord
  2
BLKF042
340
0
102
{BLKREFS
331
2F3
102
}
  0
BLOCK_RECORD
  5
303
330
1
100
AcDbSymbolTableRecord
100
AcDbBlockTableRecord
  2
BLKF043
340
0
102
{BLKREFS
331
306
102
}
  0
BLOCK_RECORD
  5
316
330
1
100
AcDbSymbolTableRecord
100
AcDbBlockTableRecord
  2
BLKF044
340
0
102
{BLKREFS
331
319
102
}
  0
BLOCK_RECORD
  5
322
330
1
100
AcDbSymbolTableRecord
100
AcDbBlockTableRecord
  2
BLKF045
340
0
102
{BLKREFS
331
325
102
}
  0
BLOCK_RECORD
  5
32E
330
1
100
AcDbSymbolTableRecord
100
AcDbBlockTableRecord
  2
BLKF046
340
0
102
{BLKREFS
331
331
102
}
  0
BLOCK_RECORD
  5
33A
330
1
100
AcDbSymbolTableRecord
100
AcDbBlockTableRecord
  2
BLKF047
340
0
102
{BLKREFS
331
33D
102
}
  0
BLOCK_RECORD
  5
346
330
1
100
AcDbSymbolTableRecord
100
AcDbBlockTableRecord
  2
BLKF048
340
0
102
{BLKREFS
331
349
102
}
  0
BLOCK_RECORD
  5
384
330
1
100
AcDbSymbolTableRecord
100
AcDbBlockTableRecord
  2
BLKF049
340
0
102
{BLKREFS
331
387
102
}
  0
BLOCK_RECORD
  5
389
330
1
100
AcDbSymbolTableRecord
100
AcDbBlockTableRecord
  2
BLKF050
340
0
102
{BLKREFS
331
38C
102
}
  0
BLOCK_RECORD
  5
414
330
1
100
AcDbSymbolTableRecord
100
AcDbBlockTableRecord
  2
BLKF051
340
0
102
{BLKREFS
331
417
102
}
  0
BLOCK_RECORD
  5
421
330
1
100
AcDbSymbolTableRecord
100
AcDbBlockTableRecord
  2
BLKF052
340
0
102
{BLKREFS
331
424
102
}
  0
BLOCK_RECORD
  5
433
330
1
100
AcDbSymbolTableRecord
100
AcDbBlockTableRecord
  2
BLKF053
340
0
102
{BLKREFS
331
436
102
}
  0
BLOCK_RECORD
  5
440
330
1
100
AcDbSymbolTableRecord
100
AcDbBlockTableRecord
  2
BLKF054
340
0
102
{BLKREFS
331
443
102
}
  0
BLOCK_RECORD
  5
44B
330
1
100
AcDbSymbolTableRecord
100
AcDbBlockTableRecord
  2
BLKF055
340
0
102
{BLKREFS
331
44E
102
}
  0
ENDTAB
  0
ENDSEC
  0
SECTION
  2
BLOCKS
  0
BLOCK
  5
20
330
1F
100
AcDbEntity
  8
0
100
AcDbBlockBegin
  2
*Model_Space
 70
     0
 10
0.0
 20
0.0
 30
0.0
  3
*Model_Space
  1

  0
ENDBLK
  5
21
330
1F
100
AcDbEntity
  8
0
100
AcDbBlockEnd
  0
BLOCK
  5
1C
330
1B
100
AcDbEntity
 67
     1
  8
0
100
AcDbBlockBegin
  2
*Paper_Space
 70
     0
 10
0.0
 20
0.0
 30
0.0
  3
*Paper_Space
  1

  0
ENDBLK
  5
1D
330
1B
100
AcDbEntity
 67
     1
  8
0
100
AcDbBlockEnd
  0
BLOCK
  5
24
330
23
100
AcDbEntity
  8
0
100
AcDbBlockBegin
  2
*Paper_Space0
 70
     0
 10
0.0
 20
0.0
 30
0.0
  3
*Paper_Space0
  1

  0
ENDBLK
  5
25
330
23
100
AcDbEntity
  8
0
100
AcDbBlockEnd
  0
BLOCK
  5
48
330
47
100
AcDbEntity
  8
0
100
AcDbBlockBegin
  2
FXTIP_NONE
 70
     0
 10
0.0
 20
0.0
 30
0.0
  3
FXTIP_NONE
  1

  0
ENDBLK
  5
49
330
47
100
AcDbEntity
  8
0
100
AcDbBlockEnd
  0
BLOCK
  5
4B
330
4A
100
AcDbEntity
  8
0
100
AcDbBlockBegin
  2
FXTIP_ARROW_S
 70
     0
 10
0.0
 20
0.0
 30
0.0
  3
FXTIP_ARROW_S
  1

  0
LINE
  5
4D
330
4A
100
AcDbEntity
  8
0
  6
Continuous
 62
     0
370
    -2
100
AcDbLine
 10
0.0
 20
0.0
 30
0.0
 11
-1.0
 21
0.0000000000000001
 31
0.0
  0
LINE
  5
4E
330
4A
100
AcDbEntity
  8
0
  6
Continuous
 62
     0
370
    -2
100
AcDbLine
 10
0.0
 20
0.0
 30
0.0
 11
-0.9914448613738104
 21
-0.1305261922200515
 31
0.0
  0
LINE
  5
4F
330
4A
100
AcDbEntity
  8
0
  6
Continuous
 62
     0
370
    -2
100
AcDbLine
 10
0.0
 20
0.0
 30
0.0
 11
-0.9914448613738104
 21
0.1305261922200517
 31
0.0
  0
ENDBLK
  5
4C
330
4A
100
AcDbEntity
  8
0
100
AcDbBlockEnd
  0
BLOCK
  5
51
330
50
100
AcDbEntity
  8
0
100
AcDbBlockBegin
  2
FXTIP_ARROW_E
 70
     0
 10
0.0
 20
0.0
 30
0.0
  3
FXTIP_ARROW_E
  1

  0
LINE
  5
53
330
50
100
AcDbEntity
  8
0
  6
Continuous
 62
     0
370
    -2
100
AcDbLine
 10
0.0
 20
0.0
 30
0.0
 11
-1.0
 21
0.0
 31
0.0
  0
LINE
  5
54
330
50
100
AcDbEntity
  8
0
  6
Continuous
 62
     0
370
    -2
100
AcDbLine
 10
0.0
 20
0.0
 30
0.0
 11
-0.9914448613738104
 21
0.1305261922200516
 31
0.0
  0
LINE
  5
55
330
50
100
AcDbEntity
  8
0
  6
Continuous
 62
     0
370
    -2
100
AcDbLine
 10
0.0
 20
0.0
 30
0.0
 11
-0.9914448613738104
 21
-0.1305261922200516
 31
0.0
  0
ENDBLK
  5
52
330
50
100
AcDbEntity
  8
0
100
AcDbBlockEnd
  0
BLOCK
  5
57
330
56
100
AcDbEntity
  8
0
100
AcDbBlockBegin
  2
FXTIP_BLACKDOT_S
 70
     0
 10
0.0
 20
0.0
 30
0.0
  3
FXTIP_BLACKDOT_S
  1

  0
LINE
  5
59
330
56
100
AcDbEntity
  8
0
  6
Continuous
 62
     0
370
    -2
100
AcDbLine
 10
0.0
 20
0.0
 30
0.0
 11
-1.0
 21
0.0000000000000001
 31
0.0
  0
LWPOLYLINE
  5
5A
330
56
100
AcDbEntity
  8
0
  6
Continuous
 62
     0
370
    -2
100
AcDbPolyline
 90
        2
 70
     1
 10
-0.0833333333333333
 20
0.0
 40
0.1666666666666667
 41
0.1666666666666667
 42
1.0
 10
0.0833333333333333
 20
0.0
 40
0.1666666666666667
 41
0.1666666666666667
 42
1.0
  0
CIRCLE
  5
5B
330
56
100
AcDbEntity
  8
0
  6
Continuous
 62
     0
370
    -2
100
AcDbCircle
 10
0.0
 20
0.0
 30
0.0
 40
0.1666666666666667
  0
ENDBLK
  5
58
330
56
100
AcDbEntity
  8
0
100
AcDbBlockEnd
  0
BLOCK
  5
5D
330
5C
100
AcDbEntity
  8
0
100
AcDbBlockBegin
  2
FXTIP_BLACKDOT_E
 70
     0
 10
0.0
 20
0.0
 30
0.0
  3
FXTIP_BLACKDOT_E
  1

  0
LINE
  5
5F
330
5C
100
AcDbEntity
  8
0
  6
Continuous
 62
     0
370
    -2
100
AcDbLine
 10
0.0
 20
0.0
 30
0.0
 11
-1.0
 21
0.0
 31
0.0
  0
LWPOLYLINE
  5
60
330
5C
100
AcDbEntity
  8
0
  6
Continuous
 62
     0
370
    -2
100
AcDbPolyline
 90
        2
 70
     1
 10
-0.0833333333333333
 20
0.0
 40
0.1666666666666667
 41
0.1666666666666667
 42
1.0
 10
0.0833333333333333
 20
0.0
 40
0.1666666666666667
 41
0.1666666666666667
 42
1.0
  0
CIRCLE
  5
61
330
5C
100
AcDbEntity
  8
0
  6
Continuous
 62
     0
370
    -2
100
AcDbCircle
 10
0.0
 20
0.0
 30
0.0
 40
0.1666666666666667
  0
ENDBLK
  5
5E
330
5C
100
AcDbEntity
  8
0
100
AcDbBlockEnd
  0
BLOCK
  5
63
330
62
100
AcDbEntity
  8
0
100
AcDbBlockBegin
  2
FXTIP_TRIANGLE_S
 70
     0
 10
0.0
 20
0.0
 30
0.0
  3
FXTIP_TRIANGLE_S
  1

  0
LINE
  5
65
330
62
100
AcDbEntity
  8
0
  6
Continuous
 62
     0
370
    -2
100
AcDbLine
 10
0.0
 20
0.0
 30
0.0
 11
-1.0
 21
0.0000000000000001
 31
0.0
  0
LINE
  5
66
330
62
100
AcDbEntity
  8
0
  6
Continuous
 62
     0
370
    -2
100
AcDbLine
 10
0.0
 20
0.0
 30
0.0
 11
-0.9914448613738104
 21
-0.1305261922200515
 31
0.0
  0
LINE
  5
67
330
62
100
AcDbEntity
  8
0
  6
Continuous
 62
     0
370
    -2
100
AcDbLine
 10
0.0
 20
0.0
 30
0.0
 11
-0.9914448613738104
 21
0.1305261922200517
 31
0.0
  0
LINE
  5
68
330
62
100
AcDbEntity
  8
0
  6
Continuous
 62
     0
370
    -2
100
AcDbLine
 10
-0.9914448613738104
 20
-0.1305261922200515
 30
0.0
 11
-0.9914448613738104
 21
0.1305261922200517
 31
0.0
  0
ENDBLK
  5
64
330
62
100
AcDbEntity
  8
0
100
AcDbBlockEnd
  0
BLOCK
  5
6A
330
69
100
AcDbEntity
  8
0
100
AcDbBlockBegin
  2
FXTIP_TRIANGLE_E
 70
     0
 10
0.0
 20
0.0
 30
0.0
  3
FXTIP_TRIANGLE_E
  1

  0
LINE
  5
6C
330
69
100
AcDbEntity
  8
0
  6
Continuous
 62
     0
370
    -2
100
AcDbLine
 10
0.0
 20
0.0
 30
0.0
 11
-1.0
 21
0.0
 31
0.0
  0
LINE
  5
6D
330
69
100
AcDbEntity
  8
0
  6
Continuous
 62
     0
370
    -2
100
AcDbLine
 10
0.0
 20
0.0
 30
0.0
 11
-0.9914448613738104
 21
0.1305261922200516
 31
0.0
  0
LINE
  5
6E
330
69
100
AcDbEntity
  8
0
  6
Continuous
 62
     0
370
    -2
100
AcDbLine
 10
0.0
 20
0.0
 30
0.0
 11
-0.9914448613738104
 21
-0.1305261922200516
 31
0.0
  0
LINE
  5
6F
330
69
100
AcDbEntity
  8
0
  6
Continuous
 62
     0
370
    -2
100
AcDbLine
 10
-0.9914448613738104
 20
0.1305261922200516
 30
0.0
 11
-0.9914448613738104
 21
-0.1305261922200516
 31
0.0
  0
ENDBLK
  5
6B
330
69
100
AcDbEntity
  8
0
100
AcDbBlockEnd
  0
BLOCK
  5
71
330
70
100
AcDbEntity
  8
0
100
AcDbBlockBegin
  2
FXTIP_ARCHITECT_S
 70
     0
 10
0.0
 20
0.0
 30
0.0
  3
FXTIP_ARCHITECT_S
  1

  0
LINE
  5
73
330
70
100
AcDbEntity
  8
0
  6
Continuous
 62
     0
370
    -2
100
AcDbLine
 10
0.0
 20
0.0
 30
0.0
 11
-1.0
 21
0.0000000000000001
 31
0.0
  0
LINE
  5
74
330
70
100
AcDbEntity
  8
0
  6
Continuous
 62
     0
370
    -2
100
AcDbLine
 10
0.0
 20
0.0
 30
0.0
 11
-0.7071067811865476
 21
-0.7071067811865474
 31
0.0
  0
LINE
  5
75
330
70
100
AcDbEntity
  8
0
  6
Continuous
 62
     0
370
    -2
100
AcDbLine
 10
0.0
 20
0.0
 30
0.0
 11
0.7071067811865476
 21
0.7071067811865474
 31
0.0
  0
ENDBLK
  5
72
330
70
100
AcDbEntity
  8
0
100
AcDbBlockEnd
  0
BLOCK
  5
77
330
76
100
AcDbEntity
  8
0
100
AcDbBlockBegin
  2
FXTIP_ARCHITECT_E
 70
     0
 10
0.0
 20
0.0
 30
0.0
  3
FXTIP_ARCHITECT_E
  1

  0
LINE
  5
79
330
76
100
AcDbEntity
  8
0
  6
Continuous
 62
     0
370
    -2
100
AcDbLine
 10
0.0
 20
0.0
 30
0.0
 11
-1.0
 21
0.0
 31
0.0
  0
LINE
  5
7A
330
76
100
AcDbEntity
  8
0
  6
Continuous
 62
     0
370
    -2
100
AcDbLine
 10
0.0
 20
0.0
 30
0.0
 11
0.7071067811865475
 21
0.7071067811865475
 31
0.0
  0
LINE
  5
7B
330
76
100
AcDbEntity
  8
0
  6
Continuous
 62
     0
370
    -2
100
AcDbLine
 10
0.0
 20
0.0
 30
0.0
 11
-0.7071067811865475
 21
-0.7071067811865475
 31
0.0
  0
ENDBLK
  5
78
330
76
100
AcDbEntity
  8
0
100
AcDbBlockEnd
  0
BLOCK
  5
7D
330
7C
100
AcDbEntity
  8
0
100
AcDbBlockBegin
  2
FXTIP_CIVIL_S
 70
     0
 10
0.0
 20
0.0
 30
0.0
  3
FXTIP_CIVIL_S
  1

  0
LINE
  5
7F
330
7C
100
AcDbEntity
  8
0
  6
Continuous
 62
     0
370
    -2
100
AcDbLine
 10
0.0
 20
0.0
 30
0.0
 11
-1.0
 21
0.0000000000000001
 31
0.0
  0
LINE
  5
80
330
7C
100
AcDbEntity
  8
0
  6
Continuous
 62
     0
370
    -2
100
AcDbLine
 10
0.0
 20
-0.0833333333333333
 30
0.0
 11
-1.0
 21
-0.0833333333333332
 31
0.0
  0
LINE
  5
81
330
7C
100
AcDbEntity
  8
0
  6
Continuous
 62
     0
370
    -2
100
AcDbLine
 10
0.0
 20
-0.1666666666666667
 30
0.0
 11
-1.0
 21
-0.1666666666666666
 31
0.0
  0
ENDBLK
  5
7E
330
7C
100
AcDbEntity
  8
0
100
AcDbBlockEnd
  0
BLOCK
  5
83
330
82
100
AcDbEntity
  8
0
100
AcDbBlockBegin
  2
FXTIP_CIVIL_E
 70
     0
 10
0.0
 20
0.0
 30
0.0
  3
FXTIP_CIVIL_E
  1

  0
LINE
  5
85
330
82
100
AcDbEntity
  8
0
  6
Continuous
 62
     0
370
    -2
100
AcDbLine
 10
0.0
 20
0.0
 30
0.0
 11
-1.0
 21
0.0
 31
0.0
  0
LINE
  5
86
330
82
100
AcDbEntity
  8
0
  6
Continuous
 62
     0
370
    -2
100
AcDbLine
 10
0.0
 20
0.0833333333333333
 30
0.0
 11
-1.0
 21
0.0833333333333333
 31
0.0
  0
LINE
  5
87
330
82
100
AcDbEntity
  8
0
  6
Continuous
 62
     0
370
    -2
100
AcDbLine
 10
0.0
 20
0.1666666666666667
 30
0.0
 11
-1.0
 21
0.1666666666666667
 31
0.0
  0
ENDBLK
  5
84
330
82
100
AcDbEntity
  8
0
100
AcDbBlockEnd
  0
BLOCK
  5
89
330
88
100
AcDbEntity
  8
0
100
AcDbBlockBegin
  2
FXTIP_WHITEDOT_S
 70
     0
 10
0.0
 20
0.0
 30
0.0
  3
FXTIP_WHITEDOT_S
  1

  0
LINE
  5
8B
330
88
100
AcDbEntity
  8
0
  6
Continuous
 62
     0
370
    -2
100
AcDbLine
 10
0.0
 20
0.0
 30
0.0
 11
-1.0
 21
0.0000000000000001
 31
0.0
  0
CIRCLE
  5
8C
330
88
100
AcDbEntity
  8
0
  6
Continuous
 62
     0
370
    -2
100
AcDbCircle
 10
0.0
 20
0.0
 30
0.0
 40
0.1666666666666667
  0
ENDBLK
  5
8A
330
88
100
AcDbEntity
  8
0
100
AcDbBlockEnd
  0
BLOCK
  5
8E
330
8D
100
AcDbEntity
  8
0
100
AcDbBlockBegin
  2
FXTIP_WHITEDOT_E
 70
     0
 10
0.0
 20
0.0
 30
0.0
  3
FXTIP_WHITEDOT_E
  1

  0
LINE
  5
90
330
8D
100
AcDbEntity
  8
0
  6
Continuous
 62
     0
370
    -2
100
AcDbLine
 10
0.0
 20
0.0
 30
0.0
 11
-1.0
 21
0.0
 31
0.0
  0
CIRCLE
  5
91
330
8D
100
AcDbEntity
  8
0
  6
Continuous
 62
     0
370
    -2
100
AcDbCircle
 10
0.0
 20
0.0
 30
0.0
 40
0.1666666666666667
  0
ENDBLK
  5
8F
330
8D
100
AcDbEntity
  8
0
100
AcDbBlockEnd
  0
BLOCK
  5
93
330
92
100
AcDbEntity
  8
0
100
AcDbBlockBegin
  2
FXTIP_UPARROW_S
 70
     0
 10
0.0
 20
0.0
 30
0.0
  3
FXTIP_UPARROW_S
  1

  0
LINE
  5
95
330
92
100
AcDbEntity
  8
0
  6
Continuous
 62
     0
370
    -2
100
AcDbLine
 10
0.0
 20
0.0
 30
0.0
 11
-1.0
 21
0.0000000000000001
 31
0.0
  0
LINE
  5
96
330
92
100
AcDbEntity
  8
0
  6
Continuous
 62
     0
370
    -2
100
AcDbLine
 10
0.0
 20
0.0
 30
0.0
 11
-0.9914448613738104
 21
-0.1305261922200515
 31
0.0
  0
ENDBLK
  5
94
330
92
100
AcDbEntity
  8
0
100
AcDbBlockEnd
  0
BLOCK
  5
98
330
97
100
AcDbEntity
  8
0
100
AcDbBlockBegin
  2
FXTIP_UPARROW_E
 70
     0
 10
0.0
 20
0.0
 30
0.0
  3
FXTIP_UPARROW_E
  1

  0
LINE
  5
9A
330
97
100
AcDbEntity
  8
0
  6
Continuous
 62
     0
370
    -2
100
AcDbLine
 10
0.0
 20
0.0
 30
0.0
 11
-1.0
 21
0.0
 31
0.0
  0
LINE
  5
9B
330
97
100
AcDbEntity
  8
0
  6
Continuous
 62
     0
370
    -2
100
AcDbLine
 10
0.0
 20
0.0
 30
0.0
 11
-0.9914448613738104
 21
0.1305261922200516
 31
0.0
  0
ENDBLK
  5
99
330
97
100
AcDbEntity
  8
0
100
AcDbBlockEnd
  0
BLOCK
  5
9D
330
9C
100
AcDbEntity
  8
0
100
AcDbBlockBegin
  2
FXTIP_DOWNARROW_S
 70
     0
 10
0.0
 20
0.0
 30
0.0
  3
FXTIP_DOWNARROW_S
  1

  0
LINE
  5
9F
330
9C
100
AcDbEntity
  8
0
  6
Continuous
 62
     0
370
    -2
100
AcDbLine
 10
0.0
 20
0.0
 30
0.0
 11
-1.0
 21
0.0000000000000001
 31
0.0
  0
LINE
  5
A0
330
9C
100
AcDbEntity
  8
0
  6
Continuous
 62
     0
370
    -2
100
AcDbLine
 10
0.0
 20
0.0
 30
0.0
 11
-0.9914448613738104
 21
0.1305261922200517
 31
0.0
  0
ENDBLK
  5
9E
330
9C
100
AcDbEntity
  8
0
100
AcDbBlockEnd
  0
BLOCK
  5
A2
330
A1
100
AcDbEntity
  8
0
100
AcDbBlockBegin
  2
FXTIP_DOWNARROW_E
 70
     0
 10
0.0
 20
0.0
 30
0.0
  3
FXTIP_DOWNARROW_E
  1

  0
LINE
  5
A4
330
A1
100
AcDbEntity
  8
0
  6
Continuous
 62
     0
370
    -2
100
AcDbLine
 10
0.0
 20
0.0
 30
0.0
 11
-1.0
 21
0.0
 31
0.0
  0
LINE
  5
A5
330
A1
100
AcDbEntity
  8
0
  6
Continuous
 62
     0
370
    -2
100
AcDbLine
 10
0.0
 20
0.0
 30
0.0
 11
-0.9914448613738104
 21
-0.1305261922200516
 31
0.0
  0
ENDBLK
  5
A3
330
A1
100
AcDbEntity
  8
0
100
AcDbBlockEnd
  0
BLOCK
  5
A7
330
A6
100
AcDbEntity
  8
0
100
AcDbBlockBegin
  2
FXTIP_BLACKTRIANGLE_S
 70
     0
 10
0.0
 20
0.0
 30
0.0
  3
FXTIP_BLACKTRIANGLE_S
  1

  0
LINE
  5
A9
330
A6
100
AcDbEntity
  8
0
  6
Continuous
 62
     0
370
    -2
100
AcDbLine
 10
0.0
 20
0.0
 30
0.0
 11
-1.0
 21
0.0000000000000001
 31
0.0
  0
SOLID
  5
AA
330
A6
100
AcDbEntity
  8
0
  6
Continuous
 62
     0
370
    -2
100
AcDbTrace
 10
0.0
 20
0.0
 30
0.0
 11
-0.9914448613738104
 21
-0.1305261922200515
 31
0.0
 12
-0.9914448613738104
 22
0.1305261922200517
 32
0.0
 13
-0.9914448613738104
 23
0.1305261922200517
 33
0.0
  0
ENDBLK
  5
A8
330
A6
100
AcDbEntity
  8
0
100
AcDbBlockEnd
  0
BLOCK
  5
AC
330
AB
100
AcDbEntity
  8
0
100
AcDbBlockBegin
  2
FXTIP_BLACKTRIANGLE_E
 70
     0
 10
0.0
 20
0.0
 30
0.0
  3
FXTIP_BLACKTRIANGLE_E
  1

  0
LINE
  5
AE
330
AB
100
AcDbEntity
  8
0
  6
Continuous
 62
     0
370
    -2
100
AcDbLine
 10
0.0
 20
0.0
 30
0.0
 11
-1.0
 21
0.0
 31
0.0
  0
SOLID
  5
AF
330
AB
100
AcDbEntity
  8
0
  6
Continuous
 62
     0
370
    -2
100
AcDbTrace
 10
0.0
 20
0.0
 30
0.0
 11
-0.9914448613738104
 21
0.1305261922200516
 31
0.0
 12
-0.9914448613738104
 22
-0.1305261922200516
 32
0.0
 13
-0.9914448613738104
 23
-0.1305261922200516
 33
0.0
  0
ENDBLK
  5
AD
330
AB
100
AcDbEntity
  8
0
100
AcDbBlockEnd
  0
BLOCK
  5
B8
330
B7
100
AcDbEntity
  8
0
100
AcDbBlockBegin
  2
BLKF023
 70
     0
 10
0.0
 20
0.0
 30
0.0
  3
BLKF023
  1

  0
LINE
  5
BB
330
B7
100
AcDbEntity
  8
基準ﾚｲﾔｸﾞﾙｰﾌﾟ_01
  6
Continuous
 62
     3
370
    35
100
AcDbLine
 10
20.9999999999999
 20
8.0
 30
0.0
 11
20.9999999999999
 21
291.0
 31
0.0
  0
LINE
  5
BC
330
B7
100
AcDbEntity
  8
基準ﾚｲﾔｸﾞﾙｰﾌﾟ_01
  6
Continuous
 62
     3
370
    35
100
AcDbLine
 10
413.0
 20
8.0
 30
0.0
 11
413.0
 21
291.0
 31
0.0
  0
LINE
  5
BD
330
B7
100
AcDbEntity
  8
基準ﾚｲﾔｸﾞﾙｰﾌﾟ_01
  6
Continuous
 62
     3
370
    35
100
AcDbLine
 10
20.9999999999999
 20
8.0
 30
0.0
 11
413.0
 21
8.0
 31
0.0
  0
LINE
  5
BE
330
B7
100
AcDbEntity
  8
基準ﾚｲﾔｸﾞﾙｰﾌﾟ_01
  6
Continuous
 62
     3
370
    35
100
AcDbLine
 10
20.9999999999999
 20
291.0
 30
0.0
 11
413.0
 21
291.0
 31
0.0
  0
LINE
  5
BF
330
B7
100
AcDbEntity
  8
基準ﾚｲﾔｸﾞﾙｰﾌﾟ_01
  6
Continuous
 62
     3
370
    35
100
AcDbLine
 10
0.0
 20
149.5
 30
0.0
 11
21.0
 21
149.5
 31
0.0
  0
LINE
  5
C0
330
B7
100
AcDbEntity
  8
基準ﾚｲﾔｸﾞﾙｰﾌﾟ_01
  6
Continuous
 62
     3
370
    35
100
AcDbLine
 10
230.0
 20
283.0
 30
0.0
 11
413.0
 21
283.0
 31
0.0
  0
LINE
  5
C1
330
B7
100
AcDbEntity
  8
基準ﾚｲﾔｸﾞﾙｰﾌﾟ_01
  6
Continuous
 62
     7
370
    13
100
AcDbLine
 10
373.0
 20
291.0
 30
0.0
 11
373.0
 21
283.0
 31
0.0
  0
LINE
  5
C2
330
B7
100
AcDbEntity
  8
基準ﾚｲﾔｸﾞﾙｰﾌﾟ_01
  6
Continuous
 62
     7
370
    13
100
AcDbLine
 10
377.0
 20
291.0
 30
0.0
 11
377.0
 21
283.0
 31
0.0
  0
TEXT
  5
C3
330
B7
100
AcDbEntity
  8
基準ﾚｲﾔｸﾞﾙｰﾌﾟ_01
  6
Continuous
 62
     7
370
    13
100
AcDbText
 10
373.7000122070312
 20
287.0
 30
0.0
 40
3.0
  1
記
 41
1.4
  7
FX_VECTOR
 72
     5
 11
376.7000122070312
 21
287.0
 31
0.0
100
AcDbText
  0
TEXT
  5
C4
330
B7
100
AcDbEntity
  8
基準ﾚｲﾔｸﾞﾙｰﾌﾟ_01
  6
Continuous
 62
     7
370
    13
100
AcDbText
 10
373.7000122070312
 20
283.7000122070312
 30
0.0
 40
3.0
  1
事
 41
1.4
  7
FX_VECTOR
 72
     5
 11
376.7000122070312
 21
283.7000122070312
 31
0.0
100
AcDbText
  0
LINE
  5
C5
330
B7
100
AcDbEntity
  8
基準ﾚｲﾔｸﾞﾙｰﾌﾟ_01
  6
Continuous
 62
     3
370
    35
100
AcDbLine
 10
413.0
 20
149.5
 30
0.0
 11
418.0
 21
149.5
 31
0.0
  0
LINE
  5
C6
330
B7
100
AcDbEntity
  8
基準ﾚｲﾔｸﾞﾙｰﾌﾟ_01
  6
Continuous
 62
     3
370
    35
100
AcDbLine
 10
210.0
 20
291.0
 30
0.0
 11
210.0
 21
296.0
 31
0.0
  0
LINE
  5
C7
330
B7
100
AcDbEntity
  8
基準ﾚｲﾔｸﾞﾙｰﾌﾟ_01
  6
Continuous
 62
     3
370
    35
100
AcDbLine
 10
210.0
 20
3.0
 30
0.0
 11
210.0
 21
8.0
 31
0.0
  0
LINE
  5
C8
330
B7
100
AcDbEntity
  8
基準ﾚｲﾔｸﾞﾙｰﾌﾟ_01
  6
Continuous
 62
     7
370
    13
100
AcDbLine
 10
239.9
 20
291.0
 30
0.0
 11
239.9
 21
283.0
 31
0.0
  0
LINE
  5
C9
330
B7
100
AcDbEntity
  8
基準ﾚｲﾔｸﾞﾙｰﾌﾟ_01
  6
Continuous
 62
     7
370
    13
100
AcDbLine
 10
256.95
 20
291.0
 30
0.0
 11
256.95
 21
283.0
 31
0.0
  0
LINE
  5
CA
330
B7
100
AcDbEntity
  8
基準ﾚｲﾔｸﾞﾙｰﾌﾟ_01
  6
Continuous
 62
     7
370
    13
100
AcDbLine
 10
282.8
 20
291.0
 30
0.0
 11
282.8
 21
283.0
 31
0.0
  0
LINE
  5
CB
330
B7
100
AcDbEntity
  8
基準ﾚｲﾔｸﾞﾙｰﾌﾟ_01
  6
Continuous
 62
     7
370
    13
100
AcDbLine
 10
290.5
 20
291.0
 30
0.0
 11
290.5
 21
283.0
 31
0.0
  0
LINE
  5
CC
330
B7
100
AcDbEntity
  8
基準ﾚｲﾔｸﾞﾙｰﾌﾟ_01
  6
Continuous
 62
     7
370
    13
100
AcDbLine
 10
309.2
 20
291.0
 30
0.0
 11
309.2
 21
283.0
 31
0.0
  0
LINE
  5
CD
330
B7
100
AcDbEntity
  8
基準ﾚｲﾔｸﾞﾙｰﾌﾟ_01
  6
Continuous
 62
     7
370
    13
100
AcDbLine
 10
316.9
 20
291.0
 30
0.0
 11
316.9
 21
283.0
 31
0.0
  0
LINE
  5
CE
330
B7
100
AcDbEntity
  8
基準ﾚｲﾔｸﾞﾙｰﾌﾟ_01
  6
Continuous
 62
     3
370
    35
100
AcDbLine
 10
344.3
 20
291.0
 30
0.0
 11
344.3
 21
283.0
 31
0.0
  0
LINE
  5
CF
330
B7
100
AcDbEntity
  8
基準ﾚｲﾔｸﾞﾙｰﾌﾟ_01
  6
Continuous
 62
     7
370
    13
100
AcDbLine
 10
239.9
 20
287.0
 30
0.0
 11
344.3
 21
287.0
 31
0.0
  0
LINE
  5
D0
330
B7
100
AcDbEntity
  8
基準ﾚｲﾔｸﾞﾙｰﾌﾟ_01
  6
Continuous
 62
     7
370
    13
100
AcDbLine
 10
265.2
 20
291.0
 30
0.0
 11
265.2
 21
283.0
 31
0.0
  0
TEXT
  5
D1
330
B7
100
AcDbEntity
  8
基準ﾚｲﾔｸﾞﾙｰﾌﾟ_01
  6
Continuous
 62
     7
370
    13
100
AcDbText
 10
231.5500030517578
 20
287.1000061035156
 30
0.0
 40
3.0
  1
普通
 41
1.272727272727273
  7
FX_VECTOR
 72
     5
 11
237.5500030517578
 21
287.1000061035156
 31
0.0
100
AcDbText
  0
TEXT
  5
D2
330
B7
100
AcDbEntity
  8
基準ﾚｲﾔｸﾞﾙｰﾌﾟ_01
  6
Continuous
 62
     7
370
    13
100
AcDbText
 10
231.5500030517578
 20
283.2999877929688
 30
0.0
 40
3.0
  1
公差
 41
1.272727272727273
  7
FX_VECTOR
 72
     5
 11
237.5500030517578
 21
283.2999877929688
 31
0.0
100
AcDbText
  0
TEXT
  5
D3
330
B7
100
AcDbEntity
  8
基準ﾚｲﾔｸﾞﾙｰﾌﾟ_01
  6
Continuous
 62
     7
370
    13
100
AcDbText
 10
257.5
 20
287.5
 30
0.0
 40
2.5
  1
±０．１
 41
0.7636363636363638
  7
FX_VECTOR
 72
     5
 11
264.5
 21
287.5
 31
0.0
100
AcDbText
  0
TEXT
  5
D4
330
B7
100
AcDbEntity
  8
基準ﾚｲﾔｸﾞﾙｰﾌﾟ_01
  6
Continuous
 62
     7
370
    13
100
AcDbText
 10
240.6699981689453
 20
283.5
 30
0.0
 40
2.5
  1
　　　　３以下
 41
0.99024388615678
  7
FX_VECTOR
 72
     5
 11
255.1699979305267
 21
283.5
 31
0.0
100
AcDbText
  0
TEXT
  5
D5
330
B7
100
AcDbEntity
  8
基準ﾚｲﾔｸﾞﾙｰﾌﾟ_01
  6
Continuous
 62
     7
370
    13
100
AcDbText
 10
265.2000122070312
 20
287.5
 30
0.0
 40
2.5
  1
　３をこえ６以下
 41
0.8578723176996759
  7
FX_VECTOR
 72
     5
 11
279.6000118255615
 21
287.5
 31
0.0
100
AcDbText
  0
TEXT
  5
D6
330
B7
100
AcDbEntity
  8
基準ﾚｲﾔｸﾞﾙｰﾌﾟ_01
  6
Continuous
 62
     7
370
    13
100
AcDbText
 10
265.2000122070312
 20
283.5
 30
0.0
 40
2.5
  1
　６をこえ３０以下
 41
0.8505660578889668
  7
FX_VECTOR
 72
     5
 11
281.300012588501
 21
283.5
 31
0.0
100
AcDbText
  0
TEXT
  5
D7
330
B7
100
AcDbEntity
  8
基準ﾚｲﾔｸﾞﾙｰﾌﾟ_01
  6
Continuous
 62
     7
370
    13
100
AcDbText
 10
257.5
 20
283.5
 30
0.0
 40
2.5
  1
±０．２
 41
0.7909090909090911
  7
FX_VECTOR
 72
     5
 11
264.75
 21
283.5
 31
0.0
100
AcDbText
  0
TEXT
  5
D8
330
B7
100
AcDbEntity
  8
基準ﾚｲﾔｸﾞﾙｰﾌﾟ_01
  6
Continuous
 62
     7
370
    13
100
AcDbText
 10
290.5
 20
283.5
 30
0.0
 40
2.5
  1
１２０をこえ４００以下
 41
0.7538461692516621
  7
FX_VECTOR
 72
     5
 11
308.0000003576279
 21
283.5
 31
0.0
100
AcDbText
  0
TEXT
  5
D9
330
B7
100
AcDbEntity
  8
基準ﾚｲﾔｸﾞﾙｰﾌﾟ_01
  6
Continuous
 62
     7
370
    13
100
AcDbText
 10
282.7999877929688
 20
283.5
 30
0.0
 40
2.5
  1
±０．５
 41
0.7909090909090911
  7
FX_VECTOR
 72
     5
 11
290.0499877929688
 21
283.5
 31
0.0
100
AcDbText
  0
TEXT
  5
DA
330
B7
100
AcDbEntity
  8
基準ﾚｲﾔｸﾞﾙｰﾌﾟ_01
  6
Continuous
 62
     7
370
    13
100
AcDbText
 10
291.6000061035156
 20
287.5
 30
0.0
 40
2.5
  1
３０をこえ１２０以下
 41
0.7593220452130852
  7
FX_VECTOR
 72
     5
 11
307.6000063419342
 21
287.5
 31
0.0
100
AcDbText
  0
TEXT
  5
DB
330
B7
100
AcDbEntity
  8
基準ﾚｲﾔｸﾞﾙｰﾌﾟ_01
  6
Continuous
 62
     7
370
    13
100
AcDbText
 10
282.7999877929688
 20
287.5
 30
0.0
 40
2.5
  1
±０．３
 41
0.7909090909090911
  7
FX_VECTOR
 72
     5
 11
290.0499877929688
 21
287.5
 31
0.0
100
AcDbText
  0
TEXT
  5
DC
330
B7
100
AcDbEntity
  8
基準ﾚｲﾔｸﾞﾙｰﾌﾟ_01
  6
Continuous
 62
     7
370
    13
100
AcDbText
 10
309.2000122070312
 20
283.5
 30
0.0
 40
2.5
  1
±１．２
 41
0.7909090909090911
  7
FX_VECTOR
 72
     5
 11
316.4500122070312
 21
283.5
 31
0.0
100
AcDbText
  0
TEXT
  5
DD
330
B7
100
AcDbEntity
  8
基準ﾚｲﾔｸﾞﾙｰﾌﾟ_01
  6
Continuous
 62
     7
370
    13
100
AcDbText
 10
309.2000122070312
 20
287.5
 30
0.0
 40
2.5
  1
±０．８
 41
0.7909090909090911
  7
FX_VECTOR
 72
     5
 11
316.4500122070312
 21
287.5
 31
0.0
100
AcDbText
  0
TEXT
  5
DE
330
B7
100
AcDbEntity
  8
基準ﾚｲﾔｸﾞﾙｰﾌﾟ_01
  6
Continuous
 62
     7
370
    13
100
AcDbText
 10
240.6699981689453
 20
287.5
 30
0.0
 40
2.5
  1
（０．５以下）
 41
0.9048780732038545
  7
FX_VECTOR
 72
     5
 11
253.9199985265732
 21
287.5
 31
0.0
100
AcDbText
  0
TEXT
  5
DF
330
B7
100
AcDbEntity
  8
基準ﾚｲﾔｸﾞﾙｰﾌﾟ_01
  6
Continuous
 62
     7
370
    13
100
AcDbText
 10
318.7000122070312
 20
287.5
 30
0.0
 40
2.5
  1
４００をこえる場合
 41
0.8505660578889668
  7
FX_VECTOR
 72
     5
 11
334.800012588501
 21
287.5
 31
0.0
100
AcDbText
  0
TEXT
  5
E0
330
B7
100
AcDbEntity
  8
基準ﾚｲﾔｸﾞﾙｰﾌﾟ_01
  6
Continuous
 62
     7
370
    13
100
AcDbText
 10
336.8250122070312
 20
287.5
 30
0.0
 40
2.5
  1
±２．０
 41
0.7909090909090911
  7
FX_VECTOR
 72
     5
 11
344.0750122070312
 21
287.5
 31
0.0
100
AcDbText
  0
TEXT
  5
E1
330
B7
100
AcDbEntity
  8
基準ﾚｲﾔｸﾞﾙｰﾌﾟ_01
  6
Continuous
 62
     7
370
    13
100
AcDbText
 10
317.1312255859375
 20
283.5472717285156
 30
0.0
 40
2.5
  1
鋳造部
 41
0.8666062831878663
  7
FX_VECTOR
 72
     5
 11
322.3927637338638
 21
283.5472717285156
 31
0.0
100
AcDbText
  0
LINE
  5
E2
330
B7
100
AcDbEntity
  8
基準ﾚｲﾔｸﾞﾙｰﾌﾟ_01
  6
Continuous
 62
     7
370
    13
100
AcDbLine
 10
336.6
 20
291.0
 30
0.0
 11
336.6
 21
287.0
 31
0.0
  0
LINE
  5
E3
330
B7
100
AcDbEntity
  8
基準ﾚｲﾔｸﾞﾙｰﾌﾟ_01
  6
Continuous
 62
     3
370
    35
100
AcDbLine
 10
230.0
 20
291.0
 30
0.0
 11
230.0
 21
283.0
 31
0.0
  0
TEXT
  5
E4
330
B7
100
AcDbEntity
  8
基準ﾚｲﾔｸﾞﾙｰﾌﾟ_01
  6
Continuous
 62
     7
370
    13
100
AcDbText
 10
323.1302795410156
 20
283.5322570800781
 30
0.0
 40
2.5
  1
ＪＩＳ　Ｂ　０４０３－ＣＴ１０
 41
0.6521726322977731
  7
FX_VECTOR
 72
     5
 11
343.8600524961948
 21
283.5322570800781
 31
0.0
100
AcDbText
  0
ENDBLK
  5
B9
330
B7
100
AcDbEntity
  8
0
100
AcDbBlockEnd
  0
BLOCK
  5
E6
330
E5
100
AcDbEntity
  8
0
100
AcDbBlockBegin
  2
BLKF024
 70
     0
 10
0.0
 20
0.0
 30
0.0
  3
BLKF024
  1

  0
LINE
  5
E9
330
E5
100
AcDbEntity
  8
基準ﾚｲﾔｸﾞﾙｰﾌﾟ_01
  6
Continuous
 62
     7
370
    13
100
AcDbLine
 10
20.9999999999999
 20
67.99999999999999
 30
0.0
 11
8.999999999999847
 21
67.99999999999999
 31
0.0
  0
LINE
  5
EA
330
E5
100
AcDbEntity
  8
基準ﾚｲﾔｸﾞﾙｰﾌﾟ_01
  6
Continuous
 62
     7
370
    13
100
AcDbLine
 10
8.999999999999847
 20
67.99999999999999
 30
0.0
 11
8.999999999999847
 21
8.0
 31
0.0
  0
LINE
  5
EB
330
E5
100
AcDbEntity
  8
基準ﾚｲﾔｸﾞﾙｰﾌﾟ_01
  6
Continuous
 62
     7
370
    13
100
AcDbLine
 10
8.999999999999847
 20
8.0
 30
0.0
 11
20.9999999999999
 21
8.0
 31
0.0
  0
LINE
  5
EC
330
E5
100
AcDbEntity
  8
基準ﾚｲﾔｸﾞﾙｰﾌﾟ_01
  6
Continuous
 62
     7
370
    13
100
AcDbLine
 10
8.999999999999847
 20
61.99999999999999
 30
0.0
 11
20.9999999999999
 21
61.99999999999999
 31
0.0
  0
LINE
  5
ED
330
E5
100
AcDbEntity
  8
基準ﾚｲﾔｸﾞﾙｰﾌﾟ_01
  6
Continuous
 62
     7
370
    13
100
AcDbLine
 10
14.9999999999998
 20
67.99999999999999
 30
0.0
 11
14.9999999999998
 21
7.999999999999999
 31
0.0
  0
LINE
  5
EE
330
E5
100
AcDbEntity
  8
基準ﾚｲﾔｸﾞﾙｰﾌﾟ_01
  6
Continuous
 62
     7
370
    13
100
AcDbLine
 10
8.999999999999847
 20
56.0
 30
0.0
 11
20.9999999999999
 21
56.0
 31
0.0
  0
LINE
  5
EF
330
E5
100
AcDbEntity
  8
基準ﾚｲﾔｸﾞﾙｰﾌﾟ_01
  6
Continuous
 62
     7
370
    13
100
AcDbLine
 10
8.999999999999847
 20
49.99999999999999
 30
0.0
 11
20.9999999999999
 21
49.99999999999999
 31
0.0
  0
LINE
  5
F0
330
E5
100
AcDbEntity
  8
基準ﾚｲﾔｸﾞﾙｰﾌﾟ_01
  6
Continuous
 62
     7
370
    13
100
AcDbLine
 10
8.999999999999847
 20
44.0
 30
0.0
 11
20.9999999999999
 21
44.0
 31
0.0
  0
LINE
  5
F1
330
E5
100
AcDbEntity
  8
基準ﾚｲﾔｸﾞﾙｰﾌﾟ_01
  6
Continuous
 62
     7
370
    13
100
AcDbLine
 10
8.999999999999847
 20
38.00000000000001
 30
0.0
 11
20.9999999999999
 21
38.00000000000001
 31
0.0
  0
LINE
  5
F2
330
E5
100
AcDbEntity
  8
基準ﾚｲﾔｸﾞﾙｰﾌﾟ_01
  6
Continuous
 62
     7
370
    13
100
AcDbLine
 10
8.999999999999847
 20
32.0
 30
0.0
 11
20.9999999999999
 21
32.0
 31
0.0
  0
LINE
  5
F3
330
E5
100
AcDbEntity
  8
基準ﾚｲﾔｸﾞﾙｰﾌﾟ_01
  6
Continuous
 62
     7
370
    13
100
AcDbLine
 10
8.999999999999847
 20
26.00000000000001
 30
0.0
 11
20.9999999999999
 21
26.00000000000001
 31
0.0
  0
LINE
  5
F4
330
E5
100
AcDbEntity
  8
基準ﾚｲﾔｸﾞﾙｰﾌﾟ_01
  6
Continuous
 62
     7
370
    13
100
AcDbLine
 10
8.999999999999847
 20
20.00000000000001
 30
0.0
 11
20.9999999999999
 21
20.00000000000001
 31
0.0
  0
LINE
  5
F5
330
E5
100
AcDbEntity
  8
基準ﾚｲﾔｸﾞﾙｰﾌﾟ_01
  6
Continuous
 62
     7
370
    13
100
AcDbLine
 10
8.999999999999847
 20
14.00000000000001
 30
0.0
 11
20.9999999999999
 21
14.00000000000001
 31
0.0
  0
TEXT
  5
F6
330
E5
100
AcDbEntity
  8
基準ﾚｲﾔｸﾞﾙｰﾌﾟ_01
  6
Continuous
 62
     7
370
    13
100
AcDbText
 10
10.25
 20
9.0
 30
0.0
 40
3.5
  1
計
 41
1.4
 51
10.0
  7
FX_VECTOR
 72
     5
 11
13.75
 21
9.0
 31
0.0
100
AcDbText
  0
TEXT
  5
F7
330
E5
100
AcDbEntity
  8
基準ﾚｲﾔｸﾞﾙｰﾌﾟ_01
  6
Continuous
 62
     7
370
    13
100
AcDbText
 10
10.25
 20
63.0
 30
0.0
 40
3.5
  1
配
 41
1.4
 51
10.0
  7
FX_VECTOR
 72
     5
 11
13.75
 21
63.0
 31
0.0
100
AcDbText
  0
TEXT
  5
F8
330
E5
100
AcDbEntity
  8
基準ﾚｲﾔｸﾞﾙｰﾌﾟ_01
  6
Continuous
 62
     7
370
    13
100
AcDbText
 10
16.25
 20
63.0
 30
0.0
 40
3.5
  1
枚
 41
1.4
 51
10.0
  7
FX_VECTOR
 72
     5
 11
19.75
 21
63.0
 31
0.0
100
AcDbText
  0
TEXT
  5
F9
330
E5
100
AcDbEntity
  8
基準ﾚｲﾔｸﾞﾙｰﾌﾟ_01
  6
Continuous
 62
     7
370
    13
100
AcDbText
 10
10.25
 20
57.0
 30
0.0
 40
3.5
  1
営
 41
1.4
 51
10.0
  7
FX_VECTOR
 72
     5
 11
13.75
 21
57.0
 31
0.0
100
AcDbText
  0
TEXT
  5
FA
330
E5
100
AcDbEntity
  8
基準ﾚｲﾔｸﾞﾙｰﾌﾟ_01
  6
Continuous
 62
     7
370
    13
100
AcDbText
 10
10.25
 20
51.0
 30
0.0
 40
3.5
  1
生
 41
1.4
 51
10.0
  7
FX_VECTOR
 72
     5
 11
13.75
 21
51.0
 31
0.0
100
AcDbText
  0
TEXT
  5
FB
330
E5
100
AcDbEntity
  8
基準ﾚｲﾔｸﾞﾙｰﾌﾟ_01
  6
Continuous
 62
     7
370
    13
100
AcDbText
 10
10.25
 20
45.0
 30
0.0
 40
3.5
  1
製
 41
1.4
 51
10.0
  7
FX_VECTOR
 72
     5
 11
13.75
 21
45.0
 31
0.0
100
AcDbText
  0
TEXT
  5
FC
330
E5
100
AcDbEntity
  8
基準ﾚｲﾔｸﾞﾙｰﾌﾟ_01
  6
Continuous
 62
     7
370
    13
100
AcDbText
 10
10.25
 20
39.0
 30
0.0
 40
3.5
  1
品
 41
1.4
 51
10.0
  7
FX_VECTOR
 72
     5
 11
13.75
 21
39.0
 31
0.0
100
AcDbText
  0
TEXT
  5
FD
330
E5
100
AcDbEntity
  8
基準ﾚｲﾔｸﾞﾙｰﾌﾟ_01
  6
Continuous
 62
     7
370
    13
100
AcDbText
 10
10.25
 20
33.0
 30
0.0
 40
3.5
  1
技
 41
1.4
 51
10.0
  7
FX_VECTOR
 72
     5
 11
13.75
 21
33.0
 31
0.0
100
AcDbText
  0
TEXT
  5
FE
330
E5
100
AcDbEntity
  8
基準ﾚｲﾔｸﾞﾙｰﾌﾟ_01
  6
Continuous
 62
     7
370
    13
100
AcDbText
 10
10.25
 20
27.0
 30
0.0
 40
3.5
  1
設
 41
1.4
 51
10.0
  7
FX_VECTOR
 72
     5
 11
13.75
 21
27.0
 31
0.0
100
AcDbText
  0
ENDBLK
  5
E7
330
E5
100
AcDbEntity
  8
0
100
AcDbBlockEnd
  0
BLOCK
  5
105
330
104
100
AcDbEntity
  8
0
100
AcDbBlockBegin
  2
BLKF025
 70
     0
 10
0.0
 20
0.0
 30
0.0
  3
BLKF025
  1

  0
LINE
  5
108
330
104
100
AcDbEntity
  8
基準ﾚｲﾔｸﾞﾙｰﾌﾟ_01
  6
Continuous
 62
     7
370
    13
100
AcDbLine
 10
212.9
 20
16.24855715851498
 30
0.0
 11
210.4
 21
12.35144284148501
 31
0.0
  0
LINE
  5
109
330
104
100
AcDbEntity
  8
基準ﾚｲﾔｸﾞﾙｰﾌﾟ_01
  6
Continuous
 62
     7
370
    13
100
AcDbLine
 10
210.4
 20
12.35144284148501
 30
0.0
 11
215.4
 21
12.35144284148501
 31
0.0
  0
LINE
  5
10A
330
104
100
AcDbEntity
  8
基準ﾚｲﾔｸﾞﾙｰﾌﾟ_01
  6
Continuous
 62
     7
370
    13
100
AcDbLine
 10
215.4
 20
12.35144284148501
 30
0.0
 11
212.9
 21
16.24855715851498
 31
0.0
  0
TEXT
  5
10B
330
104
100
AcDbEntity
  8
基準ﾚｲﾔｸﾞﾙｰﾌﾟ_01
  6
Continuous
 62
     7
370
    13
100
AcDbText
 10
211.6290588378906
 20
12.54898262023926
 30
0.0
 40
2.299999952316284
  1
１
 41
1.4
  7
FX_VECTOR
 72
     5
 11
213.9290587902069
 21
12.54898262023926
 31
0.0
100
AcDbText
  0
ENDBLK
  5
106
330
104
100
AcDbEntity
  8
0
100
AcDbBlockEnd
  0
BLOCK
  5
10D
330
10C
100
AcDbEntity
  8
0
100
AcDbBlockBegin
  2
BLKF026
 70
     0
 10
0.0
 20
0.0
 30
0.0
  3
BLKF026
  1

  0
LINE
  5
110
330
10C
100
AcDbEntity
  8
基準ﾚｲﾔｸﾞﾙｰﾌﾟ_01
  6
Continuous
 62
     7
370
    13
100
AcDbLine
 10
212.9
 20
20.84855715851498
 30
0.0
 11
210.4
 21
16.951442841485
 31
0.0
  0
LINE
  5
111
330
10C
100
AcDbEntity
  8
基準ﾚｲﾔｸﾞﾙｰﾌﾟ_01
  6
Continuous
 62
     7
370
    13
100
AcDbLine
 10
210.4
 20
16.951442841485
 30
0.0
 11
215.4
 21
16.951442841485
 31
0.0
  0
LINE
  5
112
330
10C
100
AcDbEntity
  8
基準ﾚｲﾔｸﾞﾙｰﾌﾟ_01
  6
Continuous
 62
     7
370
    13
100
AcDbLine
 10
215.4
 20
16.951442841485
 30
0.0
 11
212.9
 21
20.84855715851498
 31
0.0
  0
TEXT
  5
113
330
10C
100
AcDbEntity
  8
基準ﾚｲﾔｸﾞﾙｰﾌﾟ_01
  6
Continuous
 62
     7
370
    13
100
AcDbText
 10
211.6290588378906
 20
17.14898300170898
 30
0.0
 40
2.299999952316284
  1
２
 41
1.4
  7
FX_VECTOR
 72
     5
 11
213.9290587902069
 21
17.14898300170898
 31
0.0
100
AcDbText
  0
ENDBLK
  5
10E
330
10C
100
AcDbEntity
  8
0
100
AcDbBlockEnd
  0
BLOCK
  5
115
330
114
100
AcDbEntity
  8
0
100
AcDbBlockBegin
  2
BLKF027
 70
     0
 10
0.0
 20
0.0
 30
0.0
  3
BLKF027
  1

  0
LINE
  5
118
330
114
100
AcDbEntity
  8
基準ﾚｲﾔｸﾞﾙｰﾌﾟ_01
  6
Continuous
 62
     7
370
    13
100
AcDbLine
 10
212.9
 20
25.44855715851498
 30
0.0
 11
210.4
 21
21.551442841485
 31
0.0
  0
LINE
  5
119
330
114
100
AcDbEntity
  8
基準ﾚｲﾔｸﾞﾙｰﾌﾟ_01
  6
Continuous
 62
     7
370
    13
100
AcDbLine
 10
210.4
 20
21.551442841485
 30
0.0
 11
215.4
 21
21.551442841485
 31
0.0
  0
LINE
  5
11A
330
114
100
AcDbEntity
  8
基準ﾚｲﾔｸﾞﾙｰﾌﾟ_01
  6
Continuous
 62
     7
370
    13
100
AcDbLine
 10
215.4
 20
21.551442841485
 30
0.0
 11
212.9
 21
25.44855715851498
 31
0.0
  0
TEXT
  5
11B
330
114
100
AcDbEntity
  8
基準ﾚｲﾔｸﾞﾙｰﾌﾟ_01
  6
Continuous
 62
     7
370
    13
100
AcDbText
 10
211.6290588378906
 20
21.74898147583008
 30
0.0
 40
2.299999952316284
  1
３
 41
1.4
  7
FX_VECTOR
 72
     5
 11
213.9290587902069
 21
21.74898147583008
 31
0.0
100
AcDbText
  0
ENDBLK
  5
116
330
114
100
AcDbEntity
  8
0
100
AcDbBlockEnd
  0
BLOCK
  5
11D
330
11C
100
AcDbEntity
  8
0
100
AcDbBlockBegin
  2
BLKF028
 70
     0
 10
0.0
 20
0.0
 30
0.0
  3
BLKF028
  1

  0
LINE
  5
120
330
11C
100
AcDbEntity
  8
基準ﾚｲﾔｸﾞﾙｰﾌﾟ_01
  6
Continuous
 62
     7
370
    13
100
AcDbLine
 10
212.9
 20
30.04855715851498
 30
0.0
 11
210.4
 21
26.151442841485
 31
0.0
  0
LINE
  5
121
330
11C
100
AcDbEntity
  8
基準ﾚｲﾔｸﾞﾙｰﾌﾟ_01
  6
Continuous
 62
     7
370
    13
100
AcDbLine
 10
210.4
 20
26.151442841485
 30
0.0
 11
215.4
 21
26.151442841485
 31
0.0
  0
LINE
  5
122
330
11C
100
AcDbEntity
  8
基準ﾚｲﾔｸﾞﾙｰﾌﾟ_01
  6
Continuous
 62
     7
370
    13
100
AcDbLine
 10
215.4
 20
26.151442841485
 30
0.0
 11
212.9
 21
30.04855715851498
 31
0.0
  0
TEXT
  5
123
330
11C
100
AcDbEntity
  8
基準ﾚｲﾔｸﾞﾙｰﾌﾟ_01
  6
Continuous
 62
     7
370
    13
100
AcDbText
 10
211.6290588378906
 20
26.3489818572998
 30
0.0
 40
2.299999952316284
  1
４
 41
1.4
  7
FX_VECTOR
 72
     5
 11
213.9290587902069
 21
26.3489818572998
 31
0.0
100
AcDbText
  0
ENDBLK
  5
11E
330
11C
100
AcDbEntity
  8
0
100
AcDbBlockEnd
  0
BLOCK
  5
125
330
124
100
AcDbEntity
  8
0
100
AcDbBlockBegin
  2
BLKF029
 70
     0
 10
0.0
 20
0.0
 30
0.0
  3
BLKF029
  1

  0
LINE
  5
128
330
124
100
AcDbEntity
  8
基準ﾚｲﾔｸﾞﾙｰﾌﾟ_01
  6
Continuous
 62
     7
370
    13
100
AcDbLine
 10
212.9
 20
34.64855715851498
 30
0.0
 11
210.4
 21
30.751442841485
 31
0.0
  0
LINE
  5
129
330
124
100
AcDbEntity
  8
基準ﾚｲﾔｸﾞﾙｰﾌﾟ_01
  6
Continuous
 62
     7
370
    13
100
AcDbLine
 10
210.4
 20
30.751442841485
 30
0.0
 11
215.4
 21
30.751442841485
 31
0.0
  0
LINE
  5
12A
330
124
100
AcDbEntity
  8
基準ﾚｲﾔｸﾞﾙｰﾌﾟ_01
  6
Continuous
 62
     7
370
    13
100
AcDbLine
 10
215.4
 20
30.751442841485
 30
0.0
 11
212.9
 21
34.64855715851498
 31
0.0
  0
TEXT
  5
12B
330
124
100
AcDbEntity
  8
基準ﾚｲﾔｸﾞﾙｰﾌﾟ_01
  6
Continuous
 62
     7
370
    13
100
AcDbText
 10
211.6290588378906
 20
30.94898223876953
 30
0.0
 40
2.299999952316284
  1
５
 41
1.4
  7
FX_VECTOR
 72
     5
 11
213.9290587902069
 21
30.94898223876953
 31
0.0
100
AcDbText
  0
ENDBLK
  5
126
330
124
100
AcDbEntity
  8
0
100
AcDbBlockEnd
  0
BLOCK
  5
12D
330
12C
100
AcDbEntity
  8
0
100
AcDbBlockBegin
  2
BLKF030
 70
     0
 10
0.0
 20
0.0
 30
0.0
  3
BLKF030
  1

  0
LINE
  5
130
330
12C
100
AcDbEntity
  8
基準ﾚｲﾔｸﾞﾙｰﾌﾟ_01
  6
Continuous
 62
     7
370
    13
100
AcDbLine
 10
393.1731842231842
 20
41.36498917748917
 30
0.0
 11
396.1507275132275
 21
41.36498917748917
 31
0.0
  0
LINE
  5
131
330
12C
100
AcDbEntity
  8
基準ﾚｲﾔｸﾞﾙｰﾌﾟ_01
  6
Continuous
 62
     7
370
    13
100
AcDbLine
 10
396.9007275132275
 20
41.36498917748917
 30
0.0
 11
397.9007275132275
 21
41.36498917748917
 31
0.0
  0
LINE
  5
132
330
12C
100
AcDbEntity
  8
基準ﾚｲﾔｸﾞﾙｰﾌﾟ_01
  6
Continuous
 62
     7
370
    13
100
AcDbLine
 10
398.6507275132275
 20
41.36498917748917
 30
0.0
 11
403.9705240595155
 21
41.36498917748917
 31
0.0
  0
LINE
  5
133
330
12C
100
AcDbEntity
  8
基準ﾚｲﾔｸﾞﾙｰﾌﾟ_01
  6
Continuous
 62
     7
370
    13
100
AcDbLine
 10
404.7205240595155
 20
41.36498917748917
 30
0.0
 11
405.7205240595155
 21
41.36498917748917
 31
0.0
  0
LINE
  5
134
330
12C
100
AcDbEntity
  8
基準ﾚｲﾔｸﾞﾙｰﾌﾟ_01
  6
Continuous
 62
     7
370
    13
100
AcDbLine
 10
406.4705240595155
 20
41.36498917748917
 30
0.0
 11
409.6709568626509
 21
41.36498917748917
 31
0.0
  0
LINE
  5
135
330
12C
100
AcDbEntity
  8
基準ﾚｲﾔｸﾞﾙｰﾌﾟ_01
  6
Continuous
 62
     7
370
    13
100
AcDbLine
 10
397.4007275132275
 20
45.59190121142563
 30
0.0
 11
397.4007275132275
 21
42.61498917748917
 31
0.0
  0
LINE
  5
136
330
12C
100
AcDbEntity
  8
基準ﾚｲﾔｸﾞﾙｰﾌﾟ_01
  6
Continuous
 62
     7
370
    13
100
AcDbLine
 10
397.4007275132275
 20
41.86498917748917
 30
0.0
 11
397.4007275132275
 21
40.86498917748917
 31
0.0
  0
LINE
  5
137
330
12C
100
AcDbEntity
  8
基準ﾚｲﾔｸﾞﾙｰﾌﾟ_01
  6
Continuous
 62
     7
370
    13
100
AcDbLine
 10
397.4007275132275
 20
40.11498917748917
 30
0.0
 11
397.4007275132275
 21
37.29376533729637
 31
0.0
  0
INSERT
  5
13B
330
12C
100
AcDbEntity
  8
基準ﾚｲﾔｸﾞﾙｰﾌﾟ_01
  6
Continuous
 62
     3
370
    35
100
AcDbBlockReference
  2
BLKF031
 10
0.0
 20
0.0
 30
0.0
  0
ENDBLK
  5
12E
330
12C
100
AcDbEntity
  8
0
100
AcDbBlockEnd
  0
BLOCK
  5
139
330
138
100
AcDbEntity
  8
0
100
AcDbBlockBegin
  2
BLKF031
 70
     0
 10
0.0
 20
0.0
 30
0.0
  3
BLKF031
  1

  0
CIRCLE
  5
13C
330
138
100
AcDbEntity
  8
基準ﾚｲﾔｸﾞﾙｰﾌﾟ_01
  6
Continuous
 62
     3
370
    35
100
AcDbCircle
 10
397.4007275132275
 20
41.36498917748917
 30
0.0
 40
3.0
  0
CIRCLE
  5
13D
330
138
100
AcDbEntity
  8
基準ﾚｲﾔｸﾞﾙｰﾌﾟ_01
  6
Continuous
 62
     3
370
    35
100
AcDbCircle
 10
397.4007275132275
 20
41.36498917748917
 30
0.0
 40
1.8
  0
LINE
  5
13E
330
138
100
AcDbEntity
  8
基準ﾚｲﾔｸﾞﾙｰﾌﾟ_01
  6
Continuous
 62
     3
370
    35
100
AcDbLine
 10
402.2007275132275
 20
43.16498917748915
 30
0.0
 11
402.2007275132275
 21
39.56498917748916
 31
0.0
  0
LINE
  5
13F
330
138
100
AcDbEntity
  8
基準ﾚｲﾔｸﾞﾙｰﾌﾟ_01
  6
Continuous
 62
     3
370
    35
100
AcDbLine
 10
408.2007275132275
 20
44.36498917748917
 30
0.0
 11
408.2007275132275
 21
38.36498917748917
 31
0.0
  0
LINE
  5
140
330
138
100
AcDbEntity
  8
基準ﾚｲﾔｸﾞﾙｰﾌﾟ_01
  6
Continuous
 62
     3
370
    35
100
AcDbLine
 10
402.2007275132275
 20
43.16498917748915
 30
0.0
 11
408.2007275132275
 21
44.36498917748917
 31
0.0
  0
LINE
  5
141
330
138
100
AcDbEntity
  8
基準ﾚｲﾔｸﾞﾙｰﾌﾟ_01
  6
Continuous
 62
     3
370
    35
100
AcDbLine
 10
402.2007275132275
 20
39.56498917748916
 30
0.0
 11
408.2007275132275
 21
38.36498917748917
 31
0.0
  0
ENDBLK
  5
13A
330
138
100
AcDbEntity
  8
0
100
AcDbBlockEnd
  0
BLOCK
  5
143
330
142
100
AcDbEntity
  8
0
100
AcDbBlockBegin
  2
BLKF032
 70
     0
 10
0.0
 20
0.0
 30
0.0
  3
BLKF032
  1

  0
LINE
  5
146
330
142
100
AcDbEntity
  8
基準ﾚｲﾔｸﾞﾙｰﾌﾟ_01
  6
Continuous
 62
     3
370
    35
100
AcDbLine
 10
299.0
 20
12.0
 30
0.0
 11
210.0
 21
12.0
 31
0.0
  0
LINE
  5
147
330
142
100
AcDbEntity
  8
基準ﾚｲﾔｸﾞﾙｰﾌﾟ_01
  6
Continuous
 62
     7
370
    13
100
AcDbLine
 10
210.0
 20
30.39999999999999
 30
0.0
 11
299.0
 21
30.39999999999999
 31
0.0
  0
LINE
  5
148
330
142
100
AcDbEntity
  8
基準ﾚｲﾔｸﾞﾙｰﾌﾟ_01
  6
Continuous
 62
     7
370
    13
100
AcDbLine
 10
210.0
 20
25.8
 30
0.0
 11
299.0
 21
25.8
 31
0.0
  0
LINE
  5
149
330
142
100
AcDbEntity
  8
基準ﾚｲﾔｸﾞﾙｰﾌﾟ_01
  6
Continuous
 62
     7
370
    13
100
AcDbLine
 10
210.0
 20
21.2
 30
0.0
 11
299.0
 21
21.2
 31
0.0
  0
LINE
  5
14A
330
142
100
AcDbEntity
  8
基準ﾚｲﾔｸﾞﾙｰﾌﾟ_01
  6
Continuous
 62
     7
370
    13
100
AcDbLine
 10
210.0
 20
16.59999999999999
 30
0.0
 11
299.0
 21
16.59999999999999
 31
0.0
  0
LINE
  5
14B
330
142
100
AcDbEntity
  8
基準ﾚｲﾔｸﾞﾙｰﾌﾟ_01
  6
Continuous
 62
     7
370
    13
100
AcDbLine
 10
359.0
 20
16.0
 30
0.0
 11
413.0
 21
16.0
 31
0.0
  0
LINE
  5
14C
330
142
100
AcDbEntity
  8
基準ﾚｲﾔｸﾞﾙｰﾌﾟ_01
  6
Continuous
 62
     3
370
    35
100
AcDbLine
 10
210.0
 20
34.99999999999999
 30
0.0
 11
413.0
 21
34.99999999999999
 31
0.0
  0
LINE
  5
14D
330
142
100
AcDbEntity
  8
基準ﾚｲﾔｸﾞﾙｰﾌﾟ_01
  6
Continuous
 62
     7
370
    13
100
AcDbLine
 10
299.0
 20
35.0
 30
0.0
 11
299.0
 21
8.0
 31
0.0
  0
LINE
  5
14E
330
142
100
AcDbEntity
  8
基準ﾚｲﾔｸﾞﾙｰﾌﾟ_01
  6
Continuous
 62
     7
370
    13
100
AcDbLine
 10
216.0
 20
34.99999999999999
 30
0.0
 11
216.0
 21
8.0
 31
0.0
  0
LINE
  5
14F
330
142
100
AcDbEntity
  8
基準ﾚｲﾔｸﾞﾙｰﾌﾟ_01
  6
Continuous
 62
     7
370
    13
100
AcDbLine
 10
231.9999999999999
 20
34.99999999999999
 30
0.0
 11
231.9999999999999
 21
8.0
 31
0.0
  0
LINE
  5
150
330
142
100
AcDbEntity
  8
基準ﾚｲﾔｸﾞﾙｰﾌﾟ_01
  6
Continuous
 62
     7
370
    13
100
AcDbLine
 10
293.0
 20
34.99999999999999
 30
0.0
 11
293.0
 21
8.0
 31
0.0
  0
LINE
  5
151
330
142
100
AcDbEntity
  8
基準ﾚｲﾔｸﾞﾙｰﾌﾟ_01
  6
Continuous
 62
     7
370
    13
100
AcDbLine
 10
287.0
 20
34.99999999999999
 30
0.0
 11
287.0
 21
8.0
 31
0.0
  0
LINE
  5
152
330
142
100
AcDbEntity
  8
基準ﾚｲﾔｸﾞﾙｰﾌﾟ_01
  6
Continuous
 62
     7
370
    13
100
AcDbLine
 10
299.0
 20
26.99999999999999
 30
0.0
 11
413.0
 21
27.0
 31
0.0
  0
LINE
  5
153
330
142
100
AcDbEntity
  8
基準ﾚｲﾔｸﾞﾙｰﾌﾟ_01
  6
Continuous
 62
     7
370
    13
100
AcDbLine
 10
299.0
 20
22.99999999999999
 30
0.0
 11
359.0
 21
22.99999999999999
 31
0.0
  0
LINE
  5
154
330
142
100
AcDbEntity
  8
基準ﾚｲﾔｸﾞﾙｰﾌﾟ_01
  6
Continuous
 62
     7
370
    13
100
AcDbLine
 10
299.0
 20
18.99999999999999
 30
0.0
 11
359.0
 21
18.99999999999999
 31
0.0
  0
LINE
  5
155
330
142
100
AcDbEntity
  8
基準ﾚｲﾔｸﾞﾙｰﾌﾟ_01
  6
Continuous
 62
     7
370
    13
100
AcDbLine
 10
347.0
 20
34.99999999999999
 30
0.0
 11
347.0
 21
8.0
 31
0.0
  0
LINE
  5
156
330
142
100
AcDbEntity
  8
基準ﾚｲﾔｸﾞﾙｰﾌﾟ_01
  6
Continuous
 62
     7
370
    13
100
AcDbLine
 10
351.0
 20
34.99999999999998
 30
0.0
 11
351.0
 21
26.99999999999999
 31
0.0
  0
LINE
  5
157
330
142
100
AcDbEntity
  8
基準ﾚｲﾔｸﾞﾙｰﾌﾟ_01
  6
Continuous
 62
     7
370
    13
100
AcDbLine
 10
359.0
 20
26.99999999999999
 30
0.0
 11
359.0
 21
8.0
 31
0.0
  0
LINE
  5
158
330
142
100
AcDbEntity
  8
基準ﾚｲﾔｸﾞﾙｰﾌﾟ_01
  6
Continuous
 62
     7
370
    13
100
AcDbLine
 10
363.0
 20
26.99999999999999
 30
0.0
 11
363.0
 21
8.0
 31
0.0
  0
TEXT
  5
159
330
142
100
AcDbEntity
  8
基準ﾚｲﾔｸﾞﾙｰﾌﾟ_01
  6
Continuous
 62
     7
370
    13
100
AcDbText
 10
363.4789428710938
 20
9.89869213104248
 30
0.0
 40
4.0
  1
ＳＤＫ－
 41
0.8521738985310431
 51
10.0
  7
FX_VECTOR
 72
     5
 11
374.6789426803589
 21
9.89869213104248
 31
0.0
100
AcDbText
  0
TEXT
  5
15A
330
142
100
AcDbEntity
  8
基準ﾚｲﾔｸﾞﾙｰﾌﾟ_01
  6
Continuous
 62
     7
370
    13
100
AcDbText
 10
359.5
 20
12.0986499786377
 30
0.0
 40
3.0
  1
図
 41
1.4
  7
FX_VECTOR
 72
     5
 11
362.5
 21
12.0986499786377
 31
0.0
100
AcDbText
  0
TEXT
  5
15B
330
142
100
AcDbEntity
  8
基準ﾚｲﾔｸﾞﾙｰﾌﾟ_01
  6
Continuous
 62
     7
370
    13
100
AcDbText
 10
359.5
 20
8.42890739440918
 30
0.0
 40
3.0
  1
番
 41
1.4
  7
FX_VECTOR
 72
     5
 11
362.5
 21
8.42890739440918
 31
0.0
100
AcDbText
  0
TEXT
  5
15C
330
142
100
AcDbEntity
  8
基準ﾚｲﾔｸﾞﾙｰﾌﾟ_01
  6
Continuous
 62
     7
370
    13
100
AcDbText
 10
359.5
 20
21.82609748840332
 30
0.0
 40
3.0
  1
名
 41
1.4
  7
FX_VECTOR
 72
     5
 11
362.5
 21
21.82609748840332
 31
0.0
100
AcDbText
  0
TEXT
  5
15D
330
142
100
AcDbEntity
  8
基準ﾚｲﾔｸﾞﾙｰﾌﾟ_01
  6
Continuous
 62
     7
370
    13
100
AcDbText
 10
359.5
 20
17.10677909851074
 30
0.0
 40
3.0
  1
称
 41
1.4
  7
FX_VECTOR
 72
     5
 11
362.5
 21
17.10677909851074
 31
0.0
100
AcDbText
  0
TEXT
  5
15E
330
142
100
AcDbEntity
  8
基準ﾚｲﾔｸﾞﾙｰﾌﾟ_01
  6
Continuous
 62
     7
370
    13
100
AcDbText
 10
347.5
 20
31.14675331115723
 30
0.0
 40
3.0
  1
形
 41
1.4
  7
FX_VECTOR
 72
     5
 11
350.5
 21
31.14675331115723
 31
0.0
100
AcDbText
  0
TEXT
  5
15F
330
142
100
AcDbEntity
  8
基準ﾚｲﾔｸﾞﾙｰﾌﾟ_01
  6
Continuous
 62
     7
370
    13
100
AcDbText
 10
347.5
 20
27.41062545776367
 30
0.0
 40
3.0
  1
式
 41
1.4
  7
FX_VECTOR
 72
     5
 11
350.5
 21
27.41062545776367
 31
0.0
100
AcDbText
  0
LINE
  5
160
330
142
100
AcDbEntity
  8
基準ﾚｲﾔｸﾞﾙｰﾌﾟ_01
  6
Continuous
 62
     7
370
    13
100
AcDbLine
 10
349.3058362286313
 20
13.5
 30
0.0
 11
356.7812374938185
 21
13.5
 31
0.0
  0
LINE
  5
161
330
142
100
AcDbEntity
  8
基準ﾚｲﾔｸﾞﾙｰﾌﾟ_01
  6
Continuous
 62
     7
370
    13
100
AcDbLine
 10
335.0
 20
22.99999999999999
 30
0.0
 11
335.0
 21
8.0
 31
0.0
  0
LINE
  5
162
330
142
100
AcDbEntity
  8
基準ﾚｲﾔｸﾞﾙｰﾌﾟ_01
  6
Continuous
 62
     7
370
    13
100
AcDbLine
 10
323.0
 20
22.99999999999999
 30
0.0
 11
323.0
 21
8.0
 31
0.0
  0
LINE
  5
163
330
142
100
AcDbEntity
  8
基準ﾚｲﾔｸﾞﾙｰﾌﾟ_01
  6
Continuous
 62
     7
370
    13
100
AcDbLine
 10
311.0
 20
22.99999999999999
 30
0.0
 11
311.0
 21
8.0
 31
0.0
  0
TEXT
  5
165
330
142
100
AcDbEntity
  8
基準ﾚｲﾔｸﾞﾙｰﾌﾟ_01
  6
Continuous
 62
     3
370
    25
100
AcDbText
 10
307.1053161621094
 20
29.35627316561612
 30
0.0
 40
3.409090909090909
  1
澤村電気工業株式会社
 41
0.8574358866764948
  7
ＭＳ ゴシック
 11
307.1053161621094
 21
28.73352813720703
 31
0.0
100
AcDbText
 73
     1
  0
LINE
  5
166
330
142
100
AcDbEntity
  8
基準ﾚｲﾔｸﾞﾙｰﾌﾟ_01
  6
Continuous
 62
     7
370
    13
100
AcDbLine
 10
305.0
 20
30.99999999999996
 30
0.0
 11
304.0
 21
30.99999999999996
 31
0.0
  0
CIRCLE
  5
167
330
142
100
AcDbEntity
  8
基準ﾚｲﾔｸﾞﾙｰﾌﾟ_01
  6
Continuous
 62
     7
370
    13
100
AcDbCircle
 10
303.0
 20
30.99999999999996
 30
0.0
 40
2.0
  0
CIRCLE
  5
168
330
142
100
AcDbEntity
  8
基準ﾚｲﾔｸﾞﾙｰﾌﾟ_01
  6
Continuous
 62
     7
370
    13
100
AcDbCircle
 10
303.0
 20
30.99999999999996
 30
0.0
 40
2.32
  0
LINE
  5
169
330
142
100
AcDbEntity
  8
基準ﾚｲﾔｸﾞﾙｰﾌﾟ_01
  6
Continuous
 62
     7
370
    13
100
AcDbLine
 10
302.0
 20
30.99999999999996
 30
0.0
 11
302.0
 21
31.99999999999996
 31
0.0
  0
LINE
  5
16A
330
142
100
AcDbEntity
  8
基準ﾚｲﾔｸﾞﾙｰﾌﾟ_01
  6
Continuous
 62
     7
370
    13
100
AcDbLine
 10
304.0
 20
29.99999999999996
 30
0.0
 11
304.0
 21
30.99999999999996
 31
0.0
  0
LINE
  5
16B
330
142
100
AcDbEntity
  8
基準ﾚｲﾔｸﾞﾙｰﾌﾟ_01
  6
Continuous
 62
     7
370
    13
100
AcDbLine
 10
305.0
 20
30.99999999999996
 30
0.0
 11
302.0
 21
31.99999999999996
 31
0.0
  0
LINE
  5
16C
330
142
100
AcDbEntity
  8
基準ﾚｲﾔｸﾞﾙｰﾌﾟ_01
  6
Continuous
 62
     7
370
    13
100
AcDbLine
 10
301.0
 20
30.99999999999996
 30
0.0
 11
304.0
 21
29.99999999999996
 31
0.0
  0
LINE
  5
16D
330
142
100
AcDbEntity
  8
基準ﾚｲﾔｸﾞﾙｰﾌﾟ_01
  6
Continuous
 62
     7
370
    13
100
AcDbLine
 10
302.0
 20
30.99999999999996
 30
0.0
 11
301.0
 21
30.99999999999996
 31
0.0
  0
HATCH
  5
16E
330
142
100
AcDbEntity
  8
基準ﾚｲﾔｸﾞﾙｰﾌﾟ_01
  6
Continuous
 62
     7
370
    -3
100
AcDbHatch
 10
0.0
 20
0.0
 30
0.0
210
0.0
220
0.0
230
1.0
  2
SOLID
 70
     1
 71
     1
 91
        3
 92
        0
 93
        6
 72
     1
 10
304.0000000000001
 20
30.99999999999996
 11
305.0
 21
30.99999999999996
 72
     1
 10
305.0
 20
30.99999999999996
 11
302.0000000000001
 21
31.99999999999996
 72
     1
 10
302.0
 20
31.99999999999996
 11
302.0
 21
30.99999999999996
 72
     1
 10
302.0
 20
30.99999999999996
 11
301.0
 21
30.99999999999996
 72
     1
 10
301.0
 20
30.99999999999996
 11
304.0000000000001
 21
29.99999999999996
 72
     1
 10
304.0
 20
29.99999999999996
 11
304.0000000000001
 21
30.99999999999996
 97
        0
 92
        0
 93
        1
 72
     2
 10
303.0
 20
30.99999999999996
 40
2.32
 50
0.0
 51
360.0
 73
     1
 97
        0
 92
        0
 93
        1
 72
     2
 10
303.0
 20
30.99999999999996
 40
2.0
 50
0.0
 51
360.0
 73
     1
 97
        0
 75
     0
 76
     1
 98
        0
  0
TEXT
  5
16F
330
142
100
AcDbEntity
  8
基準ﾚｲﾔｸﾞﾙｰﾌﾟ_01
  6
Continuous
 62
     7
370
    13
100
AcDbText
 10
312.6295166015625
 20
23.37472915649414
 30
0.0
 40
3.0
  1
年　　月　　日
 41
1.195121951219512
  7
FX_VECTOR
 72
     5
 11
333.6295166015625
 21
23.37472915649414
 31
0.0
100
AcDbText
  0
TEXT
  5
170
330
142
100
AcDbEntity
  8
基準ﾚｲﾔｸﾞﾙｰﾌﾟ_01
  6
Continuous
 62
     7
370
    13
100
AcDbText
 10
336.9027709960938
 20
23.30051422119141
 30
0.0
 40
3.299999952316284
  1
作成
 41
1.272727272727273
  7
FX_VECTOR
 72
     5
 11
343.5027709007263
 21
23.30051422119141
 31
0.0
100
AcDbText
  0
TEXT
  5
171
330
142
100
AcDbEntity
  8
基準ﾚｲﾔｸﾞﾙｰﾌﾟ_01
  6
Continuous
 62
     7
370
    13
100
AcDbText
 10
349.5266723632812
 20
19.28826141357422
 30
0.0
 40
3.299999952316284
  1
尺度
 41
1.465564741078437
  7
FX_VECTOR
 72
     5
 11
357.1266722679138
 21
19.28826141357422
 31
0.0
100
AcDbText
  0
TEXT
  5
172
330
142
100
AcDbEntity
  8
基準ﾚｲﾔｸﾞﾙｰﾌﾟ_01
  6
Continuous
 62
     7
370
    13
100
AcDbText
 10
337.5266723632812
 20
19.28826141357422
 30
0.0
 40
3.299999952316284
  1
製図
 41
1.465564741078437
  7
FX_VECTOR
 72
     5
 11
345.1266722679138
 21
19.28826141357422
 31
0.0
100
AcDbText
  0
TEXT
  5
173
330
142
100
AcDbEntity
  8
基準ﾚｲﾔｸﾞﾙｰﾌﾟ_01
  6
Continuous
 62
     7
370
    13
100
AcDbText
 10
325.5266723632812
 20
19.28826141357422
 30
0.0
 40
3.299999952316284
  1
設計
 41
1.465564741078437
  7
FX_VECTOR
 72
     5
 11
333.1266722679138
 21
19.28826141357422
 31
0.0
100
AcDbText
  0
TEXT
  5
174
330
142
100
AcDbEntity
  8
基準ﾚｲﾔｸﾞﾙｰﾌﾟ_01
  6
Continuous
 62
     7
370
    13
100
AcDbText
 10
313.5266723632812
 20
19.28826141357422
 30
0.0
 40
3.299999952316284
  1
検図
 41
1.465564741078437
  7
FX_VECTOR
 72
     5
 11
321.1266722679138
 21
19.28826141357422
 31
0.0
100
AcDbText
  0
TEXT
  5
175
330
142
100
AcDbEntity
  8
基準ﾚｲﾔｸﾞﾙｰﾌﾟ_01
  6
Continuous
 62
     7
370
    13
100
AcDbText
 10
301.5266723632812
 20
19.28826141357422
 30
0.0
 40
3.299999952316284
  1
承認
 41
1.465564741078437
  7
FX_VECTOR
 72
     5
 11
309.1266722679138
 21
19.28826141357422
 31
0.0
100
AcDbText
  0
TEXT
  5
176
330
142
100
AcDbEntity
  8
基準ﾚｲﾔｸﾞﾙｰﾌﾟ_01
  6
Continuous
 62
     7
370
    13
100
AcDbText
 10
293.5
 20
8.857329368591309
 30
0.0
 40
2.5
  1
担当
 41
1.272727272727273
  7
FX_VECTOR
 72
     5
 11
298.5
 21
8.857329368591309
 31
0.0
100
AcDbText
  0
TEXT
  5
177
330
142
100
AcDbEntity
  8
基準ﾚｲﾔｸﾞﾙｰﾌﾟ_01
  6
Continuous
 62
     7
370
    13
100
AcDbText
 10
253.0
 20
8.857329368591309
 30
0.0
 40
2.5
  1
変更理由
 41
1.582608695652174
  7
FX_VECTOR
 72
     5
 11
266.0
 21
8.857329368591309
 31
0.0
100
AcDbText
  0
TEXT
  5
178
330
142
100
AcDbEntity
  8
基準ﾚｲﾔｸﾞﾙｰﾌﾟ_01
  6
Continuous
 62
     7
370
    13
100
AcDbText
 10
217.75
 20
8.857329368591309
 30
0.0
 40
2.5
  1
変更発行日
 41
1.206896551724138
  7
FX_VECTOR
 72
     5
 11
230.25
 21
8.857329368591309
 31
0.0
100
AcDbText
  0
TEXT
  5
179
330
142
100
AcDbEntity
  8
基準ﾚｲﾔｸﾞﾙｰﾌﾟ_01
  6
Continuous
 62
     7
370
    13
100
AcDbText
 10
210.5
 20
8.857329368591309
 30
0.0
 40
2.5
  1
番号
 41
1.272727272727273
  7
FX_VECTOR
 72
     5
 11
215.5
 21
8.857329368591309
 31
0.0
100
AcDbText
  0
TEXT
  5
17A
330
142
100
AcDbEntity
  8
基準ﾚｲﾔｸﾞﾙｰﾌﾟ_01
  6
Continuous
 62
     7
370
    13
100
AcDbText
 10
287.5
 20
8.857329368591309
 30
0.0
 40
2.5
  1
確認
 41
1.272727272727273
  7
FX_VECTOR
 72
     5
 11
292.5
 21
8.857329368591309
 31
0.0
100
AcDbText
  0
LINE
  5
17B
330
142
100
AcDbEntity
  8
基準ﾚｲﾔｸﾞﾙｰﾌﾟ_01
  6
Continuous
 62
     7
370
    13
100
AcDbLine
 10
299.0
 20
8.0
 30
0.0
 11
311.0
 21
18.99999999999999
 31
0.0
  0
CIRCLE
  5
17C
330
142
100
AcDbEntity
  8
基準ﾚｲﾔｸﾞﾙｰﾌﾟ_01
  6
Continuous
 62
     3
370
    35
100
AcDbCircle
 10
221.3666666666667
 20
32.30855715851497
 30
0.0
 40
0.15
  0
CIRCLE
  5
17D
330
142
100
AcDbEntity
  8
基準ﾚｲﾔｸﾞﾙｰﾌﾟ_01
  6
Continuous
 62
     3
370
    35
100
AcDbCircle
 10
226.7333333333333
 20
32.30855715851497
 30
0.0
 40
0.15
  0
CIRCLE
  5
17E
330
142
100
AcDbEntity
  8
基準ﾚｲﾔｸﾞﾙｰﾌﾟ_01
  6
Continuous
 62
     3
370
    35
100
AcDbCircle
 10
221.3666666666667
 20
27.70855715851498
 30
0.0
 40
0.15
  0
CIRCLE
  5
17F
330
142
100
AcDbEntity
  8
基準ﾚｲﾔｸﾞﾙｰﾌﾟ_01
  6
Continuous
 62
     3
370
    35
100
AcDbCircle
 10
226.7333333333333
 20
27.70855715851498
 30
0.0
 40
0.15
  0
CIRCLE
  5
180
330
142
100
AcDbEntity
  8
基準ﾚｲﾔｸﾞﾙｰﾌﾟ_01
  6
Continuous
 62
     3
370
    35
100
AcDbCircle
 10
221.3666666666667
 20
23.10855715851498
 30
0.0
 40
0.15
  0
CIRCLE
  5
181
330
142
100
AcDbEntity
  8
基準ﾚｲﾔｸﾞﾙｰﾌﾟ_01
  6
Continuous
 62
     3
370
    35
100
AcDbCircle
 10
226.7333333333333
 20
23.10855715851498
 30
0.0
 40
0.15
  0
CIRCLE
  5
182
330
142
100
AcDbEntity
  8
基準ﾚｲﾔｸﾞﾙｰﾌﾟ_01
  6
Continuous
 62
     3
370
    35
100
AcDbCircle
 10
221.3666666666667
 20
18.50855715851498
 30
0.0
 40
0.15
  0
CIRCLE
  5
183
330
142
100
AcDbEntity
  8
基準ﾚｲﾔｸﾞﾙｰﾌﾟ_01
  6
Continuous
 62
     3
370
    35
100
AcDbCircle
 10
226.7333333333333
 20
18.50855715851498
 30
0.0
 40
0.15
  0
CIRCLE
  5
184
330
142
100
AcDbEntity
  8
基準ﾚｲﾔｸﾞﾙｰﾌﾟ_01
  6
Continuous
 62
     3
370
    35
100
AcDbCircle
 10
221.3666666666667
 20
13.90855715851498
 30
0.0
 40
0.15
  0
CIRCLE
  5
185
330
142
100
AcDbEntity
  8
基準ﾚｲﾔｸﾞﾙｰﾌﾟ_01
  6
Continuous
 62
     3
370
    35
100
AcDbCircle
 10
226.7333333333333
 20
13.90855715851498
 30
0.0
 40
0.15
  0
LINE
  5
186
330
142
100
AcDbEntity
  8
基準ﾚｲﾔｸﾞﾙｰﾌﾟ_01
  6
Continuous
 62
     3
370
    35
100
AcDbLine
 10
210.0
 20
34.99999999999999
 30
0.0
 11
210.0
 21
8.0
 31
0.0
  0
ENDBLK
  5
144
330
142
100
AcDbEntity
  8
0
100
AcDbBlockEnd
  0
BLOCK
  5
19B
330
19A
100
AcDbEntity
  8
0
100
AcDbBlockBegin
  2
BLKF033
 70
     0
 10
0.0
 20
0.0
 30
0.0
  3
BLKF033
  1

  0
LINE
  5
19E
330
19A
100
AcDbEntity
  8
GR1_01
  6
Continuous
 62
     3
370
    35
100
AcDbLine
 10
191.1868545164835
 20
156.3811659192823
 30
0.0
 11
191.1868545164834
 21
234.3811659192824
 31
0.0
  0
LINE
  5
19F
330
19A
100
AcDbEntity
  8
GR1_01
  6
Continuous
 62
     3
370
    35
100
AcDbLine
 10
197.1868545164835
 20
155.3811659192823
 30
0.0
 11
192.1868545164835
 21
155.3811659192823
 31
0.0
  0
LINE
  5
1A0
330
19A
100
AcDbEntity
  8
GR1_01
  6
Continuous
 62
     3
370
    35
100
AcDbLine
 10
197.1868545164834
 20
235.3811659192823
 30
0.0
 11
192.1868545164834
 21
235.3811659192824
 31
0.0
  0
ARC
  5
1A1
330
19A
100
AcDbEntity
  8
GR1_01
  6
Continuous
 62
     3
370
    35
100
AcDbCircle
 10
192.1868545164834
 20
234.3811659192824
 30
0.0
 40
1.0
100
AcDbArc
 50
90.0
 51
180.0
  0
ARC
  5
1A2
330
19A
100
AcDbEntity
  8
GR1_01
  6
Continuous
 62
     3
370
    35
100
AcDbCircle
 10
192.1868545164835
 20
156.3811659192823
 30
0.0
 40
1.0
100
AcDbArc
 50
180.0
 51
270.0
  0
LINE
  5
1A3
330
19A
100
AcDbEntity
  8
GR1_01
  6
Continuous
 62
     3
370
    35
100
AcDbLine
 10
190.6868545164835
 20
170.3811659192824
 30
0.0
 11
190.6868545164834
 21
220.3811659192824
 31
0.0
  0
LINE
  5
1A4
330
19A
100
AcDbEntity
  8
GR1_01
  6
Continuous
 62
     3
370
    35
100
AcDbLine
 10
191.1868545164835
 20
170.3811659192823
 30
0.0
 11
190.6868545164835
 21
170.3811659192823
 31
0.0
  0
LINE
  5
1A5
330
19A
100
AcDbEntity
  8
GR1_01
  6
Continuous
 62
     3
370
    35
100
AcDbLine
 10
191.1868545164834
 20
220.3811659192824
 30
0.0
 11
190.6868545164834
 21
220.3811659192824
 31
0.0
  0
LINE
  5
1A6
330
19A
100
AcDbEntity
  8
GR1_01
  6
Continuous
 62
     3
370
    35
100
AcDbLine
 10
197.1868545164835
 20
155.3811659192823
 30
0.0
 11
197.1868545164834
 21
235.3811659192822
 31
0.0
  0
ENDBLK
  5
19C
330
19A
100
AcDbEntity
  8
0
100
AcDbBlockEnd
  0
BLOCK
  5
1B8
330
1B7
100
AcDbEntity
  8
0
100
AcDbBlockBegin
  2
BLKF034
 70
     0
 10
0.0
 20
0.0
 30
0.0
  3
BLKF034
  1

  0
CIRCLE
  5
1BB
330
1B7
100
AcDbEntity
  8
GR1_01
  6
Continuous
 62
     3
370
    35
100
AcDbCircle
 10
362.4247493943161
 20
164.3811659192824
 30
0.0
 40
3.5
  0
LINE
  5
1BC
330
1B7
100
AcDbEntity
  8
GR1_01
  6
Continuous
 62
     3
370
    35
100
AcDbLine
 10
361.9247493943161
 20
166.4811659192823
 30
0.0
 11
362.9247493943161
 21
166.4811659192823
 31
0.0
  0
LINE
  5
1BD
330
1B7
100
AcDbEntity
  8
GR1_01
  6
Continuous
 62
     3
370
    35
100
AcDbLine
 10
364.5247493943161
 20
164.8811659192824
 30
0.0
 11
364.5247493943161
 21
163.8811659192824
 31
0.0
  0
LINE
  5
1BE
330
1B7
100
AcDbEntity
  8
GR1_01
  6
Continuous
 62
     3
370
    35
100
AcDbLine
 10
361.9247493943161
 20
162.2811659192824
 30
0.0
 11
362.9247493943161
 21
162.2811659192824
 31
0.0
  0
LINE
  5
1BF
330
1B7
100
AcDbEntity
  8
GR1_01
  6
Continuous
 62
     3
370
    35
100
AcDbLine
 10
360.324749394316
 20
164.8811659192824
 30
0.0
 11
360.324749394316
 21
163.8811659192824
 31
0.0
  0
ARC
  5
1C0
330
1B7
100
AcDbEntity
  8
GR1_01
  6
Continuous
 62
     3
370
    35
100
AcDbCircle
 10
364.5247493943161
 20
166.4811659192823
 30
0.0
 40
1.600000000000023
100
AcDbArc
 50
180.0
 51
270.0
  0
ARC
  5
1C1
330
1B7
100
AcDbEntity
  8
GR1_01
  6
Continuous
 62
     3
370
    35
100
AcDbCircle
 10
360.324749394316
 20
166.4811659192823
 30
0.0
 40
1.600000000000023
100
AcDbArc
 50
270.0
 51
0.0
  0
ARC
  5
1C2
330
1B7
100
AcDbEntity
  8
GR1_01
  6
Continuous
 62
     3
370
    35
100
AcDbCircle
 10
360.324749394316
 20
162.2811659192824
 30
0.0
 40
1.600000000000023
100
AcDbArc
 50
0.0
 51
90.0
  0
ARC
  5
1C3
330
1B7
100
AcDbEntity
  8
GR1_01
  6
Continuous
 62
     3
370
    35
100
AcDbCircle
 10
364.5247493943161
 20
162.2811659192824
 30
0.0
 40
1.600000000000023
100
AcDbArc
 50
90.0
 51
180.0
  0
ENDBLK
  5
1B9
330
1B7
100
AcDbEntity
  8
0
100
AcDbBlockEnd
  0
BLOCK
  5
1C7
330
1C6
100
AcDbEntity
  8
0
100
AcDbBlockBegin
  2
BLKF035
 70
     0
 10
0.0
 20
0.0
 30
0.0
  3
BLKF035
  1

  0
CIRCLE
  5
1CA
330
1C6
100
AcDbEntity
  8
GR1_01
  6
Continuous
 62
     3
370
    35
100
AcDbCircle
 10
389.2715369116337
 20
210.8811659192822
 30
0.0
 40
3.5
  0
LINE
  5
1CB
330
1C6
100
AcDbEntity
  8
GR1_01
  6
Continuous
 62
     3
370
    35
100
AcDbLine
 10
387.7028835636864
 20
209.39815321739
 30
0.0
 11
387.2028835636864
 21
210.2641786211745
 31
0.0
  0
LINE
  5
1CC
330
1C6
100
AcDbEntity
  8
GR1_01
  6
Continuous
 62
     3
370
    35
100
AcDbLine
 10
387.7885242097415
 20
212.4498192672296
 30
0.0
 11
388.6545496135259
 21
212.9498192672296
 31
0.0
  0
LINE
  5
1CD
330
1C6
100
AcDbEntity
  8
GR1_01
  6
Continuous
 62
     3
370
    35
100
AcDbLine
 10
391.340190259581
 20
211.49815321739
 30
0.0
 11
390.840190259581
 21
212.3641786211745
 31
0.0
  0
LINE
  5
1CE
330
1C6
100
AcDbEntity
  8
GR1_01
  6
Continuous
 62
     3
370
    35
100
AcDbLine
 10
389.8885242097415
 20
208.8125125713349
 30
0.0
 11
390.7545496135259
 21
209.3125125713349
 31
0.0
  0
ARC
  5
1CF
330
1C6
100
AcDbEntity
  8
GR1_01
  6
Continuous
 62
     3
370
    35
100
AcDbCircle
 10
386.4028835636864
 20
211.6498192672296
 30
0.0
 40
1.600000000000023
100
AcDbArc
 50
300.0
 51
30.00000000000002
  0
ARC
  5
1D0
330
1C6
100
AcDbEntity
  8
GR1_01
  6
Continuous
 62
     3
370
    35
100
AcDbCircle
 10
388.5028835636864
 20
208.0125125713349
 30
0.0
 40
1.600000000000023
100
AcDbArc
 50
30.0
 51
120.0
  0
ARC
  5
1D1
330
1C6
100
AcDbEntity
  8
GR1_01
  6
Continuous
 62
     3
370
    35
100
AcDbCircle
 10
392.140190259581
 20
210.1125125713349
 30
0.0
 40
1.600000000000023
100
AcDbArc
 50
120.0
 51
210.0
  0
ARC
  5
1D2
330
1C6
100
AcDbEntity
  8
GR1_01
  6
Continuous
 62
     3
370
    35
100
AcDbCircle
 10
390.040190259581
 20
213.7498192672296
 30
0.0
 40
1.600000000000023
100
AcDbArc
 50
210.0
 51
300.0
  0
ENDBLK
  5
1C8
330
1C6
100
AcDbEntity
  8
0
100
AcDbBlockEnd
  0
BLOCK
  5
1D7
330
1D6
100
AcDbEntity
  8
0
100
AcDbBlockBegin
  2
BLKF036
 70
     0
 10
0.0
 20
0.0
 30
0.0
  3
BLKF036
  1

  0
CIRCLE
  5
1DA
330
1D6
100
AcDbEntity
  8
GR1_01
  6
Continuous
 62
     3
370
    35
100
AcDbCircle
 10
335.5779618769985
 20
210.8811659192822
 30
0.0
 40
3.5
  0
LINE
  5
1DB
330
1D6
100
AcDbEntity
  8
GR1_01
  6
Continuous
 62
     3
370
    35
100
AcDbLine
 10
337.1466152249458
 20
209.39815321739
 30
0.0
 11
337.6466152249458
 21
210.2641786211745
 31
0.0
  0
LINE
  5
1DC
330
1D6
100
AcDbEntity
  8
GR1_01
  6
Continuous
 62
     3
370
    35
100
AcDbLine
 10
337.0609745788907
 20
212.4498192672296
 30
0.0
 11
336.1949491751063
 21
212.9498192672296
 31
0.0
  0
LINE
  5
1DD
330
1D6
100
AcDbEntity
  8
GR1_01
  6
Continuous
 62
     3
370
    35
100
AcDbLine
 10
333.5093085290512
 20
211.49815321739
 30
0.0
 11
334.0093085290512
 21
212.3641786211745
 31
0.0
  0
LINE
  5
1DE
330
1D6
100
AcDbEntity
  8
GR1_01
  6
Continuous
 62
     3
370
    35
100
AcDbLine
 10
334.9609745788907
 20
208.8125125713349
 30
0.0
 11
334.0949491751063
 21
209.3125125713349
 31
0.0
  0
ARC
  5
1DF
330
1D6
100
AcDbEntity
  8
GR1_01
  6
Continuous
 62
     3
370
    35
100
AcDbCircle
 10
338.4466152249458
 20
211.6498192672296
 30
0.0
 40
1.600000000000023
100
AcDbArc
 50
149.9999999999995
 51
240.0
  0
ARC
  5
1E0
330
1D6
100
AcDbEntity
  8
GR1_01
  6
Continuous
 62
     3
370
    35
100
AcDbCircle
 10
336.3466152249458
 20
208.0125125713349
 30
0.0
 40
1.600000000000023
100
AcDbArc
 50
60.00000000000001
 51
149.9999999999995
  0
ARC
  5
1E1
330
1D6
100
AcDbEntity
  8
GR1_01
  6
Continuous
 62
     3
370
    35
100
AcDbCircle
 10
332.7093085290512
 20
210.1125125713349
 30
0.0
 40
1.600000000000023
100
AcDbArc
 50
329.9999999999995
 51
59.99999999999999
  0
ARC
  5
1E2
330
1D6
100
AcDbEntity
  8
GR1_01
  6
Continuous
 62
     3
370
    35
100
AcDbCircle
 10
334.8093085290512
 20
213.7498192672296
 30
0.0
 40
1.600000000000023
100
AcDbArc
 50
240.0
 51
329.9999999999995
  0
ENDBLK
  5
1D8
330
1D6
100
AcDbEntity
  8
0
100
AcDbBlockEnd
  0
BLOCK
  5
266
330
265
100
AcDbEntity
  8
0
100
AcDbBlockBegin
  2
BLKF037
 70
     0
 10
0.0
 20
0.0
 30
0.0
  3
BLKF037
  1

  0
LINE
  5
269
330
265
100
AcDbEntity
  8
GR1_01
  6
Continuous
 62
     3
370
    35
100
AcDbLine
 10
141.6868545164835
 20
220.3811659192824
 30
0.0
 11
141.6868545164835
 21
170.3811659192824
 31
0.0
  0
LINE
  5
26A
330
265
100
AcDbEntity
  8
GR1_01
  6
Continuous
 62
     3
370
    35
100
AcDbLine
 10
190.6868545164835
 20
220.3811659192824
 30
0.0
 11
190.6868545164835
 21
170.3811659192824
 31
0.0
  0
LINE
  5
26B
330
265
100
AcDbEntity
  8
GR1_01
  6
Continuous
 62
     3
370
    35
100
AcDbLine
 10
140.6868545164834
 20
219.3811659192824
 30
0.0
 11
140.6868545164835
 21
171.3811659192823
 31
0.0
  0
INSERT
  5
26F
330
265
100
AcDbEntity
  8
GR1_01
  6
Continuous
 62
     7
370
    13
100
AcDbBlockReference
  2
BLKF038
 10
0.0
 20
0.0
 30
0.0
  0
LINE
  5
276
330
265
100
AcDbEntity
  8
GR1_01
  6
Continuous
 62
     3
370
    35
100
AcDbLine
 10
190.6868545164835
 20
220.3811659192824
 30
0.0
 11
141.6868545164834
 21
220.3811659192824
 31
0.0
  0
LINE
  5
277
330
265
100
AcDbEntity
  8
GR1_01
  6
Continuous
 62
     3
370
    35
100
AcDbLine
 10
190.6868545164834
 20
170.3811659192823
 30
0.0
 11
141.6868545164835
 21
170.3811659192823
 31
0.0
  0
LINE
  5
278
330
265
100
AcDbEntity
  8
GR1_01
  6
Continuous
 62
     3
370
    35
100
AcDbLine
 10
140.6868545164834
 20
219.3811659192824
 30
0.0
 11
141.6868545164834
 21
220.3811659192824
 31
0.0
  0
LINE
  5
279
330
265
100
AcDbEntity
  8
GR1_01
  6
Continuous
 62
     3
370
    35
100
AcDbLine
 10
140.6868545164835
 20
171.3811659192823
 30
0.0
 11
141.6868545164835
 21
170.3811659192823
 31
0.0
  0
ENDBLK
  5
267
330
265
100
AcDbEntity
  8
0
100
AcDbBlockEnd
  0
BLOCK
  5
26D
330
26C
100
AcDbEntity
  8
0
100
AcDbBlockBegin
  2
BLKF038
 70
     0
 10
0.0
 20
0.0
 30
0.0
  3
BLKF038
  1

  0
LINE
  5
270
330
26C
100
AcDbEntity
  8
GR1_01
  6
Continuous
 62
     7
370
    13
100
AcDbLine
 10
149.6868545164835
 20
220.3811659192824
 30
0.0
 11
149.6868545164834
 21
209.3811659192824
 31
0.0
  0
LINE
  5
271
330
26C
100
AcDbEntity
  8
GR1_01
  6
Continuous
 62
     7
370
    13
100
AcDbLine
 10
150.6868545164834
 20
208.3811659192824
 30
0.0
 11
180.6868697752735
 21
208.3811659192824
 31
0.0
  0
LINE
  5
272
330
26C
100
AcDbEntity
  8
GR1_01
  6
Continuous
 62
     7
370
    13
100
AcDbLine
 10
181.6868697752735
 20
209.3811659192824
 30
0.0
 11
181.6868531132237
 21
220.3811659192824
 31
0.0
  0
ARC
  5
273
330
26C
100
AcDbEntity
  8
GR1_01
  6
Continuous
 62
     7
370
    13
100
AcDbCircle
 10
150.6868545164834
 20
209.3811659192824
 30
0.0
 40
1.0
100
AcDbArc
 50
180.00001866933
 51
270.0000280039999
  0
ARC
  5
274
330
26C
100
AcDbEntity
  8
GR1_01
  6
Continuous
 62
     7
370
    13
100
AcDbCircle
 10
180.6868697752735
 20
209.3811659192824
 30
0.0
 40
1.0
100
AcDbArc
 50
270.0000280039999
 51
359.9426910704
  0
TEXT
  5
275
330
26C
100
AcDbEntity
  8
GR1_01
  6
Continuous
 62
     7
370
    13
100
AcDbText
 10
163.6708068847656
 20
218.1666259765625
 30
0.0
 40
3.5
  1
ＮＰ
 50
270.0000076293945
 41
1.272727272727274
 51
10.0
  7
FX_VECTOR
 72
     5
 11
163.670807816872
 21
211.1666259765626
 31
0.0
100
AcDbText
  0
ENDBLK
  5
26E
330
26C
100
AcDbEntity
  8
0
100
AcDbBlockEnd
  0
BLOCK
  5
2BA
330
2B9
100
AcDbEntity
  8
0
100
AcDbBlockBegin
  2
BLKF039
 70
     0
 10
0.0
 20
0.0
 30
0.0
  3
BLKF039
  1

  0
LINE
  5
2BD
330
2B9
100
AcDbEntity
  8
GR1_01
  6
Continuous
 62
     3
370
    35
100
AcDbLine
 10
271.1868553853119
 20
206.3811626611775
 30
0.0
 11
245.1868545164835
 21
206.3811626611775
 31
0.0
  0
LINE
  5
2BE
330
2B9
100
AcDbEntity
  8
GR1_01
  6
Continuous
 62
     3
370
    35
100
AcDbLine
 10
257.1868553853119
 20
214.3811626611775
 30
0.0
 11
245.1868545164835
 21
214.3811626611774
 31
0.0
  0
LINE
  5
2BF
330
2B9
100
AcDbEntity
  8
GR1_01
  6
Continuous
 62
     3
370
    35
100
AcDbLine
 10
271.1868553853119
 20
213.3811626611775
 30
0.0
 11
257.1868553853119
 21
213.3811626611775
 31
0.0
  0
LINE
  5
2C0
330
2B9
100
AcDbEntity
  8
GR1_01
  6
Continuous
 62
     3
370
    35
100
AcDbLine
 10
257.1868553853119
 20
213.3811626611775
 30
0.0
 11
257.1868553853119
 21
214.3811626611776
 31
0.0
  0
LINE
  5
2C1
330
2B9
100
AcDbEntity
  8
GR1_01
  6
Continuous
 62
     3
370
    35
100
AcDbLine
 10
271.1868553853119
 20
206.3811626611775
 30
0.0
 11
271.1868553853119
 21
213.3811626611774
 31
0.0
  0
LINE
  5
2C2
330
2B9
100
AcDbEntity
  8
GR1_01
  6
Continuous
 62
     3
370
    35
100
AcDbLine
 10
239.1868545164835
 20
156.3811659192823
 30
0.0
 11
239.1868545164834
 21
234.3811659192823
 31
0.0
  0
LINE
  5
2C3
330
2B9
100
AcDbEntity
  8
GR1_01
  6
Continuous
 62
     3
370
    35
100
AcDbLine
 10
238.1868545164835
 20
155.3811659192823
 30
0.0
 11
197.1868545164835
 21
155.3811659192823
 31
0.0
  0
LINE
  5
2C4
330
2B9
100
AcDbEntity
  8
GR1_01
  6
Continuous
 62
     3
370
    35
100
AcDbLine
 10
238.1868545164834
 20
235.3811659192823
 30
0.0
 11
197.1868545164835
 21
235.3811659192823
 31
0.0
  0
LINE
  5
2C5
330
2B9
100
AcDbEntity
  8
GR1_01
  6
Continuous
 62
     3
370
    35
100
AcDbLine
 10
245.1868545164835
 20
196.3811626611775
 30
0.0
 11
245.1868545164835
 21
224.3811626611774
 31
0.0
  0
LINE
  5
2C6
330
2B9
100
AcDbEntity
  8
GR1_01
  6
Continuous
 62
     3
370
    35
100
AcDbLine
 10
244.1868545164835
 20
195.3811626611775
 30
0.0
 11
239.1868545164835
 21
195.3811626611775
 31
0.0
  0
ARC
  5
2C7
330
2B9
100
AcDbEntity
  8
GR1_01
  6
Continuous
 62
     3
370
    35
100
AcDbCircle
 10
238.1868545164834
 20
234.3811659192823
 30
0.0
 40
1.0
100
AcDbArc
 50
0.0
 51
90.0
  0
ARC
  5
2C8
330
2B9
100
AcDbEntity
  8
GR1_01
  6
Continuous
 62
     3
370
    35
100
AcDbCircle
 10
238.1868545164835
 20
156.3811659192823
 30
0.0
 40
1.0
100
AcDbArc
 50
270.0
 51
0.0
  0
ARC
  5
2C9
330
2B9
100
AcDbEntity
  8
GR1_01
  6
Continuous
 62
     3
370
    35
100
AcDbCircle
 10
244.1868545164835
 20
196.3811626611775
 30
0.0
 40
1.0
100
AcDbArc
 50
270.0
 51
0.0
  0
ARC
  5
2CA
330
2B9
100
AcDbEntity
  8
GR1_01
  6
Continuous
 62
     3
370
    35
100
AcDbCircle
 10
244.1868545164835
 20
224.3811626611774
 30
0.0
 40
1.0
100
AcDbArc
 50
0.0
 51
90.00000000000162
  0
LINE
  5
2CB
330
2B9
100
AcDbEntity
  8
GR1_01
  6
Continuous
 62
     3
370
    35
100
AcDbLine
 10
197.1868545164835
 20
155.3811659192823
 30
0.0
 11
197.1868545164834
 21
235.3811659192823
 31
0.0
  0
ENDBLK
  5
2BB
330
2B9
100
AcDbEntity
  8
0
100
AcDbBlockEnd
  0
BLOCK
  5
2CD
330
2CC
100
AcDbEntity
  8
0
100
AcDbBlockBegin
  2
BLKF040
 70
     0
 10
0.0
 20
0.0
 30
0.0
  3
BLKF040
  1

  0
LINE
  5
2D0
330
2CC
100
AcDbEntity
  8
GR1_01
  6
Continuous
 62
     3
370
    35
100
AcDbLine
 10
191.1868535740058
 20
157.6471564996612
 30
0.0
 11
189.7953567954036
 21
157.7200820479422
 31
0.0
  0
LINE
  5
2D1
330
2CC
100
AcDbEntity
  8
GR1_01
  6
Continuous
 62
     3
370
    35
100
AcDbLine
 10
191.1868554589613
 20
166.6471564996611
 30
0.0
 11
189.7953586498123
 21
166.574231534249
 31
0.0
  0
LINE
  5
2D2
330
2CC
100
AcDbEntity
  8
GR1_01
  6
Continuous
 62
     3
370
    35
100
AcDbLine
 10
191.1868535740058
 20
157.6471564996612
 30
0.0
 11
191.1868554589613
 21
166.6471564996611
 31
0.0
  0
ARC
  5
2D3
330
2CC
100
AcDbEntity
  8
GR1_01
  6
Continuous
 62
     3
370
    35
100
AcDbCircle
 10
189.8790946600363
 20
159.3178892860115
 30
0.0
 40
1.6
100
AcDbArc
 50
195.7859776410124
 51
266.9999879999995
  0
ARC
  5
2D4
330
2CC
100
AcDbEntity
  8
GR1_01
  6
Continuous
 62
     3
370
    35
100
AcDbCircle
 10
189.8790958451571
 20
164.9764242611037
 30
0.0
 40
1.6
100
AcDbArc
 50
92.99998800000054
 51
164.2139983589876
  0
ARC
  5
2D5
330
2CC
100
AcDbEntity
  8
GR1_01
  6
Continuous
 62
     3
370
    35
100
AcDbCircle
 10
199.8868545164833
 20
162.1471546775374
 30
0.0
 40
12.0
100
AcDbArc
 50
164.2139983589876
 51
195.7859776410124
  0
LINE
  5
2D6
330
2CC
100
AcDbEntity
  8
GR1_01
  6
Continuous
 62
     3
370
    35
100
AcDbLine
 10
244.1868539928847
 20
159.6471453993671
 30
0.0
 11
255.3868539928834
 21
159.6471430536446
 31
0.0
  0
LINE
  5
2D7
330
2CC
100
AcDbEntity
  8
GR1_01
  6
Continuous
 62
     3
370
    35
100
AcDbLine
 10
244.1868550400822
 20
164.647145399367
 30
0.0
 11
255.3868550400809
 21
164.6471430536445
 31
0.0
  0
LINE
  5
2D8
330
2CC
100
AcDbEntity
  8
GR1_01
  6
Continuous
 62
     3
370
    35
100
AcDbLine
 10
256.186854160435
 20
160.447142886093
 30
0.0
 11
256.1868548725293
 21
163.8471428860929
 31
0.0
  0
LINE
  5
2D9
330
2CC
100
AcDbEntity
  8
GR1_01
  6
Continuous
 62
     7
370
    13
100
AcDbLine
 10
244.1868540976044
 20
160.1471453993671
 30
0.0
 11
255.8868540976031
 21
160.1471429489249
 31
0.0
  0
LINE
  5
2DA
330
2CC
100
AcDbEntity
  8
GR1_01
  6
Continuous
 62
     7
370
    13
100
AcDbLine
 10
244.1868549353624
 20
164.147145399367
 30
0.0
 11
255.8868549353611
 21
164.1471429489248
 31
0.0
  0
LINE
  5
2DB
330
2CC
100
AcDbEntity
  8
GR1_01
  6
Continuous
 62
     3
370
    35
100
AcDbLine
 10
256.1868548725293
 20
163.8471428860929
 30
0.0
 11
255.3868550400809
 21
164.6471430536445
 31
0.0
  0
LINE
  5
2DC
330
2CC
100
AcDbEntity
  8
GR1_01
  6
Continuous
 62
     3
370
    35
100
AcDbLine
 10
255.3868539928834
 20
159.6471430536446
 30
0.0
 11
256.186854160435
 21
160.447142886093
 31
0.0
  0
LINE
  5
2DD
330
2CC
100
AcDbEntity
  8
GR1_01
  6
Continuous
 62
     3
370
    35
100
AcDbLine
 10
255.3868539928834
 20
159.6471430536446
 30
0.0
 11
255.3868550400809
 21
164.6471430536445
 31
0.0
  0
ENDBLK
  5
2CE
330
2CC
100
AcDbEntity
  8
0
100
AcDbBlockEnd
  0
BLOCK
  5
2DF
330
2DE
100
AcDbEntity
  8
0
100
AcDbBlockBegin
  2
BLKF041
 70
     0
 10
0.0
 20
0.0
 30
0.0
  3
BLKF041
  1

  0
LINE
  5
2E2
330
2DE
100
AcDbEntity
  8
GR1_01
  6
Continuous
 62
     3
370
    35
100
AcDbLine
 10
191.1868535740057
 20
224.1151866004246
 30
0.0
 11
189.7953567954035
 21
224.1881121487056
 31
0.0
  0
LINE
  5
2E3
330
2DE
100
AcDbEntity
  8
GR1_01
  6
Continuous
 62
     3
370
    35
100
AcDbLine
 10
191.1868554589612
 20
233.1151866004245
 30
0.0
 11
189.7953586498122
 21
233.0422616350124
 31
0.0
  0
LINE
  5
2E4
330
2DE
100
AcDbEntity
  8
GR1_01
  6
Continuous
 62
     3
370
    35
100
AcDbLine
 10
191.1868535740057
 20
224.1151866004246
 30
0.0
 11
191.1868554589612
 21
233.1151866004245
 31
0.0
  0
ARC
  5
2E5
330
2DE
100
AcDbEntity
  8
GR1_01
  6
Continuous
 62
     3
370
    35
100
AcDbCircle
 10
189.8790946600362
 20
225.7859193867749
 30
0.0
 40
1.6
100
AcDbArc
 50
195.7859776410124
 51
266.9999879999995
  0
ARC
  5
2E6
330
2DE
100
AcDbEntity
  8
GR1_01
  6
Continuous
 62
     3
370
    35
100
AcDbCircle
 10
189.879095845157
 20
231.4444543618671
 30
0.0
 40
1.6
100
AcDbArc
 50
92.99998800000054
 51
164.2139983589876
  0
ARC
  5
2E7
330
2DE
100
AcDbEntity
  8
GR1_01
  6
Continuous
 62
     3
370
    35
100
AcDbCircle
 10
199.8868545164833
 20
228.6151847783008
 30
0.0
 40
12.0
100
AcDbArc
 50
164.2139983589876
 51
195.7859776410124
  0
LINE
  5
2E8
330
2DE
100
AcDbEntity
  8
GR1_01
  6
Continuous
 62
     3
370
    35
100
AcDbLine
 10
244.1868545164834
 20
226.1151755001304
 30
0.0
 11
255.3868539928833
 21
226.115173154408
 31
0.0
  0
LINE
  5
2E9
330
2DE
100
AcDbEntity
  8
GR1_01
  6
Continuous
 62
     3
370
    35
100
AcDbLine
 10
244.1868545164834
 20
231.1151755001306
 30
0.0
 11
255.3868550400808
 21
231.1151731544079
 31
0.0
  0
LINE
  5
2EA
330
2DE
100
AcDbEntity
  8
GR1_01
  6
Continuous
 62
     3
370
    35
100
AcDbLine
 10
256.1868541604349
 20
226.9151729868564
 30
0.0
 11
256.1868548725292
 21
230.3151729868563
 31
0.0
  0
LINE
  5
2EB
330
2DE
100
AcDbEntity
  8
GR1_01
  6
Continuous
 62
     7
370
    13
100
AcDbLine
 10
244.1868545164834
 20
226.6151755001304
 30
0.0
 11
255.886854097603
 21
226.6151730496883
 31
0.0
  0
LINE
  5
2EC
330
2DE
100
AcDbEntity
  8
GR1_01
  6
Continuous
 62
     7
370
    13
100
AcDbLine
 10
244.1868545164834
 20
230.6151755001305
 30
0.0
 11
255.886854935361
 21
230.6151730496882
 31
0.0
  0
LINE
  5
2ED
330
2DE
100
AcDbEntity
  8
GR1_01
  6
Continuous
 62
     3
370
    35
100
AcDbLine
 10
256.1868548725292
 20
230.3151729868563
 30
0.0
 11
255.3868550400808
 21
231.1151731544079
 31
0.0
  0
LINE
  5
2EE
330
2DE
100
AcDbEntity
  8
GR1_01
  6
Continuous
 62
     3
370
    35
100
AcDbLine
 10
255.3868539928833
 20
226.115173154408
 30
0.0
 11
256.1868541604349
 21
226.9151729868564
 31
0.0
  0
LINE
  5
2EF
330
2DE
100
AcDbEntity
  8
GR1_01
  6
Continuous
 62
     3
370
    35
100
AcDbLine
 10
255.3868539928833
 20
226.115173154408
 30
0.0
 11
255.3868550400808
 21
231.1151731544079
 31
0.0
  0
ENDBLK
  5
2E0
330
2DE
100
AcDbEntity
  8
0
100
AcDbBlockEnd
  0
BLOCK
  5
2F1
330
2F0
100
AcDbEntity
  8
0
100
AcDbBlockBegin
  2
BLKF042
 70
     0
 10
0.0
 20
0.0
 30
0.0
  3
BLKF042
  1

  0
LINE
  5
2F4
330
2F0
100
AcDbEntity
  8
GR1_01
  6
Continuous
 62
     3
370
    35
100
AcDbLine
 10
243.8295889265752
 20
233.2339887977318
 30
0.0
 11
244.1868545164834
 21
232.6151866442148
 31
0.0
  0
LINE
  5
2F5
330
2F0
100
AcDbEntity
  8
GR1_01
  6
Continuous
 62
     3
370
    35
100
AcDbLine
 10
244.1868545164834
 20
232.6151866442148
 30
0.0
 11
244.1868545164834
 21
224.6151866442148
 31
0.0
  0
LINE
  5
2F6
330
2F0
100
AcDbEntity
  8
GR1_01
  6
Continuous
 62
     3
370
    35
100
AcDbLine
 10
244.1868545164834
 20
224.6151866442148
 30
0.0
 11
243.8295889265752
 21
223.9963844906977
 31
0.0
  0
ARC
  5
2F7
330
2F0
100
AcDbEntity
  8
GR1_01
  6
Continuous
 62
     3
370
    35
100
AcDbCircle
 10
242.1421963177449
 20
232.0792882593525
 30
0.0
 40
2.044658198738488
100
AcDbArc
 50
325.6157525319576
 51
34.38424746804297
  0
ARC
  5
2F8
330
2F0
100
AcDbEntity
  8
GR1_01
  6
Continuous
 62
     3
370
    35
100
AcDbCircle
 10
236.5441201063917
 20
228.6151866442148
 30
0.0
 40
7.642734410091681
100
AcDbArc
 50
342.4120462260055
 51
17.58795377399368
  0
ARC
  5
2F9
330
2F0
100
AcDbEntity
  8
GR1_01
  6
Continuous
 62
     3
370
    35
100
AcDbCircle
 10
242.1421963177449
 20
225.151085029077
 30
0.0
 40
2.044658198738488
100
AcDbArc
 50
325.6157525319576
 51
34.38424746804297
  0
LINE
  5
2FA
330
2F0
100
AcDbEntity
  8
GR1_01
  6
Continuous
 62
     3
370
    35
100
AcDbLine
 10
243.8295889265752
 20
223.9963844906977
 30
0.0
 11
240.1868545164834
 21
223.9963844906977
 31
0.0
  0
LINE
  5
2FB
330
2F0
100
AcDbEntity
  8
GR1_01
  6
Continuous
 62
     3
370
    35
100
AcDbLine
 10
240.1868545164834
 20
223.9963844906977
 30
0.0
 11
240.1868545164834
 21
233.2339887977318
 31
0.0
  0
LINE
  5
2FC
330
2F0
100
AcDbEntity
  8
GR1_01
  6
Continuous
 62
     3
370
    35
100
AcDbLine
 10
240.1868545164834
 20
233.2339887977318
 30
0.0
 11
243.8295889265752
 21
233.2339887977318
 31
0.0
  0
LINE
  5
2FD
330
2F0
100
AcDbEntity
  8
GR1_01
  6
Continuous
 62
     3
370
    35
100
AcDbLine
 10
243.8295889265752
 20
230.9245877209732
 30
0.0
 11
240.1868545164834
 21
230.9245877209732
 31
0.0
  0
LINE
  5
2FE
330
2F0
100
AcDbEntity
  8
GR1_01
  6
Continuous
 62
     3
370
    35
100
AcDbLine
 10
243.8295889265752
 20
226.3057855674563
 30
0.0
 11
240.1868545164834
 21
226.3057855674563
 31
0.0
  0
LINE
  5
2FF
330
2F0
100
AcDbEntity
  8
GR1_01
  6
Continuous
 62
     3
370
    35
100
AcDbLine
 10
240.1868545164834
 20
233.6151866442148
 30
0.0
 11
240.1868545164834
 21
223.6151866442148
 31
0.0
  0
LINE
  5
300
330
2F0
100
AcDbEntity
  8
GR1_01
  6
Continuous
 62
     3
370
    35
100
AcDbLine
 10
240.1868545164834
 20
223.6151866442148
 30
0.0
 11
239.1868545164834
 21
223.6151866442148
 31
0.0
  0
LINE
  5
301
330
2F0
100
AcDbEntity
  8
GR1_01
  6
Continuous
 62
     3
370
    35
100
AcDbLine
 10
239.1868545164834
 20
223.6151866442148
 30
0.0
 11
239.1868545164834
 21
233.6151866442148
 31
0.0
  0
LINE
  5
302
330
2F0
100
AcDbEntity
  8
GR1_01
  6
Continuous
 62
     3
370
    35
100
AcDbLine
 10
239.1868545164834
 20
233.6151866442148
 30
0.0
 11
240.1868545164834
 21
233.6151866442148
 31
0.0
  0
ENDBLK
  5
2F2
330
2F0
100
AcDbEntity
  8
0
100
AcDbBlockEnd
  0
BLOCK
  5
304
330
303
100
AcDbEntity
  8
0
100
AcDbBlockBegin
  2
BLKF043
 70
     0
 10
0.0
 20
0.0
 30
0.0
  3
BLKF043
  1

  0
LINE
  5
307
330
303
100
AcDbEntity
  8
GR1_01
  6
Continuous
 62
     3
370
    35
100
AcDbLine
 10
243.8295898939349
 20
166.7659474461066
 30
0.0
 11
244.1868553542415
 21
166.1471452177641
 31
0.0
  0
LINE
  5
308
330
303
100
AcDbEntity
  8
GR1_01
  6
Continuous
 62
     3
370
    35
100
AcDbLine
 10
244.1868553542415
 20
166.1471452177641
 30
0.0
 11
244.1868536787254
 21
158.1471452177643
 31
0.0
  0
LINE
  5
309
330
303
100
AcDbEntity
  8
GR1_01
  6
Continuous
 62
     3
370
    35
100
AcDbLine
 10
244.1868536787254
 20
158.1471452177643
 30
0.0
 11
243.8295879592156
 21
157.5283431390728
 31
0.0
  0
ARC
  5
30A
330
303
100
AcDbEntity
  8
GR1_01
  6
Continuous
 62
     3
370
    35
100
AcDbCircle
 10
242.1421970432646
 20
165.6112472611341
 30
0.0
 40
2.044658198738519
100
AcDbArc
 50
325.6157405319592
 51
34.38423546804272
  0
ARC
  5
30B
330
303
100
AcDbEntity
  8
GR1_01
  6
Continuous
 62
     3
370
    35
100
AcDbCircle
 10
236.5441201063919
 20
162.1471468184547
 30
0.0
 40
7.64273441009171
100
AcDbArc
 50
342.4120342260063
 51
17.58794177399414
  0
ARC
  5
30C
330
303
100
AcDbEntity
  8
GR1_01
  6
Continuous
 62
     3
370
    35
100
AcDbCircle
 10
242.1421955922252
 20
158.6830440308587
 30
0.0
 40
2.044658198738519
100
AcDbArc
 50
325.6157405319592
 51
34.38423546804272
  0
LINE
  5
30D
330
303
100
AcDbEntity
  8
GR1_01
  6
Continuous
 62
     3
370
    35
100
AcDbLine
 10
243.8295879592156
 20
157.5283431390728
 30
0.0
 11
240.1868535491238
 21
157.5283439020053
 31
0.0
  0
LINE
  5
30E
330
303
100
AcDbEntity
  8
GR1_01
  6
Continuous
 62
     3
370
    35
100
AcDbLine
 10
240.1868535491238
 20
157.5283439020053
 30
0.0
 11
240.1868554838432
 21
166.7659482090391
 31
0.0
  0
LINE
  5
30F
330
303
100
AcDbEntity
  8
GR1_01
  6
Continuous
 62
     3
370
    35
100
AcDbLine
 10
240.1868554838432
 20
166.7659482090391
 30
0.0
 11
243.8295898939349
 21
166.7659474461066
 31
0.0
  0
LINE
  5
310
330
303
100
AcDbEntity
  8
GR1_01
  6
Continuous
 62
     3
370
    35
100
AcDbLine
 10
243.8295894102551
 20
164.4565463693481
 30
0.0
 11
240.1868550001633
 21
164.4565471322807
 31
0.0
  0
LINE
  5
311
330
303
100
AcDbEntity
  8
GR1_01
  6
Continuous
 62
     3
370
    35
100
AcDbLine
 10
243.8295884428954
 20
159.8377442158313
 30
0.0
 11
240.1868540328037
 21
159.8377449787638
 31
0.0
  0
LINE
  5
312
330
303
100
AcDbEntity
  8
GR1_01
  6
Continuous
 62
     3
370
    35
100
AcDbLine
 10
240.1868555636811
 20
167.1471460555221
 30
0.0
 11
240.1868534692859
 21
157.1471460555223
 31
0.0
  0
LINE
  5
313
330
303
100
AcDbEntity
  8
GR1_01
  6
Continuous
 62
     3
370
    35
100
AcDbLine
 10
240.1868534692859
 20
157.1471460555223
 30
0.0
 11
239.186853469286
 21
157.1471462649618
 31
0.0
  0
LINE
  5
314
330
303
100
AcDbEntity
  8
GR1_01
  6
Continuous
 62
     3
370
    35
100
AcDbLine
 10
239.186853469286
 20
157.1471462649618
 30
0.0
 11
239.1868555636811
 21
167.1471462649616
 31
0.0
  0
LINE
  5
315
330
303
100
AcDbEntity
  8
GR1_01
  6
Continuous
 62
     3
370
    35
100
AcDbLine
 10
239.1868555636811
 20
167.1471462649616
 30
0.0
 11
240.1868555636811
 21
167.1471460555221
 31
0.0
  0
ENDBLK
  5
305
330
303
100
AcDbEntity
  8
0
100
AcDbBlockEnd
  0
BLOCK
  5
317
330
316
100
AcDbEntity
  8
0
100
AcDbBlockBegin
  2
BLKF044
 70
     0
 10
0.0
 20
0.0
 30
0.0
  3
BLKF044
  1

  0
LINE
  5
31A
330
316
100
AcDbEntity
  8
GR1_01
  6
Continuous
 62
     3
370
    35
100
AcDbLine
 10
329.1907306785484
 20
233.2339867885671
 30
0.0
 11
325.1907306785484
 21
230.9245857118086
 31
0.0
  0
LINE
  5
31B
330
316
100
AcDbEntity
  8
GR1_01
  6
Continuous
 62
     3
370
    35
100
AcDbLine
 10
325.1907306785484
 20
230.9245857118086
 30
0.0
 11
325.1907306785484
 21
226.3057835582916
 31
0.0
  0
LINE
  5
31C
330
316
100
AcDbEntity
  8
GR1_01
  6
Continuous
 62
     3
370
    35
100
AcDbLine
 10
325.1907306785484
 20
226.3057835582916
 30
0.0
 11
329.1907306785484
 21
223.9963824815331
 31
0.0
  0
LINE
  5
31D
330
316
100
AcDbEntity
  8
GR1_01
  6
Continuous
 62
     3
370
    35
100
AcDbLine
 10
329.1907306785484
 20
223.9963824815331
 30
0.0
 11
333.1907306785484
 21
226.3057835582916
 31
0.0
  0
LINE
  5
31E
330
316
100
AcDbEntity
  8
GR1_01
  6
Continuous
 62
     3
370
    35
100
AcDbLine
 10
333.1907306785484
 20
226.3057835582916
 30
0.0
 11
333.1907306785484
 21
230.9245857118086
 31
0.0
  0
LINE
  5
31F
330
316
100
AcDbEntity
  8
GR1_01
  6
Continuous
 62
     3
370
    35
100
AcDbLine
 10
333.1907306785484
 20
230.9245857118086
 30
0.0
 11
329.1907306785484
 21
233.2339867885671
 31
0.0
  0
CIRCLE
  5
320
330
316
100
AcDbEntity
  8
GR1_01
  6
Continuous
 62
     3
370
    35
100
AcDbCircle
 10
329.1907306785484
 20
228.6151846350501
 30
0.0
 40
3.9
  0
CIRCLE
  5
321
330
316
100
AcDbEntity
  8
GR1_01
  6
Continuous
 62
     3
370
    35
100
AcDbCircle
 10
329.1907306785484
 20
228.6151846350501
 30
0.0
 40
5.0
  0
ENDBLK
  5
318
330
316
100
AcDbEntity
  8
0
100
AcDbBlockEnd
  0
BLOCK
  5
323
330
322
100
AcDbEntity
  8
0
100
AcDbBlockBegin
  2
BLKF045
 70
     0
 10
0.0
 20
0.0
 30
0.0
  3
BLKF045
  1

  0
LINE
  5
326
330
322
100
AcDbEntity
  8
GR1_01
  6
Continuous
 62
     3
370
    35
100
AcDbLine
 10
395.6587681100839
 20
233.2339867885671
 30
0.0
 11
391.6587681100839
 21
230.9245857118086
 31
0.0
  0
LINE
  5
327
330
322
100
AcDbEntity
  8
GR1_01
  6
Continuous
 62
     3
370
    35
100
AcDbLine
 10
391.6587681100839
 20
230.9245857118086
 30
0.0
 11
391.6587681100839
 21
226.3057835582916
 31
0.0
  0
LINE
  5
328
330
322
100
AcDbEntity
  8
GR1_01
  6
Continuous
 62
     3
370
    35
100
AcDbLine
 10
391.6587681100839
 20
226.3057835582916
 30
0.0
 11
395.6587681100839
 21
223.9963824815331
 31
0.0
  0
LINE
  5
329
330
322
100
AcDbEntity
  8
GR1_01
  6
Continuous
 62
     3
370
    35
100
AcDbLine
 10
395.6587681100839
 20
223.9963824815331
 30
0.0
 11
399.6587681100839
 21
226.3057835582916
 31
0.0
  0
LINE
  5
32A
330
322
100
AcDbEntity
  8
GR1_01
  6
Continuous
 62
     3
370
    35
100
AcDbLine
 10
399.6587681100839
 20
226.3057835582916
 30
0.0
 11
399.6587681100839
 21
230.9245857118086
 31
0.0
  0
LINE
  5
32B
330
322
100
AcDbEntity
  8
GR1_01
  6
Continuous
 62
     3
370
    35
100
AcDbLine
 10
399.6587681100839
 20
230.9245857118086
 30
0.0
 11
395.6587681100839
 21
233.2339867885671
 31
0.0
  0
CIRCLE
  5
32C
330
322
100
AcDbEntity
  8
GR1_01
  6
Continuous
 62
     3
370
    35
100
AcDbCircle
 10
395.6587681100839
 20
228.6151846350501
 30
0.0
 40
3.9
  0
CIRCLE
  5
32D
330
322
100
AcDbEntity
  8
GR1_01
  6
Continuous
 62
     3
370
    35
100
AcDbCircle
 10
395.6587681100839
 20
228.6151846350501
 30
0.0
 40
5.0
  0
ENDBLK
  5
324
330
322
100
AcDbEntity
  8
0
100
AcDbBlockEnd
  0
BLOCK
  5
32F
330
32E
100
AcDbEntity
  8
0
100
AcDbBlockBegin
  2
BLKF046
 70
     0
 10
0.0
 20
0.0
 30
0.0
  3
BLKF046
  1

  0
LINE
  5
332
330
32E
100
AcDbEntity
  8
GR1_01
  6
Continuous
 62
     3
370
    35
100
AcDbLine
 10
329.1907306785482
 20
166.7659493570314
 30
0.0
 11
325.1907306785482
 21
164.4565482802729
 31
0.0
  0
LINE
  5
333
330
32E
100
AcDbEntity
  8
GR1_01
  6
Continuous
 62
     3
370
    35
100
AcDbLine
 10
325.1907306785482
 20
164.4565482802729
 30
0.0
 11
325.1907306785482
 21
159.8377461267559
 31
0.0
  0
LINE
  5
334
330
32E
100
AcDbEntity
  8
GR1_01
  6
Continuous
 62
     3
370
    35
100
AcDbLine
 10
325.1907306785482
 20
159.8377461267559
 30
0.0
 11
329.1907306785482
 21
157.5283450499974
 31
0.0
  0
LINE
  5
335
330
32E
100
AcDbEntity
  8
GR1_01
  6
Continuous
 62
     3
370
    35
100
AcDbLine
 10
329.1907306785482
 20
157.5283450499974
 30
0.0
 11
333.1907306785482
 21
159.8377461267559
 31
0.0
  0
LINE
  5
336
330
32E
100
AcDbEntity
  8
GR1_01
  6
Continuous
 62
     3
370
    35
100
AcDbLine
 10
333.1907306785482
 20
159.8377461267559
 30
0.0
 11
333.1907306785482
 21
164.4565482802729
 31
0.0
  0
LINE
  5
337
330
32E
100
AcDbEntity
  8
GR1_01
  6
Continuous
 62
     3
370
    35
100
AcDbLine
 10
333.1907306785482
 20
164.4565482802729
 30
0.0
 11
329.1907306785482
 21
166.7659493570314
 31
0.0
  0
CIRCLE
  5
338
330
32E
100
AcDbEntity
  8
GR1_01
  6
Continuous
 62
     3
370
    35
100
AcDbCircle
 10
329.1907306785482
 20
162.1471472035144
 30
0.0
 40
3.9
  0
CIRCLE
  5
339
330
32E
100
AcDbEntity
  8
GR1_01
  6
Continuous
 62
     3
370
    35
100
AcDbCircle
 10
329.1907306785482
 20
162.1471472035144
 30
0.0
 40
5.0
  0
ENDBLK
  5
330
330
32E
100
AcDbEntity
  8
0
100
AcDbBlockEnd
  0
BLOCK
  5
33B
330
33A
100
AcDbEntity
  8
0
100
AcDbBlockBegin
  2
BLKF047
 70
     0
 10
0.0
 20
0.0
 30
0.0
  3
BLKF047
  1

  0
LINE
  5
33E
330
33A
100
AcDbEntity
  8
GR1_01
  6
Continuous
 62
     3
370
    35
100
AcDbLine
 10
395.6587681100839
 20
166.7659493570315
 30
0.0
 11
391.6587681100839
 21
164.456548280273
 31
0.0
  0
LINE
  5
33F
330
33A
100
AcDbEntity
  8
GR1_01
  6
Continuous
 62
     3
370
    35
100
AcDbLine
 10
391.6587681100839
 20
164.456548280273
 30
0.0
 11
391.6587681100839
 21
159.8377461267561
 31
0.0
  0
LINE
  5
340
330
33A
100
AcDbEntity
  8
GR1_01
  6
Continuous
 62
     3
370
    35
100
AcDbLine
 10
391.6587681100839
 20
159.8377461267561
 30
0.0
 11
395.6587681100839
 21
157.5283450499976
 31
0.0
  0
LINE
  5
341
330
33A
100
AcDbEntity
  8
GR1_01
  6
Continuous
 62
     3
370
    35
100
AcDbLine
 10
395.6587681100839
 20
157.5283450499976
 30
0.0
 11
399.6587681100839
 21
159.8377461267561
 31
0.0
  0
LINE
  5
342
330
33A
100
AcDbEntity
  8
GR1_01
  6
Continuous
 62
     3
370
    35
100
AcDbLine
 10
399.6587681100839
 20
159.8377461267561
 30
0.0
 11
399.6587681100839
 21
164.456548280273
 31
0.0
  0
LINE
  5
343
330
33A
100
AcDbEntity
  8
GR1_01
  6
Continuous
 62
     3
370
    35
100
AcDbLine
 10
399.6587681100839
 20
164.456548280273
 30
0.0
 11
395.6587681100839
 21
166.7659493570315
 31
0.0
  0
CIRCLE
  5
344
330
33A
100
AcDbEntity
  8
GR1_01
  6
Continuous
 62
     3
370
    35
100
AcDbCircle
 10
395.6587681100839
 20
162.1471472035145
 30
0.0
 40
3.9
  0
CIRCLE
  5
345
330
33A
100
AcDbEntity
  8
GR1_01
  6
Continuous
 62
     3
370
    35
100
AcDbCircle
 10
395.6587681100839
 20
162.1471472035145
 30
0.0
 40
5.0
  0
ENDBLK
  5
33C
330
33A
100
AcDbEntity
  8
0
100
AcDbBlockEnd
  0
BLOCK
  5
347
330
346
100
AcDbEntity
  8
0
100
AcDbBlockBegin
  2
BLKF048
 70
     0
 10
0.0
 20
0.0
 30
0.0
  3
BLKF048
  1

  0
LINE
  5
34A
330
346
100
AcDbEntity
  8
GR1_01
  6
Continuous
 62
     3
370
    35
100
AcDbLine
 10
140.6868471359337
 20
171.7407134384619
 30
0.0
 11
140.6868620092768
 21
219.3811428666531
 31
0.0
  0
LINE
  5
34B
330
346
100
AcDbEntity
  8
GR1_01
  6
Continuous
 62
     3
370
    35
100
AcDbLine
 10
140.6868535798834
 20
192.3811658914339
 30
0.0
 11
128.6868383210928
 21
192.3811658914339
 31
0.0
  0
LINE
  5
34C
330
346
100
AcDbEntity
  8
GR1_01
  6
Continuous
 62
     3
370
    35
100
AcDbLine
 10
140.6868545164834
 20
190.8811658914339
 30
0.0
 11
129.6868392576929
 21
190.8811658914339
 31
0.0
  0
LINE
  5
34D
330
346
100
AcDbEntity
  8
GR1_01
  6
Continuous
 62
     3
370
    35
100
AcDbLine
 10
140.6868542042834
 20
189.8811658914339
 30
0.0
 11
129.6868389454929
 21
189.8811658914339
 31
0.0
  0
LINE
  5
34E
330
346
100
AcDbEntity
  8
GR1_01
  6
Continuous
 62
     3
370
    35
100
AcDbLine
 10
140.6868545164835
 20
198.3811658914339
 30
0.0
 11
128.6868401942929
 21
198.3811658914339
 31
0.0
  0
LINE
  5
34F
330
346
100
AcDbEntity
  8
GR1_01
  6
Continuous
 62
     3
370
    35
100
AcDbLine
 10
140.6868548286835
 20
199.8811658914338
 30
0.0
 11
129.6868395698929
 21
199.8811658914338
 31
0.0
  0
LINE
  5
350
330
346
100
AcDbEntity
  8
GR1_01
  6
Continuous
 62
     3
370
    35
100
AcDbLine
 10
140.6868545164834
 20
200.8811658914338
 30
0.0
 11
129.6868392576929
 21
200.8811658914338
 31
0.0
  0
LINE
  5
351
330
346
100
AcDbEntity
  8
GR1_01
  6
Continuous
 62
     3
370
    35
100
AcDbLine
 10
129.6868389454929
 20
189.8811658914339
 30
0.0
 11
129.6868430040931
 21
200.8811658914339
 31
0.0
  0
LINE
  5
352
330
346
100
AcDbEntity
  8
GR1_01
  6
Continuous
 62
     3
370
    35
100
AcDbLine
 10
139.6868535798833
 20
192.3811658914339
 30
0.0
 11
139.6868554530835
 21
198.3811658914339
 31
0.0
  0
LINE
  5
353
330
346
100
AcDbEntity
  8
GR1_01
  6
Continuous
 62
     3
370
    35
100
AcDbLine
 10
128.6868383210928
 20
192.3811658914339
 30
0.0
 11
128.6868385084128
 21
192.981165891434
 31
0.0
  0
LINE
  5
354
330
346
100
AcDbEntity
  8
GR1_01
  6
Continuous
 62
     3
370
    35
100
AcDbLine
 10
128.6868385084128
 20
192.9811658914339
 30
0.0
 11
122.6868385084125
 21
192.9811658914339
 31
0.0
  0
LINE
  5
355
330
346
100
AcDbEntity
  8
GR1_01
  6
Continuous
 62
     3
370
    35
100
AcDbLine
 10
128.6868385084128
 20
197.7811658914339
 30
0.0
 11
122.6868400069726
 21
197.7811658914339
 31
0.0
  0
LINE
  5
356
330
346
100
AcDbEntity
  8
GR1_01
  6
Continuous
 62
     3
370
    35
100
AcDbLine
 10
128.6868400069729
 20
197.7811658914339
 30
0.0
 11
128.6868401942929
 21
198.3811658914339
 31
0.0
  0
LINE
  5
357
330
346
100
AcDbEntity
  8
GR1_01
  6
Continuous
 62
     3
370
    35
100
AcDbLine
 10
122.6868385084125
 20
192.981165891434
 30
0.0
 11
122.6868400069726
 21
197.7811658914339
 31
0.0
  0
CIRCLE
  5
358
330
346
100
AcDbEntity
  8
GR1_01
  6
Continuous
 62
     3
370
    35
100
AcDbCircle
 10
124.6868392576927
 20
195.3811658914339
 30
0.0
 40
1.0
  0
LINE
  5
359
330
346
100
AcDbEntity
  8
GR1_01
  6
DASHDOT
 62
     7
370
    13
100
AcDbLine
 10
124.686838654106
 20
193.447832558101
 30
0.0
 11
124.6868398612794
 21
197.3144992247672
 31
0.0
  0
LINE
  5
35A
330
346
100
AcDbEntity
  8
GR1_01
  6
Continuous
 62
     3
370
    35
100
AcDbLine
 10
132.686838321093
 20
192.3811658914339
 30
0.0
 11
132.6868401942931
 21
198.3811658914339
 31
0.0
  0
LINE
  5
35B
330
346
100
AcDbEntity
  8
GR1_01
  6
Continuous
 62
     3
370
    35
100
AcDbLine
 10
133.6868383210931
 20
192.3811658914339
 30
0.0
 11
133.6868401942932
 21
198.3811658914339
 31
0.0
  0
LINE
  5
35C
330
346
100
AcDbEntity
  8
GR1_01
  6
Continuous
 62
     3
370
    35
100
AcDbLine
 10
126.1868545164835
 20
172.8532058238711
 30
0.0
 11
126.1868545164835
 21
189.3811658914339
 31
0.0
  0
LINE
  5
35D
330
346
100
AcDbEntity
  8
GR1_01
  6
Continuous
 62
     3
370
    35
100
AcDbLine
 10
140.6868545164834
 20
171.3811658914339
 30
0.0
 11
140.6868545164835
 21
219.3811658914339
 31
0.0
  0
LINE
  5
35E
330
346
100
AcDbEntity
  8
GR1_01
  6
Continuous
 62
     3
370
    35
100
AcDbLine
 10
140.686847023683
 20
171.3811661530882
 30
0.0
 11
127.151955019781
 21
171.8538149968525
 31
0.0
  0
LINE
  5
35F
330
346
100
AcDbEntity
  8
GR1_01
  6
Continuous
 62
     3
370
    35
100
AcDbLine
 10
140.6868545164835
 20
219.3811658914339
 30
0.0
 11
127.151955019781
 21
218.9085167860158
 31
0.0
  0
LINE
  5
360
330
346
100
AcDbEntity
  8
GR1_01
  6
Continuous
 62
     3
370
    35
100
AcDbLine
 10
138.6868545164834
 20
171.7407140628595
 30
0.0
 11
138.6868560774835
 21
189.8811658914339
 31
0.0
  0
LINE
  5
361
330
346
100
AcDbEntity
  8
GR1_01
  6
Continuous
 62
     3
370
    35
100
AcDbLine
 10
138.6868563896836
 20
200.8811658914338
 30
0.0
 11
138.6868545164835
 21
219.0216177200082
 31
0.0
  0
LINE
  5
362
330
346
100
AcDbEntity
  8
GR1_01
  6
Continuous
 62
     3
370
    35
100
AcDbLine
 10
126.1868545164835
 20
201.3811658914339
 30
0.0
 11
129.6868545164835
 21
199.3511658914339
 31
0.0
  0
LINE
  5
363
330
346
100
AcDbEntity
  8
GR1_01
  6
Continuous
 62
     3
370
    35
100
AcDbLine
 10
126.1868545164835
 20
189.3811658914339
 30
0.0
 11
129.6868545164835
 21
191.4111658914339
 31
0.0
  0
LINE
  5
364
330
346
100
AcDbEntity
  8
GR1_01
  6
Continuous
 62
     3
370
    35
100
AcDbLine
 10
126.1868545164835
 20
217.9091259589967
 30
0.0
 11
126.1868545164835
 21
201.3811658914339
 31
0.0
  0
LINE
  5
365
330
346
100
AcDbEntity
  8
GR1_01
  6
Continuous
 62
     3
370
    35
100
AcDbLine
 10
138.6868545164835
 20
219.0216177200082
 30
0.0
 11
127.151955019781
 21
218.6188101535733
 31
0.0
  0
LINE
  5
366
330
346
100
AcDbEntity
  8
GR1_01
  6
Continuous
 62
     3
370
    35
100
AcDbLine
 10
138.6868545164835
 20
217.7320048018641
 30
0.0
 11
127.151955019781
 21
217.3291972354292
 31
0.0
  0
ARC
  5
367
330
346
100
AcDbEntity
  8
GR1_01
  6
Continuous
 62
     3
370
    35
100
AcDbCircle
 10
127.1868545164835
 20
217.9091259589967
 30
0.0
 40
1.0
100
AcDbArc
 50
91.99999999999946
 51
179.9999999999999
  0
ARC
  5
368
330
346
100
AcDbEntity
  8
GR1_01
  6
Continuous
 62
     3
370
    35
100
AcDbCircle
 10
127.1868545164835
 20
217.6194193265542
 30
0.0
 40
1.0
100
AcDbArc
 50
92.00000000000031
 51
179.9999999999999
  0
ARC
  5
369
330
346
100
AcDbEntity
  8
GR1_01
  6
Continuous
 62
     3
370
    35
100
AcDbCircle
 10
127.1868545164835
 20
216.3298064084101
 30
0.0
 40
1.0
100
AcDbArc
 50
92.00000000000026
 51
179.9999999999999
  0
LINE
  5
36A
330
346
100
AcDbEntity
  8
GR1_01
  6
Continuous
 62
     3
370
    35
100
AcDbLine
 10
138.6868545164834
 20
171.7407140628596
 30
0.0
 11
127.1519550197809
 21
172.1435216292945
 31
0.0
  0
LINE
  5
36B
330
346
100
AcDbEntity
  8
GR1_01
  6
Continuous
 62
     3
370
    35
100
AcDbLine
 10
138.6868545164834
 20
173.0303269810036
 30
0.0
 11
127.151955019781
 21
173.4331345474386
 31
0.0
  0
ARC
  5
36C
330
346
100
AcDbEntity
  8
GR1_01
  6
Continuous
 62
     3
370
    35
100
AcDbCircle
 10
127.1868545164834
 20
172.8532058238711
 30
0.0
 40
1.0
100
AcDbArc
 50
179.9999999999999
 51
268.0000000000003
  0
ARC
  5
36D
330
346
100
AcDbEntity
  8
GR1_01
  6
Continuous
 62
     3
370
    35
100
AcDbCircle
 10
127.1868545164834
 20
173.1429124563136
 30
0.0
 40
1.0
100
AcDbArc
 50
179.9999999999999
 51
267.9999999999995
  0
ARC
  5
36E
330
346
100
AcDbEntity
  8
GR1_01
  6
Continuous
 62
     3
370
    35
100
AcDbCircle
 10
127.1868545164835
 20
174.4325253744577
 30
0.0
 40
1.0
100
AcDbArc
 50
179.9999999999999
 51
267.9999999999995
  0
LINE
  5
36F
330
346
100
AcDbEntity
  8
GR1_01
  6
Continuous
 62
     3
370
    35
100
AcDbLine
 10
119.6868543819762
 20
206.188491990471
 30
0.0
 11
119.6868546538159
 21
184.3468545417816
 31
0.0
  0
LINE
  5
370
330
346
100
AcDbEntity
  8
GR1_01
  6
Continuous
 62
     3
370
    35
100
AcDbLine
 10
120.6433812738894
 20
204.8348464108605
 30
0.0
 11
125.2303275212736
 21
205.034444055532
 31
0.0
  0
LINE
  5
371
330
346
100
AcDbEntity
  8
GR1_01
  6
Continuous
 62
     3
370
    35
100
AcDbLine
 10
120.6433812924195
 20
203.3460007433588
 30
0.0
 11
125.7085909770774
 21
203.5664096752057
 31
0.0
  0
ARC
  5
372
330
346
100
AcDbEntity
  8
GR1_01
  6
Continuous
 62
     3
370
    35
100
AcDbCircle
 10
125.1868543839052
 20
206.0334986518016
 30
0.0
 40
1.0
100
AcDbArc
 50
272.49161253616
 51
0.00000071309985
  0
LINE
  5
373
330
346
100
AcDbEntity
  8
GR1_01
  6
Continuous
 62
     3
370
    35
100
AcDbLine
 10
120.6433815092093
 20
185.9274851468983
 30
0.0
 11
125.2303277615618
 21
185.7278876164044
 31
0.0
  0
LINE
  5
374
330
346
100
AcDbEntity
  8
GR1_01
  6
Continuous
 62
     3
370
    35
100
AcDbLine
 10
120.6433814906792
 20
187.4163308144001
 30
0.0
 11
125.7085911808236
 21
187.1959220086357
 31
0.0
  0
ARC
  5
375
330
346
100
AcDbEntity
  8
GR1_01
  6
Continuous
 62
     3
370
    35
100
AcDbCircle
 10
125.1868546490618
 20
184.7288330190528
 30
0.0
 40
1.0
100
AcDbArc
 50
0.000000713099837
 51
87.50838889003967
  0
ARC
  5
376
330
346
100
AcDbEntity
  8
GR1_01
  6
Continuous
 62
     3
370
    35
100
AcDbCircle
 10
120.6868546031792
 20
188.4153854117518
 30
0.0
 40
1.0
100
AcDbArc
 50
180.0000007130998
 51
267.5083888900396
  0
ARC
  5
377
330
346
100
AcDbEntity
  8
GR1_01
  6
Continuous
 62
     3
370
    35
100
AcDbCircle
 10
120.6868544297878
 20
202.3469461470891
 30
0.0
 40
1.0
100
AcDbArc
 50
92.49161253615995
 51
180.0000007130998
  0
ARC
  5
378
330
346
100
AcDbEntity
  8
GR1_01
  6
Continuous
 62
     3
370
    35
100
AcDbCircle
 10
120.6868544112577
 20
203.8357918145909
 30
0.0
 40
1.0
100
AcDbArc
 50
92.49161253615986
 51
180.0000007130998
  0
ARC
  5
379
330
346
100
AcDbEntity
  8
GR1_01
  6
Continuous
 62
     3
370
    35
100
AcDbCircle
 10
120.6868546217093
 20
186.9265397442501
 30
0.0
 40
1.0
100
AcDbArc
 50
180.0000007130998
 51
267.5083888900396
  0
ARC
  5
37A
330
346
100
AcDbEntity
  8
GR1_01
  6
Continuous
 62
     3
370
    35
100
AcDbCircle
 10
125.6868544083933
 20
204.0659369733405
 30
0.0
 40
0.5
100
AcDbArc
 50
272.4916125361598
 51
0.0000007130997991
  0
ARC
  5
37B
330
346
100
AcDbEntity
  8
GR1_01
  6
Continuous
 62
     3
370
    35
100
AcDbCircle
 10
125.6868546245736
 20
186.6963947099598
 30
0.0
 40
0.5
100
AcDbArc
 50
0.0000007130997801
 51
87.50838889003954
  0
LINE
  5
37C
330
346
100
AcDbEntity
  8
GR1_01
  6
Continuous
 62
     3
370
    35
100
AcDbLine
 10
120.6519551667267
 20
183.5744487284705
 30
0.0
 11
125.2217541621177
 21
183.4148678880735
 31
0.0
  0
ARC
  5
37D
330
346
100
AcDbEntity
  8
GR1_01
  6
Continuous
 62
     3
370
    35
100
AcDbCircle
 10
125.1868546778536
 20
182.4154770606201
 30
0.0
 40
1.0
100
AcDbArc
 50
0.0000007130997801
 51
88.00000071309938
  0
ARC
  5
37E
330
346
100
AcDbEntity
  8
GR1_01
  6
Continuous
 62
     3
370
    35
100
AcDbCircle
 10
120.6868546509909
 20
184.5738395559239
 30
0.0
 40
1.0
100
AcDbArc
 50
180.0000007131006
 51
268.0000007130994
  0
LINE
  5
37F
330
346
100
AcDbEntity
  8
GR1_01
  6
Continuous
 62
     3
370
    35
100
AcDbLine
 10
120.6519548728353
 20
207.1878828295017
 30
0.0
 11
125.2217538642541
 21
207.3474637836495
 31
0.0
  0
ARC
  5
380
330
346
100
AcDbEntity
  8
GR1_01
  6
Continuous
 62
     3
370
    35
100
AcDbCircle
 10
125.1868543551132
 20
208.3468546102342
 30
0.0
 40
1.0
100
AcDbArc
 50
272.0000007131001
 51
0.0000007130997991
  0
ARC
  5
381
330
346
100
AcDbEntity
  8
GR1_01
  6
Continuous
 62
     3
370
    35
100
AcDbCircle
 10
120.6868543819762
 20
206.188492002917
 30
0.0
 40
1.0
100
AcDbArc
 50
92.00000071310019
 51
180.0000007130998
  0
ENDBLK
  5
348
330
346
100
AcDbEntity
  8
0
100
AcDbBlockEnd
  0
BLOCK
  5
385
330
384
100
AcDbEntity
  8
0
100
AcDbBlockBegin
  2
BLKF049
 70
     0
 10
0.0
 20
0.0
 30
0.0
  3
BLKF049
  1

  0
CIRCLE
  5
388
330
384
100
AcDbEntity
  8
GR1_01
  6
Continuous
 62
     3
370
    35
100
AcDbCircle
 10
59.9123745107967
 20
195.3811659192824
 30
0.0
 40
9.0
  0
INSERT
  5
38C
330
384
100
AcDbEntity
  8
GR1_01
  6
Continuous
 62
     7
370
    13
100
AcDbBlockReference
  2
BLKF050
 10
0.0
 20
0.0
 30
0.0
  0
LINE
  5
39B
330
384
100
AcDbEntity
  8
GR1_01
  6
Continuous
 62
     3
370
    35
100
AcDbLine
 10
33.81237451079676
 20
191.3811659192824
 30
0.0
 11
33.81237451079676
 21
192.3811659192824
 31
0.0
  0
LINE
  5
39C
330
384
100
AcDbEntity
  8
GR1_01
  6
Continuous
 62
     3
370
    35
100
AcDbLine
 10
33.81237451079676
 20
192.3811659192824
 30
0.0
 11
32.41237451079672
 21
192.3811659192824
 31
0.0
  0
LINE
  5
39D
330
384
100
AcDbEntity
  8
GR1_01
  6
Continuous
 62
     3
370
    35
100
AcDbLine
 10
33.41237451079672
 20
192.3811659192824
 30
0.0
 11
33.41237451079672
 21
198.3811659192824
 31
0.0
  0
LINE
  5
39E
330
384
100
AcDbEntity
  8
GR1_01
  6
Continuous
 62
     3
370
    35
100
AcDbLine
 10
33.81237451079676
 20
198.3811659192824
 30
0.0
 11
32.41237451079672
 21
198.3811659192824
 31
0.0
  0
LINE
  5
39F
330
384
100
AcDbEntity
  8
GR1_01
  6
Continuous
 62
     3
370
    35
100
AcDbLine
 10
33.81237451079676
 20
198.3811659192824
 30
0.0
 11
33.81237451079676
 21
199.3811659192824
 31
0.0
  0
LINE
  5
3A0
330
384
100
AcDbEntity
  8
GR1_01
  6
Continuous
 62
     3
370
    35
100
AcDbLine
 10
33.81237451079676
 20
199.3811659192824
 30
0.0
 11
35.41237451079672
 21
199.3811659192824
 31
0.0
  0
LINE
  5
3A1
330
384
100
AcDbEntity
  8
GR1_01
  6
Continuous
 62
     3
370
    35
100
AcDbLine
 10
35.41237451079672
 20
199.3811659192824
 30
0.0
 11
35.41237451079672
 21
191.3811659192824
 31
0.0
  0
LINE
  5
3A2
330
384
100
AcDbEntity
  8
GR1_01
  6
Continuous
 62
     3
370
    35
100
AcDbLine
 10
35.41237451079672
 20
191.3811659192824
 30
0.0
 11
33.81237451079676
 21
191.3811659192824
 31
0.0
  0
LINE
  5
3A3
330
384
100
AcDbEntity
  8
GR1_01
  6
Continuous
 62
     3
370
    35
100
AcDbLine
 10
34.91237451079672
 20
191.3811659192824
 30
0.0
 11
34.91237451079672
 21
199.3811659192824
 31
0.0
  0
LINE
  5
3A4
330
384
100
AcDbEntity
  8
GR1_01
  6
Continuous
 62
     3
370
    35
100
AcDbLine
 10
34.91237451079672
 20
198.2811659192824
 30
0.0
 11
35.41237451079672
 21
198.2811659192824
 31
0.0
  0
LINE
  5
3A5
330
384
100
AcDbEntity
  8
GR1_01
  6
Continuous
 62
     3
370
    35
100
AcDbLine
 10
35.41237451079672
 20
197.7811659192824
 30
0.0
 11
34.91237451079672
 21
197.7811659192824
 31
0.0
  0
LINE
  5
3A6
330
384
100
AcDbEntity
  8
GR1_01
  6
Continuous
 62
     3
370
    35
100
AcDbLine
 10
86.01237451079675
 20
199.3811659192824
 30
0.0
 11
84.41237451079672
 21
199.3811659192824
 31
0.0
  0
LINE
  5
3A7
330
384
100
AcDbEntity
  8
GR1_01
  6
Continuous
 62
     3
370
    35
100
AcDbLine
 10
84.41237451079672
 20
199.3811659192824
 30
0.0
 11
84.41237451079672
 21
191.3811659192824
 31
0.0
  0
LINE
  5
3A8
330
384
100
AcDbEntity
  8
GR1_01
  6
Continuous
 62
     3
370
    35
100
AcDbLine
 10
84.41237451079672
 20
191.3811659192824
 30
0.0
 11
86.01237451079675
 21
191.3811659192824
 31
0.0
  0
LINE
  5
3A9
330
384
100
AcDbEntity
  8
GR1_01
  6
Continuous
 62
     3
370
    35
100
AcDbLine
 10
86.01237451079675
 20
191.3811659192824
 30
0.0
 11
86.01237451079675
 21
192.3811659192824
 31
0.0
  0
LINE
  5
3AA
330
384
100
AcDbEntity
  8
GR1_01
  6
Continuous
 62
     3
370
    35
100
AcDbLine
 10
86.01237451079675
 20
192.3811659192824
 30
0.0
 11
87.41237451079672
 21
192.3811659192824
 31
0.0
  0
LINE
  5
3AB
330
384
100
AcDbEntity
  8
GR1_01
  6
Continuous
 62
     3
370
    35
100
AcDbLine
 10
86.41237451079672
 20
192.3811659192824
 30
0.0
 11
86.41237451079672
 21
198.3811659192824
 31
0.0
  0
LINE
  5
3AC
330
384
100
AcDbEntity
  8
GR1_01
  6
Continuous
 62
     3
370
    35
100
AcDbLine
 10
86.01237451079675
 20
198.3811659192824
 30
0.0
 11
87.41237451079672
 21
198.3811659192824
 31
0.0
  0
LINE
  5
3AD
330
384
100
AcDbEntity
  8
GR1_01
  6
Continuous
 62
     3
370
    35
100
AcDbLine
 10
86.01237451079675
 20
198.3811659192824
 30
0.0
 11
86.01237451079675
 21
199.3811659192824
 31
0.0
  0
LINE
  5
3AE
330
384
100
AcDbEntity
  8
GR1_01
  6
Continuous
 62
     3
370
    35
100
AcDbLine
 10
84.91237451079672
 20
199.3811659192824
 30
0.0
 11
84.91237451079672
 21
191.3811659192824
 31
0.0
  0
LINE
  5
3AF
330
384
100
AcDbEntity
  8
GR1_01
  6
Continuous
 62
     3
370
    35
100
AcDbLine
 10
84.91237451079672
 20
192.4811659192824
 30
0.0
 11
84.41237451079672
 21
192.4811659192824
 31
0.0
  0
LINE
  5
3B0
330
384
100
AcDbEntity
  8
GR1_01
  6
Continuous
 62
     3
370
    35
100
AcDbLine
 10
84.41237451079672
 20
192.9811659192824
 30
0.0
 11
84.91237451079672
 21
192.9811659192824
 31
0.0
  0
LINE
  5
3B1
330
384
100
AcDbEntity
  8
GR1_01
  6
Continuous
 62
     3
370
    35
100
AcDbLine
 10
35.41237451079672
 20
192.4811659192824
 30
0.0
 11
34.91237451079672
 21
192.4811659192824
 31
0.0
  0
LINE
  5
3B2
330
384
100
AcDbEntity
  8
GR1_01
  6
Continuous
 62
     3
370
    35
100
AcDbLine
 10
34.91237451079672
 20
192.9811659192824
 30
0.0
 11
35.41237451079672
 21
192.9811659192824
 31
0.0
  0
LINE
  5
3B3
330
384
100
AcDbEntity
  8
GR1_01
  6
Continuous
 62
     3
370
    35
100
AcDbLine
 10
84.41237451079672
 20
197.7811659192824
 30
0.0
 11
84.91237451079672
 21
197.7811659192824
 31
0.0
  0
LINE
  5
3B4
330
384
100
AcDbEntity
  8
GR1_01
  6
Continuous
 62
     3
370
    35
100
AcDbLine
 10
84.91237451079672
 20
198.2811659192824
 30
0.0
 11
84.41237451079672
 21
198.2811659192824
 31
0.0
  0
LINE
  5
3B5
330
384
100
AcDbEntity
  8
GR1_01
  6
DASHDOT
 62
     7
370
    13
100
AcDbLine
 10
39.91237451079675
 20
192.235458808313
 30
0.0
 11
39.91237451079675
 21
198.4426893567824
 31
0.0
  0
LINE
  5
3B6
330
384
100
AcDbEntity
  8
GR1_01
  6
DASHDOT
 62
     7
370
    13
100
AcDbLine
 10
79.91237451079675
 20
198.4426893567824
 30
0.0
 11
79.91237451079675
 21
192.235458808313
 31
0.0
  0
LINE
  5
3B7
330
384
100
AcDbEntity
  8
GR1_01
  6
Continuous
 62
     3
370
    35
100
AcDbLine
 10
87.41237451079675
 20
199.8811659192824
 30
0.0
 11
87.41237451079675
 21
190.8811659192823
 31
0.0
  0
LINE
  5
3B8
330
384
100
AcDbEntity
  8
GR1_01
  6
Continuous
 62
     3
370
    35
100
AcDbLine
 10
32.41237451079675
 20
190.8811659192824
 30
0.0
 11
32.41237451079675
 21
199.8811659192823
 31
0.0
  0
ARC
  5
3B9
330
384
100
AcDbEntity
  8
GR1_01
  6
Continuous
 62
     3
370
    35
100
AcDbCircle
 10
81.16237451079675
 20
195.3811659192824
 30
0.0
 40
0.25
100
AcDbArc
 50
270.0
 51
90.0
  0
LINE
  5
3BA
330
384
100
AcDbEntity
  8
GR1_01
  6
Continuous
 62
     3
370
    35
100
AcDbLine
 10
81.16237451079675
 20
195.1311659192824
 30
0.0
 11
80.16237451079678
 21
195.1311659192824
 31
0.0
  0
LINE
  5
3BB
330
384
100
AcDbEntity
  8
GR1_01
  6
Continuous
 62
     3
370
    35
100
AcDbLine
 10
80.16237451079678
 20
195.1311659192824
 30
0.0
 11
80.16237451079678
 21
194.1311659192823
 31
0.0
  0
ARC
  5
3BC
330
384
100
AcDbEntity
  8
GR1_01
  6
Continuous
 62
     3
370
    35
100
AcDbCircle
 10
79.91237451079678
 20
194.1311659192823
 30
0.0
 40
0.25
100
AcDbArc
 50
180.0
 51
0.0
  0
LINE
  5
3BD
330
384
100
AcDbEntity
  8
GR1_01
  6
Continuous
 62
     3
370
    35
100
AcDbLine
 10
79.66237451079678
 20
194.1311659192823
 30
0.0
 11
79.66237451079678
 21
195.1311659192824
 31
0.0
  0
LINE
  5
3BE
330
384
100
AcDbEntity
  8
GR1_01
  6
Continuous
 62
     3
370
    35
100
AcDbLine
 10
79.66237451079678
 20
195.1311659192824
 30
0.0
 11
78.66237451079675
 21
195.1311659192824
 31
0.0
  0
ARC
  5
3BF
330
384
100
AcDbEntity
  8
GR1_01
  6
Continuous
 62
     3
370
    35
100
AcDbCircle
 10
78.66237451079675
 20
195.3811659192824
 30
0.0
 40
0.25
100
AcDbArc
 50
90.0
 51
270.0
  0
LINE
  5
3C0
330
384
100
AcDbEntity
  8
GR1_01
  6
Continuous
 62
     3
370
    35
100
AcDbLine
 10
78.66237451079675
 20
195.6311659192824
 30
0.0
 11
79.66237451079678
 21
195.6311659192824
 31
0.0
  0
LINE
  5
3C1
330
384
100
AcDbEntity
  8
GR1_01
  6
Continuous
 62
     3
370
    35
100
AcDbLine
 10
79.66237451079678
 20
195.6311659192824
 30
0.0
 11
79.66237451079678
 21
196.6311659192824
 31
0.0
  0
ARC
  5
3C2
330
384
100
AcDbEntity
  8
GR1_01
  6
Continuous
 62
     3
370
    35
100
AcDbCircle
 10
79.91237451079678
 20
196.6311659192824
 30
0.0
 40
0.25
100
AcDbArc
 50
0.0
 51
180.0
  0
LINE
  5
3C3
330
384
100
AcDbEntity
  8
GR1_01
  6
Continuous
 62
     3
370
    35
100
AcDbLine
 10
80.16237451079678
 20
196.6311659192824
 30
0.0
 11
80.16237451079678
 21
195.6311659192824
 31
0.0
  0
LINE
  5
3C4
330
384
100
AcDbEntity
  8
GR1_01
  6
Continuous
 62
     3
370
    35
100
AcDbLine
 10
80.16237451079678
 20
195.6311659192824
 30
0.0
 11
81.16237451079675
 21
195.6311659192824
 31
0.0
  0
LINE
  5
3C5
330
384
100
AcDbEntity
  8
GR1_01
  6
Continuous
 62
     3
370
    35
100
AcDbLine
 10
40.16237451079672
 20
194.1311659192823
 30
0.0
 11
40.16237451079672
 21
196.6311659192824
 31
0.0
  0
ARC
  5
3C6
330
384
100
AcDbEntity
  8
GR1_01
  6
Continuous
 62
     3
370
    35
100
AcDbCircle
 10
39.91237451079672
 20
194.1311659192823
 30
0.0
 40
0.25
100
AcDbArc
 50
180.0
 51
0.0
  0
LINE
  5
3C7
330
384
100
AcDbEntity
  8
GR1_01
  6
Continuous
 62
     3
370
    35
100
AcDbLine
 10
39.66237451079672
 20
194.1311659192823
 30
0.0
 11
39.66237451079672
 21
196.6311659192824
 31
0.0
  0
ARC
  5
3C8
330
384
100
AcDbEntity
  8
GR1_01
  6
Continuous
 62
     3
370
    35
100
AcDbCircle
 10
39.91237451079672
 20
196.6311659192824
 30
0.0
 40
0.25
100
AcDbArc
 50
0.0
 51
180.0
  0
LINE
  5
3C9
330
384
100
AcDbEntity
  8
GR1_01
  6
Continuous
 62
     3
370
    35
100
AcDbLine
 10
86.41237451079681
 20
200.8811659192823
 30
0.0
 11
82.47514647582395
 21
200.8811659192824
 31
0.0
  0
LINE
  5
3CA
330
384
100
AcDbEntity
  8
GR1_01
  6
Continuous
 62
     3
370
    35
100
AcDbLine
 10
86.41237451079681
 20
189.8811659192824
 30
0.0
 11
82.47514647582392
 21
189.8811659192824
 31
0.0
  0
LINE
  5
3CB
330
384
100
AcDbEntity
  8
GR1_01
  6
Continuous
 62
     3
370
    35
100
AcDbLine
 10
87.41237451079681
 20
199.8811659192823
 30
0.0
 11
86.41237451079681
 21
200.8811659192823
 31
0.0
  0
LINE
  5
3CC
330
384
100
AcDbEntity
  8
GR1_01
  6
Continuous
 62
     3
370
    35
100
AcDbLine
 10
87.41237451079681
 20
190.8811659192824
 30
0.0
 11
86.41237451079681
 21
189.8811659192824
 31
0.0
  0
LINE
  5
3CD
330
384
100
AcDbEntity
  8
GR1_01
  6
Continuous
 62
     3
370
    35
100
AcDbLine
 10
33.41237451079675
 20
200.8811659192823
 30
0.0
 11
37.3808510732967
 21
200.8811659192824
 31
0.0
  0
LINE
  5
3CE
330
384
100
AcDbEntity
  8
GR1_01
  6
Continuous
 62
     3
370
    35
100
AcDbLine
 10
33.41237451079675
 20
189.8811659192824
 30
0.0
 11
37.36185810621384
 21
189.8811659192824
 31
0.0
  0
LINE
  5
3CF
330
384
100
AcDbEntity
  8
GR1_01
  6
Continuous
 62
     3
370
    35
100
AcDbLine
 10
32.41237451079675
 20
199.8811659192823
 30
0.0
 11
33.41237451079675
 21
200.8811659192823
 31
0.0
  0
LINE
  5
3D0
330
384
100
AcDbEntity
  8
GR1_01
  6
Continuous
 62
     3
370
    35
100
AcDbLine
 10
32.41237451079675
 20
190.8811659192824
 30
0.0
 11
33.41237451079675
 21
189.8811659192824
 31
0.0
  0
ARC
  5
3D1
330
384
100
AcDbEntity
  8
GR1_01
  6
Continuous
 62
     3
370
    35
100
AcDbCircle
 10
59.91237451079678
 20
195.3811659192824
 30
0.0
 40
24.0
100
AcDbArc
 50
194.175803515867
 51
345.824196484133
  0
ARC
  5
3D2
330
384
100
AcDbEntity
  8
GR1_01
  6
Continuous
 62
     3
370
    35
100
AcDbCircle
 10
59.91237451079678
 20
195.3811659192824
 30
0.0
 40
24.0
100
AcDbArc
 50
14.17580351586702
 51
165.824196484133
  0
ARC
  5
3D3
330
384
100
AcDbEntity
  8
GR1_01
  6
Continuous
 62
     3
370
    35
100
AcDbCircle
 10
83.6663215512362
 20
201.3811659192824
 30
0.0
 40
0.5
100
AcDbArc
 50
194.1758035158667
 51
270.0
  0
ARC
  5
3D4
330
384
100
AcDbEntity
  8
GR1_01
  6
Continuous
 62
     3
370
    35
100
AcDbCircle
 10
83.6663215512362
 20
189.3811659192824
 30
0.0
 40
0.5
100
AcDbArc
 50
90.0
 51
165.8241964841334
  0
ARC
  5
3D5
330
384
100
AcDbEntity
  8
GR1_01
  6
Continuous
 62
     3
370
    35
100
AcDbCircle
 10
36.15842747035737
 20
189.3811659192824
 30
0.0
 40
0.5
100
AcDbArc
 50
14.17580351586668
 51
90.0
  0
ARC
  5
3D6
330
384
100
AcDbEntity
  8
GR1_01
  6
Continuous
 62
     3
370
    35
100
AcDbCircle
 10
36.15842747035737
 20
201.3811659192824
 30
0.0
 40
0.5
100
AcDbArc
 50
270.0
 51
345.8241964841333
  0
LINE
  5
3D7
330
384
100
AcDbEntity
  8
GR1_01
  6
Continuous
 62
     3
370
    35
100
AcDbLine
 10
72.24890562776804
 20
192.2811659192824
 30
0.0
 11
82.41237451079675
 21
192.2811659192824
 31
0.0
  0
LINE
  5
3D8
330
384
100
AcDbEntity
  8
GR1_01
  6
Continuous
 62
     3
370
    35
100
AcDbLine
 10
72.24890562776804
 20
198.4811659192824
 30
0.0
 11
82.41237451079675
 21
198.4811659192824
 31
0.0
  0
ARC
  5
3D9
330
384
100
AcDbEntity
  8
GR1_01
  6
Continuous
 62
     3
370
    35
100
AcDbCircle
 10
72.24890562776804
 20
191.2811659192824
 30
0.0
 40
1.0
100
AcDbArc
 50
90.0
 51
161.6159657715024
  0
ARC
  5
3DA
330
384
100
AcDbEntity
  8
GR1_01
  6
Continuous
 62
     3
370
    35
100
AcDbCircle
 10
72.24890562776804
 20
199.4811659192824
 30
0.0
 40
1.0
100
AcDbArc
 50
198.3840342284976
 51
270.0
  0
LINE
  5
3DB
330
384
100
AcDbEntity
  8
GR1_01
  6
Continuous
 62
     3
370
    35
100
AcDbLine
 10
70.86682566090013
 20
189.3811659192824
 30
0.0
 11
80.61074401179852
 21
189.3811659192824
 31
0.0
  0
LINE
  5
3DC
330
384
100
AcDbEntity
  8
GR1_01
  6
Continuous
 62
     3
370
    35
100
AcDbLine
 10
70.86682566090008
 20
201.3811659192824
 30
0.0
 11
80.61074401179852
 21
201.3811659192824
 31
0.0
  0
ARC
  5
3DD
330
384
100
AcDbEntity
  8
GR1_01
  6
Continuous
 62
     3
370
    35
100
AcDbCircle
 10
70.86682566090013
 20
188.3811659192824
 30
0.0
 40
1.0
100
AcDbArc
 50
90.0
 51
147.4210296071958
  0
ARC
  5
3DE
330
384
100
AcDbEntity
  8
GR1_01
  6
Continuous
 62
     3
370
    35
100
AcDbCircle
 10
70.86682566090008
 20
202.3811659192824
 30
0.0
 40
1.0
100
AcDbArc
 50
212.5789703928043
 51
270.0
  0
LINE
  5
3DF
330
384
100
AcDbEntity
  8
GR1_01
  6
Continuous
 62
     3
370
    35
100
AcDbLine
 10
47.57584339382541
 20
192.2811659192824
 30
0.0
 11
37.27363558832141
 21
192.2811659192824
 31
0.0
  0
LINE
  5
3E0
330
384
100
AcDbEntity
  8
GR1_01
  6
Continuous
 62
     3
370
    35
100
AcDbLine
 10
47.57584339382541
 20
198.4811659192824
 30
0.0
 11
37.27363558832141
 21
198.4811659192824
 31
0.0
  0
ARC
  5
3E1
330
384
100
AcDbEntity
  8
GR1_01
  6
Continuous
 62
     3
370
    35
100
AcDbCircle
 10
47.57584339382541
 20
191.2811659192824
 30
0.0
 40
1.0
100
AcDbArc
 50
18.38403422849757
 51
90.0
  0
ARC
  5
3E2
330
384
100
AcDbEntity
  8
GR1_01
  6
Continuous
 62
     3
370
    35
100
AcDbCircle
 10
47.57584339382541
 20
199.4811659192824
 30
0.0
 40
1.0
100
AcDbArc
 50
270.0
 51
341.6159657715024
  0
LINE
  5
3E3
330
384
100
AcDbEntity
  8
GR1_01
  6
Continuous
 62
     3
370
    35
100
AcDbLine
 10
48.95792336069331
 20
189.3811659192824
 30
0.0
 11
39.21400500979499
 21
189.3811659192824
 31
0.0
  0
LINE
  5
3E4
330
384
100
AcDbEntity
  8
GR1_01
  6
Continuous
 62
     3
370
    35
100
AcDbLine
 10
48.95792336069337
 20
201.3811659192824
 30
0.0
 11
39.21400500979499
 21
201.3811659192824
 31
0.0
  0
ARC
  5
3E5
330
384
100
AcDbEntity
  8
GR1_01
  6
Continuous
 62
     3
370
    35
100
AcDbCircle
 10
48.95792336069331
 20
188.3811659192824
 30
0.0
 40
1.0
100
AcDbArc
 50
32.57897039280351
 51
90.0
  0
ARC
  5
3E6
330
384
100
AcDbEntity
  8
GR1_01
  6
Continuous
 62
     3
370
    35
100
AcDbCircle
 10
48.95792336069337
 20
202.3811659192824
 30
0.0
 40
1.0
100
AcDbArc
 50
270.0
 51
327.4210296071959
  0
ARC
  5
3E7
330
384
100
AcDbEntity
  8
GR1_01
  6
Continuous
 62
     3
370
    35
100
AcDbCircle
 10
82.47514647582392
 20
189.3811659192824
 30
0.0
 40
0.5
100
AcDbArc
 50
90.0
 51
164.8783346850901
  0
ARC
  5
3E8
330
384
100
AcDbEntity
  8
GR1_01
  6
Continuous
 62
     3
370
    35
100
AcDbCircle
 10
82.47514647582395
 20
201.3811659192824
 30
0.0
 40
0.5
100
AcDbArc
 50
195.1216653149099
 51
270.0
  0
ARC
  5
3E9
330
384
100
AcDbEntity
  8
GR1_01
  6
Continuous
 62
     3
370
    35
100
AcDbCircle
 10
37.36185810621384
 20
189.3811659192824
 30
0.0
 40
0.5
100
AcDbArc
 50
15.12166531491147
 51
90.0
  0
ARC
  5
3EA
330
384
100
AcDbEntity
  8
GR1_01
  6
Continuous
 62
     3
370
    35
100
AcDbCircle
 10
37.37122628792488
 20
201.3811659192824
 30
0.0
 40
0.5
100
AcDbArc
 50
270.0
 51
344.8783346850901
  0
ARC
  5
3EB
330
384
100
AcDbEntity
  8
GR1_01
  6
Continuous
 62
     3
370
    35
100
AcDbCircle
 10
59.91237451079675
 20
195.3811659192824
 30
0.0
 40
22.85
100
AcDbArc
 50
281.9979950098526
 51
349.9588266534112
  0
ARC
  5
3EC
330
384
100
AcDbEntity
  8
GR1_01
  6
Continuous
 62
     3
370
    35
100
AcDbCircle
 10
80.61074401179852
 20
188.3811659192824
 30
0.0
 40
1.0
100
AcDbArc
 50
341.3149315208776
 51
90.0
  0
ARC
  5
3ED
330
384
100
AcDbEntity
  8
GR1_01
  6
Continuous
 62
     3
370
    35
100
AcDbCircle
 10
80.61074401179852
 20
202.3811659192824
 30
0.0
 40
1.0
100
AcDbArc
 50
270.0
 51
18.68506847912293
  0
ARC
  5
3EE
330
384
100
AcDbEntity
  8
GR1_01
  6
Continuous
 62
     3
370
    35
100
AcDbCircle
 10
39.21400500979499
 20
188.3811659192824
 30
0.0
 40
1.0
100
AcDbArc
 50
90.0
 51
198.6850684791232
  0
ARC
  5
3EF
330
384
100
AcDbEntity
  8
GR1_01
  6
Continuous
 62
     3
370
    35
100
AcDbCircle
 10
39.21400500979499
 20
202.3811659192824
 30
0.0
 40
1.0
100
AcDbArc
 50
161.3149315208771
 51
270.0
  0
LINE
  5
3F0
330
384
100
AcDbEntity
  8
GR1_01
  6
Continuous
 62
     3
370
    35
100
AcDbLine
 10
63.91237451079678
 20
171.7168467868839
 30
0.0
 11
64.66237451079672
 21
173.0303270088522
 31
0.0
  0
LINE
  5
3F1
330
384
100
AcDbEntity
  8
GR1_01
  6
Continuous
 62
     3
370
    35
100
AcDbLine
 10
55.91237451079667
 20
171.7168467868839
 30
0.0
 11
55.16237451079672
 21
173.0303270088522
 31
0.0
  0
LINE
  5
3F2
330
384
100
AcDbEntity
  8
GR1_01
  6
Continuous
 62
     3
370
    35
100
AcDbLine
 10
63.91237451079678
 20
219.0454850516809
 30
0.0
 11
64.66237451079672
 21
217.7320048297126
 31
0.0
  0
LINE
  5
3F3
330
384
100
AcDbEntity
  8
GR1_01
  6
Continuous
 62
     3
370
    35
100
AcDbLine
 10
55.91237451079667
 20
219.0454850516809
 30
0.0
 11
55.16237451079672
 21
217.7320048297126
 31
0.0
  0
ARC
  5
3F4
330
384
100
AcDbEntity
  8
GR1_01
  6
Continuous
 62
     3
370
    35
100
AcDbCircle
 10
59.91237451079675
 20
195.3811659192824
 30
0.0
 40
22.85
100
AcDbArc
 50
101.9979950098528
 51
172.2027860708269
  0
ARC
  5
3F5
330
384
100
AcDbEntity
  8
GR1_01
  6
Continuous
 62
     3
370
    35
100
AcDbCircle
 10
59.91237451079675
 20
195.3811659192824
 30
0.0
 40
22.85
100
AcDbArc
 50
10.04117334658872
 51
78.00200499014726
  0
LINE
  5
3F6
330
384
100
AcDbEntity
  8
GR1_01
  6
Continuous
 62
     3
370
    35
100
AcDbLine
 10
37.27363558832141
 20
192.2811659192824
 30
0.0
 11
37.27363558832141
 21
198.4811659192824
 31
0.0
  0
ARC
  5
3F7
330
384
100
AcDbEntity
  8
GR1_01
  6
Continuous
 62
     3
370
    35
100
AcDbCircle
 10
59.91237451079675
 20
195.3811659192824
 30
0.0
 40
22.85
100
AcDbArc
 50
187.7972139291731
 51
258.0020049901472
  0
LINE
  5
3F8
330
384
100
AcDbEntity
  8
GR1_01
  6
Continuous
 62
     3
370
    35
100
AcDbLine
 10
82.41237451079675
 20
199.3651965416547
 30
0.0
 11
82.41237451079675
 21
191.3971352969101
 31
0.0
  0
ARC
  5
3F9
330
384
100
AcDbEntity
  8
GR1_01
  6
Continuous
 62
     3
370
    35
100
AcDbCircle
 10
59.91237451079678
 20
195.3811659192824
 30
0.0
 40
12.0
100
AcDbArc
 50
320.9680959742635
 51
39.03190402573726
  0
ARC
  5
3FA
330
384
100
AcDbEntity
  8
GR1_01
  6
Continuous
 62
     3
370
    35
100
AcDbCircle
 10
59.91237451079678
 20
195.3811659192824
 30
0.0
 40
12.0
100
AcDbArc
 50
50.96809597426387
 51
129.031904025737
  0
ARC
  5
3FB
330
384
100
AcDbEntity
  8
GR1_01
  6
Continuous
 62
     3
370
    35
100
AcDbCircle
 10
59.91237451079678
 20
195.3811659192824
 30
0.0
 40
12.0
100
AcDbArc
 50
140.9680959742637
 51
219.0319040257367
  0
ARC
  5
3FC
330
384
100
AcDbEntity
  8
GR1_01
  6
Continuous
 62
     3
370
    35
100
AcDbCircle
 10
59.91237451079678
 20
195.3811659192824
 30
0.0
 40
12.0
100
AcDbArc
 50
230.9680959742633
 51
309.0319040257369
  0
ARC
  5
3FD
330
384
100
AcDbEntity
  8
GR1_01
  6
Continuous
 62
     3
370
    35
100
AcDbCircle
 10
68.39765588503522
 20
203.866447293521
 30
0.0
 40
1.0
100
AcDbArc
 50
325.3398908939312
 51
124.6601091060697
  0
ARC
  5
3FE
330
384
100
AcDbEntity
  8
GR1_01
  6
Continuous
 62
     3
370
    35
100
AcDbCircle
 10
69.46695813172883
 20
203.1271282113812
 30
0.0
 40
0.3
100
AcDbArc
 50
145.3398908939336
 51
219.0319040257359
  0
ARC
  5
3FF
330
384
100
AcDbEntity
  8
GR1_01
  6
Continuous
 62
     3
370
    35
100
AcDbCircle
 10
67.65833680289543
 20
204.9357495402145
 30
0.0
 40
0.3
100
AcDbArc
 50
230.9680959742642
 51
304.660109106068
  0
ARC
  5
400
330
384
100
AcDbEntity
  8
GR1_01
  6
Continuous
 62
     3
370
    35
100
AcDbCircle
 10
51.42709313655817
 20
203.8664472935209
 30
0.0
 40
1.0
100
AcDbArc
 50
55.33989089393128
 51
214.6601091060697
  0
ARC
  5
401
330
384
100
AcDbEntity
  8
GR1_01
  6
Continuous
 62
     3
370
    35
100
AcDbCircle
 10
52.16641221869793
 20
204.9357495402145
 30
0.0
 40
0.3
100
AcDbArc
 50
235.3398908939336
 51
309.0319040257359
  0
ARC
  5
402
330
384
100
AcDbEntity
  8
GR1_01
  6
Continuous
 62
     3
370
    35
100
AcDbCircle
 10
50.35779088986456
 20
203.1271282113811
 30
0.0
 40
0.3
100
AcDbArc
 50
320.9680959742642
 51
34.66010910606801
  0
ARC
  5
403
330
384
100
AcDbEntity
  8
GR1_01
  6
Continuous
 62
     3
370
    35
100
AcDbCircle
 10
51.42709313655823
 20
186.8958845450438
 30
0.0
 40
1.0
100
AcDbArc
 50
145.3398908939313
 51
304.6601091060697
  0
ARC
  5
404
330
384
100
AcDbEntity
  8
GR1_01
  6
Continuous
 62
     3
370
    35
100
AcDbCircle
 10
50.35779088986462
 20
187.6352036271836
 30
0.0
 40
0.3
100
AcDbArc
 50
325.3398908939336
 51
39.03190402573589
  0
ARC
  5
405
330
384
100
AcDbEntity
  8
GR1_01
  6
Continuous
 62
     3
370
    35
100
AcDbCircle
 10
52.16641221869801
 20
185.8265822983502
 30
0.0
 40
0.3
100
AcDbArc
 50
50.96809597426419
 51
124.660109106068
  0
ARC
  5
406
330
384
100
AcDbEntity
  8
GR1_01
  6
Continuous
 62
     3
370
    35
100
AcDbCircle
 10
68.39765588503528
 20
186.8958845450439
 30
0.0
 40
1.0
100
AcDbArc
 50
235.3398908939313
 51
34.6601091060697
  0
ARC
  5
407
330
384
100
AcDbEntity
  8
GR1_01
  6
Continuous
 62
     3
370
    35
100
AcDbCircle
 10
67.65833680289552
 20
185.8265822983503
 30
0.0
 40
0.3
100
AcDbArc
 50
55.33989089393361
 51
129.031904025736
  0
ARC
  5
408
330
384
100
AcDbEntity
  8
GR1_01
  6
Continuous
 62
     3
370
    35
100
AcDbCircle
 10
69.46695813172889
 20
187.6352036271837
 30
0.0
 40
0.3
100
AcDbArc
 50
140.9680959742642
 51
214.660109106068
  0
ENDBLK
  5
386
330
384
100
AcDbEntity
  8
0
100
AcDbBlockEnd
  0
BLOCK
  5
38A
330
389
100
AcDbEntity
  8
0
100
AcDbBlockBegin
  2
BLKF050
 70
     0
 10
0.0
 20
0.0
 30
0.0
  3
BLKF050
  1

  0
TEXT
  5
38D
330
389
100
AcDbEntity
  8
GR1_01
  6
Continuous
 62
     7
370
    13
100
AcDbText
 10
58.42798792220455
 20
187.6348928025903
 30
0.0
 40
1.363636327512336
  1
Ｒ
 50
354.6524047851563
 41
0.8529230796129277
  7
ＭＳ ゴシック
 72
     1
 11
59.1574821472168
 21
187.3164215087891
 31
0.0
100
AcDbText
 73
     1
  0
TEXT
  5
38E
330
389
100
AcDbEntity
  8
GR1_01
  6
Continuous
 62
     7
370
    13
100
AcDbText
 10
57.01618233405977
 20
188.0449404858096
 30
0.0
 40
1.363636327512336
  1
Ｕ
 50
343.9571838378906
 41
0.8529230796129277
  7
ＭＳ ゴシック
 72
     1
 11
57.67390060424805
 21
187.5966186523438
 31
0.0
100
AcDbText
 73
     1
  0
TEXT
  5
38F
330
389
100
AcDbEntity
  8
GR1_01
  6
Continuous
 62
     7
370
    13
100
AcDbText
 10
55.70500218952892
 20
188.7098739620957
 30
0.0
 40
1.363636327512336
  1
Ｍ
 50
333.261962890625
 41
0.8529230796129277
  7
ＭＳ ゴシック
 72
     1
 11
56.26809310913086
 21
188.1472778320312
 31
0.0
100
AcDbText
 73
     1
  0
TEXT
  5
390
330
389
100
AcDbEntity
  8
GR1_01
  6
Continuous
 62
     7
370
    13
100
AcDbText
 10
54.54001810132817
 20
189.6065881886103
 30
0.0
 40
1.363636327512336
  1
Ａ
 50
322.5667724609375
 41
0.8529230796129277
  7
ＭＳ ゴシック
 72
     1
 11
54.98891830444336
 21
188.9492645263672
 31
0.0
100
AcDbText
 73
     1
  0
TEXT
  5
391
330
389
100
AcDbEntity
  8
GR1_01
  6
Continuous
 62
     7
370
    13
100
AcDbText
 10
53.56166641700342
 20
190.7039299951412
 30
0.0
 40
1.363636327512336
  1
Ｗ
 50
311.8715515136719
 41
0.8529230796129277
  7
ＭＳ ゴシック
 72
     1
 11
53.88077926635742
 21
189.9747161865234
 31
0.0
100
AcDbText
 73
     1
  0
TEXT
  5
392
330
389
100
AcDbEntity
  8
GR1_01
  6
Continuous
 62
     7
370
    13
100
AcDbText
 10
52.80396602004292
 20
191.9637873570535
 30
0.0
 40
1.363636327512336
  1
Ａ
 50
301.1763305664062
 41
0.8529230796129277
  7
ＭＳ ゴシック
 72
     1
 11
52.98220443725586
 21
191.1880187988281
 31
0.0
100
AcDbText
 73
     1
  0
TEXT
  5
393
330
389
100
AcDbEntity
  8
GR1_01
  6
Continuous
 62
     7
370
    13
100
AcDbText
 10
52.29322624795072
 20
193.3423674925901
 30
0.0
 40
1.363636327512336
  1
Ｓ
 50
290.4811401367188
 41
0.8529230796129277
  7
ＭＳ ゴシック
 72
     1
 11
52.32439804077148
 21
192.5469970703125
 31
0.0
100
AcDbText
 73
     1
  0
TEXT
  5
394
330
389
100
AcDbEntity
  8
GR1_01
  6
Continuous
 62
     7
370
    13
100
AcDbText
 10
59.8913533439282
 20
187.4939778876757
 30
0.0
 40
1.363636327512336
  1
Ａ
 50
5.34759521484375
 41
0.8529230796129277
  7
ＭＳ ゴシック
 72
     1
 11
60.66727828979492
 21
187.3164215087891
 31
0.0
100
AcDbText
 73
     1
  0
TEXT
  5
395
330
389
100
AcDbEntity
  8
GR1_01
  6
Continuous
 62
     3
370
    35
100
AcDbText
 10
61.3554622988115
 20
187.627090808231
 30
0.0
 40
1.363636327512336
  1
　
 50
16.04281616210938
 41
0.8529230796129277
  7
ＭＳ ゴシック
 72
     1
 11
62.15085983276367
 21
187.5966186523438
 31
0.0
100
AcDbText
 73
     1
  0
TEXT
  5
396
330
389
100
AcDbEntity
  8
GR1_01
  6
Continuous
 62
     7
370
    13
100
AcDbText
 10
62.76943205295116
 20
188.0296070573759
 30
0.0
 40
1.363636327512336
  1
Ｄ
 50
26.738037109375
 41
0.8529230796129277
  7
ＭＳ ゴシック
 72
     1
 11
63.55666732788086
 21
188.1472778320312
 31
0.0
100
AcDbText
 73
     1
  0
TEXT
  5
397
330
389
100
AcDbEntity
  8
GR1_01
  6
Continuous
 62
     7
370
    13
100
AcDbText
 10
64.08413168349472
 20
188.6875395091499
 30
0.0
 40
1.363636327512336
  1
Ｅ
 50
37.4332275390625
 41
0.8529230796129277
  7
ＭＳ ゴシック
 72
     1
 11
64.83585357666016
 21
188.9492645263672
 31
0.0
100
AcDbText
 73
     1
  0
TEXT
  5
398
330
389
100
AcDbEntity
  8
GR1_01
  6
Continuous
 62
     7
370
    13
100
AcDbText
 10
65.2539015710893
 20
189.5780297350705
 30
0.0
 40
1.363636327512336
  1
Ｎ
 50
48.12844848632812
 41
0.8529230796129277
  7
ＭＳ ゴシック
 72
     1
 11
65.9439926147461
 21
189.9747161865234
 31
0.0
100
AcDbText
 73
     1
  0
TEXT
  5
399
330
389
100
AcDbEntity
  8
GR1_01
  6
Continuous
 62
     7
370
    13
100
AcDbText
 10
66.23808338699936
 20
190.6701531653692
 30
0.0
 40
1.363636327512336
  1
Ｋ
 50
58.82366943359375
 41
0.8529230796129277
  7
ＭＳ ゴシック
 72
     1
 11
66.84256744384766
 21
191.1880187988281
 31
0.0
100
AcDbText
 73
     1
  0
TEXT
  5
39A
330
389
100
AcDbEntity
  8
GR1_01
  6
Continuous
 62
     7
370
    13
100
AcDbText
 10
67.00248303673511
 20
191.9259449539938
 30
0.0
 40
1.363636327512336
  1
Ｉ
 50
69.51885986328125
 41
0.8529230796129277
  7
ＭＳ ゴシック
 72
     1
 11
67.50035858154297
 21
192.5469970703125
 31
0.0
100
AcDbText
 73
     1
  0
ENDBLK
  5
38B
330
389
100
AcDbEntity
  8
0
100
AcDbBlockEnd
  0
BLOCK
  5
415
330
414
100
AcDbEntity
  8
0
100
AcDbBlockBegin
  2
BLKF051
 70
     0
 10
0.0
 20
0.0
 30
0.0
  3
BLKF051
  1

  0
LINE
  5
418
330
414
100
AcDbEntity
  8
GR1_01
  6
Continuous
 62
     3
370
    35
100
AcDbLine
 10
63.95382639512408
 20
214.8811659192824
 30
0.0
 11
61.93310045296039
 21
218.3811659192824
 31
0.0
  0
LINE
  5
419
330
414
100
AcDbEntity
  8
GR1_01
  6
Continuous
 62
     3
370
    35
100
AcDbLine
 10
61.93310045296039
 20
218.3811659192824
 30
0.0
 11
57.89164856863301
 21
218.3811659192824
 31
0.0
  0
LINE
  5
41A
330
414
100
AcDbEntity
  8
GR1_01
  6
Continuous
 62
     3
370
    35
100
AcDbLine
 10
57.89164856863301
 20
218.3811659192824
 30
0.0
 11
55.87092262646932
 21
214.8811659192824
 31
0.0
  0
LINE
  5
41B
330
414
100
AcDbEntity
  8
GR1_01
  6
Continuous
 62
     3
370
    35
100
AcDbLine
 10
55.87092262646932
 20
214.8811659192824
 30
0.0
 11
57.891648568633
 21
211.3811659192824
 31
0.0
  0
LINE
  5
41C
330
414
100
AcDbEntity
  8
GR1_01
  6
Continuous
 62
     3
370
    35
100
AcDbLine
 10
57.891648568633
 20
211.3811659192824
 30
0.0
 11
61.93310045296039
 21
211.3811659192824
 31
0.0
  0
LINE
  5
41D
330
414
100
AcDbEntity
  8
GR1_01
  6
Continuous
 62
     3
370
    35
100
AcDbLine
 10
61.93310045296039
 20
211.3811659192824
 30
0.0
 11
63.95382639512408
 21
214.8811659192824
 31
0.0
  0
CIRCLE
  5
41E
330
414
100
AcDbEntity
  8
GR1_01
  6
Continuous
 62
     3
370
    35
100
AcDbCircle
 10
59.9123745107967
 20
214.8811659192824
 30
0.0
 40
3.4
  0
CIRCLE
  5
41F
330
414
100
AcDbEntity
  8
GR1_01
  6
Continuous
 62
     3
370
    35
100
AcDbCircle
 10
59.9123745107967
 20
214.8811659192824
 30
0.0
 40
1.6
  0
ARC
  5
420
330
414
100
AcDbEntity
  8
GR1_01
  6
Continuous
 62
     7
370
    13
100
AcDbCircle
 10
59.9123745107967
 20
214.8811659192824
 30
0.0
 40
2.0
100
AcDbArc
 50
80.0
 51
349.9999999999999
  0
ENDBLK
  5
416
330
414
100
AcDbEntity
  8
0
100
AcDbBlockEnd
  0
BLOCK
  5
422
330
421
100
AcDbEntity
  8
0
100
AcDbBlockBegin
  2
BLKF052
 70
     0
 10
0.0
 20
0.0
 30
0.0
  3
BLKF052
  1

  0
LINE
  5
425
330
421
100
AcDbEntity
  8
GR1_01
  6
Continuous
 62
     3
370
    35
100
AcDbLine
 10
63.95382639512408
 20
175.8811659192824
 30
0.0
 11
61.9331004529604
 21
179.3811659192824
 31
0.0
  0
LINE
  5
426
330
421
100
AcDbEntity
  8
GR1_01
  6
Continuous
 62
     3
370
    35
100
AcDbLine
 10
61.9331004529604
 20
179.3811659192824
 30
0.0
 11
57.89164856863302
 21
179.3811659192824
 31
0.0
  0
LINE
  5
427
330
421
100
AcDbEntity
  8
GR1_01
  6
Continuous
 62
     3
370
    35
100
AcDbLine
 10
57.89164856863302
 20
179.3811659192824
 30
0.0
 11
55.87092262646932
 21
175.8811659192824
 31
0.0
  0
LINE
  5
428
330
421
100
AcDbEntity
  8
GR1_01
  6
Continuous
 62
     3
370
    35
100
AcDbLine
 10
55.87092262646932
 20
175.8811659192824
 30
0.0
 11
57.89164856863301
 21
172.3811659192824
 31
0.0
  0
LINE
  5
429
330
421
100
AcDbEntity
  8
GR1_01
  6
Continuous
 62
     3
370
    35
100
AcDbLine
 10
57.89164856863301
 20
172.3811659192824
 30
0.0
 11
61.9331004529604
 21
172.3811659192824
 31
0.0
  0
LINE
  5
42A
330
421
100
AcDbEntity
  8
GR1_01
  6
Continuous
 62
     3
370
    35
100
AcDbLine
 10
61.9331004529604
 20
172.3811659192824
 30
0.0
 11
63.95382639512408
 21
175.8811659192824
 31
0.0
  0
CIRCLE
  5
42B
330
421
100
AcDbEntity
  8
GR1_01
  6
Continuous
 62
     3
370
    35
100
AcDbCircle
 10
59.9123745107967
 20
175.8811659192824
 30
0.0
 40
3.4
  0
CIRCLE
  5
42C
330
421
100
AcDbEntity
  8
GR1_01
  6
Continuous
 62
     3
370
    35
100
AcDbCircle
 10
59.9123745107967
 20
175.8811659192824
 30
0.0
 40
1.6
  0
ARC
  5
42D
330
421
100
AcDbEntity
  8
GR1_01
  6
Continuous
 62
     7
370
    13
100
AcDbCircle
 10
59.9123745107967
 20
175.8811659192824
 30
0.0
 40
2.0
100
AcDbArc
 50
80.0
 51
349.9999999999999
  0
ENDBLK
  5
423
330
421
100
AcDbEntity
  8
0
100
AcDbBlockEnd
  0
BLOCK
  5
434
330
433
100
AcDbEntity
  8
0
100
AcDbBlockBegin
  2
BLKF053
 70
     0
 10
0.0
 20
0.0
 30
0.0
  3
BLKF053
  1

  0
LINE
  5
437
330
433
100
AcDbEntity
  8
作図レイヤ
  6
Continuous
 62
     7
370
    13
100
AcDbLine
 10
156.9548037387844
 20
93.54212317563159
 30
0.0
 11
160.6868545463537
 21
94.54212317563176
 31
0.0
  0
LINE
  5
438
330
433
100
AcDbEntity
  8
作図レイヤ
  6
Continuous
 62
     7
370
    13
100
AcDbLine
 10
156.9548037387844
 20
93.5421231756316
 30
0.0
 11
164.4189053539218
 21
91.54212317563162
 31
0.0
  0
LINE
  5
439
330
433
100
AcDbEntity
  8
作図レイヤ
  6
Continuous
 62
     7
370
    13
100
AcDbLine
 10
160.6868545463537
 20
90.54212317563177
 30
0.0
 11
164.4189053539218
 21
91.54212317563162
 31
0.0
  0
LINE
  5
43A
330
433
100
AcDbEntity
  8
作図レイヤ
  6
Continuous
 62
     7
370
    13
100
AcDbLine
 10
160.6868545463536
 20
76.74878688985308
 30
0.0
 11
160.6868545463537
 21
90.54212317563177
 31
0.0
  0
LINE
  5
43B
330
433
100
AcDbEntity
  8
作図レイヤ
  6
Continuous
 62
     7
370
    13
100
AcDbLine
 10
160.6868545463537
 20
94.54212317563176
 30
0.0
 11
160.6868545463536
 21
115.5421261359778
 31
0.0
  0
LINE
  5
43C
330
433
100
AcDbEntity
  8
作図レイヤ
  6
Continuous
 62
     7
370
    13
100
AcDbLine
 10
156.9548037387866
 20
118.5421261359775
 30
0.0
 11
160.6868545463536
 21
119.5421261359778
 31
0.0
  0
LINE
  5
43D
330
433
100
AcDbEntity
  8
作図レイヤ
  6
Continuous
 62
     7
370
    13
100
AcDbLine
 10
156.9548037387864
 20
118.5421261359775
 30
0.0
 11
164.4189053539231
 21
116.5421261359775
 31
0.0
  0
LINE
  5
43E
330
433
100
AcDbEntity
  8
作図レイヤ
  6
Continuous
 62
     7
370
    13
100
AcDbLine
 10
160.6868545463536
 20
115.5421261359778
 30
0.0
 11
164.418905353923
 21
116.5421261359775
 31
0.0
  0
LINE
  5
43F
330
433
100
AcDbEntity
  8
作図レイヤ
  6
Continuous
 62
     7
370
    13
100
AcDbLine
 10
160.6868545463536
 20
119.5421261359778
 30
0.0
 11
160.6868545463536
 21
133.3991376551592
 31
0.0
  0
ENDBLK
  5
435
330
433
100
AcDbEntity
  8
0
100
AcDbBlockEnd
  0
BLOCK
  5
441
330
440
100
AcDbEntity
  8
0
100
AcDbBlockBegin
  2
BLKF054
 70
     0
 10
0.0
 20
0.0
 30
0.0
  3
BLKF054
  1

  0
LINE
  5
444
330
440
100
AcDbEntity
  8
作図レイヤ
  6
Continuous
 62
     3
370
    35
100
AcDbLine
 10
140.6868470535604
 20
81.04214768059003
 30
0.0
 11
141.6868467413603
 21
80.04214736839006
 31
0.0
  0
LINE
  5
445
330
440
100
AcDbEntity
  8
作図レイヤ
  6
Continuous
 62
     3
370
    35
100
AcDbLine
 10
140.6868620391566
 20
129.0421324217977
 30
0.0
 11
141.6868623513566
 21
130.0421321095976
 31
0.0
  0
LINE
  5
446
330
440
100
AcDbEntity
  8
作図レイヤ
  6
Continuous
 62
     3
370
    35
100
AcDbLine
 10
141.6868620001403
 20
80.0421473683853
 30
0.0
 11
141.6868776101413
 21
130.0421473683829
 31
0.0
  0
LINE
  5
447
330
440
100
AcDbEntity
  8
作図レイヤ
  6
Continuous
 62
     3
370
    35
100
AcDbLine
 10
140.6868470535604
 20
81.04214768059005
 30
0.0
 11
140.686862039147
 21
129.0421016310237
 31
0.0
  0
LINE
  5
448
330
440
100
AcDbEntity
  8
作図レイヤ
  6
Continuous
 62
     3
370
    35
100
AcDbLine
 10
160.6868545463537
 20
130.0421276161511
 30
0.0
 11
141.6868623513566
 21
130.0421321095976
 31
0.0
  0
LINE
  5
449
330
440
100
AcDbEntity
  8
作図レイヤ
  6
Continuous
 62
     3
370
    35
100
AcDbLine
 10
160.6868545463536
 20
80.04213839295085
 30
0.0
 11
141.6868620001403
 21
80.0421473683853
 31
0.0
  0
LINE
  5
44A
330
440
100
AcDbEntity
  8
作図レイヤ
  6
Continuous
 62
     3
370
    35
100
AcDbLine
 10
140.6868545463536
 20
81.04212465580449
 30
0.0
 11
140.6868545463537
 21
129.0421246558045
 31
0.0
  0
ENDBLK
  5
442
330
440
100
AcDbEntity
  8
0
100
AcDbBlockEnd
  0
BLOCK
  5
44C
330
44B
100
AcDbEntity
  8
0
100
AcDbBlockBegin
  2
BLKF055
 70
     0
 10
0.0
 20
0.0
 30
0.0
  3
BLKF055
  1

  0
LINE
  5
44F
330
44B
100
AcDbEntity
  8
作図レイヤ
  6
Continuous
 62
     3
370
    35
100
AcDbLine
 10
140.6868545463537
 20
132.5421246558045
 30
0.0
 11
140.6868545463537
 21
77.54212465580453
 31
0.0
  0
LINE
  5
450
330
44B
100
AcDbEntity
  8
作図レイヤ
  6
Continuous
 62
     3
370
    35
100
AcDbLine
 10
140.6868545463537
 20
132.5421246558045
 30
0.0
 11
129.6868545463537
 21
132.5421246558046
 31
0.0
  0
LINE
  5
451
330
44B
100
AcDbEntity
  8
作図レイヤ
  6
Continuous
 62
     3
370
    35
100
AcDbLine
 10
126.1868545463536
 20
125.8902271833902
 30
0.0
 11
126.1868545463536
 21
84.1940221282188
 31
0.0
  0
LINE
  5
452
330
44B
100
AcDbEntity
  8
作図レイヤ
  6
Continuous
 62
     3
370
    35
100
AcDbLine
 10
138.6868545463537
 20
128.4034174282519
 30
0.0
 11
140.6868545463537
 21
128.4034174282519
 31
0.0
  0
LINE
  5
453
330
44B
100
AcDbEntity
  8
作図レイヤ
  6
Continuous
 62
     3
370
    35
100
AcDbLine
 10
126.1868545463538
 20
109.0421246558045
 30
0.0
 11
138.6868545463536
 21
109.0421246558045
 31
0.0
  0
LINE
  5
454
330
44B
100
AcDbEntity
  8
作図レイヤ
  6
Continuous
 62
     3
370
    35
100
AcDbLine
 10
126.1868545463538
 20
109.7421246558045
 30
0.0
 11
138.6868545463536
 21
109.7421246558045
 31
0.0
  0
LINE
  5
455
330
44B
100
AcDbEntity
  8
作図レイヤ
  6
Continuous
 62
     3
370
    35
100
AcDbLine
 10
140.6868545463537
 20
77.54212465580453
 30
0.0
 11
129.6868545463537
 21
77.5421246558045
 31
0.0
  0
LINE
  5
456
330
44B
100
AcDbEntity
  8
作図レイヤ
  6
Continuous
 62
     3
370
    35
100
AcDbLine
 10
138.6868545463537
 20
81.68083188335719
 30
0.0
 11
140.6868545463537
 21
81.68083188335719
 31
0.0
  0
LINE
  5
457
330
44B
100
AcDbEntity
  8
作図レイヤ
  6
Continuous
 62
     3
370
    35
100
AcDbLine
 10
126.1868545463538
 20
101.0421246558045
 30
0.0
 11
138.6868545463536
 21
101.0421246558045
 31
0.0
  0
LINE
  5
458
330
44B
100
AcDbEntity
  8
作図レイヤ
  6
Continuous
 62
     3
370
    35
100
AcDbLine
 10
126.1868545463538
 20
100.3421246558045
 30
0.0
 11
138.6868545463536
 21
100.3421246558045
 31
0.0
  0
LINE
  5
459
330
44B
100
AcDbEntity
  8
作図レイヤ
  6
Continuous
 62
     3
370
    35
100
AcDbLine
 10
140.6868545463537
 20
131.5421246558045
 30
0.0
 11
129.6868545463537
 21
131.5421246558045
 31
0.0
  0
LINE
  5
45A
330
44B
100
AcDbEntity
  8
作図レイヤ
  6
Continuous
 62
     3
370
    35
100
AcDbLine
 10
140.6868545463537
 20
78.54212465580453
 30
0.0
 11
129.6868545463537
 21
78.5421246558045
 31
0.0
  0
LINE
  5
45B
330
44B
100
AcDbEntity
  8
作図レイヤ
  6
Continuous
 62
     3
370
    35
100
AcDbLine
 10
129.6868545463537
 20
132.5421246558045
 30
0.0
 11
129.6868545463537
 21
127.2203234104375
 31
0.0
  0
LINE
  5
45C
330
44B
100
AcDbEntity
  8
作図レイヤ
  6
Continuous
 62
     3
370
    35
100
AcDbLine
 10
129.6868545463537
 20
77.54212465580453
 30
0.0
 11
129.6868545463537
 21
82.86392590117158
 31
0.0
  0
LINE
  5
45D
330
44B
100
AcDbEntity
  8
作図レイヤ
  6
Continuous
 62
     3
370
    35
100
AcDbLine
 10
138.6868545463537
 20
109.0421246558045
 30
0.0
 11
138.6868545463537
 21
128.4034174282519
 31
0.0
  0
LINE
  5
45E
330
44B
100
AcDbEntity
  8
作図レイヤ
  6
Continuous
 62
     3
370
    35
100
AcDbLine
 10
138.6868545463537
 20
101.0421246558045
 30
0.0
 11
138.6868545463537
 21
81.68083188335719
 31
0.0
  0
LINE
  5
45F
330
44B
100
AcDbEntity
  8
作図レイヤ
  6
Continuous
 62
     3
370
    35
100
AcDbLine
 10
126.9644377586337
 20
126.8651788604185
 30
0.0
 11
129.6868545463537
 21
127.4862467666812
 31
0.0
  0
LINE
  5
460
330
44B
100
AcDbEntity
  8
作図レイヤ
  6
Continuous
 62
     3
370
    35
100
AcDbLine
 10
129.6868545463537
 20
127.2203234104375
 30
0.0
 11
138.6868545463537
 21
127.2203234104375
 31
0.0
  0
LINE
  5
461
330
44B
100
AcDbEntity
  8
作図レイヤ
  6
Continuous
 62
     3
370
    35
100
AcDbLine
 10
126.9644377586338
 20
83.21907045119049
 30
0.0
 11
129.6868545463537
 21
82.59800254492781
 31
0.0
  0
LINE
  5
462
330
44B
100
AcDbEntity
  8
作図レイヤ
  6
Continuous
 62
     3
370
    35
100
AcDbLine
 10
129.6868545463537
 20
82.86392590117158
 30
0.0
 11
138.6868545463537
 21
82.86392590117158
 31
0.0
  0
ARC
  5
463
330
44B
100
AcDbEntity
  8
作図レイヤ
  6
Continuous
 62
     3
370
    35
100
AcDbCircle
 10
127.1868545463536
 20
125.8902271833902
 30
0.0
 40
1.0
100
AcDbArc
 50
102.851022335826
 51
180.0
  0
ARC
  5
464
330
44B
100
AcDbEntity
  8
作図レイヤ
  6
Continuous
 62
     3
370
    35
100
AcDbCircle
 10
127.1868545463536
 20
84.1940221282188
 30
0.0
 40
1.0
100
AcDbArc
 50
180.0
 51
257.1489776641739
  0
LINE
  5
465
330
44B
100
AcDbEntity
  8
作図レイヤ
  6
Continuous
 62
     3
370
    35
100
AcDbLine
 10
129.6868392875637
 20
79.54214768058891
 30
0.0
 11
122.6868392875637
 21
79.54214768058891
 31
0.0
  0
LINE
  5
466
330
44B
100
AcDbEntity
  8
作図レイヤ
  6
Continuous
 62
     3
370
    35
100
AcDbLine
 10
122.6868392875637
 20
79.54214768058891
 30
0.0
 11
122.6868392875637
 21
80.04214768058891
 31
0.0
  0
LINE
  5
467
330
44B
100
AcDbEntity
  8
作図レイヤ
  6
Continuous
 62
     3
370
    35
100
AcDbLine
 10
122.6868392875637
 20
80.04214768058891
 30
0.0
 11
129.6868392875637
 21
80.04214768058891
 31
0.0
  0
LINE
  5
468
330
44B
100
AcDbEntity
  8
作図レイヤ
  6
Continuous
 62
     3
370
    35
100
AcDbLine
 10
129.6868392875637
 20
130.0421324217989
 30
0.0
 11
122.6868392875637
 21
130.0421324217989
 31
0.0
  0
LINE
  5
469
330
44B
100
AcDbEntity
  8
作図レイヤ
  6
Continuous
 62
     3
370
    35
100
AcDbLine
 10
122.6868392875637
 20
130.0421324217989
 30
0.0
 11
122.6868392875637
 21
130.5421324217989
 31
0.0
  0
LINE
  5
46A
330
44B
100
AcDbEntity
  8
作図レイヤ
  6
Continuous
 62
     3
370
    35
100
AcDbLine
 10
122.6868392875637
 20
130.5421324217989
 30
0.0
 11
129.6868392875637
 21
130.5421324217989
 31
0.0
  0
LINE
  5
46B
330
44B
100
AcDbEntity
  8
作図レイヤ
  6
Continuous
 62
     3
370
    35
100
AcDbLine
 10
119.6868545463536
 20
115.8494463524008
 30
0.0
 11
119.6868545463536
 21
94.23479390540773
 31
0.0
  0
LINE
  5
46C
330
44B
100
AcDbEntity
  8
作図レイヤ
  6
Continuous
 62
     3
370
    35
100
AcDbLine
 10
120.6433814214195
 20
114.4958007608853
 30
0.0
 11
125.2303276712878
 21
114.6953983484681
 31
0.0
  0
LINE
  5
46D
330
44B
100
AcDbEntity
  8
作図レイヤ
  6
Continuous
 62
     3
370
    35
100
AcDbLine
 10
120.6433814214195
 20
113.0069550933836
 30
0.0
 11
125.7085911088208
 21
113.2273639621893
 31
0.0
  0
ARC
  5
46E
330
44B
100
AcDbEntity
  8
作図レイヤ
  6
Continuous
 62
     3
370
    35
100
AcDbCircle
 10
125.1868545463537
 20
115.6944529452787
 30
0.0
 40
1.0
100
AcDbArc
 50
272.4916118230602
 51
0.0
  0
LINE
  5
46F
330
44B
100
AcDbEntity
  8
作図レイヤ
  6
Continuous
 62
     3
370
    35
100
AcDbLine
 10
120.6433814214195
 20
95.58843949692319
 30
0.0
 11
125.2303276712878
 21
95.38884190934048
 31
0.0
  0
LINE
  5
470
330
44B
100
AcDbEntity
  8
作図レイヤ
  6
Continuous
 62
     3
370
    35
100
AcDbLine
 10
120.6433814214195
 20
97.07728516442494
 30
0.0
 11
125.7085911088208
 21
96.85687629561924
 31
0.0
  0
ARC
  5
471
330
44B
100
AcDbEntity
  8
作図レイヤ
  6
Continuous
 62
     3
370
    35
100
AcDbCircle
 10
125.1868545463537
 20
94.38978731252986
 30
0.0
 40
1.0
100
AcDbArc
 50
0.0
 51
87.50838817693985
  0
ARC
  5
472
330
44B
100
AcDbEntity
  8
作図レイヤ
  6
Continuous
 62
     3
370
    35
100
AcDbCircle
 10
120.6868545463537
 20
113.4967461640747
 30
0.0
 40
1.0
100
AcDbArc
 50
92.49161182306011
 51
180.0
  0
ARC
  5
473
330
44B
100
AcDbEntity
  8
作図レイヤ
  6
Continuous
 62
     3
370
    35
100
AcDbCircle
 10
120.6868545463537
 20
112.007900496573
 30
0.0
 40
1.0
100
AcDbArc
 50
92.49161182306017
 51
180.0
  0
ARC
  5
474
330
44B
100
AcDbEntity
  8
作図レイヤ
  6
Continuous
 62
     3
370
    35
100
AcDbCircle
 10
120.6868545463537
 20
98.07633976123556
 30
0.0
 40
1.0
100
AcDbArc
 50
180.0
 51
267.5083881769398
  0
ARC
  5
475
330
44B
100
AcDbEntity
  8
作図レイヤ
  6
Continuous
 62
     3
370
    35
100
AcDbCircle
 10
120.6868545463537
 20
96.58749409373381
 30
0.0
 40
1.0
100
AcDbArc
 50
180.0
 51
267.5083881769398
  0
ARC
  5
476
330
44B
100
AcDbEntity
  8
作図レイヤ
  6
Continuous
 62
     3
370
    35
100
AcDbCircle
 10
125.6868545463537
 20
113.7268912605946
 30
0.0
 40
0.5
100
AcDbArc
 50
272.4916118230599
 51
0.0
  0
ARC
  5
477
330
44B
100
AcDbEntity
  8
作図レイヤ
  6
Continuous
 62
     3
370
    35
100
AcDbCircle
 10
125.6868545463537
 20
96.35734899721392
 30
0.0
 40
0.5
100
AcDbArc
 50
0.0
 51
87.50838817693992
  0
LINE
  5
478
330
44B
100
AcDbEntity
  8
作図レイヤ
  6
Continuous
 62
     3
370
    35
100
AcDbLine
 10
120.6519550496512
 20
93.23540307838864
 30
0.0
 11
126.1868545463537
 21
93.0421201289043
 31
0.0
  0
ARC
  5
479
330
44B
100
AcDbEntity
  8
作図レイヤ
  6
Continuous
 62
     3
370
    35
100
AcDbCircle
 10
120.6868545463537
 20
94.23479390540773
 30
0.0
 40
1.0
100
AcDbArc
 50
180.0000000000008
 51
267.9999999999995
  0
LINE
  5
47A
330
44B
100
AcDbEntity
  8
作図レイヤ
  6
Continuous
 62
     3
370
    35
100
AcDbLine
 10
120.6519550496512
 20
116.8488371794199
 30
0.0
 11
126.1868545463537
 21
117.0421201289043
 31
0.0
  0
ARC
  5
47B
330
44B
100
AcDbEntity
  8
作図レイヤ
  6
Continuous
 62
     3
370
    35
100
AcDbCircle
 10
120.6868545463537
 20
115.8494463524008
 30
0.0
 40
1.0
100
AcDbArc
 50
92.00000000000036
 51
179.9999999999999
  0
ENDBLK
  5
44D
330
44B
100
AcDbEntity
  8
0
100
AcDbBlockEnd
  0
ENDSEC
  0
SECTION
  2
ENTITIES
  0
TEXT
  5
B4
330
1F
100
AcDbEntity
  8
基準ﾚｲﾔｸﾞﾙｰﾌﾟ_01
  6
Continuous
 62
     7
370
    13
100
AcDbText
 10
326.5634155273438
 20
279.6773376464844
 30
0.0
 40
2.5
  1
メートル並目ねじ（ＪＩＳ　Ｂ　０２０９）めねじ：６Ｈ　おねじ：６ｇ（２級）
 41
1.078190022895778
  7
FX_VECTOR
 72
     5
 11
411.6634137630463
 21
279.6773376464844
 31
0.0
100
AcDbText
  0
TEXT
  5
B5
330
1F
100
AcDbEntity
  8
基準ﾚｲﾔｸﾞﾙｰﾌﾟ_01
  6
Continuous
 62
     7
370
    13
100
AcDbText
 10
232.5634155273438
 20
279.6773376464844
 30
0.0
 40
2.5
  1
公差表示方式　ＪＩＳ　Ｂ　００２４
 41
1.083960373566883
  7
FX_VECTOR
 72
     5
 11
271.6634147167206
 21
279.6773376464844
 31
0.0
100
AcDbText
  0
TEXT
  5
B6
330
1F
100
AcDbEntity
  8
基準ﾚｲﾔｸﾞﾙｰﾌﾟ_01
  6
Continuous
 62
     7
370
    13
100
AcDbText
 10
278.532958984375
 20
279.6773376464844
 30
0.0
 40
2.5
  1
普通公差　ＪＩＳ　Ｂ　０４１９－ｃＫ
 41
1.083364463520941
  7
FX_VECTOR
 72
     5
 11
319.9329581260681
 21
279.6773376464844
 31
0.0
100
AcDbText
  0
INSERT
  5
BA
330
1F
100
AcDbEntity
  8
基準ﾚｲﾔｸﾞﾙｰﾌﾟ_01
  6
Continuous
 62
     7
370
    13
100
AcDbBlockReference
  2
BLKF023
 10
0.0
 20
0.0
 30
0.0
  0
INSERT
  5
E8
330
1F
100
AcDbEntity
  8
基準ﾚｲﾔｸﾞﾙｰﾌﾟ_01
  6
Continuous
 62
     7
370
    13
100
AcDbBlockReference
  2
BLKF024
 10
0.0
 20
0.0
 30
0.0
  0
TEXT
  5
FF
330
1F
100
AcDbEntity
  8
基準ﾚｲﾔｸﾞﾙｰﾌﾟ_01
  6
Continuous
 62
     7
370
    13
100
AcDbText
 10
300.4739379882812
 20
23.40287208557129
 30
0.0
 40
3.0
  1
２０１２
 41
1.217391304347826
  7
FX_VECTOR
 72
     5
 11
312.4739379882812
 21
23.40287208557129
 31
0.0
100
AcDbText
  0
TEXT
  5
100
330
1F
100
AcDbEntity
  8
基準ﾚｲﾔｸﾞﾙｰﾌﾟ_01
  6
Continuous
 62
     7
370
    13
100
AcDbText
 10
315.7803039550781
 20
23.40287208557129
 30
0.0
 40
3.0
  1
　１
 41
1.272727272727273
  7
FX_VECTOR
 72
     5
 11
321.7803039550781
 21
23.40287208557129
 31
0.0
100
AcDbText
  0
TEXT
  5
101
330
1F
100
AcDbEntity
  8
基準ﾚｲﾔｸﾞﾙｰﾌﾟ_01
  6
Continuous
 62
     7
370
    13
100
AcDbText
 10
324.8333435058594
 20
23.36934280395508
 30
0.0
 40
3.0
  1
２５
 41
1.272727272727273
  7
FX_VECTOR
 72
     5
 11
330.8333435058594
 21
23.36934280395508
 31
0.0
100
AcDbText
  0
TEXT
  5
102
330
1F
100
AcDbEntity
  8
基準ﾚｲﾔｸﾞﾙｰﾌﾟ_01
  6
Continuous
 62
     7
370
    25
100
AcDbText
 10
350.9717712402344
 20
9.189493179321289
 30
0.0
 40
3.5
  1
１
 41
1.4
 51
10.0
  7
FX_VECTOR
 72
     5
 11
354.4717712402344
 21
9.189493179321289
 31
0.0
100
AcDbText
  0
TEXT
  5
103
330
1F
100
AcDbEntity
  8
基準ﾚｲﾔｸﾞﾙｰﾌﾟ_01
  6
Continuous
 62
     7
370
    25
100
AcDbText
 10
350.9717712402344
 20
14.19346523284912
 30
0.0
 40
3.5
  1
１
 41
1.4
 51
10.0
  7
FX_VECTOR
 72
     5
 11
354.4717712402344
 21
14.19346523284912
 31
0.0
100
AcDbText
  0
INSERT
  5
107
330
1F
100
AcDbEntity
  8
基準ﾚｲﾔｸﾞﾙｰﾌﾟ_01
  6
Continuous
 62
     7
370
    13
100
AcDbBlockReference
  2
BLKF025
 10
0.0
 20
0.0
 30
0.0
  0
INSERT
  5
10F
330
1F
100
AcDbEntity
  8
基準ﾚｲﾔｸﾞﾙｰﾌﾟ_01
  6
Continuous
 62
     7
370
    13
100
AcDbBlockReference
  2
BLKF026
 10
0.0
 20
0.0
 30
0.0
  0
INSERT
  5
117
330
1F
100
AcDbEntity
  8
基準ﾚｲﾔｸﾞﾙｰﾌﾟ_01
  6
Continuous
 62
     7
370
    13
100
AcDbBlockReference
  2
BLKF027
 10
0.0
 20
0.0
 30
0.0
  0
INSERT
  5
11F
330
1F
100
AcDbEntity
  8
基準ﾚｲﾔｸﾞﾙｰﾌﾟ_01
  6
Continuous
 62
     7
370
    13
100
AcDbBlockReference
  2
BLKF028
 10
0.0
 20
0.0
 30
0.0
  0
INSERT
  5
127
330
1F
100
AcDbEntity
  8
基準ﾚｲﾔｸﾞﾙｰﾌﾟ_01
  6
Continuous
 62
     7
370
    13
100
AcDbBlockReference
  2
BLKF029
 10
0.0
 20
0.0
 30
0.0
  0
INSERT
  5
12F
330
1F
100
AcDbEntity
  8
基準ﾚｲﾔｸﾞﾙｰﾌﾟ_01
  6
Continuous
 62
     7
370
    13
100
AcDbBlockReference
  2
BLKF030
 10
0.0
 20
0.0
 30
0.0
  0
INSERT
  5
145
330
1F
100
AcDbEntity
  8
基準ﾚｲﾔｸﾞﾙｰﾌﾟ_01
  6
Continuous
 62
     7
370
    13
100
AcDbBlockReference
  2
BLKF032
 10
0.0
 20
0.0
 30
0.0
  0
TEXT
  5
188
330
1F
100
AcDbEntity
  8
GR1_01
  6
Continuous
 62
     7
370
    13
100
AcDbText
 10
288.1382751464844
 20
215.3811645507812
 30
0.0
 40
2.5
  1
　０
 50
90.0
 41
1.018181818181818
 51
10.0
  7
FX_VECTOR
 72
     5
 11
288.1382751464844
 21
219.3811645507812
 31
0.0
100
AcDbText
  0
TEXT
  5
189
330
1F
100
AcDbEntity
  8
GR1_01
  6
Continuous
 62
     7
370
    13
100
AcDbText
 10
290.6382751464844
 20
215.3811645507812
 30
0.0
 40
2.5
  1
－０．０２２
 50
90.0
 41
0.96
 51
10.0
  7
FX_VECTOR
 72
     5
 11
290.6382751464844
 21
227.3811645507812
 31
0.0
100
AcDbText
  0
LINE
  5
18A
330
1F
100
AcDbEntity
  8
GR1_01
  6
DASHDOT
 62
     7
370
    13
100
AcDbLine
 10
405.4247493943161
 20
195.3811659192824
 30
0.0
 11
319.4247493943161
 21
195.3811659192824
 31
0.0
  0
LINE
  5
18B
330
1F
100
AcDbEntity
  8
GR1_01
  6
DASHDOT
 62
     7
370
    13
100
AcDbLine
 10
362.4247493943161
 20
238.3811659192824
 30
0.0
 11
362.4247493943161
 21
152.3811659192825
 31
0.0
  0
LINE
  5
18C
330
1F
100
AcDbEntity
  8
GR1_01
  6
DASHDOT
 62
     7
370
    13
100
AcDbLine
 10
334.8475849280408
 20
222.9583303855577
 30
0.0
 11
323.533876429056
 21
234.2720388845425
 31
0.0
  0
LINE
  5
18D
330
1F
100
AcDbEntity
  8
GR1_01
  6
DASHDOT
 62
     7
370
    13
100
AcDbLine
 10
380.4247493943161
 20
210.3811659192825
 30
0.0
 11
344.4247493943161
 21
210.3811659192825
 31
0.0
  0
LINE
  5
18E
330
1F
100
AcDbEntity
  8
GR1_01
  6
Continuous
 62
     3
370
    35
100
AcDbLine
 10
396.4247493943161
 20
155.3811659192825
 30
0.0
 11
328.4247493943161
 21
155.3811659192825
 31
0.0
  0
LINE
  5
18F
330
1F
100
AcDbEntity
  8
GR1_01
  6
Continuous
 62
     3
370
    35
100
AcDbLine
 10
396.4247493943161
 20
235.3811659192824
 30
0.0
 11
328.4247493943161
 21
235.3811659192824
 31
0.0
  0
LINE
  5
190
330
1F
100
AcDbEntity
  8
GR1_01
  6
Continuous
 62
     3
370
    35
100
AcDbLine
 10
402.4247493943161
 20
229.3811659192824
 30
0.0
 11
402.4247493943161
 21
161.3811659192825
 31
0.0
  0
LINE
  5
191
330
1F
100
AcDbEntity
  8
GR1_01
  6
Continuous
 62
     3
370
    35
100
AcDbLine
 10
322.4247493943161
 20
229.3811659192824
 30
0.0
 11
322.4247493943161
 21
161.3811659192825
 31
0.0
  0
ARC
  5
192
330
1F
100
AcDbEntity
  8
GR1_01
  6
DASHDOT
 62
     7
370
    13
100
AcDbCircle
 10
362.4247493943161
 20
195.3811659192824
 30
0.0
 40
47.00000000000001
100
AcDbArc
 50
125.2357153350537
 51
144.7642846649462
  0
LINE
  5
193
330
1F
100
AcDbEntity
  8
GR1_01
  6
DASHDOT
 62
     7
370
    13
100
AcDbLine
 10
184.9592702037816
 20
228.6151866442148
 30
0.0
 11
259.1868545164849
 21
228.6151866442148
 31
0.0
  0
LINE
  5
194
330
1F
100
AcDbEntity
  8
GR1_01
  6
DASHDOT
 62
     7
370
    13
100
AcDbLine
 10
184.9592702037815
 20
162.1471578138354
 30
0.0
 11
259.186854516482
 21
162.1471421499795
 31
0.0
  0
LINE
  5
195
330
1F
100
AcDbEntity
  8
GR1_01
  6
DASHDOT
 62
     7
370
    13
100
AcDbLine
 10
242.6868545164835
 20
195.3811659192823
 30
0.0
 11
116.686854516486
 21
195.3811659192824
 31
0.0
  0
LINE
  5
196
330
1F
100
AcDbEntity
  8
GR1_01
  6
DASHDOT
 62
     7
370
    13
100
AcDbLine
 10
390.0019138605915
 20
222.9583303855577
 30
0.0
 11
401.3156223595762
 21
234.2720388845425
 31
0.0
  0
LINE
  5
197
330
1F
100
AcDbEntity
  8
GR1_01
  6
DASHDOT
 62
     7
370
    13
100
AcDbLine
 10
334.8475849280408
 20
167.804001453007
 30
0.0
 11
323.533876429056
 21
156.4902929540222
 31
0.0
  0
LINE
  5
198
330
1F
100
AcDbEntity
  8
GR1_01
  6
DASHDOT
 62
     7
370
    13
100
AcDbLine
 10
390.0019138605915
 20
167.804001453007
 30
0.0
 11
401.3156223595763
 21
156.4902929540222
 31
0.0
  0
ARC
  5
199
330
1F
100
AcDbEntity
  8
GR1_01
  6
DASHDOT
 62
     7
370
    13
100
AcDbCircle
 10
362.4247493943161
 20
195.3811659192823
 30
0.0
 40
47.00000000000001
100
AcDbArc
 50
305.2357153350537
 51
324.7642846649462
  0
INSERT
  5
19D
330
1F
100
AcDbEntity
  8
GR1_01
  6
Continuous
 62
     3
370
    35
100
AcDbBlockReference
  2
BLKF033
 10
0.0
 20
0.0
 30
0.0
  0
ARC
  5
1A7
330
1F
100
AcDbEntity
  8
GR1_01
  6
DASHDOT
 62
     7
370
    13
100
AcDbCircle
 10
362.4247493943163
 20
195.3811659192822
 30
0.0
 40
47.00000000000001
100
AcDbArc
 50
18.78091786607882
 51
54.7642846649466
  0
TEXT
  5
1A8
330
1F
100
AcDbEntity
  8
GR1_01
  6
Continuous
 62
     7
370
    13
100
AcDbText
 10
334.6917582002962
 20
186.1389280335164
 30
0.0
 40
3.5
  1
９４
 50
20.00000000000001
 41
1.272727272727274
 51
10.0
  7
FX_VECTOR
 72
     5
 11
341.2696065457976
 21
188.5330690367961
 31
0.0
100
AcDbText
  0
LINE
  5
1A9
330
1F
100
AcDbEntity
  8
GR1_01
  6
Continuous
 62
     7
370
    13
100
AcDbLine
 10
318.2591962173787
 20
179.3062191829757
 30
0.0
 11
406.590302571254
 21
211.4561126555887
 31
0.0
  0
INSERT
  5
1AA
330
1F
100
AcDbEntity
  8
GR1_01
  6
Continuous
 62
     7
370
    13
100
AcDbBlockReference
  2
FXTIP_ARROW_S
 10
318.2591962173787
 20
179.3062191829757
 30
0.0
 41
3.0
 42
3.0
 50
200.0000000000001
  0
INSERT
  5
1AB
330
1F
100
AcDbEntity
  8
GR1_01
  6
Continuous
 62
     7
370
    13
100
AcDbBlockReference
  2
FXTIP_ARROW_E
 10
406.590302571254
 20
211.4561126555887
 30
0.0
 41
3.0
 42
3.0
 50
20.00000000000008
  0
TEXT
  5
1AC
330
1F
100
AcDbEntity
  8
GR1_01
  6
Continuous
 62
     7
370
    13
100
AcDbText
 10
331.4028401597184
 20
184.9418547638285
 30
0.0
 40
3.5
  1
φ
 50
19.9999999999999
 41
1.399999999999976
 51
10.0
  7
FX_VECTOR
 72
     5
 11
334.6917643324691
 21
186.1389252654683
 31
0.0
100
AcDbText
  0
ARC
  5
1AD
330
1F
100
AcDbEntity
  8
GR1_01
  6
DASHDOT
 62
     7
370
    13
100
AcDbCircle
 10
362.4247493943162
 20
195.3811659192819
 30
0.0
 40
47.00000000000001
100
AcDbArc
 50
198.7809178660782
 51
234.7642846649458
  0
ARC
  5
1AE
330
1F
100
AcDbEntity
  8
GR1_01
  6
Continuous
 62
     3
370
    35
100
AcDbCircle
 10
396.4247493943161
 20
229.3811659192824
 30
0.0
 40
6.0
100
AcDbArc
 50
0.0
 51
90.0
  0
ARC
  5
1AF
330
1F
100
AcDbEntity
  8
GR1_01
  6
Continuous
 62
     3
370
    35
100
AcDbCircle
 10
328.4247493943161
 20
229.3811659192824
 30
0.0
 40
6.0
100
AcDbArc
 50
90.0
 51
180.0
  0
ARC
  5
1B0
330
1F
100
AcDbEntity
  8
GR1_01
  6
Continuous
 62
     3
370
    35
100
AcDbCircle
 10
328.4247493943161
 20
161.3811659192825
 30
0.0
 40
6.0
100
AcDbArc
 50
180.0
 51
270.0
  0
ARC
  5
1B1
330
1F
100
AcDbEntity
  8
GR1_01
  6
Continuous
 62
     3
370
    35
100
AcDbCircle
 10
396.4247493943161
 20
161.3811659192825
 30
0.0
 40
6.0
100
AcDbArc
 50
270.0
 51
0.0
  0
LINE
  5
1B2
330
1F
100
AcDbEntity
  8
GR1_01
  6
Continuous
 62
     3
370
    35
100
AcDbLine
 10
353.4247493943161
 20
159.2390851822799
 30
0.0
 11
353.4247493943161
 21
155.3811659192825
 31
0.0
  0
LINE
  5
1B3
330
1F
100
AcDbEntity
  8
GR1_01
  6
Continuous
 62
     3
370
    35
100
AcDbLine
 10
371.4247493943161
 20
159.2390851822799
 30
0.0
 11
371.4247493943161
 21
155.3811659192825
 31
0.0
  0
ARC
  5
1B4
330
1F
100
AcDbEntity
  8
GR1_01
  6
Continuous
 62
     3
370
    35
100
AcDbCircle
 10
362.4247493943161
 20
195.3811659192823
 30
0.0
 40
36.5
100
AcDbArc
 50
285.4660099534206
 51
15.04505060019204
  0
LINE
  5
1B5
330
1F
100
AcDbEntity
  8
GR1_01
  6
DASHDOT
 62
     7
370
    13
100
AcDbLine
 10
369.0442521824031
 20
164.3811659192824
 30
0.0
 11
355.62400678363
 21
164.3811659192824
 31
0.0
  0
CIRCLE
  5
1B6
330
1F
100
AcDbEntity
  8
GR1_01
  6
Continuous
 62
     3
370
    35
100
AcDbCircle
 10
362.4247493943161
 20
164.3811659192824
 30
0.0
 40
4.0
  0
INSERT
  5
1BA
330
1F
100
AcDbEntity
  8
GR1_01
  6
Continuous
 62
     3
370
    35
100
AcDbBlockReference
  2
BLKF034
 10
0.0
 20
0.0
 30
0.0
  0
LINE
  5
1C4
330
1F
100
AcDbEntity
  8
GR1_01
  6
DASHDOT
 62
     7
370
    13
100
AcDbLine
 10
385.9617855175902
 20
216.6138234941875
 30
0.0
 11
392.6719082169768
 21
204.9915500538288
 31
0.0
  0
CIRCLE
  5
1C5
330
1F
100
AcDbEntity
  8
GR1_01
  6
Continuous
 62
     3
370
    35
100
AcDbCircle
 10
389.2715369116337
 20
210.8811659192822
 30
0.0
 40
4.0
  0
INSERT
  5
1C9
330
1F
100
AcDbEntity
  8
GR1_01
  6
Continuous
 62
     3
370
    35
100
AcDbBlockReference
  2
BLKF035
 10
0.0
 20
0.0
 30
0.0
  0
LINE
  5
1D3
330
1F
100
AcDbEntity
  8
GR1_01
  6
DASHDOT
 62
     7
370
    13
100
AcDbLine
 10
383.5814243271164
 20
207.595977886892
 30
0.0
 11
394.8552345426319
 21
214.1049152496126
 31
0.0
  0
LINE
  5
1D4
330
1F
100
AcDbEntity
  8
GR1_01
  6
DASHDOT
 62
     7
370
    13
100
AcDbLine
 10
338.887713271042
 20
216.6138234941875
 30
0.0
 11
332.1775905716555
 21
204.9915500538288
 31
0.0
  0
CIRCLE
  5
1D5
330
1F
100
AcDbEntity
  8
GR1_01
  6
Continuous
 62
     3
370
    35
100
AcDbCircle
 10
335.5779618769985
 20
210.8811659192822
 30
0.0
 40
4.0
  0
INSERT
  5
1D9
330
1F
100
AcDbEntity
  8
GR1_01
  6
Continuous
 62
     3
370
    35
100
AcDbBlockReference
  2
BLKF036
 10
0.0
 20
0.0
 30
0.0
  0
LINE
  5
1E3
330
1F
100
AcDbEntity
  8
GR1_01
  6
DASHDOT
 62
     7
370
    13
100
AcDbLine
 10
341.2680744615158
 20
207.595977886892
 30
0.0
 11
329.9942642460003
 21
214.1049152496126
 31
0.0
  0
ARC
  5
1E4
330
1F
100
AcDbEntity
  8
GR1_01
  6
Continuous
 62
     3
370
    35
100
AcDbCircle
 10
335.5779618769986
 20
210.8811659192823
 30
0.0
 40
10.0
100
AcDbArc
 50
88.38799460902253
 51
211.6120053909777
  0
ARC
  5
1E5
330
1F
100
AcDbEntity
  8
GR1_01
  6
Continuous
 62
     3
370
    35
100
AcDbCircle
 10
389.2715369116336
 20
210.8811659192823
 30
0.0
 40
10.0
100
AcDbArc
 50
328.3879946090228
 51
91.61200539097752
  0
ARC
  5
1E6
330
1F
100
AcDbEntity
  8
GR1_01
  6
Continuous
 62
     3
370
    35
100
AcDbCircle
 10
362.4247493943161
 20
195.3811659192823
 30
0.0
 40
36.5
100
AcDbArc
 50
44.95494939980806
 51
135.045050600192
  0
ARC
  5
1E7
330
1F
100
AcDbEntity
  8
GR1_01
  6
Continuous
 62
     3
370
    35
100
AcDbCircle
 10
362.4247493943161
 20
195.3811659192823
 30
0.0
 40
36.5
100
AcDbArc
 50
164.954949399808
 51
254.5339900465794
  0
ARC
  5
1E8
330
1F
100
AcDbEntity
  8
GR1_01
  6
Continuous
 62
     3
370
    35
100
AcDbCircle
 10
352.4247493943161
 20
159.2390851822799
 30
0.0
 40
1.0
100
AcDbArc
 50
0.0
 51
74.53399004658014
  0
ARC
  5
1E9
330
1F
100
AcDbEntity
  8
GR1_01
  6
Continuous
 62
     3
370
    35
100
AcDbCircle
 10
372.4247493943161
 20
159.2390851822799
 30
0.0
 40
1.0
100
AcDbArc
 50
105.4660099534194
 51
180.0
  0
ARC
  5
1EA
330
1F
100
AcDbEntity
  8
GR1_01
  6
Continuous
 62
     3
370
    35
100
AcDbCircle
 10
398.6393252623576
 20
205.1153579606316
 30
0.0
 40
1.0
100
AcDbArc
 50
148.3879946090232
 51
195.0450506001924
  0
ARC
  5
1EB
330
1F
100
AcDbEntity
  8
GR1_01
  6
Continuous
 62
     3
370
    35
100
AcDbCircle
 10
388.9620949214616
 20
221.8768125876105
 30
0.0
 40
1.0
100
AcDbArc
 50
224.9549493998071
 51
271.6120053909762
  0
ARC
  5
1EC
330
1F
100
AcDbEntity
  8
GR1_01
  6
Continuous
 62
     3
370
    35
100
AcDbCircle
 10
335.8874038671707
 20
221.8768125876106
 30
0.0
 40
1.0
100
AcDbArc
 50
268.3879946090206
 51
315.0450506001894
  0
ARC
  5
1ED
330
1F
100
AcDbEntity
  8
GR1_01
  6
Continuous
 62
     3
370
    35
100
AcDbCircle
 10
326.2101735262746
 20
205.1153579606315
 30
0.0
 40
1.0
100
AcDbArc
 50
344.9549493998099
 51
31.61200539097651
  0
CIRCLE
  5
1EE
330
1F
100
AcDbEntity
  8
GR1_01
  6
Continuous
 62
     3
370
    35
100
AcDbCircle
 10
362.4247493943161
 20
210.3811659192825
 30
0.0
 40
15.0
  0
TEXT
  5
1EF
330
1F
100
AcDbEntity
  8
GR1_01
  6
Continuous
 62
     7
370
    13
100
AcDbText
 10
303.9247131347656
 20
191.8811645507812
 30
0.0
 40
3.5
  1
８０
 50
90.0
 41
1.272727272727273
 51
10.0
  7
FX_VECTOR
 72
     5
 11
303.9247131347656
 21
198.8811645507812
 31
0.0
100
AcDbText
  0
LINE
  5
1F0
330
1F
100
AcDbEntity
  8
GR1_01
  6
Continuous
 62
     7
370
    13
100
AcDbLine
 10
304.4247493943161
 20
155.3811659192825
 30
0.0
 11
304.4247493943161
 21
235.3811659192824
 31
0.0
  0
INSERT
  5
1F1
330
1F
100
AcDbEntity
  8
GR1_01
  6
Continuous
 62
     7
370
    13
100
AcDbBlockReference
  2
FXTIP_ARROW_S
 10
304.4247493943161
 20
155.3811659192825
 30
0.0
 41
3.0
 42
3.0
 50
270.0
  0
INSERT
  5
1F2
330
1F
100
AcDbEntity
  8
GR1_01
  6
Continuous
 62
     7
370
    13
100
AcDbBlockReference
  2
FXTIP_ARROW_E
 10
304.4247493943161
 20
235.3811659192824
 30
0.0
 41
3.0
 42
3.0
 50
90.0
  0
LINE
  5
1F3
330
1F
100
AcDbEntity
  8
GR1_01
  6
Continuous
 62
     7
370
    13
100
AcDbLine
 10
327.4247493943161
 20
155.3811659192825
 30
0.0
 11
303.4247493943162
 21
155.3811659192825
 31
0.0
  0
LINE
  5
1F4
330
1F
100
AcDbEntity
  8
GR1_01
  6
Continuous
 62
     7
370
    13
100
AcDbLine
 10
327.4247493943161
 20
235.3811659192824
 30
0.0
 11
303.4247493943162
 21
235.3811659192824
 31
0.0
  0
TEXT
  5
1F5
330
1F
100
AcDbEntity
  8
GR1_01
  6
Continuous
 62
     7
370
    13
100
AcDbText
 10
311.9247131347656
 20
199.3811645507812
 30
0.0
 40
3.5
  1
１５
 50
90.0
 41
1.272727272727273
 51
10.0
  7
FX_VECTOR
 72
     5
 11
311.9247131347656
 21
206.3811645507812
 31
0.0
100
AcDbText
  0
LINE
  5
1F6
330
1F
100
AcDbEntity
  8
GR1_01
  6
Continuous
 62
     7
370
    13
100
AcDbLine
 10
312.4247493943161
 20
195.3811659192824
 30
0.0
 11
312.4247493943161
 21
210.3811659192825
 31
0.0
  0
INSERT
  5
1F7
330
1F
100
AcDbEntity
  8
GR1_01
  6
Continuous
 62
     7
370
    13
100
AcDbBlockReference
  2
FXTIP_ARROW_S
 10
312.4247493943161
 20
195.3811659192824
 30
0.0
 41
3.0
 42
3.0
 50
270.0
  0
INSERT
  5
1F8
330
1F
100
AcDbEntity
  8
GR1_01
  6
Continuous
 62
     7
370
    13
100
AcDbBlockReference
  2
FXTIP_ARROW_E
 10
312.4247493943161
 20
210.3811659192825
 30
0.0
 41
3.0
 42
3.0
 50
90.0
  0
LINE
  5
1F9
330
1F
100
AcDbEntity
  8
GR1_01
  6
Continuous
 62
     7
370
    13
100
AcDbLine
 10
318.4247493943161
 20
195.3811659192824
 30
0.0
 11
311.4247493943161
 21
195.3811659192824
 31
0.0
  0
LINE
  5
1FA
330
1F
100
AcDbEntity
  8
GR1_01
  6
Continuous
 62
     7
370
    13
100
AcDbLine
 10
343.4247493943161
 20
210.3811659192825
 30
0.0
 11
311.4247493943161
 21
210.3811659192824
 31
0.0
  0
TEXT
  5
1FB
330
1F
100
AcDbEntity
  8
GR1_01
  6
Continuous
 62
     7
370
    13
100
AcDbText
 10
170.6868591308594
 20
255.8811645492541
 30
0.0
 40
3.5
  1
１１９．５
 41
1.206896551724138
 51
10.0
  7
FX_VECTOR
 72
     5
 11
188.1868591308594
 21
255.8811645523084
 31
0.0
100
AcDbText
  0
LINE
  5
1FC
330
1F
100
AcDbEntity
  8
GR1_01
  6
Continuous
 62
     7
370
    13
100
AcDbLine
 10
119.6868543819785
 20
255.3811659192825
 30
0.0
 11
239.1868545164834
 21
255.3811659192824
 31
0.0
  0
INSERT
  5
1FD
330
1F
100
AcDbEntity
  8
GR1_01
  6
Continuous
 62
     7
370
    13
100
AcDbBlockReference
  2
FXTIP_ARROW_S
 10
119.6868543819785
 20
255.3811659192825
 30
0.0
 41
3.0
 42
3.0
 50
180.0
  0
INSERT
  5
1FE
330
1F
100
AcDbEntity
  8
GR1_01
  6
Continuous
 62
     7
370
    13
100
AcDbBlockReference
  2
FXTIP_ARROW_E
 10
239.1868545164834
 20
255.3811659192824
 30
0.0
 41
3.0
 42
3.0
 50
360.0
  0
LINE
  5
1FF
330
1F
100
AcDbEntity
  8
GR1_01
  6
Continuous
 62
     7
370
    13
100
AcDbLine
 10
119.6868543819785
 20
207.1884997861636
 30
0.0
 11
119.6868543819785
 21
256.3811659192825
 31
0.0
  0
LINE
  5
200
330
1F
100
AcDbEntity
  8
GR1_01
  6
Continuous
 62
     7
370
    13
100
AcDbLine
 10
239.1868545164834
 20
235.3811659192823
 30
0.0
 11
239.1868545164834
 21
256.3811659192825
 31
0.0
  0
TEXT
  5
201
330
1F
100
AcDbEntity
  8
GR1_01
  6
Continuous
 62
     7
370
    13
100
AcDbText
 10
251.6868591308594
 20
255.8811645501704
 30
0.0
 40
3.5
  1
３２
 41
1.272727272727273
 51
10.0
  7
FX_VECTOR
 72
     5
 11
258.6868591308594
 21
255.8811645513921
 31
0.0
100
AcDbText
  0
LINE
  5
202
330
1F
100
AcDbEntity
  8
GR1_01
  6
Continuous
 62
     7
370
    13
100
AcDbLine
 10
239.1868545164834
 20
255.3811659192824
 30
0.0
 11
271.1868553853119
 21
255.3811659192824
 31
0.0
  0
INSERT
  5
203
330
1F
100
AcDbEntity
  8
GR1_01
  6
Continuous
 62
     7
370
    13
100
AcDbBlockReference
  2
FXTIP_ARROW_S
 10
239.1868545164834
 20
255.3811659192824
 30
0.0
 41
3.0
 42
3.0
 50
180.0
  0
INSERT
  5
204
330
1F
100
AcDbEntity
  8
GR1_01
  6
Continuous
 62
     7
370
    13
100
AcDbBlockReference
  2
FXTIP_ARROW_E
 10
271.1868553853119
 20
255.3811659192824
 30
0.0
 41
3.0
 42
3.0
 50
360.0
  0
LINE
  5
205
330
1F
100
AcDbEntity
  8
GR1_01
  6
Continuous
 62
     7
370
    13
100
AcDbLine
 10
271.1868553853119
 20
214.3811626611774
 30
0.0
 11
271.1868553853119
 21
256.3811659192824
 31
0.0
  0
TEXT
  5
206
330
1F
100
AcDbEntity
  8
GR1_01
  6
Continuous
 62
     7
370
    13
100
AcDbText
 10
183.1868591308594
 20
263.8811645504758
 30
0.0
 40
3.5
  1
（
 41
1.4
 51
10.0
  7
FX_VECTOR
 72
     5
 11
186.6868591308594
 21
263.8811645510867
 31
0.0
100
AcDbText
  0
TEXT
  5
207
330
1F
100
AcDbEntity
  8
GR1_01
  6
Continuous
 62
     7
370
    13
100
AcDbText
 10
186.6868591308594
 20
263.8811645492541
 30
0.0
 40
3.5
  1
１５１．５
 41
1.206896551724138
 51
10.0
  7
FX_VECTOR
 72
     5
 11
204.1868591308594
 21
263.8811645523084
 31
0.0
100
AcDbText
  0
TEXT
  5
208
330
1F
100
AcDbEntity
  8
GR1_01
  6
Continuous
 62
     7
370
    13
100
AcDbText
 10
204.1868591308594
 20
263.8811645504758
 30
0.0
 40
3.5
  1
）
 41
1.4
 51
10.0
  7
FX_VECTOR
 72
     5
 11
207.6868591308594
 21
263.8811645510867
 31
0.0
100
AcDbText
  0
LINE
  5
209
330
1F
100
AcDbEntity
  8
GR1_01
  6
Continuous
 62
     7
370
    13
100
AcDbLine
 10
119.6868543819785
 20
263.3811659192824
 30
0.0
 11
271.1868553853119
 21
263.3811659192824
 31
0.0
  0
INSERT
  5
20A
330
1F
100
AcDbEntity
  8
GR1_01
  6
Continuous
 62
     7
370
    13
100
AcDbBlockReference
  2
FXTIP_ARROW_S
 10
119.6868543819785
 20
263.3811659192824
 30
0.0
 41
3.0
 42
3.0
 50
180.0
  0
INSERT
  5
20B
330
1F
100
AcDbEntity
  8
GR1_01
  6
Continuous
 62
     7
370
    13
100
AcDbBlockReference
  2
FXTIP_ARROW_E
 10
271.1868553853119
 20
263.3811659192824
 30
0.0
 41
3.0
 42
3.0
 50
360.0
  0
LINE
  5
20C
330
1F
100
AcDbEntity
  8
GR1_01
  6
Continuous
 62
     7
370
    13
100
AcDbLine
 10
119.6868543819785
 20
207.1884997861636
 30
0.0
 11
119.6868543819785
 21
264.3811659192824
 31
0.0
  0
LINE
  5
20D
330
1F
100
AcDbEntity
  8
GR1_01
  6
Continuous
 62
     7
370
    13
100
AcDbLine
 10
271.1868553853119
 20
214.3811626611774
 30
0.0
 11
271.1868553853119
 21
264.3811659192824
 31
0.0
  0
TEXT
  5
20E
330
1F
100
AcDbEntity
  8
GR1_01
  6
Continuous
 62
     7
370
    13
100
AcDbText
 10
211.6868591308594
 20
247.8811645501704
 30
0.0
 40
3.5
  1
４８
 41
1.272727272727273
 51
10.0
  7
FX_VECTOR
 72
     5
 11
218.6868591308594
 21
247.8811645513921
 31
0.0
100
AcDbText
  0
LINE
  5
20F
330
1F
100
AcDbEntity
  8
GR1_01
  6
Continuous
 62
     7
370
    13
100
AcDbLine
 10
191.1868545164834
 20
247.3811659192823
 30
0.0
 11
239.1868545164834
 21
247.3811659192823
 31
0.0
  0
INSERT
  5
210
330
1F
100
AcDbEntity
  8
GR1_01
  6
Continuous
 62
     7
370
    13
100
AcDbBlockReference
  2
FXTIP_ARROW_S
 10
191.1868545164834
 20
247.3811659192823
 30
0.0
 41
3.0
 42
3.0
 50
180.0
  0
INSERT
  5
211
330
1F
100
AcDbEntity
  8
GR1_01
  6
Continuous
 62
     7
370
    13
100
AcDbBlockReference
  2
FXTIP_ARROW_E
 10
239.1868545164834
 20
247.3811659192823
 30
0.0
 41
3.0
 42
3.0
 50
360.0
  0
LINE
  5
212
330
1F
100
AcDbEntity
  8
GR1_01
  6
Continuous
 62
     7
370
    13
100
AcDbLine
 10
191.1868545164834
 20
235.3811659192824
 30
0.0
 11
191.1868545164834
 21
248.3811659192823
 31
0.0
  0
LINE
  5
213
330
1F
100
AcDbEntity
  8
GR1_01
  6
Continuous
 62
     7
370
    13
100
AcDbLine
 10
239.1868545164834
 20
235.3811659192823
 30
0.0
 11
239.1868545164834
 21
248.3811659192823
 31
0.0
  0
TEXT
  5
214
330
1F
100
AcDbEntity
  8
GR1_01
  6
Continuous
 62
     7
370
    13
100
AcDbText
 10
358.9247436523438
 20
247.8811645501704
 30
0.0
 40
3.5
  1
８０
 41
1.272727272727273
 51
10.0
  7
FX_VECTOR
 72
     5
 11
365.9247436523438
 21
247.8811645513921
 31
0.0
100
AcDbText
  0
LINE
  5
215
330
1F
100
AcDbEntity
  8
GR1_01
  6
Continuous
 62
     7
370
    13
100
AcDbLine
 10
322.4247493943161
 20
247.3811659192822
 30
0.0
 11
402.4247493943161
 21
247.3811659192822
 31
0.0
  0
INSERT
  5
216
330
1F
100
AcDbEntity
  8
GR1_01
  6
Continuous
 62
     7
370
    13
100
AcDbBlockReference
  2
FXTIP_ARROW_S
 10
322.4247493943161
 20
247.3811659192822
 30
0.0
 41
3.0
 42
3.0
 50
180.0
  0
INSERT
  5
217
330
1F
100
AcDbEntity
  8
GR1_01
  6
Continuous
 62
     7
370
    13
100
AcDbBlockReference
  2
FXTIP_ARROW_E
 10
402.4247493943161
 20
247.3811659192822
 30
0.0
 41
3.0
 42
3.0
 50
360.0
  0
LINE
  5
218
330
1F
100
AcDbEntity
  8
GR1_01
  6
Continuous
 62
     7
370
    13
100
AcDbLine
 10
322.4247493943161
 20
230.3811659192824
 30
0.0
 11
322.4247493943161
 21
248.3811659192822
 31
0.0
  0
LINE
  5
219
330
1F
100
AcDbEntity
  8
GR1_01
  6
Continuous
 62
     7
370
    13
100
AcDbLine
 10
402.4247493943161
 20
230.3811659192824
 30
0.0
 11
402.4247493943161
 21
248.3811659192822
 31
0.0
  0
TEXT
  5
21A
330
1F
100
AcDbEntity
  8
GR1_01
  6
Continuous
 62
     7
370
    13
100
AcDbText
 10
244.1868591308594
 20
177.1471405029297
 30
0.0
 40
3.5
  1
（
 41
1.2
 51
10.0
  7
FX_VECTOR
 72
     5
 11
247.1868591308594
 21
177.1471405029297
 31
0.0
100
AcDbText
  0
TEXT
  5
21B
330
1F
100
AcDbEntity
  8
GR1_01
  6
Continuous
 62
     7
370
    13
100
AcDbText
 10
247.1868591308594
 20
177.1471405029297
 30
0.0
 40
3.5
  1
１２
 41
1.090909090909091
 51
10.0
  7
FX_VECTOR
 72
     5
 11
253.1868591308594
 21
177.1471405029297
 31
0.0
100
AcDbText
  0
TEXT
  5
21C
330
1F
100
AcDbEntity
  8
GR1_01
  6
Continuous
 62
     7
370
    13
100
AcDbText
 10
253.1868591308594
 20
177.1471405029297
 30
0.0
 40
3.5
  1
）
 41
1.2
 51
10.0
  7
FX_VECTOR
 72
     5
 11
256.1868591308594
 21
177.1471405029297
 31
0.0
100
AcDbText
  0
LINE
  5
21D
330
1F
100
AcDbEntity
  8
GR1_01
  6
Continuous
 62
     7
370
    13
100
AcDbLine
 10
244.1868553542416
 20
176.6471430536443
 30
0.0
 11
256.1868548725295
 21
176.6471430536443
 31
0.0
  0
INSERT
  5
21E
330
1F
100
AcDbEntity
  8
GR1_01
  6
Continuous
 62
     7
370
    13
100
AcDbBlockReference
  2
FXTIP_ARROW_S
 10
244.1868553542416
 20
176.6471430536443
 30
0.0
 41
3.0
 42
3.0
 50
180.0
  0
INSERT
  5
21F
330
1F
100
AcDbEntity
  8
GR1_01
  6
Continuous
 62
     7
370
    13
100
AcDbBlockReference
  2
FXTIP_ARROW_E
 10
256.1868548725295
 20
176.6471430536443
 30
0.0
 41
3.0
 42
3.0
 50
360.0
  0
LINE
  5
220
330
1F
100
AcDbEntity
  8
GR1_01
  6
Continuous
 62
     7
370
    13
100
AcDbLine
 10
244.1868553542414
 20
167.147145217764
 30
0.0
 11
244.1868553542416
 21
177.6471430536443
 31
0.0
  0
LINE
  5
221
330
1F
100
AcDbEntity
  8
GR1_01
  6
Continuous
 62
     7
370
    13
100
AcDbLine
 10
256.1868548725292
 20
164.8471428860929
 30
0.0
 11
256.1868548725295
 21
177.6471430536443
 31
0.0
  0
LINE
  5
222
330
1F
100
AcDbEntity
  8
GR1_01
  6
Continuous
 62
     7
370
    13
100
AcDbLine
 10
249.7868522410454
 20
159.6471473864426
 30
0.0
 11
255.7139194046061
 21
149.3811659192824
 31
0.0
  0
INSERT
  5
223
330
1F
100
AcDbEntity
  8
GR1_01
  6
Continuous
 62
     7
370
    13
100
AcDbBlockReference
  2
FXTIP_ARROW_S
 10
249.7868522410454
 20
159.6471473864426
 30
0.0
 41
3.0
 42
3.0
 50
120.0
  0
LINE
  5
224
330
1F
100
AcDbEntity
  8
GR1_01
  6
Continuous
 62
     7
370
    13
100
AcDbLine
 10
255.7139194046061
 20
149.3811659192824
 30
0.0
 11
282.2139194046061
 21
149.3811659192824
 31
0.0
  0
TEXT
  5
225
330
1F
100
AcDbEntity
  8
GR1_01
  6
Continuous
 62
     7
370
    13
100
AcDbText
 10
256.7139282226562
 20
149.8811645507812
 30
0.0
 40
3.5
  1
４ＸＭ５－６５
 41
1.195121951219512
 51
10.0
  7
FX_VECTOR
 72
     5
 11
281.2139282226562
 21
149.8811645507812
 31
0.0
100
AcDbText
  0
TEXT
  5
226
330
1F
100
AcDbEntity
  8
GR1_01
  6
Continuous
 62
     7
370
    13
100
AcDbText
 10
260.6868591308594
 20
239.8811645501704
 30
0.0
 40
3.5
  1
１４
 41
1.272727272727273
 51
10.0
  7
FX_VECTOR
 72
     5
 11
267.6868591308594
 21
239.8811645513921
 31
0.0
100
AcDbText
  0
LINE
  5
227
330
1F
100
AcDbEntity
  8
GR1_01
  6
Continuous
 62
     7
370
    13
100
AcDbLine
 10
257.1868553853119
 20
239.3811659192823
 30
0.0
 11
271.1868553853119
 21
239.3811659192823
 31
0.0
  0
INSERT
  5
228
330
1F
100
AcDbEntity
  8
GR1_01
  6
Continuous
 62
     7
370
    13
100
AcDbBlockReference
  2
FXTIP_ARROW_S
 10
257.1868553853119
 20
239.3811659192823
 30
0.0
 41
3.0
 42
3.0
 50
180.0
  0
INSERT
  5
229
330
1F
100
AcDbEntity
  8
GR1_01
  6
Continuous
 62
     7
370
    13
100
AcDbBlockReference
  2
FXTIP_ARROW_E
 10
271.1868553853119
 20
239.3811659192823
 30
0.0
 41
3.0
 42
3.0
 50
360.0
  0
LINE
  5
22A
330
1F
100
AcDbEntity
  8
GR1_01
  6
Continuous
 62
     7
370
    13
100
AcDbLine
 10
257.1868553853119
 20
215.3811626611775
 30
0.0
 11
257.1868553853119
 21
240.3811659192823
 31
0.0
  0
TEXT
  5
22B
330
1F
100
AcDbEntity
  8
GR1_01
  6
Continuous
 62
     7
370
    13
100
AcDbText
 10
254.6868591308594
 20
247.8811645501704
 30
0.0
 40
3.5
  1
２６
 41
1.272727272727273
 51
10.0
  7
FX_VECTOR
 72
     5
 11
261.6868591308594
 21
247.8811645513921
 31
0.0
100
AcDbText
  0
LINE
  5
22C
330
1F
100
AcDbEntity
  8
GR1_01
  6
Continuous
 62
     7
370
    13
100
AcDbLine
 10
245.1868545164834
 20
247.3811659192823
 30
0.0
 11
271.1868553853119
 21
247.3811659192823
 31
0.0
  0
INSERT
  5
22D
330
1F
100
AcDbEntity
  8
GR1_01
  6
Continuous
 62
     7
370
    13
100
AcDbBlockReference
  2
FXTIP_ARROW_S
 10
245.1868545164834
 20
247.3811659192823
 30
0.0
 41
3.0
 42
3.0
 50
180.0
  0
INSERT
  5
22E
330
1F
100
AcDbEntity
  8
GR1_01
  6
Continuous
 62
     7
370
    13
100
AcDbBlockReference
  2
FXTIP_ARROW_E
 10
271.1868553853119
 20
247.3811659192823
 30
0.0
 41
3.0
 42
3.0
 50
360.0
  0
LINE
  5
22F
330
1F
100
AcDbEntity
  8
GR1_01
  6
Continuous
 62
     7
370
    13
100
AcDbLine
 10
245.1868545164835
 20
225.3811626611774
 30
0.0
 11
245.1868545164834
 21
248.3811659192823
 31
0.0
  0
LINE
  5
230
330
1F
100
AcDbEntity
  8
GR1_01
  6
Continuous
 62
     7
370
    13
100
AcDbLine
 10
271.186855385312
 20
214.3811626611774
 30
0.0
 11
271.1868553853119
 21
248.3811659192823
 31
0.0
  0
LINE
  5
232
330
1F
100
AcDbEntity
  8
Layer1
  6
Continuous
 62
     7
370
    13
100
AcDbLine
 10
317.1787108783847
 20
125.1370149603161
 30
0.0
 11
317.1787108783847
 21
77.13701496031618
 31
0.0
  0
LINE
  5
233
330
1F
100
AcDbEntity
  8
Layer1
  6
Continuous
 62
     7
370
    13
100
AcDbLine
 10
317.1787108783847
 20
125.1370149603161
 30
0.0
 11
387.1787108783847
 21
125.1370149603161
 31
0.0
  0
LINE
  5
234
330
1F
100
AcDbEntity
  8
Layer1
  6
Continuous
 62
     7
370
    13
100
AcDbLine
 10
317.1787108783847
 20
77.13701496031617
 30
0.0
 11
387.1787108783847
 21
77.13701496031617
 31
0.0
  0
LINE
  5
235
330
1F
100
AcDbEntity
  8
Layer1
  6
Continuous
 62
     7
370
    13
100
AcDbLine
 10
387.1787108783847
 20
125.1370149603161
 30
0.0
 11
387.1787108783848
 21
77.13701496031618
 31
0.0
  0
LINE
  5
236
330
1F
100
AcDbEntity
  8
Layer1
  6
Continuous
 62
     7
370
    13
100
AcDbLine
 10
342.1787108783847
 20
125.1370149603161
 30
0.0
 11
342.1787108783847
 21
77.13701496031618
 31
0.0
  0
LINE
  5
237
330
1F
100
AcDbEntity
  8
Layer1
  6
Continuous
 62
     7
370
    13
100
AcDbLine
 10
317.1787108783847
 20
119.1370149603161
 30
0.0
 11
387.1787108783847
 21
119.1370149603161
 31
0.0
  0
LINE
  5
238
330
1F
100
AcDbEntity
  8
Layer1
  6
Continuous
 62
     7
370
    13
100
AcDbLine
 10
317.1787108783847
 20
113.1370149603161
 30
0.0
 11
387.1787108783847
 21
113.1370149603161
 31
0.0
  0
LINE
  5
239
330
1F
100
AcDbEntity
  8
Layer1
  6
Continuous
 62
     7
370
    13
100
AcDbLine
 10
317.1787108783847
 20
107.1370149603161
 30
0.0
 11
387.1787108783847
 21
107.1370149603161
 31
0.0
  0
LINE
  5
23A
330
1F
100
AcDbEntity
  8
Layer1
  6
Continuous
 62
     7
370
    13
100
AcDbLine
 10
342.1787108783847
 20
101.1370149603161
 30
0.0
 11
387.1787108783847
 21
101.1370149603161
 31
0.0
  0
LINE
  5
23B
330
1F
100
AcDbEntity
  8
Layer1
  6
Continuous
 62
     7
370
    13
100
AcDbLine
 10
317.1787108783847
 20
95.13701496031614
 30
0.0
 11
387.1787108783847
 21
95.13701496031614
 31
0.0
  0
LINE
  5
23C
330
1F
100
AcDbEntity
  8
Layer1
  6
Continuous
 62
     7
370
    13
100
AcDbLine
 10
317.1787108783847
 20
89.13701496031614
 30
0.0
 11
387.1787108783847
 21
89.13701496031614
 31
0.0
  0
TEXT
  5
23D
330
1F
100
AcDbEntity
  8
Layer1
  6
Continuous
 62
     7
370
    13
100
AcDbText
 10
317.1786804199219
 20
125.6370162963867
 30
0.0
 40
4.0
  1
ギヤードモータ仕様
 41
1.188679245283019
 51
10.0
  7
FX_VECTOR
 72
     5
 11
353.1786804199219
 21
125.6370162963867
 31
0.0
100
AcDbText
  0
TEXT
  5
23E
330
1F
100
AcDbEntity
  8
Layer1
  6
Continuous
 62
     7
370
    13
100
AcDbText
 10
318.6441040039062
 20
120.1370162963867
 30
0.0
 40
4.0
  1
電圧
 41
3.309090939435092
 51
10.0
  7
FX_VECTOR
 72
     5
 11
339.4441041946411
 21
120.1370162963867
 31
0.0
100
AcDbText
  0
TEXT
  5
23F
330
1F
100
AcDbEntity
  8
Layer1
  6
Continuous
 62
     7
370
    13
100
AcDbText
 10
318.7532043457031
 20
114.1370162963867
 30
0.0
 40
4.0
  1
電流
 41
3.309090939435092
 51
10.0
  7
FX_VECTOR
 72
     5
 11
339.553204536438
 21
114.1370162963867
 31
0.0
100
AcDbText
  0
TEXT
  5
240
330
1F
100
AcDbEntity
  8
Layer1
  6
Continuous
 62
     7
370
    13
100
AcDbText
 10
319.1786804199219
 20
108.1370162963867
 30
0.0
 40
4.0
  1
回転速度
 41
1.559782608695652
 51
10.0
  7
FX_VECTOR
 72
     5
 11
339.6786804199219
 21
108.1370162963867
 31
0.0
100
AcDbText
  0
TEXT
  5
241
330
1F
100
AcDbEntity
  8
Layer1
  6
Continuous
 62
     7
370
    13
100
AcDbText
 10
318.2435607910156
 20
99.13700103759766
 30
0.0
 40
4.0
  1
トルク
 41
2.223529451033648
 51
10.0
  7
FX_VECTOR
 72
     5
 11
339.8435611724854
 21
99.13700103759766
 31
0.0
100
AcDbText
  0
TEXT
  5
242
330
1F
100
AcDbEntity
  8
Layer1
  6
Continuous
 62
     7
370
    13
100
AcDbText
 10
318.7366333007812
 20
81.13700103759766
 30
0.0
 40
4.0
  1
外観
 41
3.309090939435092
 51
10.0
  7
FX_VECTOR
 72
     5
 11
339.5366334915161
 21
81.13700103759766
 31
0.0
100
AcDbText
  0
TEXT
  5
243
330
1F
100
AcDbEntity
  8
Layer1
  6
Continuous
 62
     7
370
    13
100
AcDbText
 10
345.1786804199219
 20
120.1370162963867
 30
0.0
 40
3.5
  1
ＤＣ
 41
1.272727272727273
 51
10.0
  7
FX_VECTOR
 72
     5
 11
352.1786804199219
 21
120.1370162963867
 31
0.0
100
AcDbText
  0
TEXT
  5
244
330
1F
100
AcDbEntity
  8
Layer1
  6
Continuous
 62
     7
370
    13
100
AcDbText
 10
369.1786804199219
 20
120.1370162963867
 30
0.0
 40
3.5
  1
Ｖ
 41
1.4
 51
10.0
  7
FX_VECTOR
 72
     5
 11
372.6786804199219
 21
120.1370162963867
 31
0.0
100
AcDbText
  0
TEXT
  5
245
330
1F
100
AcDbEntity
  8
Layer1
  6
Continuous
 62
     7
370
    13
100
AcDbText
 10
369.1786804199219
 20
114.1370162963867
 30
0.0
 40
3.5
  1
Ａ
 41
1.4
 51
10.0
  7
FX_VECTOR
 72
     5
 11
372.6786804199219
 21
114.1370162963867
 31
0.0
100
AcDbText
  0
TEXT
  5
246
330
1F
100
AcDbEntity
  8
Layer1
  6
Continuous
 62
     7
370
    13
100
AcDbText
 10
369.1786804199219
 20
108.1370162963867
 30
0.0
 40
3.5
  1
ｒｐｍ
 41
1.235294117647059
 51
10.0
  7
FX_VECTOR
 72
     5
 11
379.6786804199219
 21
108.1370162963867
 31
0.0
100
AcDbText
  0
TEXT
  5
247
330
1F
100
AcDbEntity
  8
Layer1
  6
Continuous
 62
     7
370
    13
100
AcDbText
 10
369.1786804199219
 20
102.1370162963867
 30
0.0
 40
3.5
  1
Ｎ・ｍ
 41
0.8823529411764706
 51
10.0
  7
FX_VECTOR
 72
     5
 11
376.6786804199219
 21
102.1370162963867
 31
0.0
100
AcDbText
  0
TEXT
  5
248
330
1F
100
AcDbEntity
  8
Layer1
  6
Continuous
 62
     7
370
    13
100
AcDbText
 10
369.1786804199219
 20
96.13700103759766
 30
0.0
 40
3.5
  1
ｋｇｆ・ｃｍ
 41
0.8571428571428571
 51
10.0
  7
FX_VECTOR
 72
     5
 11
384.1786804199219
 21
96.13700103759766
 31
0.0
100
AcDbText
  0
TEXT
  5
249
330
1F
100
AcDbEntity
  8
Layer1
  6
Continuous
 62
     7
370
    13
100
AcDbText
 10
348.5402526855469
 20
96.13700103759766
 30
0.0
 40
3.5
  1
（　　　　　　　　　）
 41
1.184615384615385
 51
10.0
  7
FX_VECTOR
 72
     5
 11
387.0402526855469
 21
96.13700103759766
 31
0.0
100
AcDbText
  0
TEXT
  5
24A
330
1F
100
AcDbEntity
  8
Layer1
  6
Continuous
 62
     7
370
    13
100
AcDbText
 10
343.6786804199219
 20
84.13700103759766
 30
0.0
 40
3.5
  1
ギヤヘッド：黒色塗装
 41
0.8813558998754469
 51
10.0
  7
FX_VECTOR
 72
     5
 11
369.6786794662476
 21
84.13700103759766
 31
0.0
100
AcDbText
  0
TEXT
  5
24B
330
1F
100
AcDbEntity
  8
Layer1
  6
Continuous
 62
     7
370
    13
100
AcDbText
 10
343.6786804199219
 20
78.13700103759766
 30
0.0
 40
3.5
  1
モータ：生地（鉄ケース部メッキ）
 41
0.875789441560444
 51
10.0
  7
FX_VECTOR
 72
     5
 11
385.278678894043
 21
78.13700103759766
 31
0.0
100
AcDbText
  0
TEXT
  5
24C
330
1F
100
AcDbEntity
  8
Layer1
  6
Continuous
 62
     7
370
    13
100
AcDbText
 10
319.1786804199219
 20
69.13700866699219
 30
0.0
 40
4.0
  1
質量
 41
3.181818181818183
 51
10.0
  7
FX_VECTOR
 72
     5
 11
339.1786804199219
 21
69.13700866699219
 31
0.0
100
AcDbText
  0
TEXT
  5
24D
330
1F
100
AcDbEntity
  8
Layer1
  6
Continuous
 62
     7
370
    13
100
AcDbText
 10
369.1787109375
 20
69.13700866699219
 30
0.0
 40
3.5
  1
ｋｇ
 41
1.272727272727273
 51
10.0
  7
FX_VECTOR
 72
     5
 11
376.1787109375
 21
69.13700866699219
 31
0.0
100
AcDbText
  0
TEXT
  5
24E
330
1F
100
AcDbEntity
  8
Layer1
  6
Continuous
 62
     7
370
    13
100
AcDbText
 10
353.1787109375
 20
69.13700866699219
 30
0.0
 40
3.5
  1
　１．２
 41
1.217391304347826
 51
10.0
  7
FX_VECTOR
 72
     5
 11
367.1787109375
 21
69.13700866699219
 31
0.0
100
AcDbText
  0
LINE
  5
24F
330
1F
100
AcDbEntity
  8
Layer1
  6
Continuous
 62
     7
370
    13
100
AcDbLine
 10
182.5969190706029
 20
125.1370149603161
 30
0.0
 11
299.596919070603
 21
125.1370149603162
 31
0.0
  0
LINE
  5
250
330
1F
100
AcDbEntity
  8
Layer1
  6
Continuous
 62
     7
370
    13
100
AcDbLine
 10
182.5969190706029
 20
107.1370149603161
 30
0.0
 11
299.596919070603
 21
107.1370149603162
 31
0.0
  0
LINE
  5
251
330
1F
100
AcDbEntity
  8
Layer1
  6
Continuous
 62
     7
370
    13
100
AcDbLine
 10
182.5969190706029
 20
119.1370149603161
 30
0.0
 11
299.596919070603
 21
119.1370149603161
 31
0.0
  0
LINE
  5
252
330
1F
100
AcDbEntity
  8
Layer1
  6
Continuous
 62
     7
370
    13
100
AcDbLine
 10
182.5969190706029
 20
113.1370149603161
 30
0.0
 11
299.596919070603
 21
113.1370149603161
 31
0.0
  0
LINE
  5
253
330
1F
100
AcDbEntity
  8
Layer1
  6
Continuous
 62
     7
370
    13
100
AcDbLine
 10
182.5969190706029
 20
125.1370149603161
 30
0.0
 11
182.5969190706029
 21
107.1370149603161
 31
0.0
  0
TEXT
  5
254
330
1F
100
AcDbEntity
  8
Layer1
  6
Continuous
 62
     7
370
    13
100
AcDbText
 10
184.5969085693359
 20
120.1370239257812
 30
0.0
 40
4.0
  1
回転方向
 41
1.582608701094337
 51
10.0
  7
FX_VECTOR
 72
     5
 11
205.3969086408615
 21
120.1370239257812
 31
0.0
100
AcDbText
  0
TEXT
  5
255
330
1F
100
AcDbEntity
  8
Layer1
  6
Continuous
 62
     7
370
    13
100
AcDbText
 10
184.5969085693359
 20
114.1370239257812
 30
0.0
 40
4.0
  1
時計方向
 41
1.582608701094337
 51
10.0
  7
FX_VECTOR
 72
     5
 11
205.3969086408615
 21
114.1370239257812
 31
0.0
100
AcDbText
  0
TEXT
  5
256
330
1F
100
AcDbEntity
  8
Layer1
  6
Continuous
 62
     7
370
    13
100
AcDbText
 10
184.5969085693359
 20
108.1370239257812
 30
0.0
 40
4.0
  1
反時計方向
 41
1.25517241451247
 51
10.0
  7
FX_VECTOR
 72
     5
 11
205.3969085812569
 21
108.1370239257812
 31
0.0
100
AcDbText
  0
LINE
  5
257
330
1F
100
AcDbEntity
  8
Layer1
  6
Continuous
 62
     7
370
    13
100
AcDbLine
 10
207.5969190706029
 20
125.1370149603161
 30
0.0
 11
207.5969190706029
 21
107.1370149603161
 31
0.0
  0
TEXT
  5
258
330
1F
100
AcDbEntity
  8
Layer1
  6
Continuous
 62
     7
370
    13
100
AcDbText
 10
241.096923828125
 20
120.1370239257812
 30
0.0
 40
4.0
  1
減速比
 41
2.470588235294118
 51
10.0
  7
FX_VECTOR
 72
     5
 11
265.096923828125
 21
120.1370239257812
 31
0.0
100
AcDbText
  0
TEXT
  5
259
330
1F
100
AcDbEntity
  8
Layer1
  6
Continuous
 62
     7
370
    13
100
AcDbText
 10
209.596923828125
 20
114.1370239257812
 30
0.0
 40
3.5
  1
１／５，　１／５０，　１／１００，　１／５００，　１／１８００
 41
0.9383783623978899
 51
10.0
  7
FX_VECTOR
 72
     5
 11
296.3969223499298
 21
114.1370239257812
 31
0.0
100
AcDbText
  0
TEXT
  5
25A
330
1F
100
AcDbEntity
  8
Layer1
  6
Continuous
 62
     7
370
    13
100
AcDbText
 10
209.596923828125
 20
108.1370239257812
 30
0.0
 40
3.5
  1
１／１２．５，　１／２５，　１／２５０
 41
0.9415929043187504
 51
10.0
  7
FX_VECTOR
 72
     5
 11
262.7969229221344
 21
108.1370239257812
 31
0.0
100
AcDbText
  0
TEXT
  5
25C
330
1F
100
AcDbEntity
  8
LAYER007
  6
Continuous
 62
     7
370
    13
100
AcDbText
 10
353.1787109375
 20
120.1370162963867
 30
0.0
 40
3.5
  1
　　２４
 41
1.217391304347826
 51
10.0
  7
FX_VECTOR
 72
     5
 11
367.1787109375
 21
120.1370162963867
 31
0.0
100
AcDbText
  0
TEXT
  5
25D
330
1F
100
AcDbEntity
  8
LAYER007
  6
Continuous
 62
     7
370
    13
100
AcDbText
 10
353.1787109375
 20
114.1370162963867
 30
0.0
 40
3.5
  1
　０．６
 41
1.217391304347826
 51
10.0
  7
FX_VECTOR
 72
     5
 11
367.1787109375
 21
114.1370162963867
 31
0.0
100
AcDbText
  0
TEXT
  5
25E
330
1F
100
AcDbEntity
  8
LAYER007
  6
Continuous
 62
     7
370
    13
100
AcDbText
 10
353.1787109375
 20
108.1370162963867
 30
0.0
 40
3.5
  1
　　１０
 41
1.217391304347826
 51
10.0
  7
FX_VECTOR
 72
     5
 11
367.1787109375
 21
108.1370162963867
 31
0.0
100
AcDbText
  0
TEXT
  5
25F
330
1F
100
AcDbEntity
  8
LAYER007
  6
Continuous
 62
     7
370
    13
100
AcDbText
 10
353.1787109375
 20
102.1370162963867
 30
0.0
 40
3.5
  1
　２．９
 41
1.217391304347826
 51
10.0
  7
FX_VECTOR
 72
     5
 11
367.1787109375
 21
102.1370162963867
 31
0.0
100
AcDbText
  0
TEXT
  5
260
330
1F
100
AcDbEntity
  8
LAYER007
  6
Continuous
 62
     7
370
    13
100
AcDbText
 10
353.1787109375
 20
96.13701629638672
 30
0.0
 40
3.5
  1
　　３０
 41
1.217391304347826
 51
10.0
  7
FX_VECTOR
 72
     5
 11
367.1787109375
 21
96.13701629638672
 31
0.0
100
AcDbText
  0
TEXT
  5
261
330
1F
100
AcDbEntity
  8
基準ﾚｲﾔｸﾞﾙｰﾌﾟ_01
  6
Continuous
 62
     7
370
    13
100
AcDbText
 10
353.2605285644531
 20
28.51483535766602
 30
0.0
 40
4.0
  1
ＳＳ３２Ｇ－Ｈ３Ｒ－
 41
1.186440677966102
 51
10.0
  7
FX_VECTOR
 72
     5
 11
393.2605285644531
 21
28.51483535766602
 31
0.0
100
AcDbText
  0
TEXT
  5
262
330
1F
100
AcDbEntity
  8
基準ﾚｲﾔｸﾞﾙｰﾌﾟ_01
  6
Continuous
 62
     7
370
    13
100
AcDbText
 10
369.2281188964844
 20
19.21405220031738
 30
0.0
 40
4.0
  1
ＤＣギヤードモータ
 41
1.188679245283019
 51
10.0
  7
FX_VECTOR
 72
     5
 11
405.2281188964844
 21
19.21405220031738
 31
0.0
100
AcDbText
  0
TEXT
  5
263
330
1F
100
AcDbEntity
  8
基準ﾚｲﾔｸﾞﾙｰﾌﾟ_01
  6
Continuous
 62
     7
370
    13
100
AcDbText
 10
375.8513488769531
 20
10.0
 30
0.0
 40
4.0
  1
６６５９００
 41
1.2
 51
10.0
  7
FX_VECTOR
 72
     5
 11
399.8513488769531
 21
10.0
 31
0.0
100
AcDbText
  0
TEXT
  5
264
330
1F
100
AcDbEntity
  8
基準ﾚｲﾔｸﾞﾙｰﾌﾟ_01
  6
Continuous
 62
     7
370
    13
100
AcDbText
 10
367.7243041992188
 20
-10.77224636077881
 30
0.0
 40
6.0
  1
レイヤに仕様あり
 41
1.191489361702128
 51
10.0
  7
FX_VECTOR
 72
     5
 11
415.7243041992188
 21
-10.77224636077881
 31
0.0
100
AcDbText
  0
INSERT
  5
268
330
1F
100
AcDbEntity
  8
GR1_01
  6
Continuous
 62
     3
370
    35
100
AcDbBlockReference
  2
BLKF037
 10
0.0
 20
0.0
 30
0.0
  0
TEXT
  5
27A
330
1F
100
AcDbEntity
  8
GR1_01
  6
Continuous
 62
     7
370
    13
100
AcDbText
 10
106.5119171142578
 20
247.881164549865
 30
0.0
 40
3.5
  1
６．５
 41
1.235294117647059
 51
10.0
  7
FX_VECTOR
 72
     5
 11
117.0119171142578
 21
247.8811645516975
 31
0.0
100
AcDbText
  0
LINE
  5
27B
330
1F
100
AcDbEntity
  8
GR1_01
  6
Continuous
 62
     7
370
    13
100
AcDbLine
 10
119.6868543819785
 20
247.381165919283
 30
0.0
 11
126.1868545164859
 21
247.3811659192829
 31
0.0
  0
LINE
  5
27C
330
1F
100
AcDbEntity
  8
GR1_01
  6
Continuous
 62
     7
370
    13
100
AcDbLine
 10
119.6868543819785
 20
207.1884997861636
 30
0.0
 11
119.6868543819785
 21
248.381165919283
 31
0.0
  0
LINE
  5
27D
330
1F
100
AcDbEntity
  8
GR1_01
  6
Continuous
 62
     7
370
    13
100
AcDbLine
 10
126.1868545164859
 20
218.6194271222467
 30
0.0
 11
126.1868545164859
 21
248.3811659192829
 31
0.0
  0
LINE
  5
27E
330
1F
100
AcDbEntity
  8
GR1_01
  6
Continuous
 62
     7
370
    13
100
AcDbLine
 10
106.6868543819785
 20
247.3811659192832
 30
0.0
 11
119.6868543819785
 21
247.381165919283
 31
0.0
  0
INSERT
  5
27F
330
1F
100
AcDbEntity
  8
GR1_01
  6
Continuous
 62
     7
370
    13
100
AcDbBlockReference
  2
FXTIP_ARROW_E
 10
119.6868543819785
 20
247.381165919283
 30
0.0
 41
3.0
 42
3.0
 50
360.0
  0
LINE
  5
280
330
1F
100
AcDbEntity
  8
GR1_01
  6
Continuous
 62
     7
370
    13
100
AcDbLine
 10
126.1868545164859
 20
247.3811659192829
 30
0.0
 11
131.1868545164859
 21
247.3811659192829
 31
0.0
  0
INSERT
  5
281
330
1F
100
AcDbEntity
  8
GR1_01
  6
Continuous
 62
     7
370
    13
100
AcDbBlockReference
  2
FXTIP_ARROW_S
 10
126.1868545164859
 20
247.3811659192829
 30
0.0
 41
3.0
 42
3.0
 50
180.0
  0
TEXT
  5
282
330
1F
100
AcDbEntity
  8
GR1_01
  6
Continuous
 62
     7
370
    13
100
AcDbText
 10
96.9123764038086
 20
191.8811645507812
 30
0.0
 40
3.5
  1
１１
 50
90.0
 41
1.272727272727273
 51
10.0
  7
FX_VECTOR
 72
     5
 11
96.9123764038086
 21
198.8811645507812
 31
0.0
100
AcDbText
  0
LINE
  5
283
330
1F
100
AcDbEntity
  8
GR1_01
  6
Continuous
 62
     7
370
    13
100
AcDbLine
 10
97.41237451079674
 20
189.8811659192822
 30
0.0
 11
97.41237451079674
 21
200.8811659192822
 31
0.0
  0
INSERT
  5
284
330
1F
100
AcDbEntity
  8
GR1_01
  6
Continuous
 62
     7
370
    13
100
AcDbBlockReference
  2
FXTIP_ARROW_S
 10
97.41237451079674
 20
189.8811659192822
 30
0.0
 41
3.0
 42
3.0
 50
270.0
  0
INSERT
  5
285
330
1F
100
AcDbEntity
  8
GR1_01
  6
Continuous
 62
     7
370
    13
100
AcDbBlockReference
  2
FXTIP_ARROW_E
 10
97.41237451079674
 20
200.8811659192822
 30
0.0
 41
3.0
 42
3.0
 50
90.0
  0
LINE
  5
286
330
1F
100
AcDbEntity
  8
GR1_01
  6
Continuous
 62
     7
370
    13
100
AcDbLine
 10
87.41237451079678
 20
189.8811659192822
 30
0.0
 11
98.41237451079674
 21
189.8811659192822
 31
0.0
  0
LINE
  5
287
330
1F
100
AcDbEntity
  8
GR1_01
  6
Continuous
 62
     7
370
    13
100
AcDbLine
 10
87.41237451079677
 20
200.8811659192822
 30
0.0
 11
98.41237451079674
 21
200.8811659192822
 31
0.0
  0
TEXT
  5
288
330
1F
100
AcDbEntity
  8
GR1_01
  6
Continuous
 62
     7
370
    13
100
AcDbText
 10
109.6868515014648
 20
190.1311798095703
 30
0.0
 40
3.5
  1
４．８
 50
90.0
 41
1.235294117647059
 51
10.0
  7
FX_VECTOR
 72
     5
 11
109.6868515014648
 21
200.6311798095703
 31
0.0
100
AcDbText
  0
LINE
  5
289
330
1F
100
AcDbEntity
  8
GR1_01
  6
Continuous
 62
     7
370
    13
100
AcDbLine
 10
110.6868544866156
 20
192.9811736871264
 30
0.0
 11
110.6868544866156
 21
197.7811736871264
 31
0.0
  0
LINE
  5
28A
330
1F
100
AcDbEntity
  8
GR1_01
  6
Continuous
 62
     7
370
    13
100
AcDbLine
 10
121.6868385084149
 20
192.9811736871264
 30
0.0
 11
109.6868544866156
 21
192.9811736871264
 31
0.0
  0
LINE
  5
28B
330
1F
100
AcDbEntity
  8
GR1_01
  6
Continuous
 62
     7
370
    13
100
AcDbLine
 10
121.686840006975
 20
197.7811736871264
 30
0.0
 11
109.6868544866156
 21
197.7811736871264
 31
0.0
  0
LINE
  5
28C
330
1F
100
AcDbEntity
  8
GR1_01
  6
Continuous
 62
     7
370
    13
100
AcDbLine
 10
110.6868544866156
 20
187.9811736871264
 30
0.0
 11
110.6868544866156
 21
192.9811736871264
 31
0.0
  0
INSERT
  5
28D
330
1F
100
AcDbEntity
  8
GR1_01
  6
Continuous
 62
     7
370
    13
100
AcDbBlockReference
  2
FXTIP_ARROW_E
 10
110.6868544866156
 20
192.9811736871264
 30
0.0
 41
3.0
 42
3.0
 50
90.0
  0
LINE
  5
28E
330
1F
100
AcDbEntity
  8
GR1_01
  6
Continuous
 62
     7
370
    13
100
AcDbLine
 10
110.6868544866156
 20
197.7811736871264
 30
0.0
 11
110.6868544866156
 21
202.7811736871264
 31
0.0
  0
INSERT
  5
28F
330
1F
100
AcDbEntity
  8
GR1_01
  6
Continuous
 62
     7
370
    13
100
AcDbBlockReference
  2
FXTIP_ARROW_S
 10
110.6868544866156
 20
197.7811736871264
 30
0.0
 41
3.0
 42
3.0
 50
270.0
  0
LINE
  5
290
330
1F
100
AcDbEntity
  8
GR1_01
  6
Continuous
 62
     7
370
    13
100
AcDbLine
 10
124.6868354682613
 20
192.9811736871264
 30
0.0
 11
110.650187884095
 21
178.9445175273988
 31
0.0
  0
INSERT
  5
291
330
1F
100
AcDbEntity
  8
GR1_01
  6
Continuous
 62
     7
370
    13
100
AcDbBlockReference
  2
FXTIP_ARROW_S
 10
124.6868354682613
 20
192.9811736871264
 30
0.0
 41
3.0
 42
3.0
 50
45.00001750216061
  0
LINE
  5
292
330
1F
100
AcDbEntity
  8
GR1_01
  6
Continuous
 62
     7
370
    13
100
AcDbLine
 10
110.650187884095
 20
178.9445175273988
 30
0.0
 11
123.6771470381213
 21
156.3811624045006
 31
0.0
  0
LINE
  5
293
330
1F
100
AcDbEntity
  8
GR1_01
  6
Continuous
 62
     7
370
    13
100
AcDbLine
 10
123.6771470381213
 20
156.3811624045006
 30
0.0
 11
143.1771470381213
 21
156.3811624045006
 31
0.0
  0
TEXT
  5
294
330
1F
100
AcDbEntity
  8
GR1_01
  6
Continuous
 62
     7
370
    13
100
AcDbText
 10
124.6771545410156
 20
156.8811645507812
 30
0.0
 40
3.5
  1
モータ端子
 41
1.206896551724138
 51
10.0
  7
FX_VECTOR
 72
     5
 11
142.1771545410156
 21
156.8811645507812
 31
0.0
100
AcDbText
  0
TEXT
  5
295
330
1F
100
AcDbEntity
  8
GR1_01
  6
Continuous
 62
     7
370
    13
100
AcDbText
 10
153.4161834716797
 20
182.8029479980469
 30
0.0
 40
3.5
  1
φ
 50
90.0
 41
1.4
 51
10.0
  7
FX_VECTOR
 72
     5
 11
153.4161834716797
 21
186.3029479980469
 31
0.0
100
AcDbText
  0
TEXT
  5
296
330
1F
100
AcDbEntity
  8
GR1_01
  6
Continuous
 62
     7
370
    13
100
AcDbText
 10
153.4161834716797
 20
186.3029479980469
 30
0.0
 40
3.5
  1
５０
 50
90.0
 41
1.272727272727273
 51
10.0
  7
FX_VECTOR
 72
     5
 11
153.4161834716797
 21
193.3029479980469
 31
0.0
100
AcDbText
  0
LINE
  5
297
330
1F
100
AcDbEntity
  8
GR1_01
  6
Continuous
 62
     7
370
    13
100
AcDbLine
 10
153.9161768781739
 20
170.3811659192822
 30
0.0
 11
153.9161768781739
 21
220.3811659192823
 31
0.0
  0
INSERT
  5
298
330
1F
100
AcDbEntity
  8
GR1_01
  6
Continuous
 62
     7
370
    13
100
AcDbBlockReference
  2
FXTIP_ARROW_S
 10
153.9161768781739
 20
170.3811659192822
 30
0.0
 41
3.0
 42
3.0
 50
270.0
  0
INSERT
  5
299
330
1F
100
AcDbEntity
  8
GR1_01
  6
Continuous
 62
     7
370
    13
100
AcDbBlockReference
  2
FXTIP_ARROW_E
 10
153.9161768781739
 20
220.3811659192823
 30
0.0
 41
3.0
 42
3.0
 50
90.0
  0
LINE
  5
29A
330
1F
100
AcDbEntity
  8
GR1_01
  6
Continuous
 62
     7
370
    13
100
AcDbLine
 10
186.9161768781739
 20
170.3811659192823
 30
0.0
 11
152.9161768781739
 21
170.3811659192823
 31
0.0
  0
LINE
  5
29B
330
1F
100
AcDbEntity
  8
GR1_01
  6
Continuous
 62
     7
370
    13
100
AcDbLine
 10
186.9161768781739
 20
220.3811659192824
 30
0.0
 11
152.9161768781739
 21
220.3811659192824
 31
0.0
  0
TEXT
  5
29C
330
1F
100
AcDbEntity
  8
GR1_01
  6
Continuous
 62
     7
370
    13
100
AcDbText
 10
290.6868591308594
 20
206.8811645507812
 30
0.0
 40
3.5
  1
φ
 50
90.0
 41
1.4
 51
10.0
  7
FX_VECTOR
 72
     5
 11
290.6868591308594
 21
210.3811645507812
 31
0.0
100
AcDbText
  0
TEXT
  5
29D
330
1F
100
AcDbEntity
  8
GR1_01
  6
Continuous
 62
     7
370
    13
100
AcDbText
 10
290.6868591308594
 20
210.3811645507812
 30
0.0
 40
3.5
  1
８
 50
90.0
 41
1.4
 51
10.0
  7
FX_VECTOR
 72
     5
 11
290.6868591308594
 21
213.8811645507812
 31
0.0
100
AcDbText
  0
LINE
  5
29E
330
1F
100
AcDbEntity
  8
GR1_01
  6
Continuous
 62
     7
370
    13
100
AcDbLine
 10
291.1868553853119
 20
206.3811626611775
 30
0.0
 11
291.1868553853119
 21
214.3811626611775
 31
0.0
  0
INSERT
  5
29F
330
1F
100
AcDbEntity
  8
GR1_01
  6
Continuous
 62
     7
370
    13
100
AcDbBlockReference
  2
FXTIP_ARROW_S
 10
291.1868553853119
 20
206.3811626611775
 30
0.0
 41
3.0
 42
3.0
 50
270.0
  0
INSERT
  5
2A0
330
1F
100
AcDbEntity
  8
GR1_01
  6
Continuous
 62
     7
370
    13
100
AcDbBlockReference
  2
FXTIP_ARROW_E
 10
291.1868553853119
 20
214.3811626611775
 30
0.0
 41
3.0
 42
3.0
 50
90.0
  0
LINE
  5
2A1
330
1F
100
AcDbEntity
  8
GR1_01
  6
Continuous
 62
     7
370
    13
100
AcDbLine
 10
272.1868553853119
 20
206.3811626611775
 30
0.0
 11
292.1868553853119
 21
206.3811626611775
 31
0.0
  0
LINE
  5
2A2
330
1F
100
AcDbEntity
  8
GR1_01
  6
Continuous
 62
     7
370
    13
100
AcDbLine
 10
258.1868553853119
 20
214.3811626611775
 30
0.0
 11
292.1868553853119
 21
214.3811626611774
 31
0.0
  0
LINE
  5
2A3
330
1F
100
AcDbEntity
  8
GR1_01
  6
Continuous
 62
     7
370
    13
100
AcDbLine
 10
291.1868553853119
 20
214.3811626611774
 30
0.0
 11
291.1868553853119
 21
227.3811626611774
 31
0.0
  0
CIRCLE
  5
2A4
330
1F
100
AcDbEntity
  8
GR1_01
  6
Continuous
 62
     3
370
    35
100
AcDbCircle
 10
362.4247493943161
 20
210.3811659192825
 30
0.0
 40
4.0
  0
CIRCLE
  5
2A5
330
1F
100
AcDbEntity
  8
GR1_01
  6
Continuous
 62
     3
370
    35
100
AcDbCircle
 10
362.4247493943161
 20
210.3811659192825
 30
0.0
 40
5.0
  0
LINE
  5
2A6
330
1F
100
AcDbEntity
  8
GR1_01
  6
Continuous
 62
     3
370
    35
100
AcDbLine
 10
359.7789943889121
 20
213.3811626611774
 30
0.0
 11
365.07050439972
 21
213.3811626611774
 31
0.0
  0
TEXT
  5
2A7
330
1F
100
AcDbEntity
  8
GR1_01
  6
Continuous
 62
     7
370
    13
100
AcDbText
 10
224.6868591308594
 20
205.1311645507812
 30
0.0
 40
3.5
  1
φ
 50
90.0
 41
1.4
 51
10.0
  7
FX_VECTOR
 72
     5
 11
224.6868591308594
 21
208.6311645507812
 31
0.0
100
AcDbText
  0
TEXT
  5
2A8
330
1F
100
AcDbEntity
  8
GR1_01
  6
Continuous
 62
     7
370
    13
100
AcDbText
 10
224.6868591308594
 20
208.6311645507812
 30
0.0
 40
3.5
  1
３０
 50
90.0
 41
1.272727272727273
 51
10.0
  7
FX_VECTOR
 72
     5
 11
224.6868591308594
 21
215.6311645507812
 31
0.0
100
AcDbText
  0
LINE
  5
2A9
330
1F
100
AcDbEntity
  8
GR1_01
  6
Continuous
 62
     7
370
    13
100
AcDbLine
 10
225.1868545164835
 20
195.3811659192823
 30
0.0
 11
225.1868545164835
 21
225.3811626611773
 31
0.0
  0
INSERT
  5
2AA
330
1F
100
AcDbEntity
  8
GR1_01
  6
Continuous
 62
     7
370
    13
100
AcDbBlockReference
  2
FXTIP_ARROW_S
 10
225.1868545164835
 20
195.3811659192823
 30
0.0
 41
3.0
 42
3.0
 50
270.0
  0
INSERT
  5
2AB
330
1F
100
AcDbEntity
  8
GR1_01
  6
Continuous
 62
     7
370
    13
100
AcDbBlockReference
  2
FXTIP_ARROW_E
 10
225.1868545164835
 20
225.3811626611773
 30
0.0
 41
3.0
 42
3.0
 50
90.0
  0
LINE
  5
2AC
330
1F
100
AcDbEntity
  8
GR1_01
  6
Continuous
 62
     7
370
    13
100
AcDbLine
 10
243.1868545164835
 20
195.3811659192823
 30
0.0
 11
224.1868545164835
 21
195.3811659192823
 31
0.0
  0
LINE
  5
2AD
330
1F
100
AcDbEntity
  8
GR1_01
  6
Continuous
 62
     7
370
    13
100
AcDbLine
 10
243.1868545164834
 20
225.3811626611774
 30
0.0
 11
224.1868545164835
 21
225.3811626611773
 31
0.0
  0
TEXT
  5
2AE
330
1F
100
AcDbEntity
  8
GR1_01
  6
Continuous
 62
     7
370
    13
100
AcDbText
 10
282.6868591308594
 20
208.1311645507812
 30
0.0
 40
3.5
  1
７
 50
90.0
 41
1.4
 51
10.0
  7
FX_VECTOR
 72
     5
 11
282.6868591308594
 21
211.6311645507812
 31
0.0
100
AcDbText
  0
LINE
  5
2AF
330
1F
100
AcDbEntity
  8
GR1_01
  6
Continuous
 62
     7
370
    13
100
AcDbLine
 10
283.1868553853119
 20
206.3811626611775
 30
0.0
 11
283.1868553853119
 21
213.3811626611775
 31
0.0
  0
INSERT
  5
2B0
330
1F
100
AcDbEntity
  8
GR1_01
  6
Continuous
 62
     7
370
    13
100
AcDbBlockReference
  2
FXTIP_ARROW_S
 10
283.1868553853119
 20
206.3811626611775
 30
0.0
 41
3.0
 42
3.0
 50
270.0
  0
INSERT
  5
2B1
330
1F
100
AcDbEntity
  8
GR1_01
  6
Continuous
 62
     7
370
    13
100
AcDbBlockReference
  2
FXTIP_ARROW_E
 10
283.1868553853119
 20
213.3811626611775
 30
0.0
 41
3.0
 42
3.0
 50
90.0
  0
LINE
  5
2B2
330
1F
100
AcDbEntity
  8
GR1_01
  6
Continuous
 62
     7
370
    13
100
AcDbLine
 10
272.1868553853119
 20
206.3811626611775
 30
0.0
 11
284.1868553853119
 21
206.3811626611774
 31
0.0
  0
LINE
  5
2B3
330
1F
100
AcDbEntity
  8
GR1_01
  6
Continuous
 62
     7
370
    13
100
AcDbLine
 10
272.1868553853119
 20
213.3811626611774
 30
0.0
 11
284.1868553853119
 21
213.3811626611774
 31
0.0
  0
TEXT
  5
2B4
330
1F
100
AcDbEntity
  8
Layer1
  6
Continuous
 62
     7
370
    13
100
AcDbText
 10
317.1786804199219
 20
59.13700866699219
 30
0.0
 40
3.5
  1
付属品：接続子付リード線
 41
1.183098591549296
 51
10.0
  7
FX_VECTOR
 72
     5
 11
359.1786804199219
 21
59.13700866699219
 31
0.0
100
AcDbText
  0
TEXT
  5
2B5
330
1F
100
AcDbEntity
  8
Layer1
  6
Continuous
 62
     7
370
    13
100
AcDbText
 10
329.8106994628906
 20
53.13700866699219
 30
0.0
 40
3.5
  1
（０．５ｍｍ
 41
1.2
 51
10.0
  7
FX_VECTOR
 72
     5
 11
350.8106994628906
 21
53.13700866699219
 31
0.0
100
AcDbText
  0
TEXT
  5
2B6
330
1F
100
AcDbEntity
  8
Layer1
  6
Continuous
 62
     7
370
    13
100
AcDbText
 10
350.8106994628906
 20
54.88700866699219
 30
0.0
 40
1.75
  1
２
 41
1.4
 51
10.0
  7
FX_VECTOR
 72
     5
 11
352.5606994628906
 21
54.88700866699219
 31
0.0
100
AcDbText
  0
TEXT
  5
2B7
330
1F
100
AcDbEntity
  8
Layer1
  6
Continuous
 62
     7
370
    13
100
AcDbText
 10
352.5606994628906
 20
53.13700866699219
 30
0.0
 40
3.5
  1
　３００ｍｍ赤，青）
 41
1.186440677966102
 51
10.0
  7
FX_VECTOR
 72
     5
 11
387.5606994628906
 21
53.13700866699219
 31
0.0
100
AcDbText
  0
LINE
  5
2B8
330
1F
100
AcDbEntity
  8
GR1_01
  6
DASHDOT
 62
     7
370
    13
100
AcDbLine
 10
274.186855385312
 20
210.3811626611775
 30
0.0
 11
233.1868545164835
 21
210.3811626611775
 31
0.0
  0
INSERT
  5
2BC
330
1F
100
AcDbEntity
  8
GR1_01
  6
Continuous
 62
     3
370
    35
100
AcDbBlockReference
  2
BLKF039
 10
0.0
 20
0.0
 30
0.0
  0
INSERT
  5
2CF
330
1F
100
AcDbEntity
  8
GR1_01
  6
Continuous
 62
     3
370
    35
100
AcDbBlockReference
  2
BLKF040
 10
0.0
 20
0.0
 30
0.0
  0
INSERT
  5
2E1
330
1F
100
AcDbEntity
  8
GR1_01
  6
Continuous
 62
     3
370
    35
100
AcDbBlockReference
  2
BLKF041
 10
0.0
 20
0.0
 30
0.0
  0
INSERT
  5
2F3
330
1F
100
AcDbEntity
  8
GR1_01
  6
Continuous
 62
     3
370
    35
100
AcDbBlockReference
  2
BLKF042
 10
0.0
 20
0.0
 30
0.0
  0
INSERT
  5
306
330
1F
100
AcDbEntity
  8
GR1_01
  6
Continuous
 62
     3
370
    35
100
AcDbBlockReference
  2
BLKF043
 10
0.0
 20
0.0
 30
0.0
  0
INSERT
  5
319
330
1F
100
AcDbEntity
  8
GR1_01
  6
Continuous
 62
     3
370
    35
100
AcDbBlockReference
  2
BLKF044
 10
0.0
 20
0.0
 30
0.0
  0
INSERT
  5
325
330
1F
100
AcDbEntity
  8
GR1_01
  6
Continuous
 62
     3
370
    35
100
AcDbBlockReference
  2
BLKF045
 10
0.0
 20
0.0
 30
0.0
  0
INSERT
  5
331
330
1F
100
AcDbEntity
  8
GR1_01
  6
Continuous
 62
     3
370
    35
100
AcDbBlockReference
  2
BLKF046
 10
0.0
 20
0.0
 30
0.0
  0
INSERT
  5
33D
330
1F
100
AcDbEntity
  8
GR1_01
  6
Continuous
 62
     3
370
    35
100
AcDbBlockReference
  2
BLKF047
 10
0.0
 20
0.0
 30
0.0
  0
INSERT
  5
349
330
1F
100
AcDbEntity
  8
GR1_01
  6
Continuous
 62
     3
370
    35
100
AcDbBlockReference
  2
BLKF048
 10
0.0
 20
0.0
 30
0.0
  0
ARC
  5
382
330
1F
100
AcDbEntity
  8
GR1_01
  6
Continuous
 62
     7
370
    13
100
AcDbCircle
 10
59.91237451079672
 20
195.3811659192824
 30
0.0
 40
12.99999999999994
100
AcDbArc
 50
48.76148641491658
 51
64.75808569520835
  0
ARC
  5
383
330
1F
100
AcDbEntity
  8
GR1_01
  6
Continuous
 62
     7
370
    13
100
AcDbCircle
 10
59.91237451079672
 20
195.3811659192824
 30
0.0
 40
12.99999999999994
100
AcDbArc
 50
228.9237916536204
 51
244.7580856952083
  0
INSERT
  5
387
330
1F
100
AcDbEntity
  8
GR1_01
  6
Continuous
 62
     3
370
    35
100
AcDbBlockReference
  2
BLKF049
 10
0.0
 20
0.0
 30
0.0
  0
ARC
  5
409
330
1F
100
AcDbEntity
  8
GR1_01
  6
Continuous
 62
     3
370
    35
100
AcDbCircle
 10
59.9123745107967
 20
195.3811659192823
 30
0.0
 40
25.0
100
AcDbArc
 50
192.7090329943953
 51
347.2909670056047
  0
ARC
  5
40A
330
1F
100
AcDbEntity
  8
GR1_01
  6
Continuous
 62
     3
370
    35
100
AcDbCircle
 10
59.9123745107967
 20
195.3811659192823
 30
0.0
 40
25.0
100
AcDbArc
 50
12.70903299439556
 51
167.2909670056045
  0
TEXT
  5
40B
330
1F
100
AcDbEntity
  8
GR1_01
  6
Continuous
 62
     7
370
    13
100
AcDbText
 10
66.62437662107278
 20
208.1829118260263
 30
0.0
 40
3.5
  1
φ
 50
60.35000610351585
 41
1.000000000000001
 51
10.0
  7
FX_VECTOR
 72
     5
 11
67.86112752931784
 21
210.3555708399894
 31
0.0
100
AcDbText
  0
TEXT
  5
40C
330
1F
100
AcDbEntity
  8
GR1_01
  6
Continuous
 62
     7
370
    13
100
AcDbText
 10
67.86112659419635
 20
210.3555697458025
 30
0.0
 40
3.5
  1
２６
 50
60.35000610351585
 41
0.9090909090909102
 51
10.0
  7
FX_VECTOR
 72
     5
 11
70.33462841068646
 21
214.7008877737287
 31
0.0
100
AcDbText
  0
LINE
  5
40D
330
1F
100
AcDbEntity
  8
GR1_01
  6
Continuous
 62
     7
370
    13
100
AcDbLine
 10
66.34355325971518
 20
206.6789506534441
 30
0.0
 11
53.48119576187827
 21
184.0833811851206
 31
0.0
  0
LINE
  5
40E
330
1F
100
AcDbEntity
  8
GR1_01
  6
Continuous
 62
     7
370
    13
100
AcDbLine
 10
66.34355325971518
 20
206.6789506534441
 30
0.0
 11
71.04326080700179
 21
214.9350241130239
 31
0.0
  0
INSERT
  5
40F
330
1F
100
AcDbEntity
  8
GR1_01
  6
Continuous
 62
     7
370
    13
100
AcDbBlockReference
  2
FXTIP_ARROW_S
 10
66.34355325971518
 20
206.6789506534441
 30
0.0
 41
3.0
 42
3.0
 50
240.349630687264
  0
LINE
  5
410
330
1F
100
AcDbEntity
  8
GR1_01
  6
Continuous
 62
     7
370
    13
100
AcDbLine
 10
53.48119576187827
 20
184.0833811851206
 30
0.0
 11
51.0076654738327
 21
179.7380793642891
 31
0.0
  0
INSERT
  5
411
330
1F
100
AcDbEntity
  8
GR1_01
  6
Continuous
 62
     7
370
    13
100
AcDbBlockReference
  2
FXTIP_ARROW_S
 10
53.48119576187827
 20
184.0833811851206
 30
0.0
 41
3.0
 42
3.0
 50
60.34963068726437
  0
LINE
  5
412
330
1F
100
AcDbEntity
  8
GR1_01
  6
DASHDOT
 62
     7
370
    13
100
AcDbLine
 10
54.8768713568985
 20
175.8811659192824
 30
0.0
 11
65.02258656436817
 21
175.8811659192824
 31
0.0
  0
LINE
  5
413
330
1F
100
AcDbEntity
  8
GR1_01
  6
DASHDOT
 62
     7
370
    13
100
AcDbLine
 10
65.02258656436817
 20
214.8811659192824
 30
0.0
 11
54.66987969967477
 21
214.8811659192824
 31
0.0
  0
INSERT
  5
417
330
1F
100
AcDbEntity
  8
GR1_01
  6
Continuous
 62
     3
370
    35
100
AcDbBlockReference
  2
BLKF051
 10
0.0
 20
0.0
 30
0.0
  0
INSERT
  5
424
330
1F
100
AcDbEntity
  8
GR1_01
  6
Continuous
 62
     3
370
    35
100
AcDbBlockReference
  2
BLKF052
 10
0.0
 20
0.0
 30
0.0
  0
LINE
  5
42E
330
1F
100
AcDbEntity
  8
GR1_01
  6
DASHDOT
 62
     7
370
    13
100
AcDbLine
 10
59.9123745107967
 20
223.3811659192823
 30
0.0
 11
59.9123745107967
 21
167.3811659192823
 31
0.0
  0
LINE
  5
42F
330
1F
100
AcDbEntity
  8
GR1_01
  6
DASHDOT
 62
     7
370
    13
100
AcDbLine
 10
90.41237451079672
 20
195.3811659192823
 30
0.0
 11
29.41237451079674
 21
195.3811659192823
 31
0.0
  0
LINE
  5
430
330
1F
100
AcDbEntity
  8
Layer1
  6
Continuous
 62
     7
370
    13
100
AcDbLine
 10
299.5969190706029
 20
125.1370149603161
 30
0.0
 11
299.5969190706029
 21
107.1370149603161
 31
0.0
  0
LINE
  5
432
330
1F
100
AcDbEntity
  8
作図レイヤ
  6
DASHDOT
 62
     7
370
    13
100
AcDbLine
 10
165.1143896228843
 20
105.0421246558045
 30
0.0
 11
116.6868545463536
 21
105.0421246558046
 31
0.0
  0
INSERT
  5
436
330
1F
100
AcDbEntity
  8
作図レイヤ
  6
Continuous
 62
     7
370
    13
100
AcDbBlockReference
  2
BLKF053
 10
0.0
 20
0.0
 30
0.0
  0
INSERT
  5
443
330
1F
100
AcDbEntity
  8
作図レイヤ
  6
Continuous
 62
     3
370
    35
100
AcDbBlockReference
  2
BLKF054
 10
0.0
 20
0.0
 30
0.0
  0
INSERT
  5
44E
330
1F
100
AcDbEntity
  8
作図レイヤ
  6
Continuous
 62
     3
370
    35
100
AcDbBlockReference
  2
BLKF055
 10
0.0
 20
0.0
 30
0.0
  0
ELLIPSE
  5
47C
330
1F
100
AcDbEntity
  8
LAYER007
  6
Continuous
 62
     3
370
    35
100
AcDbEllipse
 10
256.1810846560811
 20
109.967361261712
 30
0.0
 11
8.285567313345297
 21
0.0
 31
0.0
210
0.0
220
0.0
230
1.0
 40
0.31219512195122
 41
0.0
 42
6.283185307179586
  0
TEXT
  5
47D
330
1F
100
AcDbEntity
  8
LAYER007
  6
Continuous
 62
     7
370
    13
100
AcDbText
 10
394.8661193847656
 20
28.51483535766602
 30
0.0
 40
4.0
  1
２５０
 41
1.235294117647059
 51
10.0
  7
FX_VECTOR
 72
     5
 11
406.8661193847656
 21
28.51483535766602
 31
0.0
100
AcDbText
  0
TEXT
  5
47E
330
1F
100
AcDbEntity
  8
基準ﾚｲﾔｸﾞﾙｰﾌﾟ_01
  6
Continuous
 62
     7
370
    13
100
AcDbText
 10
343.9642944335938
 20
-22.65224647521973
 30
0.0
 40
6.0
  1
仕様　２４Ｖ　１／２５０
 41
1.183098591549296
 51
10.0
  7
FX_VECTOR
 72
     5
 11
415.9642944335938
 21
-22.65224647521973
 31
0.0
100
AcDbText
  0
TEXT
  5
47F
330
1F
100
AcDbEntity
  8
GR1_01
  6
Continuous
 62
     7
370
    13
100
AcDbText
 10
56.41237640380859
 20
239.8811645501704
 30
0.0
 40
3.5
  1
５５
 41
1.272727272727273
 51
10.0
  7
FX_VECTOR
 72
     5
 11
63.41237640380859
 21
239.8811645513921
 31
0.0
100
AcDbText
  0
LINE
  5
480
330
1F
100
AcDbEntity
  8
GR1_01
  6
Continuous
 62
     7
370
    13
100
AcDbLine
 10
32.41237451079676
 20
239.3811659192823
 30
0.0
 11
87.41237451079674
 21
239.3811659192823
 31
0.0
  0
INSERT
  5
481
330
1F
100
AcDbEntity
  8
GR1_01
  6
Continuous
 62
     7
370
    13
100
AcDbBlockReference
  2
FXTIP_ARROW_S
 10
32.41237451079676
 20
239.3811659192823
 30
0.0
 41
3.0
 42
3.0
 50
180.0
  0
INSERT
  5
482
330
1F
100
AcDbEntity
  8
GR1_01
  6
Continuous
 62
     7
370
    13
100
AcDbBlockReference
  2
FXTIP_ARROW_E
 10
87.41237451079674
 20
239.3811659192823
 30
0.0
 41
3.0
 42
3.0
 50
360.0
  0
LINE
  5
483
330
1F
100
AcDbEntity
  8
GR1_01
  6
Continuous
 62
     7
370
    13
100
AcDbLine
 10
32.41237451079675
 20
200.8811659192824
 30
0.0
 11
32.41237451079677
 21
240.3811659192824
 31
0.0
  0
LINE
  5
484
330
1F
100
AcDbEntity
  8
GR1_01
  6
Continuous
 62
     7
370
    13
100
AcDbLine
 10
87.41237451079675
 20
200.8811659192824
 30
0.0
 11
87.41237451079672
 21
240.3811659192823
 31
0.0
  0
ARC
  5
485
330
1F
100
AcDbEntity
  8
GR1_01
  6
Continuous
 62
     7
370
    13
100
AcDbCircle
 10
329.1907306785484
 20
228.6151846350501
 30
0.0
 40
2.0
100
AcDbArc
 50
80.0
 51
349.9999999999999
  0
CIRCLE
  5
486
330
1F
100
AcDbEntity
  8
GR1_01
  6
Continuous
 62
     3
370
    35
100
AcDbCircle
 10
329.1907306785484
 20
228.6151846350501
 30
0.0
 40
2.499999999999992
  0
ARC
  5
487
330
1F
100
AcDbEntity
  8
GR1_01
  6
Continuous
 62
     7
370
    13
100
AcDbCircle
 10
395.6587681100839
 20
228.6151846350502
 30
0.0
 40
2.0
100
AcDbArc
 50
80.0
 51
349.9999999999999
  0
CIRCLE
  5
488
330
1F
100
AcDbEntity
  8
GR1_01
  6
Continuous
 62
     3
370
    35
100
AcDbCircle
 10
395.6587681100839
 20
228.6151846350502
 30
0.0
 40
2.499999999999992
  0
ARC
  5
489
330
1F
100
AcDbEntity
  8
GR1_01
  6
Continuous
 62
     7
370
    13
100
AcDbCircle
 10
395.6587681100839
 20
162.1471472035146
 30
0.0
 40
2.0
100
AcDbArc
 50
80.0
 51
349.9999999999999
  0
CIRCLE
  5
48A
330
1F
100
AcDbEntity
  8
GR1_01
  6
Continuous
 62
     3
370
    35
100
AcDbCircle
 10
395.6587681100839
 20
162.1471472035146
 30
0.0
 40
2.499999999999992
  0
ARC
  5
48B
330
1F
100
AcDbEntity
  8
GR1_01
  6
Continuous
 62
     7
370
    13
100
AcDbCircle
 10
329.1907306785482
 20
162.1471472035144
 30
0.0
 40
2.0
100
AcDbArc
 50
80.0
 51
349.9999999999999
  0
CIRCLE
  5
48C
330
1F
100
AcDbEntity
  8
GR1_01
  6
Continuous
 62
     3
370
    35
100
AcDbCircle
 10
329.1907306785482
 20
162.1471472035144
 30
0.0
 40
2.499999999999992
  0
TEXT
  5
48D
330
1F
100
AcDbEntity
  8
Layer1
  6
Continuous
 62
     7
370
    13
100
AcDbText
 10
182.5968933105469
 20
101.1370010375977
 30
0.0
 40
3.5
  1
出力軸の回転方向は、ケース表示通り接続した場合、
 41
1.174825174825175
 51
10.0
  7
FX_VECTOR
 72
     5
 11
266.5968933105469
 21
101.1370010375977
 31
0.0
100
AcDbText
  0
TEXT
  5
48E
330
1F
100
AcDbEntity
  8
Layer1
  6
Continuous
 62
     7
370
    13
100
AcDbText
 10
182.5968933105469
 20
95.13700103759766
 30
0.0
 40
3.5
  1
減速比により上記の通りとなります。
 41
1.178217821782178
 51
10.0
  7
FX_VECTOR
 72
     5
 11
242.0968933105469
 21
95.13700103759766
 31
0.0
100
AcDbText
  0
ENDSEC
  0
SECTION
  2
OBJECTS
  0
DICTIONARY
  5
C
330
0
100
AcDbDictionary
281
     1
  3
ACAD_GROUP
350
D
  3
ACAD_LAYOUT
350
1A
  3
ACAD_MATERIAL
350
3B
  3
ACAD_MLEADERSTYLE
350
491
  3
ACAD_MLINESTYLE
350
17
  3
ACAD_PLOTSETTINGS
350
19
  3
ACAD_PLOTSTYLENAME
350
E
  3
ACAD_VISUALSTYLE
350
2A
  3
AcDbVariableDictionary
350
48F
  0
DICTIONARY
  5
D
102
{ACAD_REACTORS
330
C
102
}
330
C
100
AcDbDictionary
281
     1
  0
DICTIONARY
  5
1A
102
{ACAD_REACTORS
330
C
102
}
330
C
100
AcDbDictionary
281
     1
  3
Layout1
350
1E
  3
Layout2
350
26
  3
Model
350
22
  0
DICTIONARY
  5
3B
102
{ACAD_REACTORS
330
C
102
}
330
C
100
AcDbDictionary
281
     1
  3
ByBlock
350
3D
  3
ByLayer
350
3C
  3
Global
350
3E
  0
DICTIONARY
  5
491
102
{ACAD_REACTORS
330
C
102
}
330
C
100
AcDbDictionary
281
     1
  0
DICTIONARY
  5
17
102
{ACAD_REACTORS
330
C
102
}
330
C
100
AcDbDictionary
281
     1
  3
Standard
350
18
  0
DICTIONARY
  5
19
102
{ACAD_REACTORS
330
C
102
}
330
C
100
AcDbDictionary
281
     1
  0
ACDBDICTIONARYWDFLT
  5
E
102
{ACAD_REACTORS
330
C
102
}
330
C
100
AcDbDictionary
281
     1
  3
Normal
350
F
100
AcDbDictionaryWithDefault
340
F
  0
DICTIONARY
  5
2A
102
{ACAD_REACTORS
330
C
102
}
330
C
100
AcDbDictionary
281
     1
  3
2dWireframe
350
2F
  3
3D Hidden
350
31
  3
3dWireframe
350
30
  3
Basic
350
32
  3
Brighten
350
36
  3
ColorChange
350
3A
  3
Conceptual
350
34
  3
Dim
350
35
  3
Facepattern
350
39
  3
Flat
350
2B
  3
FlatWithEdges
350
2C
  3
Gouraud
350
2D
  3
GouraudWithEdges
350
2E
  3
Linepattern
350
38
  3
Realistic
350
33
  3
Thicken
350
37
  0
DICTIONARY
  5
48F
102
{ACAD_REACTORS
330
C
102
}
330
C
100
AcDbDictionary
281
     1
  3
DIMASSOC
350
494
  3
HIDETEXT
350
495
  3
PSOLHEIGHT
350
493
  3
PSOLWIDTH
350
492
  0
LAYOUT
  5
1E
102
{ACAD_REACTORS
330
1A
102
}
330
1A
100
AcDbPlotSettings
  1

  2
none_device
  4

  6

 40
0.0
 41
0.0
 42
0.0
 43
0.0
 44
0.0
 45
0.0
 46
0.0
 47
0.0
 48
0.0
 49
0.0
140
0.0
141
0.0
142
1.0
143
1.0
 70
   688
 72
     0
 73
     0
 74
     5
  7

 75
    16
147
1.0
148
0.0
149
0.0
100
AcDbLayout
  1
Layout1
 70
     1
 71
     1
 10
0.0
 20
0.0
 11
420.0
 21
297.0
 12
0.0
 22
0.0
 32
0.0
 14
1.000000000000000E+20
 24
1.000000000000000E+20
 34
1.000000000000000E+20
 15
-1.000000000000000E+20
 25
-1.000000000000000E+20
 35
-1.000000000000000E+20
146
0.0
 13
0.0
 23
0.0
 33
0.0
 16
1.0
 26
0.0
 36
0.0
 17
0.0
 27
1.0
 37
0.0
 76
     0
330
1B
  0
LAYOUT
  5
26
102
{ACAD_REACTORS
330
1A
102
}
330
1A
100
AcDbPlotSettings
  1

  2
none_device
  4

  6

 40
0.0
 41
0.0
 42
0.0
 43
0.0
 44
0.0
 45
0.0
 46
0.0
 47
0.0
 48
0.0
 49
0.0
140
0.0
141
0.0
142
1.0
143
1.0
 70
   688
 72
     0
 73
     0
 74
     5
  7

 75
    16
147
1.0
148
0.0
149
0.0
100
AcDbLayout
  1
Layout2
 70
     1
 71
     2
 10
0.0
 20
0.0
 11
0.0
 21
0.0
 12
0.0
 22
0.0
 32
0.0
 14
0.0
 24
0.0
 34
0.0
 15
0.0
 25
0.0
 35
0.0
146
0.0
 13
0.0
 23
0.0
 33
0.0
 16
1.0
 26
0.0
 36
0.0
 17
0.0
 27
1.0
 37
0.0
 76
     0
330
23
  0
LAYOUT
  5
22
102
{ACAD_REACTORS
330
1A
102
}
330
1A
100
AcDbPlotSettings
  1

  2
none_device
  4

  6

 40
0.0
 41
0.0
 42
0.0
 43
0.0
 44
0.0
 45
0.0
 46
0.0
 47
0.0
 48
0.0
 49
0.0
140
0.0
141
0.0
142
1.0
143
1.0
 70
  1712
 72
     0
 73
     0
 74
     0
  7

 75
     0
147
1.0
148
0.0
149
0.0
100
AcDbLayout
  1
Model
 70
     1
 71
     0
 10
0.0
 20
0.0
 11
420.0
 21
297.0
 12
0.0
 22
0.0
 32
0.0
 14
0.0
 24
0.0
 34
0.0
 15
420.0
 25
297.0
 35
0.0
146
0.0
 13
0.0
 23
0.0
 33
0.0
 16
1.0
 26
0.0
 36
0.0
 17
0.0
 27
1.0
 37
0.0
 76
     0
330
1F
331
29
  0
MATERIAL
  5
3D
102
{ACAD_REACTORS
330
3B
102
}
102
{ACAD_XDICTIONARY
360
4B8
102
}
330
3B
100
AcDbMaterial
  1
ByBlock
  0
MATERIAL
  5
3C
102
{ACAD_REACTORS
330
3B
102
}
102
{ACAD_XDICTIONARY
360
4B6
102
}
330
3B
100
AcDbMaterial
  1
ByLayer
  0
MATERIAL
  5
3E
102
{ACAD_REACTORS
330
3B
102
}
102
{ACAD_XDICTIONARY
360
4BA
102
}
330
3B
100
AcDbMaterial
  1
Global
  0
MLINESTYLE
  5
18
102
{ACAD_REACTORS
330
17
102
}
330
17
100
AcDbMlineStyle
  2
Standard
 70
     0
  3

 62
   256
 51
90.0
 52
90.0
 71
     2
 49
0.5
 62
   256
  6
BYLAYER
 49
-0.5
 62
   256
  6
BYLAYER
  0
ACDBPLACEHOLDER
  5
F
102
{ACAD_REACTORS
330
E
102
}
330
E
  0
VISUALSTYLE
  5
2F
102
{ACAD_REACTORS
330
2A
102
}
102
{ACAD_XDICTIONARY
360
49E
102
}
330
2A
100
AcDbVisualStyle
  2
2dWireframe
 70
     4
 71
     0
 72
     2
 73
     0
 90
        0
 40
-0.6
 41
-30.0
 62
     5
 63
     7
 74
     1
 91
        4
 64
     7
 65
   257
 75
     1
175
     1
 42
1.0
 92
        0
 66
   257
 43
1.0
 76
     1
 77
     6
 78
     2
 67
     7
 79
     5
170
     0
171
     0
290
     0
174
     0
 93
        1
 44
0.0
173
     0
291
     0
 45
0.0
1001
ACAD
1000
AcDbSavedByObjectVersion
1070
     0
  0
VISUALSTYLE
  5
31
102
{ACAD_REACTORS
330
2A
102
}
102
{ACAD_XDICTIONARY
360
4A2
102
}
330
2A
100
AcDbVisualStyle
  2
3D Hidden
 70
     6
 71
     1
 72
     2
 73
     2
 90
        0
 40
-0.6
 41
-30.0
 62
     5
 63
     7
 74
     2
 91
        2
 64
     7
 65
   257
 75
     2
175
     1
 42
40.0
 92
        0
 66
   257
 43
1.0
 76
     1
 77
     6
 78
     2
 67
     7
 79
     3
170
     0
171
     0
290
     0
174
     0
 93
        1
 44
0.0
173
     0
291
     0
 45
0.0
1001
ACAD
1000
AcDbSavedByObjectVersion
1070
     0
  0
VISUALSTYLE
  5
30
102
{ACAD_REACTORS
330
2A
102
}
102
{ACAD_XDICTIONARY
360
4A0
102
}
330
2A
100
AcDbVisualStyle
  2
3dWireframe
 70
     5
 71
     0
 72
     2
 73
     0
 90
        0
 40
-0.6
 41
-30.0
 62
     5
 63
     7
 74
     1
 91
        4
 64
     7
 65
   257
 75
     1
175
     1
 42
1.0
 92
        0
 66
   257
 43
1.0
 76
     1
 77
     6
 78
     2
 67
     7
 79
     5
170
     0
171
     0
290
     0
174
     0
 93
        1
 44
0.0
173
     0
291
     0
 45
0.0
1001
ACAD
1000
AcDbSavedByObjectVersion
1070
     0
  0
VISUALSTYLE
  5
32
102
{ACAD_REACTORS
330
2A
102
}
102
{ACAD_XDICTIONARY
360
4A4
102
}
330
2A
100
AcDbVisualStyle
  2
Basic
 70
     7
 71
     1
 72
     0
 73
     1
 90
        0
 40
-0.6
 41
-30.0
 62
     5
 63
     7
 74
     0
 91
        4
 64
     7
 65
   257
 75
     1
175
     1
 42
1.0
 92
        8
 66
     7
 43
1.0
 76
     1
 77
     6
 78
     2
 67
     7
 79
     5
170
     0
171
     0
290
     0
174
     0
 93
        1
 44
0.0
173
     0
291
     1
 45
0.0
1001
ACAD
1000
AcDbSavedByObjectVersion
1070
     0
  0
VISUALSTYLE
  5
36
102
{ACAD_REACTORS
330
2A
102
}
102
{ACAD_XDICTIONARY
360
4AC
102
}
330
2A
100
AcDbVisualStyle
  2
Brighten
 70
    12
 71
     2
 72
     2
 73
     0
 90
        0
 40
-0.6
 41
-30.0
 62
     5
 63
     7
 74
     1
 91
        4
 64
     7
 65
   257
 75
     1
175
     1
 42
1.0
 92
        8
 66
     7
 43
1.0
 76
     1
 77
     6
 78
     2
 67
     7
 79
     5
170
     0
171
     0
290
     0
174
     0
 93
        1
 44
50.0
173
     0
291
     1
 45
0.0
1001
ACAD
1000
AcDbSavedByObjectVersion
1070
     0
  0
VISUALSTYLE
  5
3A
102
{ACAD_REACTORS
330
2A
102
}
102
{ACAD_XDICTIONARY
360
4B4
102
}
330
2A
100
AcDbVisualStyle
  2
ColorChange
 70
    16
 71
     2
 72
     2
 73
     3
 90
        0
 40
-0.6
 41
-30.0
 62
     5
 63
     8
 74
     1
 91
        4
 64
     7
 65
   257
 75
     1
175
     1
 42
1.0
 92
        8
 66
     8
 43
1.0
 76
     1
 77
     6
 78
     2
 67
     7
 79
     5
170
     0
171
     0
290
     0
174
     0
 93
        1
 44
0.0
173
     0
291
     1
 45
0.0
1001
ACAD
1000
AcDbSavedByObjectVersion
1070
     0
  0
VISUALSTYLE
  5
34
102
{ACAD_REACTORS
330
2A
102
}
102
{ACAD_XDICTIONARY
360
4A8
102
}
330
2A
100
AcDbVisualStyle
  2
Conceptual
 70
     9
 71
     3
 72
     2
 73
     0
 90
        0
 40
-0.6
 41
-30.0
 62
     5
 63
     7
 74
     2
 91
        2
 64
     7
 65
   257
 75
     1
175
     1
 42
40.0
 92
        8
 66
     7
 43
1.0
 76
     1
 77
     6
 78
     2
 67
     7
 79
     3
170
     0
171
     0
290
     0
174
     0
 93
        1
 44
0.0
173
     0
291
     0
 45
0.0
1001
ACAD
1000
AcDbSavedByObjectVersion
1070
     0
  0
VISUALSTYLE
  5
35
102
{ACAD_REACTORS
330
2A
102
}
102
{ACAD_XDICTIONARY
360
4AA
102
}
330
2A
100
AcDbVisualStyle
  2
Dim
 70
    11
 71
     2
 72
     2
 73
     0
 90
        0
 40
-0.6
 41
-30.0
 62
     5
 63
     7
 74
     1
 91
        4
 64
     7
 65
   257
 75
     1
175
     1
 42
1.0
 92
        8
 66
     7
 43
1.0
 76
     1
 77
     6
 78
     2
 67
     7
 79
     5
170
     0
171
     0
290
     0
174
     0
 93
        1
 44
-50.0
173
     0
291
     1
 45
0.0
1001
ACAD
1000
AcDbSavedByObjectVersion
1070
     0
  0
VISUALSTYLE
  5
39
102
{ACAD_REACTORS
330
2A
102
}
102
{ACAD_XDICTIONARY
360
4B2
102
}
330
2A
100
AcDbVisualStyle
  2
Facepattern
 70
    15
 71
     2
 72
     2
 73
     0
 90
        0
 40
-0.6
 41
-30.0
 62
     5
 63
     7
 74
     1
 91
        4
 64
     7
 65
   257
 75
     1
175
     1
 42
1.0
 92
        8
 66
     7
 43
1.0
 76
     1
 77
     6
 78
     2
 67
     7
 79
     5
170
     0
171
     0
290
     0
174
     0
 93
        1
 44
0.0
173
     0
291
     1
 45
0.0
1001
ACAD
1000
AcDbSavedByObjectVersion
1070
     0
  0
VISUALSTYLE
  5
2B
102
{ACAD_REACTORS
330
2A
102
}
102
{ACAD_XDICTIONARY
360
496
102
}
330
2A
100
AcDbVisualStyle
  2
Flat
 70
     0
 71
     2
 72
     1
 73
     1
 90
        2
 40
-0.6
 41
30.0
 62
     5
 63
     7
 74
     0
 91
        4
 64
     7
 65
   257
 75
     1
175
     1
 42
1.0
 92
        8
 66
     7
 43
1.0
 76
     1
 77
     6
 78
     2
 67
     7
 79
     5
170
     0
171
     0
290
     0
174
     0
 93
       13
 44
0.0
173
     0
291
     1
 45
0.0
1001
ACAD
1000
AcDbSavedByObjectVersion
1070
     0
  0
VISUALSTYLE
  5
2C
102
{ACAD_REACTORS
330
2A
102
}
102
{ACAD_XDICTIONARY
360
498
102
}
330
2A
100
AcDbVisualStyle
  2
FlatWithEdges
 70
     1
 71
     2
 72
     1
 73
     1
 90
        2
 40
-0.6
 41
30.0
 62
     5
 63
     7
 74
     1
 91
        4
 64
     7
 65
   257
 75
     1
175
     1
 42
1.0
 92
        0
 66
   257
 43
1.0
 76
     1
 77
     6
 78
     2
 67
     7
 79
     5
170
     0
171
     0
290
     0
174
     0
 93
       13
 44
0.0
173
     0
291
     1
 45
0.0
1001
ACAD
1000
AcDbSavedByObjectVersion
1070
     0
  0
VISUALSTYLE
  5
2D
102
{ACAD_REACTORS
330
2A
102
}
102
{ACAD_XDICTIONARY
360
49A
102
}
330
2A
100
AcDbVisualStyle
  2
Gouraud
 70
     2
 71
     2
 72
     2
 73
     1
 90
        2
 40
-0.6
 41
30.0
 62
     5
 63
     7
 74
     0
 91
        4
 64
     7
 65
   257
 75
     1
175
     1
 42
1.0
 92
        0
 66
     7
 43
1.0
 76
     1
 77
     6
 78
     2
 67
     7
 79
     5
170
     0
171
     0
290
     0
174
     0
 93
       13
 44
0.0
173
     0
291
     1
 45
0.0
1001
ACAD
1000
AcDbSavedByObjectVersion
1070
     0
  0
VISUALSTYLE
  5
2E
102
{ACAD_REACTORS
330
2A
102
}
102
{ACAD_XDICTIONARY
360
49C
102
}
330
2A
100
AcDbVisualStyle
  2
GouraudWithEdges
 70
     3
 71
     2
 72
     2
 73
     1
 90
        2
 40
-0.6
 41
30.0
 62
     5
 63
     7
 74
     1
 91
        4
 64
     7
 65
   257
 75
     1
175
     1
 42
1.0
 92
        0
 66
   257
 43
1.0
 76
     1
 77
     6
 78
     2
 67
     7
 79
     5
170
     0
171
     0
290
     0
174
     0
 93
       13
 44
0.0
173
     0
291
     1
 45
0.0
1001
ACAD
1000
AcDbSavedByObjectVersion
1070
     0
  0
VISUALSTYLE
  5
38
102
{ACAD_REACTORS
330
2A
102
}
102
{ACAD_XDICTIONARY
360
4B0
102
}
330
2A
100
AcDbVisualStyle
  2
Linepattern
 70
    14
 71
     2
 72
     2
 73
     0
 90
        0
 40
-0.6
 41
-30.0
 62
     5
 63
     7
 74
     1
 91
        4
 64
     7
 65
   257
 75
     7
175
     7
 42
1.0
 92
        8
 66
     7
 43
1.0
 76
     1
 77
     6
 78
     2
 67
     7
 79
     5
170
     0
171
     0
290
     0
174
     0
 93
        1
 44
0.0
173
     0
291
     1
 45
0.0
1001
ACAD
1000
AcDbSavedByObjectVersion
1070
     0
  0
VISUALSTYLE
  5
33
102
{ACAD_REACTORS
330
2A
102
}
102
{ACAD_XDICTIONARY
360
4A6
102
}
330
2A
100
AcDbVisualStyle
  2
Realistic
 70
     8
 71
     2
 72
     2
 73
     0
 90
        0
 40
-0.6
 41
-30.0
 62
     5
 63
     7
 74
     1
 91
        0
 64
     7
 65
   257
 75
     1
175
     1
 42
1.0
 92
        8
 66
     8
 43
1.0
 76
     1
 77
     6
 78
     2
 67
     7
 79
     5
170
     0
171
     0
290
     0
174
     0
 93
       13
 44
0.0
173
     0
291
     0
 45
0.0
1001
ACAD
1000
AcDbSavedByObjectVersion
1070
     0
  0
VISUALSTYLE
  5
37
102
{ACAD_REACTORS
330
2A
102
}
102
{ACAD_XDICTIONARY
360
4AE
102
}
330
2A
100
AcDbVisualStyle
  2
Thicken
 70
    13
 71
     2
 72
     2
 73
     0
 90
        0
 40
-0.6
 41
-30.0
 62
     5
 63
     7
 74
     1
 91
        4
 64
     7
 65
   257
 75
     1
175
     1
 42
1.0
 92
       12
 66
     7
 43
1.0
 76
     1
 77
     6
 78
     2
 67
     7
 79
     5
170
     0
171
     0
290
     0
174
     0
 93
        1
 44
0.0
173
     0
291
     1
 45
0.0
1001
ACAD
1000
AcDbSavedByObjectVersion
1070
     0
  0
DICTIONARYVAR
  5
494
102
{ACAD_REACTORS
330
48F
102
}
330
48F
100
DictionaryVariables
280
     0
  1
2
  0
DICTIONARYVAR
  5
495
102
{ACAD_REACTORS
330
48F
102
}
330
48F
100
DictionaryVariables
280
     0
  1
1
  0
DICTIONARYVAR
  5
493
102
{ACAD_REACTORS
330
48F
102
}
330
48F
100
DictionaryVariables
280
     0
  1
80.000000
  0
DICTIONARYVAR
  5
492
102
{ACAD_REACTORS
330
48F
102
}
330
48F
100
DictionaryVariables
280
     0
  1
5.000000
  0
DICTIONARY
  5
4B8
330
3D
100
AcDbDictionary
280
     1
281
     1
  3
ACAD_XREC_ROUNDTRIP
360
4B9
  0
DICTIONARY
  5
4B6
330
3C
100
AcDbDictionary
280
     1
281
     1
  3
ACAD_XREC_ROUNDTRIP
360
4B7
  0
DICTIONARY
  5
4BA
330
3E
100
AcDbDictionary
280
     1
281
     1
  3
ACAD_XREC_ROUNDTRIP
360
4BB
  0
DICTIONARY
  5
49E
330
2F
100
AcDbDictionary
280
     1
281
     1
  3
ACAD_XREC_ROUNDTRIP
360
49F
  0
DICTIONARY
  5
4A2
330
31
100
AcDbDictionary
280
     1
281
     1
  3
ACAD_XREC_ROUNDTRIP
360
4A3
  0
DICTIONARY
  5
4A0
330
30
100
AcDbDictionary
280
     1
281
     1
  3
ACAD_XREC_ROUNDTRIP
360
4A1
  0
DICTIONARY
  5
4A4
330
32
100
AcDbDictionary
280
     1
281
     1
  3
ACAD_XREC_ROUNDTRIP
360
4A5
  0
DICTIONARY
  5
4AC
330
36
100
AcDbDictionary
280
     1
281
     1
  3
ACAD_XREC_ROUNDTRIP
360
4AD
  0
DICTIONARY
  5
4B4
330
3A
100
AcDbDictionary
280
     1
281
     1
  3
ACAD_XREC_ROUNDTRIP
360
4B5
  0
DICTIONARY
  5
4A8
330
34
100
AcDbDictionary
280
     1
281
     1
  3
ACAD_XREC_ROUNDTRIP
360
4A9
  0
DICTIONARY
  5
4AA
330
35
100
AcDbDictionary
280
     1
281
     1
  3
ACAD_XREC_ROUNDTRIP
360
4AB
  0
DICTIONARY
  5
4B2
330
39
100
AcDbDictionary
280
     1
281
     1
  3
ACAD_XREC_ROUNDTRIP
360
4B3
  0
DICTIONARY
  5
496
330
2B
100
AcDbDictionary
280
     1
281
     1
  3
ACAD_XREC_ROUNDTRIP
360
497
  0
DICTIONARY
  5
498
330
2C
100
AcDbDictionary
280
     1
281
     1
  3
ACAD_XREC_ROUNDTRIP
360
499
  0
DICTIONARY
  5
49A
330
2D
100
AcDbDictionary
280
     1
281
     1
  3
ACAD_XREC_ROUNDTRIP
360
49B
  0
DICTIONARY
  5
49C
330
2E
100
AcDbDictionary
280
     1
281
     1
  3
ACAD_XREC_ROUNDTRIP
360
49D
  0
DICTIONARY
  5
4B0
330
38
100
AcDbDictionary
280
     1
281
     1
  3
ACAD_XREC_ROUNDTRIP
360
4B1
  0
DICTIONARY
  5
4A6
330
33
100
AcDbDictionary
280
     1
281
     1
  3
ACAD_XREC_ROUNDTRIP
360
4A7
  0
DICTIONARY
  5
4AE
330
37
100
AcDbDictionary
280
     1
281
     1
  3
ACAD_XREC_ROUNDTRIP
360
4AF
  0
XRECORD
  5
4B9
102
{ACAD_REACTORS
330
4B8
102
}
330
4B8
100
AcDbXrecord
280
     1
102
MATERIAL
148
0.0
149
0.0
149
0.0
 93
        0
 94
      127
282
     0
 72
     1
 77
     1
171
     1
175
     1
179
     1
273
     0
  0
XRECORD
  5
4B7
102
{ACAD_REACTORS
330
4B6
102
}
330
4B6
100
AcDbXrecord
280
     1
102
MATERIAL
148
0.0
149
0.0
149
0.0
 93
        0
 94
      127
282
     0
 72
     1
 77
     1
171
     1
175
     1
179
     1
273
     0
  0
XRECORD
  5
4BB
102
{ACAD_REACTORS
330
4BA
102
}
330
4BA
100
AcDbXrecord
280
     1
102
MATERIAL
148
0.0
149
0.0
149
0.0
 93
        0
 94
      127
282
     0
 72
     1
 77
     1
171
     1
175
     1
179
     1
273
     0
  0
XRECORD
  5
49F
102
{ACAD_REACTORS
330
49E
102
}
330
49E
100
AcDbXrecord
280
     1
102
RTVSPropertyOp0
 70
     1
102
RTVSPropertyOp1
 70
     1
102
RTVSPropertyOp2
 70
     1
102
RTVSPropertyOp3
 70
     1
102
RTVSPropertyOp4
 70
     1
102
RTVSPropertyOp5
 70
     1
102
RTVSPropertyOp6
 70
     1
102
RTVSPropertyOp7
 70
     1
102
RTVSPropertyOp8
 70
     1
102
RTVSPropertyOp9
 70
     1
102
RTVSPropertyOp10
 70
     1
102
RTVSPropertyOp11
 70
     1
102
RTVSPropertyOp12
 70
     1
102
RTVSPropertyOp13
 70
     1
102
RTVSPropertyOp14
 70
     1
102
RTVSPropertyOp15
 70
     1
102
RTVSPropertyOp16
 70
     1
102
RTVSPropertyOp17
 70
     1
102
RTVSPropertyOp18
 70
     1
102
RTVSPropertyOp19
 70
     1
102
RTVSPropertyOp20
 70
     1
102
RTVSPropertyOp21
 70
     1
102
RTVSPropertyOp22
 70
     1
102
RTVSPropertyOp23
 70
     1
102
RTVSPropertyOp24
 70
     1
102
RTVSPropertyOp25
 70
     1
102
RTVSPropertyOp26
 70
     1
102
RTVSPropertyOp27
 70
     1
102
RTVSPropertyOp28
 70
     1
102
RTVSPropertyOp29
 70
     1
102
RTVSPropertyOp30
 70
     1
102
RTVSPropertyOp31
 70
     1
102
RTVSPropertyOp32
 70
     1
  0
XRECORD
  5
4A3
102
{ACAD_REACTORS
330
4A2
102
}
330
4A2
100
AcDbXrecord
280
     1
102
RTVSPropertyOp0
 70
     1
102
RTVSPropertyOp1
 70
     1
102
RTVSPropertyOp2
 70
     1
102
RTVSPropertyOp3
 70
     1
102
RTVSPropertyOp4
 70
     1
102
RTVSPropertyOp5
 70
     1
102
RTVSPropertyOp6
 70
     1
102
RTVSPropertyOp7
 70
     1
102
RTVSPropertyOp8
 70
     1
102
RTVSPropertyOp9
 70
     1
102
RTVSPropertyOp10
 70
     1
102
RTVSPropertyOp11
 70
     1
102
RTVSPropertyOp12
 70
     1
102
RTVSPropertyOp13
 70
     1
102
RTVSPropertyOp14
 70
     1
102
RTVSPropertyOp15
 70
     1
102
RTVSPropertyOp16
 70
     1
102
RTVSPropertyOp17
 70
     1
102
RTVSPropertyOp18
 70
     1
102
RTVSPropertyOp19
 70
     1
102
RTVSPropertyOp20
 70
     1
102
RTVSPropertyOp21
 70
     1
102
RTVSPropertyOp22
 70
     1
102
RTVSPropertyOp23
 70
     1
102
RTVSPropertyOp24
 70
     1
102
RTVSPropertyOp25
 70
     1
102
RTVSPropertyOp26
 70
     1
102
RTVSPropertyOp27
 70
     1
102
RTVSPropertyOp28
 70
     1
102
RTVSPropertyOp29
 70
     1
102
RTVSPropertyOp30
 70
     1
102
RTVSPropertyOp31
 70
     1
102
RTVSPropertyOp32
 70
     1
  0
XRECORD
  5
4A1
102
{ACAD_REACTORS
330
4A0
102
}
330
4A0
100
AcDbXrecord
280
     1
102
RTVSPropertyOp0
 70
     1
102
RTVSPropertyOp1
 70
     1
102
RTVSPropertyOp2
 70
     1
102
RTVSPropertyOp3
 70
     1
102
RTVSPropertyOp4
 70
     1
102
RTVSPropertyOp5
 70
     1
102
RTVSPropertyOp6
 70
     1
102
RTVSPropertyOp7
 70
     1
102
RTVSPropertyOp8
 70
     1
102
RTVSPropertyOp9
 70
     1
102
RTVSPropertyOp10
 70
     1
102
RTVSPropertyOp11
 70
     1
102
RTVSPropertyOp12
 70
     1
102
RTVSPropertyOp13
 70
     1
102
RTVSPropertyOp14
 70
     1
102
RTVSPropertyOp15
 70
     1
102
RTVSPropertyOp16
 70
     1
102
RTVSPropertyOp17
 70
     1
102
RTVSPropertyOp18
 70
     1
102
RTVSPropertyOp19
 70
     1
102
RTVSPropertyOp20
 70
     1
102
RTVSPropertyOp21
 70
     1
102
RTVSPropertyOp22
 70
     1
102
RTVSPropertyOp23
 70
     1
102
RTVSPropertyOp24
 70
     1
102
RTVSPropertyOp25
 70
     1
102
RTVSPropertyOp26
 70
     1
102
RTVSPropertyOp27
 70
     1
102
RTVSPropertyOp28
 70
     1
102
RTVSPropertyOp29
 70
     1
102
RTVSPropertyOp30
 70
     1
102
RTVSPropertyOp31
 70
     1
102
RTVSPropertyOp32
 70
     1
  0
XRECORD
  5
4A5
102
{ACAD_REACTORS
330
4A4
102
}
330
4A4
100
AcDbXrecord
280
     1
102
RTVSPropertyOp0
 70
     1
102
RTVSPropertyOp1
 70
     1
102
RTVSPropertyOp2
 70
     1
102
RTVSPropertyOp3
 70
     1
102
RTVSPropertyOp4
 70
     1
102
RTVSPropertyOp5
 70
     1
102
RTVSPropertyOp6
 70
     1
102
RTVSPropertyOp7
 70
     1
102
RTVSPropertyOp8
 70
     1
102
RTVSPropertyOp9
 70
     1
102
RTVSPropertyOp10
 70
     1
102
RTVSPropertyOp11
 70
     1
102
RTVSPropertyOp12
 70
     1
102
RTVSPropertyOp13
 70
     1
102
RTVSPropertyOp14
 70
     1
102
RTVSPropertyOp15
 70
     1
102
RTVSPropertyOp16
 70
     1
102
RTVSPropertyOp17
 70
     1
102
RTVSPropertyOp18
 70
     1
102
RTVSPropertyOp19
 70
     1
102
RTVSPropertyOp20
 70
     1
102
RTVSPropertyOp21
 70
     1
102
RTVSPropertyOp22
 70
     1
102
RTVSPropertyOp23
 70
     1
102
RTVSPropertyOp24
 70
     1
102
RTVSPropertyOp25
 70
     1
102
RTVSPropertyOp26
 70
     1
102
RTVSPropertyOp27
 70
     1
102
RTVSPropertyOp28
 70
     1
102
RTVSPropertyOp29
 70
     1
102
RTVSPropertyOp30
 70
     1
102
RTVSPropertyOp31
 70
     1
102
RTVSPropertyOp32
 70
     1
  0
XRECORD
  5
4AD
102
{ACAD_REACTORS
330
4AC
102
}
330
4AC
100
AcDbXrecord
280
     1
102
RTVSPropertyOp0
 70
     1
102
RTVSPropertyOp1
 70
     1
102
RTVSPropertyOp2
 70
     1
102
RTVSPropertyOp3
 70
     1
102
RTVSPropertyOp4
 70
     1
102
RTVSPropertyOp5
 70
     1
102
RTVSPropertyOp6
 70
     1
102
RTVSPropertyOp7
 70
     1
102
RTVSPropertyOp8
 70
     1
102
RTVSPropertyOp9
 70
     1
102
RTVSPropertyOp10
 70
     1
102
RTVSPropertyOp11
 70
     1
102
RTVSPropertyOp12
 70
     1
102
RTVSPropertyOp13
 70
     1
102
RTVSPropertyOp14
 70
     1
102
RTVSPropertyOp15
 70
     1
102
RTVSPropertyOp16
 70
     1
102
RTVSPropertyOp17
 70
     1
102
RTVSPropertyOp18
 70
     1
102
RTVSPropertyOp19
 70
     1
102
RTVSPropertyOp20
 70
     1
102
RTVSPropertyOp21
 70
     1
102
RTVSPropertyOp22
 70
     1
102
RTVSPropertyOp23
 70
     1
102
RTVSPropertyOp24
 70
     1
102
RTVSPropertyOp25
 70
     1
102
RTVSPropertyOp26
 70
     1
102
RTVSPropertyOp27
 70
     1
102
RTVSPropertyOp28
 70
     1
102
RTVSPropertyOp29
 70
     1
102
RTVSPropertyOp30
 70
     1
102
RTVSPropertyOp31
 70
     1
102
RTVSPropertyOp32
 70
     1
  0
XRECORD
  5
4B5
102
{ACAD_REACTORS
330
4B4
102
}
330
4B4
100
AcDbXrecord
280
     1
102
RTVSPropertyOp0
 70
     1
102
RTVSPropertyOp1
 70
     1
102
RTVSPropertyOp2
 70
     1
102
RTVSPropertyOp3
 70
     1
102
RTVSPropertyOp4
 70
     1
102
RTVSPropertyOp5
 70
     1
102
RTVSPropertyOp6
 70
     1
102
RTVSPropertyOp7
 70
     1
102
RTVSPropertyOp8
 70
     1
102
RTVSPropertyOp9
 70
     1
102
RTVSPropertyOp10
 70
     1
102
RTVSPropertyOp11
 70
     1
102
RTVSPropertyOp12
 70
     1
102
RTVSPropertyOp13
 70
     1
102
RTVSPropertyOp14
 70
     1
102
RTVSPropertyOp15
 70
     1
102
RTVSPropertyOp16
 70
     1
102
RTVSPropertyOp17
 70
     1
102
RTVSPropertyOp18
 70
     1
102
RTVSPropertyOp19
 70
     1
102
RTVSPropertyOp20
 70
     1
102
RTVSPropertyOp21
 70
     1
102
RTVSPropertyOp22
 70
     1
102
RTVSPropertyOp23
 70
     1
102
RTVSPropertyOp24
 70
     1
102
RTVSPropertyOp25
 70
     1
102
RTVSPropertyOp26
 70
     1
102
RTVSPropertyOp27
 70
     1
102
RTVSPropertyOp28
 70
     1
102
RTVSPropertyOp29
 70
     1
102
RTVSPropertyOp30
 70
     1
102
RTVSPropertyOp31
 70
     1
102
RTVSPropertyOp32
 70
     1
  0
XRECORD
  5
4A9
102
{ACAD_REACTORS
330
4A8
102
}
330
4A8
100
AcDbXrecord
280
     1
102
RTVSPropertyOp0
 70
     1
102
RTVSPropertyOp1
 70
     1
102
RTVSPropertyOp2
 70
     1
102
RTVSPropertyOp3
 70
     1
102
RTVSPropertyOp4
 70
     1
102
RTVSPropertyOp5
 70
     1
102
RTVSPropertyOp6
 70
     1
102
RTVSPropertyOp7
 70
     1
102
RTVSPropertyOp8
 70
     1
102
RTVSPropertyOp9
 70
     1
102
RTVSPropertyOp10
 70
     1
102
RTVSPropertyOp11
 70
     1
102
RTVSPropertyOp12
 70
     1
102
RTVSPropertyOp13
 70
     1
102
RTVSPropertyOp14
 70
     1
102
RTVSPropertyOp15
 70
     1
102
RTVSPropertyOp16
 70
     1
102
RTVSPropertyOp17
 70
     1
102
RTVSPropertyOp18
 70
     1
102
RTVSPropertyOp19
 70
     1
102
RTVSPropertyOp20
 70
     1
102
RTVSPropertyOp21
 70
     1
102
RTVSPropertyOp22
 70
     1
102
RTVSPropertyOp23
 70
     1
102
RTVSPropertyOp24
 70
     1
102
RTVSPropertyOp25
 70
     1
102
RTVSPropertyOp26
 70
     1
102
RTVSPropertyOp27
 70
     1
102
RTVSPropertyOp28
 70
     1
102
RTVSPropertyOp29
 70
     1
102
RTVSPropertyOp30
 70
     1
102
RTVSPropertyOp31
 70
     1
102
RTVSPropertyOp32
 70
     1
  0
XRECORD
  5
4AB
102
{ACAD_REACTORS
330
4AA
102
}
330
4AA
100
AcDbXrecord
280
     1
102
RTVSPropertyOp0
 70
     1
102
RTVSPropertyOp1
 70
     1
102
RTVSPropertyOp2
 70
     1
102
RTVSPropertyOp3
 70
     1
102
RTVSPropertyOp4
 70
     1
102
RTVSPropertyOp5
 70
     1
102
RTVSPropertyOp6
 70
     1
102
RTVSPropertyOp7
 70
     1
102
RTVSPropertyOp8
 70
     1
102
RTVSPropertyOp9
 70
     1
102
RTVSPropertyOp10
 70
     1
102
RTVSPropertyOp11
 70
     1
102
RTVSPropertyOp12
 70
     1
102
RTVSPropertyOp13
 70
     1
102
RTVSPropertyOp14
 70
     1
102
RTVSPropertyOp15
 70
     1
102
RTVSPropertyOp16
 70
     1
102
RTVSPropertyOp17
 70
     1
102
RTVSPropertyOp18
 70
     1
102
RTVSPropertyOp19
 70
     1
102
RTVSPropertyOp20
 70
     1
102
RTVSPropertyOp21
 70
     1
102
RTVSPropertyOp22
 70
     1
102
RTVSPropertyOp23
 70
     1
102
RTVSPropertyOp24
 70
     1
102
RTVSPropertyOp25
 70
     1
102
RTVSPropertyOp26
 70
     1
102
RTVSPropertyOp27
 70
     1
102
RTVSPropertyOp28
 70
     1
102
RTVSPropertyOp29
 70
     1
102
RTVSPropertyOp30
 70
     1
102
RTVSPropertyOp31
 70
     1
102
RTVSPropertyOp32
 70
     1
  0
XRECORD
  5
4B3
102
{ACAD_REACTORS
330
4B2
102
}
330
4B2
100
AcDbXrecord
280
     1
102
RTVSPropertyOp0
 70
     1
102
RTVSPropertyOp1
 70
     1
102
RTVSPropertyOp2
 70
     1
102
RTVSPropertyOp3
 70
     1
102
RTVSPropertyOp4
 70
     1
102
RTVSPropertyOp5
 70
     1
102
RTVSPropertyOp6
 70
     1
102
RTVSPropertyOp7
 70
     1
102
RTVSPropertyOp8
 70
     1
102
RTVSPropertyOp9
 70
     1
102
RTVSPropertyOp10
 70
     1
102
RTVSPropertyOp11
 70
     1
102
RTVSPropertyOp12
 70
     1
102
RTVSPropertyOp13
 70
     1
102
RTVSPropertyOp14
 70
     1
102
RTVSPropertyOp15
 70
     1
102
RTVSPropertyOp16
 70
     1
102
RTVSPropertyOp17
 70
     1
102
RTVSPropertyOp18
 70
     1
102
RTVSPropertyOp19
 70
     1
102
RTVSPropertyOp20
 70
     1
102
RTVSPropertyOp21
 70
     1
102
RTVSPropertyOp22
 70
     1
102
RTVSPropertyOp23
 70
     1
102
RTVSPropertyOp24
 70
     1
102
RTVSPropertyOp25
 70
     1
102
RTVSPropertyOp26
 70
     1
102
RTVSPropertyOp27
 70
     1
102
RTVSPropertyOp28
 70
     1
102
RTVSPropertyOp29
 70
     1
102
RTVSPropertyOp30
 70
     1
102
RTVSPropertyOp31
 70
     1
102
RTVSPropertyOp32
 70
     1
  0
XRECORD
  5
497
102
{ACAD_REACTORS
330
496
102
}
330
496
100
AcDbXrecord
280
     1
102
RTVSPropertyOp0
 70
     1
102
RTVSPropertyOp1
 70
     1
102
RTVSPropertyOp2
 70
     1
102
RTVSPropertyOp3
 70
     1
102
RTVSPropertyOp4
 70
     1
102
RTVSPropertyOp5
 70
     1
102
RTVSPropertyOp6
 70
     1
102
RTVSPropertyOp7
 70
     1
102
RTVSPropertyOp8
 70
     1
102
RTVSPropertyOp9
 70
     1
102
RTVSPropertyOp10
 70
     1
102
RTVSPropertyOp11
 70
     1
102
RTVSPropertyOp12
 70
     1
102
RTVSPropertyOp13
 70
     1
102
RTVSPropertyOp14
 70
     1
102
RTVSPropertyOp15
 70
     1
102
RTVSPropertyOp16
 70
     1
102
RTVSPropertyOp17
 70
     1
102
RTVSPropertyOp18
 70
     1
102
RTVSPropertyOp19
 70
     1
102
RTVSPropertyOp20
 70
     1
102
RTVSPropertyOp21
 70
     1
102
RTVSPropertyOp22
 70
     1
102
RTVSPropertyOp23
 70
     1
102
RTVSPropertyOp24
 70
     1
102
RTVSPropertyOp25
 70
     1
102
RTVSPropertyOp26
 70
     1
102
RTVSPropertyOp27
 70
     1
102
RTVSPropertyOp28
 70
     1
102
RTVSPropertyOp29
 70
     1
102
RTVSPropertyOp30
 70
     1
102
RTVSPropertyOp31
 70
     1
102
RTVSPropertyOp32
 70
     1
  0
XRECORD
  5
499
102
{ACAD_REACTORS
330
498
102
}
330
498
100
AcDbXrecord
280
     1
102
RTVSPropertyOp0
 70
     1
102
RTVSPropertyOp1
 70
     1
102
RTVSPropertyOp2
 70
     1
102
RTVSPropertyOp3
 70
     1
102
RTVSPropertyOp4
 70
     1
102
RTVSPropertyOp5
 70
     1
102
RTVSPropertyOp6
 70
     1
102
RTVSPropertyOp7
 70
     1
102
RTVSPropertyOp8
 70
     1
102
RTVSPropertyOp9
 70
     1
102
RTVSPropertyOp10
 70
     1
102
RTVSPropertyOp11
 70
     1
102
RTVSPropertyOp12
 70
     1
102
RTVSPropertyOp13
 70
     1
102
RTVSPropertyOp14
 70
     1
102
RTVSPropertyOp15
 70
     1
102
RTVSPropertyOp16
 70
     1
102
RTVSPropertyOp17
 70
     1
102
RTVSPropertyOp18
 70
     1
102
RTVSPropertyOp19
 70
     1
102
RTVSPropertyOp20
 70
     1
102
RTVSPropertyOp21
 70
     1
102
RTVSPropertyOp22
 70
     1
102
RTVSPropertyOp23
 70
     1
102
RTVSPropertyOp24
 70
     1
102
RTVSPropertyOp25
 70
     1
102
RTVSPropertyOp26
 70
     1
102
RTVSPropertyOp27
 70
     1
102
RTVSPropertyOp28
 70
     1
102
RTVSPropertyOp29
 70
     1
102
RTVSPropertyOp30
 70
     1
102
RTVSPropertyOp31
 70
     1
102
RTVSPropertyOp32
 70
     1
  0
XRECORD
  5
49B
102
{ACAD_REACTORS
330
49A
102
}
330
49A
100
AcDbXrecord
280
     1
102
RTVSPropertyOp0
 70
     1
102
RTVSPropertyOp1
 70
     1
102
RTVSPropertyOp2
 70
     1
102
RTVSPropertyOp3
 70
     1
102
RTVSPropertyOp4
 70
     1
102
RTVSPropertyOp5
 70
     1
102
RTVSPropertyOp6
 70
     1
102
RTVSPropertyOp7
 70
     1
102
RTVSPropertyOp8
 70
     1
102
RTVSPropertyOp9
 70
     1
102
RTVSPropertyOp10
 70
     1
102
RTVSPropertyOp11
 70
     1
102
RTVSPropertyOp12
 70
     1
102
RTVSPropertyOp13
 70
     1
102
RTVSPropertyOp14
 70
     1
102
RTVSPropertyOp15
 70
     1
102
RTVSPropertyOp16
 70
     1
102
RTVSPropertyOp17
 70
     1
102
RTVSPropertyOp18
 70
     1
102
RTVSPropertyOp19
 70
     1
102
RTVSPropertyOp20
 70
     1
102
RTVSPropertyOp21
 70
     1
102
RTVSPropertyOp22
 70
     1
102
RTVSPropertyOp23
 70
     1
102
RTVSPropertyOp24
 70
     1
102
RTVSPropertyOp25
 70
     1
102
RTVSPropertyOp26
 70
     1
102
RTVSPropertyOp27
 70
     1
102
RTVSPropertyOp28
 70
     1
102
RTVSPropertyOp29
 70
     1
102
RTVSPropertyOp30
 70
     1
102
RTVSPropertyOp31
 70
     1
102
RTVSPropertyOp32
 70
     1
  0
XRECORD
  5
49D
102
{ACAD_REACTORS
330
49C
102
}
330
49C
100
AcDbXrecord
280
     1
102
RTVSPropertyOp0
 70
     1
102
RTVSPropertyOp1
 70
     1
102
RTVSPropertyOp2
 70
     1
102
RTVSPropertyOp3
 70
     1
102
RTVSPropertyOp4
 70
     1
102
RTVSPropertyOp5
 70
     1
102
RTVSPropertyOp6
 70
     1
102
RTVSPropertyOp7
 70
     1
102
RTVSPropertyOp8
 70
     1
102
RTVSPropertyOp9
 70
     1
102
RTVSPropertyOp10
 70
     1
102
RTVSPropertyOp11
 70
     1
102
RTVSPropertyOp12
 70
     1
102
RTVSPropertyOp13
 70
     1
102
RTVSPropertyOp14
 70
     1
102
RTVSPropertyOp15
 70
     1
102
RTVSPropertyOp16
 70
     1
102
RTVSPropertyOp17
 70
     1
102
RTVSPropertyOp18
 70
     1
102
RTVSPropertyOp19
 70
     1
102
RTVSPropertyOp20
 70
     1
102
RTVSPropertyOp21
 70
     1
102
RTVSPropertyOp22
 70
     1
102
RTVSPropertyOp23
 70
     1
102
RTVSPropertyOp24
 70
     1
102
RTVSPropertyOp25
 70
     1
102
RTVSPropertyOp26
 70
     1
102
RTVSPropertyOp27
 70
     1
102
RTVSPropertyOp28
 70
     1
102
RTVSPropertyOp29
 70
     1
102
RTVSPropertyOp30
 70
     1
102
RTVSPropertyOp31
 70
     1
102
RTVSPropertyOp32
 70
     1
  0
XRECORD
  5
4B1
102
{ACAD_REACTORS
330
4B0
102
}
330
4B0
100
AcDbXrecord
280
     1
102
RTVSPropertyOp0
 70
     1
102
RTVSPropertyOp1
 70
     1
102
RTVSPropertyOp2
 70
     1
102
RTVSPropertyOp3
 70
     1
102
RTVSPropertyOp4
 70
     1
102
RTVSPropertyOp5
 70
     1
102
RTVSPropertyOp6
 70
     1
102
RTVSPropertyOp7
 70
     1
102
RTVSPropertyOp8
 70
     1
102
RTVSPropertyOp9
 70
     1
102
RTVSPropertyOp10
 70
     1
102
RTVSPropertyOp11
 70
     1
102
RTVSPropertyOp12
 70
     1
102
RTVSPropertyOp13
 70
     1
102
RTVSPropertyOp14
 70
     1
102
RTVSPropertyOp15
 70
     1
102
RTVSPropertyOp16
 70
     1
102
RTVSPropertyOp17
 70
     1
102
RTVSPropertyOp18
 70
     1
102
RTVSPropertyOp19
 70
     1
102
RTVSPropertyOp20
 70
     1
102
RTVSPropertyOp21
 70
     1
102
RTVSPropertyOp22
 70
     1
102
RTVSPropertyOp23
 70
     1
102
RTVSPropertyOp24
 70
     1
102
RTVSPropertyOp25
 70
     1
102
RTVSPropertyOp26
 70
     1
102
RTVSPropertyOp27
 70
     1
102
RTVSPropertyOp28
 70
     1
102
RTVSPropertyOp29
 70
     1
102
RTVSPropertyOp30
 70
     1
102
RTVSPropertyOp31
 70
     1
102
RTVSPropertyOp32
 70
     1
  0
XRECORD
  5
4A7
102
{ACAD_REACTORS
330
4A6
102
}
330
4A6
100
AcDbXrecord
280
     1
102
RTVSPropertyOp0
 70
     1
102
RTVSPropertyOp1
 70
     1
102
RTVSPropertyOp2
 70
     1
102
RTVSPropertyOp3
 70
     1
102
RTVSPropertyOp4
 70
     1
102
RTVSPropertyOp5
 70
     1
102
RTVSPropertyOp6
 70
     1
102
RTVSPropertyOp7
 70
     1
102
RTVSPropertyOp8
 70
     1
102
RTVSPropertyOp9
 70
     1
102
RTVSPropertyOp10
 70
     1
102
RTVSPropertyOp11
 70
     1
102
RTVSPropertyOp12
 70
     1
102
RTVSPropertyOp13
 70
     1
102
RTVSPropertyOp14
 70
     1
102
RTVSPropertyOp15
 70
     1
102
RTVSPropertyOp16
 70
     1
102
RTVSPropertyOp17
 70
     1
102
RTVSPropertyOp18
 70
     1
102
RTVSPropertyOp19
 70
     1
102
RTVSPropertyOp20
 70
     1
102
RTVSPropertyOp21
 70
     1
102
RTVSPropertyOp22
 70
     1
102
RTVSPropertyOp23
 70
     1
102
RTVSPropertyOp24
 70
     1
102
RTVSPropertyOp25
 70
     1
102
RTVSPropertyOp26
 70
     1
102
RTVSPropertyOp27
 70
     1
102
RTVSPropertyOp28
 70
     1
102
RTVSPropertyOp29
 70
     1
102
RTVSPropertyOp30
 70
     1
102
RTVSPropertyOp31
 70
     1
102
RTVSPropertyOp32
 70
     1
  0
XRECORD
  5
4AF
102
{ACAD_REACTORS
330
4AE
102
}
330
4AE
100
AcDbXrecord
280
     1
102
RTVSPropertyOp0
 70
     1
102
RTVSPropertyOp1
 70
     1
102
RTVSPropertyOp2
 70
     1
102
RTVSPropertyOp3
 70
     1
102
RTVSPropertyOp4
 70
     1
102
RTVSPropertyOp5
 70
     1
102
RTVSPropertyOp6
 70
     1
102
RTVSPropertyOp7
 70
     1
102
RTVSPropertyOp8
 70
     1
102
RTVSPropertyOp9
 70
     1
102
RTVSPropertyOp10
 70
     1
102
RTVSPropertyOp11
 70
     1
102
RTVSPropertyOp12
 70
     1
102
RTVSPropertyOp13
 70
     1
102
RTVSPropertyOp14
 70
     1
102
RTVSPropertyOp15
 70
     1
102
RTVSPropertyOp16
 70
     1
102
RTVSPropertyOp17
 70
     1
102
RTVSPropertyOp18
 70
     1
102
RTVSPropertyOp19
 70
     1
102
RTVSPropertyOp20
 70
     1
102
RTVSPropertyOp21
 70
     1
102
RTVSPropertyOp22
 70
     1
102
RTVSPropertyOp23
 70
     1
102
RTVSPropertyOp24
 70
     1
102
RTVSPropertyOp25
 70
     1
102
RTVSPropertyOp26
 70
     1
102
RTVSPropertyOp27
 70
     1
102
RTVSPropertyOp28
 70
     1
102
RTVSPropertyOp29
 70
     1
102
RTVSPropertyOp30
 70
     1
102
RTVSPropertyOp31
 70
     1
102
RTVSPropertyOp32
 70
     1
  0
ENDSEC
  0
EOF
