  0
SECTION
  2
HEADER
  9
$ACADVER
  1
AC1015
  9
$ACADMAINTVER
 70
     6
  9
$DWGCODEPAGE
  3
ANSI_932
  9
$INSBASE
 10
0.0
 20
0.0
 30
0.0
  9
$EXTMIN
 10
0.0
 20
0.0
 30
0.0
  9
$EXTMAX
 10
420.0
 20
297.0
 30
0.0
  9
$LIMMIN
 10
0.0
 20
0.0
  9
$LIMMAX
 10
420.0
 20
297.0
  9
$ORTHOMODE
 70
     0
  9
$REGENMODE
 70
     1
  9
$FILLMODE
 70
     1
  9
$QTEXTMODE
 70
     0
  9
$MIRRTEXT
 70
     1
  9
$LTSCALE
 40
1.0
  9
$ATTMODE
 70
     1
  9
$TEXTSIZE
 40
2.5
  9
$TRACEWID
 40
1.0
  9
$TEXTSTYLE
  7
FX_VECTOR
  9
$CLAYER
  8
0
  9
$CELTYPE
  6
ByLayer
  9
$CECOLOR
 62
   256
  9
$CELTSCALE
 40
1.0
  9
$DISPSILH
 70
     0
  9
$DIMSCALE
 40
1.0
  9
$DIMASZ
 40
3.0
  9
$DIMEXO
 40
1.0
  9
$DIMDLI
 40
8.0
  9
$DIMRND
 40
0.0
  9
$DIMDLE
 40
6.0
  9
$DIMEXE
 40
1.0
  9
$DIMTP
 40
0.0
  9
$DIMTM
 40
0.0
  9
$DIMTXT
 40
3.5
  9
$DIMCEN
 40
2.5
  9
$DIMTSZ
 40
0.0
  9
$DIMTOL
 70
     0
  9
$DIMLIM
 70
     0
  9
$DIMTIH
 70
     0
  9
$DIMTOH
 70
     0
  9
$DIMSE1
 70
     0
  9
$DIMSE2
 70
     0
  9
$DIMTAD
 70
     1
  9
$DIMZIN
 70
     8
  9
$DIMBLK
  1

  9
$DIMASO
 70
     1
  9
$DIMSHO
 70
     1
  9
$DIMPOST
  1

  9
$DIMAPOST
  1

  9
$DIMALT
 70
     0
  9
$DIMALTD
 70
     3
  9
$DIMALTF
 40
0.03937
  9
$DIMLFAC
 40
1.0
  9
$DIMTOFL
 70
     1
  9
$DIMTVP
 40
0.0
  9
$DIMTIX
 70
     0
  9
$DIMSOXD
 70
     0
  9
$DIMSAH
 70
     1
  9
$DIMBLK1
  1
FXTIP_ARROW_S
  9
$DIMBLK2
  1
FXTIP_ARROW_E
  9
$DIMSTYLE
  2
FXDIMINFO
  9
$DIMCLRD
 70
     7
  9
$DIMCLRE
 70
     7
  9
$DIMCLRT
 70
     7
  9
$DIMTFAC
 40
1.0
  9
$DIMGAP
 40
0.5
  9
$DIMJUST
 70
     0
  9
$DIMSD1
 70
     0
  9
$DIMSD2
 70
     0
  9
$DIMTOLJ
 70
     1
  9
$DIMTZIN
 70
     8
  9
$DIMALTZ
 70
     0
  9
$DIMALTTZ
 70
     0
  9
$DIMUPT
 70
     0
  9
$DIMDEC
 70
     4
  9
$DIMTDEC
 70
     2
  9
$DIMALTU
 70
     2
  9
$DIMALTTD
 70
     3
  9
$DIMTXSTY
  7
FX_VECTOR
  9
$DIMAUNIT
 70
     0
  9
$DIMADEC
 70
     4
  9
$DIMALTRND
 40
0.0
  9
$DIMAZIN
 70
     2
  9
$DIMDSEP
 70
    46
  9
$DIMATFIT
 70
     3
  9
$DIMFRAC
 70
     0
  9
$DIMLDRBLK
  1
FXTIP_ARROW_S
  9
$DIMLUNIT
 70
     2
  9
$DIMLWD
 70
    -2
  9
$DIMLWE
 70
    -2
  9
$DIMTMOVE
 70
     0
  9
$LUNITS
 70
     2
  9
$LUPREC
 70
     4
  9
$SKETCHINC
 40
1.0
  9
$FILLETRAD
 40
10.0
  9
$AUNITS
 70
     0
  9
$AUPREC
 70
     0
  9
$MENU
  1
.
  9
$ELEVATION
 40
0.0
  9
$PELEVATION
 40
0.0
  9
$THICKNESS
 40
0.0
  9
$LIMCHECK
 70
     0
  9
$CHAMFERA
 40
10.0
  9
$CHAMFERB
 40
10.0
  9
$CHAMFERC
 40
20.0
  9
$CHAMFERD
 40
0.0
  9
$SKPOLY
 70
     0
  9
$TDCREATE
 40
2456323.599312245
  9
$TDUCREATE
 40
2456323.224312245
  9
$TDUPDATE
 40
2456323.599312257
  9
$TDUUPDATE
 40
2456323.224312257
  9
$TDINDWG
 40
0.0000000116
  9
$TDUSRTIMER
 40
0.0000000116
  9
$USRTIMER
 70
     1
  9
$ANGBASE
 50
0.0
  9
$ANGDIR
 70
     0
  9
$PDMODE
 70
     0
  9
$PDSIZE
 40
0.0
  9
$PLINEWID
 40
0.0
  9
$SPLFRAME
 70
     0
  9
$SPLINETYPE
 70
     6
  9
$SPLINESEGS
 70
     8
  9
$HANDSEED
  5
36C
  9
$SURFTAB1
 70
     6
  9
$SURFTAB2
 70
     6
  9
$SURFTYPE
 70
     6
  9
$SURFU
 70
     6
  9
$SURFV
 70
     6
  9
$UCSBASE
  2

  9
$UCSNAME
  2

  9
$UCSORG
 10
0.0
 20
0.0
 30
0.0
  9
$UCSXDIR
 10
1.0
 20
0.0
 30
0.0
  9
$UCSYDIR
 10
0.0
 20
1.0
 30
0.0
  9
$UCSORTHOREF
  2

  9
$UCSORTHOVIEW
 70
     0
  9
$UCSORGTOP
 10
0.0
 20
0.0
 30
0.0
  9
$UCSORGBOTTOM
 10
0.0
 20
0.0
 30
0.0
  9
$UCSORGLEFT
 10
0.0
 20
0.0
 30
0.0
  9
$UCSORGRIGHT
 10
0.0
 20
0.0
 30
0.0
  9
$UCSORGFRONT
 10
0.0
 20
0.0
 30
0.0
  9
$UCSORGBACK
 10
0.0
 20
0.0
 30
0.0
  9
$PUCSBASE
  2

  9
$PUCSNAME
  2

  9
$PUCSORG
 10
0.0
 20
0.0
 30
0.0
  9
$PUCSXDIR
 10
1.0
 20
0.0
 30
0.0
  9
$PUCSYDIR
 10
0.0
 20
1.0
 30
0.0
  9
$PUCSORTHOREF
  2

  9
$PUCSORTHOVIEW
 70
     0
  9
$PUCSORGTOP
 10
0.0
 20
0.0
 30
0.0
  9
$PUCSORGBOTTOM
 10
0.0
 20
0.0
 30
0.0
  9
$PUCSORGLEFT
 10
0.0
 20
0.0
 30
0.0
  9
$PUCSORGRIGHT
 10
0.0
 20
0.0
 30
0.0
  9
$PUCSORGFRONT
 10
0.0
 20
0.0
 30
0.0
  9
$PUCSORGBACK
 10
0.0
 20
0.0
 30
0.0
  9
$USERI1
 70
     0
  9
$USERI2
 70
     0
  9
$USERI3
 70
     0
  9
$USERI4
 70
     0
  9
$USERI5
 70
     0
  9
$USERR1
 40
0.0
  9
$USERR2
 40
0.0
  9
$USERR3
 40
0.0
  9
$USERR4
 40
0.0
  9
$USERR5
 40
0.0
  9
$WORLDVIEW
 70
     1
  9
$SHADEDGE
 70
     3
  9
$SHADEDIF
 70
    70
  9
$TILEMODE
 70
     1
  9
$MAXACTVP
 70
    64
  9
$PINSBASE
 10
0.0
 20
0.0
 30
0.0
  9
$PLIMCHECK
 70
     0
  9
$PEXTMIN
 10
1.000000000000000E+20
 20
1.000000000000000E+20
 30
1.000000000000000E+20
  9
$PEXTMAX
 10
-1.000000000000000E+20
 20
-1.000000000000000E+20
 30
-1.000000000000000E+20
  9
$PLIMMIN
 10
0.0
 20
0.0
  9
$PLIMMAX
 10
420.0
 20
297.0
  9
$UNITMODE
 70
     0
  9
$VISRETAIN
 70
     1
  9
$PLINEGEN
 70
     0
  9
$PSLTSCALE
 70
     1
  9
$TREEDEPTH
 70
  3020
  9
$CMLSTYLE
  2
Standard
  9
$CMLJUST
 70
     0
  9
$CMLSCALE
 40
20.0
  9
$PROXYGRAPHICS
 70
     1
  9
$MEASUREMENT
 70
     1
  9
$CELWEIGHT
370
    -1
  9
$ENDCAPS
280
     0
  9
$JOINSTYLE
280
     0
  9
$LWDISPLAY
290
     0
  9
$INSUNITS
 70
     4
  9
$HYPERLINKBASE
  1

  9
$STYLESHEET
  1

  9
$XEDIT
290
     1
  9
$CEPSNTYPE
380
     0
  9
$PSTYLEMODE
290
     1
  9
$FINGERPRINTGUID
  2
{9FDEF642-E266-47E9-987F-1521F19B4040}
  9
$VERSIONGUID
  2
{FAEB1C32-E019-11D5-929B-00C0DF256EC4}
  9
$EXTNAMES
290
     1
  9
$PSVPSCALE
 40
0.0
  9
$OLESTARTUP
290
     0
  0
ENDSEC
  0
SECTION
  2
CLASSES
  0
CLASS
  1
ACDBDICTIONARYWDFLT
  2
AcDbDictionaryWithDefault
  3
ObjectDBX Classes
 90
        0
280
     0
281
     0
  0
CLASS
  1
VISUALSTYLE
  2
AcDbVisualStyle
  3
ObjectDBX Classes
 90
     4095
280
     0
281
     0
  0
CLASS
  1
MATERIAL
  2
AcDbMaterial
  3
ObjectDBX Classes
 90
     1153
280
     0
281
     0
  0
CLASS
  1
DICTIONARYVAR
  2
AcDbDictionaryVar
  3
ObjectDBX Classes
 90
        0
280
     0
281
     0
  0
CLASS
  1
ACDBPLACEHOLDER
  2
AcDbPlaceHolder
  3
ObjectDBX Classes
 90
        0
280
     0
281
     0
  0
CLASS
  1
LAYOUT
  2
AcDbLayout
  3
ObjectDBX Classes
 90
        0
280
     0
281
     0
  0
ENDSEC
  0
SECTION
  2
TABLES
  0
TABLE
  2
VPORT
  5
8
330
0
100
AcDbSymbolTable
 70
     1
  0
VPORT
  5
29
330
8
100
AcDbSymbolTableRecord
100
AcDbViewportTableRecord
  2
*Active
 70
     0
 10
0.0
 20
0.0
 11
1.0
 21
1.0
 12
210.0
 22
148.5
 13
0.0
 23
0.0
 14
10.0
 24
10.0
 15
10.0
 25
10.0
 16
0.0
 26
0.0
 36
1.0
 17
0.0
 27
0.0
 37
0.0
 40
297.0
 41
1.414141414141414
 42
50.0
 43
0.0
 44
0.0
 50
0.0
 51
0.0
 71
     0
 72
   100
 73
     1
 74
     3
 75
     0
 76
     0
 77
     0
 78
     0
281
     0
 65
     1
110
0.0
120
0.0
130
0.0
111
1.0
121
0.0
131
0.0
112
0.0
122
1.0
132
0.0
 79
     0
146
0.0
  0
ENDTAB
  0
TABLE
  2
LTYPE
  5
5
330
0
100
AcDbSymbolTable
 70
     3
  0
LTYPE
  5
14
330
5
100
AcDbSymbolTableRecord
100
AcDbLinetypeTableRecord
  2
ByBlock
 70
     0
  3

 72
    65
 73
     0
 40
0.0
  0
LTYPE
  5
15
330
5
100
AcDbSymbolTableRecord
100
AcDbLinetypeTableRecord
  2
ByLayer
 70
     0
  3

 72
    65
 73
     0
 40
0.0
  0
LTYPE
  5
16
330
5
100
AcDbSymbolTableRecord
100
AcDbLinetypeTableRecord
  2
Continuous
 70
     0
  3
Solid line
 72
    65
 73
     0
 40
0.0
  0
LTYPE
  5
A8
330
5
100
AcDbSymbolTableRecord
100
AcDbLinetypeTableRecord
  2
実線
 70
     0
  3

 72
    65
 73
     0
 40
0.0
  0
LTYPE
  5
A9
330
5
100
AcDbSymbolTableRecord
100
AcDbLinetypeTableRecord
  2
一点鎖線
 70
     0
  3

 72
    65
 73
     4
 40
13.0
 49
10.0
 74
     0
 49
-1.0
 74
     0
 49
1.0
 74
     0
 49
-1.0
 74
     0
  0
ENDTAB
  0
TABLE
  2
LAYER
  5
2
330
0
100
AcDbSymbolTable
 70
     4
  0
LAYER
  5
10
330
2
100
AcDbSymbolTableRecord
100
AcDbLayerTableRecord
  2
0
 70
     0
 62
     7
  6
Continuous
370
    -3
390
F
  0
LAYER
  5
A7
330
2
100
AcDbSymbolTableRecord
100
AcDbLayerTableRecord
  2
GR1_01
 70
     0
 62
     1
  6
実線
370
    20
390
F
  0
LAYER
  5
292
330
2
100
AcDbSymbolTableRecord
100
AcDbLayerTableRecord
  2
基準ﾚｲﾔｸﾞﾙｰﾌﾟ_01
 70
     0
 62
     3
  6
実線
370
    20
390
F
  0
LAYER
  5
2FA
330
2
100
AcDbSymbolTableRecord
100
AcDbLayerTableRecord
  2
作図レイヤ
 70
     0
 62
     5
  6
実線
370
    40
390
F
  0
ENDTAB
  0
TABLE
  2
STYLE
  5
3
330
0
100
AcDbSymbolTable
 70
     3
  0
STYLE
  5
11
330
3
100
AcDbSymbolTableRecord
100
AcDbTextStyleTableRecord
  2
Standard
 70
     0
 40
0.0
 41
1.0
 50
0.0
 71
     0
 42
2.5
  3
txt
  4

  0
STYLE
  5
3F
330
3
100
AcDbSymbolTableRecord
100
AcDbTextStyleTableRecord
  2
FX_VECTOR
 70
     0
 40
0.0
 41
1.0
 50
0.0
 71
     0
 42
0.2
  3
MONOTXT.SHX
  4
BigFont.shx
  0
STYLE
  5
29E
330
3
100
AcDbSymbolTableRecord
100
AcDbTextStyleTableRecord
  2
STYLE003
 70
     0
 40
0.0
 41
1.0
 50
0.0
 71
     0
 42
0.2
  3

  4

1001
ACAD
1000
ＭＳ ゴシック
1071
    32817
  0
ENDTAB
  0
TABLE
  2
VIEW
  5
6
330
0
100
AcDbSymbolTable
 70
     0
  0
ENDTAB
  0
TABLE
  2
UCS
  5
7
330
0
100
AcDbSymbolTable
 70
     0
  0
ENDTAB
  0
TABLE
  2
APPID
  5
9
330
0
100
AcDbSymbolTable
 70
     1
  0
APPID
  5
12
330
9
100
AcDbSymbolTableRecord
100
AcDbRegAppTableRecord
  2
ACAD
 70
     0
  0
ENDTAB
  0
TABLE
  2
DIMSTYLE
  5
A
330
0
100
AcDbSymbolTable
 70
     2
100
AcDbDimStyleTable
  0
DIMSTYLE
105
27
330
A
100
AcDbSymbolTableRecord
100
AcDbDimStyleTableRecord
  2
ISO-25
 70
     0
 41
2.5
 42
0.625
 43
3.75
 44
1.25
 73
     0
 74
     0
 77
     1
 78
     8
140
2.5
141
2.5
143
0.03937007874016
147
0.625
171
     3
172
     1
178
     0
271
     2
272
     2
274
     3
278
    44
283
     0
284
     8
340
11
  0
DIMSTYLE
105
A6
330
A
100
AcDbSymbolTableRecord
100
AcDbDimStyleTableRecord
  2
FXDIMINFO
 70
     0
 41
3.0
 42
1.0
 43
8.0
 44
1.0
 46
6.0
 73
     0
 74
     0
 77
     1
 78
     8
 79
     2
140
3.5
141
2.5
143
0.03937
147
0.5
171
     3
172
     1
173
     1
176
     7
177
     7
178
     7
179
     4
272
     2
274
     3
284
     8
340
3F
341
40
343
40
344
46
  0
ENDTAB
  0
TABLE
  2
BLOCK_RECORD
  5
1
330
0
100
AcDbSymbolTable
 70
    19
  0
BLOCK_RECORD
  5
1F
330
1
100
AcDbSymbolTableRecord
100
AcDbBlockTableRecord
  2
*Model_Space
340
22
  0
BLOCK_RECORD
  5
1B
330
1
100
AcDbSymbolTableRecord
100
AcDbBlockTableRecord
  2
*Paper_Space
340
1E
  0
BLOCK_RECORD
  5
23
330
1
100
AcDbSymbolTableRecord
100
AcDbBlockTableRecord
  2
*Paper_Space0
340
26
  0
BLOCK_RECORD
  5
40
330
1
100
AcDbSymbolTableRecord
100
AcDbBlockTableRecord
  2
FXTIP_ARROW_S
340
0
  0
BLOCK_RECORD
  5
46
330
1
100
AcDbSymbolTableRecord
100
AcDbBlockTableRecord
  2
FXTIP_ARROW_E
340
0
  0
BLOCK_RECORD
  5
4C
330
1
100
AcDbSymbolTableRecord
100
AcDbBlockTableRecord
  2
FXTIP_BLACKDOT_S
340
0
  0
BLOCK_RECORD
  5
52
330
1
100
AcDbSymbolTableRecord
100
AcDbBlockTableRecord
  2
FXTIP_BLACKDOT_E
340
0
  0
BLOCK_RECORD
  5
58
330
1
100
AcDbSymbolTableRecord
100
AcDbBlockTableRecord
  2
FXTIP_TRIANGLE_S
340
0
  0
BLOCK_RECORD
  5
5F
330
1
100
AcDbSymbolTableRecord
100
AcDbBlockTableRecord
  2
FXTIP_TRIANGLE_E
340
0
  0
BLOCK_RECORD
  5
66
330
1
100
AcDbSymbolTableRecord
100
AcDbBlockTableRecord
  2
FXTIP_ARCHITECT_S
340
0
  0
BLOCK_RECORD
  5
6C
330
1
100
AcDbSymbolTableRecord
100
AcDbBlockTableRecord
  2
FXTIP_ARCHITECT_E
340
0
  0
BLOCK_RECORD
  5
72
330
1
100
AcDbSymbolTableRecord
100
AcDbBlockTableRecord
  2
FXTIP_CIVIL_S
340
0
  0
BLOCK_RECORD
  5
78
330
1
100
AcDbSymbolTableRecord
100
AcDbBlockTableRecord
  2
FXTIP_CIVIL_E
340
0
  0
BLOCK_RECORD
  5
7E
330
1
100
AcDbSymbolTableRecord
100
AcDbBlockTableRecord
  2
FXTIP_WHITEDOT_S
340
0
  0
BLOCK_RECORD
  5
83
330
1
100
AcDbSymbolTableRecord
100
AcDbBlockTableRecord
  2
FXTIP_WHITEDOT_E
340
0
  0
BLOCK_RECORD
  5
88
330
1
100
AcDbSymbolTableRecord
100
AcDbBlockTableRecord
  2
FXTIP_UPARROW_S
340
0
  0
BLOCK_RECORD
  5
8D
330
1
100
AcDbSymbolTableRecord
100
AcDbBlockTableRecord
  2
FXTIP_UPARROW_E
340
0
  0
BLOCK_RECORD
  5
92
330
1
100
AcDbSymbolTableRecord
100
AcDbBlockTableRecord
  2
FXTIP_DOWNARROW_S
340
0
  0
BLOCK_RECORD
  5
97
330
1
100
AcDbSymbolTableRecord
100
AcDbBlockTableRecord
  2
FXTIP_DOWNARROW_E
340
0
  0
BLOCK_RECORD
  5
9C
330
1
100
AcDbSymbolTableRecord
100
AcDbBlockTableRecord
  2
FXTIP_BLACKTRIANGLE_S
340
0
  0
BLOCK_RECORD
  5
A1
330
1
100
AcDbSymbolTableRecord
100
AcDbBlockTableRecord
  2
FXTIP_BLACKTRIANGLE_E
340
0
  0
ENDTAB
  0
ENDSEC
  0
SECTION
  2
BLOCKS
  0
BLOCK
  5
20
330
1F
100
AcDbEntity
  8
0
100
AcDbBlockBegin
  2
*Model_Space
 70
     0
 10
0.0
 20
0.0
 30
0.0
  3
*Model_Space
  1

  0
ENDBLK
  5
21
330
1F
100
AcDbEntity
  8
0
100
AcDbBlockEnd
  0
BLOCK
  5
1C
330
1B
100
AcDbEntity
 67
     1
  8
0
100
AcDbBlockBegin
  2
*Paper_Space
 70
     0
 10
0.0
 20
0.0
 30
0.0
  3
*Paper_Space
  1

  0
ENDBLK
  5
1D
330
1B
100
AcDbEntity
 67
     1
  8
0
100
AcDbBlockEnd
  0
BLOCK
  5
24
330
23
100
AcDbEntity
  8
0
100
AcDbBlockBegin
  2
*Paper_Space0
 70
     0
 10
0.0
 20
0.0
 30
0.0
  3
*Paper_Space0
  1

  0
ENDBLK
  5
25
330
23
100
AcDbEntity
  8
0
100
AcDbBlockEnd
  0
BLOCK
  5
41
330
40
100
AcDbEntity
  8
0
100
AcDbBlockBegin
  2
FXTIP_ARROW_S
 70
     0
 10
0.0
 20
0.0
 30
0.0
  3
FXTIP_ARROW_S
  1

  0
LINE
  5
43
330
40
100
AcDbEntity
  8
0
  6
Continuous
 62
     0
370
    -2
100
AcDbLine
 10
0.0
 20
0.0
 30
0.0
 11
-1.0
 21
0.0000000000000001
 31
0.0
  0
LINE
  5
44
330
40
100
AcDbEntity
  8
0
  6
Continuous
 62
     0
370
    -2
100
AcDbLine
 10
0.0
 20
0.0
 30
0.0
 11
-0.9914448613738104
 21
-0.1305261922200515
 31
0.0
  0
LINE
  5
45
330
40
100
AcDbEntity
  8
0
  6
Continuous
 62
     0
370
    -2
100
AcDbLine
 10
0.0
 20
0.0
 30
0.0
 11
-0.9914448613738104
 21
0.1305261922200517
 31
0.0
  0
ENDBLK
  5
42
330
40
100
AcDbEntity
  8
0
100
AcDbBlockEnd
  0
BLOCK
  5
47
330
46
100
AcDbEntity
  8
0
100
AcDbBlockBegin
  2
FXTIP_ARROW_E
 70
     0
 10
0.0
 20
0.0
 30
0.0
  3
FXTIP_ARROW_E
  1

  0
LINE
  5
49
330
46
100
AcDbEntity
  8
0
  6
Continuous
 62
     0
370
    -2
100
AcDbLine
 10
0.0
 20
0.0
 30
0.0
 11
-1.0
 21
0.0
 31
0.0
  0
LINE
  5
4A
330
46
100
AcDbEntity
  8
0
  6
Continuous
 62
     0
370
    -2
100
AcDbLine
 10
0.0
 20
0.0
 30
0.0
 11
-0.9914448613738104
 21
0.1305261922200516
 31
0.0
  0
LINE
  5
4B
330
46
100
AcDbEntity
  8
0
  6
Continuous
 62
     0
370
    -2
100
AcDbLine
 10
0.0
 20
0.0
 30
0.0
 11
-0.9914448613738104
 21
-0.1305261922200516
 31
0.0
  0
ENDBLK
  5
48
330
46
100
AcDbEntity
  8
0
100
AcDbBlockEnd
  0
BLOCK
  5
4D
330
4C
100
AcDbEntity
  8
0
100
AcDbBlockBegin
  2
FXTIP_BLACKDOT_S
 70
     0
 10
0.0
 20
0.0
 30
0.0
  3
FXTIP_BLACKDOT_S
  1

  0
LINE
  5
4F
330
4C
100
AcDbEntity
  8
0
  6
Continuous
 62
     0
370
    -2
100
AcDbLine
 10
0.0
 20
0.0
 30
0.0
 11
-1.0
 21
0.0000000000000001
 31
0.0
  0
LWPOLYLINE
  5
50
330
4C
100
AcDbEntity
  8
0
  6
Continuous
 62
     0
370
    -2
100
AcDbPolyline
 90
        2
 70
     1
 10
-0.25
 20
0.0
 40
0.5
 41
0.5
 42
1.0
 10
0.25
 20
0.0
 40
0.5
 41
0.5
 42
1.0
  0
CIRCLE
  5
51
330
4C
100
AcDbEntity
  8
0
  6
Continuous
 62
     0
370
    -2
100
AcDbCircle
 10
0.0
 20
0.0
 30
0.0
 40
0.5
  0
ENDBLK
  5
4E
330
4C
100
AcDbEntity
  8
0
100
AcDbBlockEnd
  0
BLOCK
  5
53
330
52
100
AcDbEntity
  8
0
100
AcDbBlockBegin
  2
FXTIP_BLACKDOT_E
 70
     0
 10
0.0
 20
0.0
 30
0.0
  3
FXTIP_BLACKDOT_E
  1

  0
LINE
  5
55
330
52
100
AcDbEntity
  8
0
  6
Continuous
 62
     0
370
    -2
100
AcDbLine
 10
0.0
 20
0.0
 30
0.0
 11
-1.0
 21
0.0
 31
0.0
  0
LWPOLYLINE
  5
56
330
52
100
AcDbEntity
  8
0
  6
Continuous
 62
     0
370
    -2
100
AcDbPolyline
 90
        2
 70
     1
 10
-0.25
 20
0.0
 40
0.5
 41
0.5
 42
1.0
 10
0.25
 20
0.0
 40
0.5
 41
0.5
 42
1.0
  0
CIRCLE
  5
57
330
52
100
AcDbEntity
  8
0
  6
Continuous
 62
     0
370
    -2
100
AcDbCircle
 10
0.0
 20
0.0
 30
0.0
 40
0.5
  0
ENDBLK
  5
54
330
52
100
AcDbEntity
  8
0
100
AcDbBlockEnd
  0
BLOCK
  5
59
330
58
100
AcDbEntity
  8
0
100
AcDbBlockBegin
  2
FXTIP_TRIANGLE_S
 70
     0
 10
0.0
 20
0.0
 30
0.0
  3
FXTIP_TRIANGLE_S
  1

  0
LINE
  5
5B
330
58
100
AcDbEntity
  8
0
  6
Continuous
 62
     0
370
    -2
100
AcDbLine
 10
0.0
 20
0.0
 30
0.0
 11
-1.0
 21
0.0000000000000001
 31
0.0
  0
LINE
  5
5C
330
58
100
AcDbEntity
  8
0
  6
Continuous
 62
     0
370
    -2
100
AcDbLine
 10
0.0
 20
0.0
 30
0.0
 11
-0.9914448613738104
 21
-0.1305261922200515
 31
0.0
  0
LINE
  5
5D
330
58
100
AcDbEntity
  8
0
  6
Continuous
 62
     0
370
    -2
100
AcDbLine
 10
0.0
 20
0.0
 30
0.0
 11
-0.9914448613738104
 21
0.1305261922200517
 31
0.0
  0
LINE
  5
5E
330
58
100
AcDbEntity
  8
0
  6
Continuous
 62
     0
370
    -2
100
AcDbLine
 10
-0.9914448613738104
 20
-0.1305261922200515
 30
0.0
 11
-0.9914448613738104
 21
0.1305261922200517
 31
0.0
  0
ENDBLK
  5
5A
330
58
100
AcDbEntity
  8
0
100
AcDbBlockEnd
  0
BLOCK
  5
60
330
5F
100
AcDbEntity
  8
0
100
AcDbBlockBegin
  2
FXTIP_TRIANGLE_E
 70
     0
 10
0.0
 20
0.0
 30
0.0
  3
FXTIP_TRIANGLE_E
  1

  0
LINE
  5
62
330
5F
100
AcDbEntity
  8
0
  6
Continuous
 62
     0
370
    -2
100
AcDbLine
 10
0.0
 20
0.0
 30
0.0
 11
-1.0
 21
0.0
 31
0.0
  0
LINE
  5
63
330
5F
100
AcDbEntity
  8
0
  6
Continuous
 62
     0
370
    -2
100
AcDbLine
 10
0.0
 20
0.0
 30
0.0
 11
-0.9914448613738104
 21
0.1305261922200516
 31
0.0
  0
LINE
  5
64
330
5F
100
AcDbEntity
  8
0
  6
Continuous
 62
     0
370
    -2
100
AcDbLine
 10
0.0
 20
0.0
 30
0.0
 11
-0.9914448613738104
 21
-0.1305261922200516
 31
0.0
  0
LINE
  5
65
330
5F
100
AcDbEntity
  8
0
  6
Continuous
 62
     0
370
    -2
100
AcDbLine
 10
-0.9914448613738104
 20
0.1305261922200516
 30
0.0
 11
-0.9914448613738104
 21
-0.1305261922200516
 31
0.0
  0
ENDBLK
  5
61
330
5F
100
AcDbEntity
  8
0
100
AcDbBlockEnd
  0
BLOCK
  5
67
330
66
100
AcDbEntity
  8
0
100
AcDbBlockBegin
  2
FXTIP_ARCHITECT_S
 70
     0
 10
0.0
 20
0.0
 30
0.0
  3
FXTIP_ARCHITECT_S
  1

  0
LINE
  5
69
330
66
100
AcDbEntity
  8
0
  6
Continuous
 62
     0
370
    -2
100
AcDbLine
 10
0.0
 20
0.0
 30
0.0
 11
-1.0
 21
0.0000000000000001
 31
0.0
  0
LINE
  5
6A
330
66
100
AcDbEntity
  8
0
  6
Continuous
 62
     0
370
    -2
100
AcDbLine
 10
0.0
 20
0.0
 30
0.0
 11
-0.7071067811865476
 21
-0.7071067811865474
 31
0.0
  0
LINE
  5
6B
330
66
100
AcDbEntity
  8
0
  6
Continuous
 62
     0
370
    -2
100
AcDbLine
 10
0.0
 20
0.0
 30
0.0
 11
0.7071067811865476
 21
0.7071067811865474
 31
0.0
  0
ENDBLK
  5
68
330
66
100
AcDbEntity
  8
0
100
AcDbBlockEnd
  0
BLOCK
  5
6D
330
6C
100
AcDbEntity
  8
0
100
AcDbBlockBegin
  2
FXTIP_ARCHITECT_E
 70
     0
 10
0.0
 20
0.0
 30
0.0
  3
FXTIP_ARCHITECT_E
  1

  0
LINE
  5
6F
330
6C
100
AcDbEntity
  8
0
  6
Continuous
 62
     0
370
    -2
100
AcDbLine
 10
0.0
 20
0.0
 30
0.0
 11
-1.0
 21
0.0
 31
0.0
  0
LINE
  5
70
330
6C
100
AcDbEntity
  8
0
  6
Continuous
 62
     0
370
    -2
100
AcDbLine
 10
0.0
 20
0.0
 30
0.0
 11
0.7071067811865475
 21
0.7071067811865475
 31
0.0
  0
LINE
  5
71
330
6C
100
AcDbEntity
  8
0
  6
Continuous
 62
     0
370
    -2
100
AcDbLine
 10
0.0
 20
0.0
 30
0.0
 11
-0.7071067811865475
 21
-0.7071067811865475
 31
0.0
  0
ENDBLK
  5
6E
330
6C
100
AcDbEntity
  8
0
100
AcDbBlockEnd
  0
BLOCK
  5
73
330
72
100
AcDbEntity
  8
0
100
AcDbBlockBegin
  2
FXTIP_CIVIL_S
 70
     0
 10
0.0
 20
0.0
 30
0.0
  3
FXTIP_CIVIL_S
  1

  0
LINE
  5
75
330
72
100
AcDbEntity
  8
0
  6
Continuous
 62
     0
370
    -2
100
AcDbLine
 10
0.0
 20
0.0
 30
0.0
 11
-1.0
 21
0.0000000000000001
 31
0.0
  0
LINE
  5
76
330
72
100
AcDbEntity
  8
0
  6
Continuous
 62
     0
370
    -2
100
AcDbLine
 10
0.0
 20
-0.0833333333333333
 30
0.0
 11
-1.0
 21
-0.0833333333333332
 31
0.0
  0
LINE
  5
77
330
72
100
AcDbEntity
  8
0
  6
Continuous
 62
     0
370
    -2
100
AcDbLine
 10
0.0
 20
-0.1666666666666667
 30
0.0
 11
-1.0
 21
-0.1666666666666666
 31
0.0
  0
ENDBLK
  5
74
330
72
100
AcDbEntity
  8
0
100
AcDbBlockEnd
  0
BLOCK
  5
79
330
78
100
AcDbEntity
  8
0
100
AcDbBlockBegin
  2
FXTIP_CIVIL_E
 70
     0
 10
0.0
 20
0.0
 30
0.0
  3
FXTIP_CIVIL_E
  1

  0
LINE
  5
7B
330
78
100
AcDbEntity
  8
0
  6
Continuous
 62
     0
370
    -2
100
AcDbLine
 10
0.0
 20
0.0
 30
0.0
 11
-1.0
 21
0.0
 31
0.0
  0
LINE
  5
7C
330
78
100
AcDbEntity
  8
0
  6
Continuous
 62
     0
370
    -2
100
AcDbLine
 10
0.0
 20
0.0833333333333333
 30
0.0
 11
-1.0
 21
0.0833333333333333
 31
0.0
  0
LINE
  5
7D
330
78
100
AcDbEntity
  8
0
  6
Continuous
 62
     0
370
    -2
100
AcDbLine
 10
0.0
 20
0.1666666666666667
 30
0.0
 11
-1.0
 21
0.1666666666666667
 31
0.0
  0
ENDBLK
  5
7A
330
78
100
AcDbEntity
  8
0
100
AcDbBlockEnd
  0
BLOCK
  5
7F
330
7E
100
AcDbEntity
  8
0
100
AcDbBlockBegin
  2
FXTIP_WHITEDOT_S
 70
     0
 10
0.0
 20
0.0
 30
0.0
  3
FXTIP_WHITEDOT_S
  1

  0
LINE
  5
81
330
7E
100
AcDbEntity
  8
0
  6
Continuous
 62
     0
370
    -2
100
AcDbLine
 10
0.0
 20
0.0
 30
0.0
 11
-1.0
 21
0.0000000000000001
 31
0.0
  0
CIRCLE
  5
82
330
7E
100
AcDbEntity
  8
0
  6
Continuous
 62
     0
370
    -2
100
AcDbCircle
 10
0.0
 20
0.0
 30
0.0
 40
0.5
  0
ENDBLK
  5
80
330
7E
100
AcDbEntity
  8
0
100
AcDbBlockEnd
  0
BLOCK
  5
84
330
83
100
AcDbEntity
  8
0
100
AcDbBlockBegin
  2
FXTIP_WHITEDOT_E
 70
     0
 10
0.0
 20
0.0
 30
0.0
  3
FXTIP_WHITEDOT_E
  1

  0
LINE
  5
86
330
83
100
AcDbEntity
  8
0
  6
Continuous
 62
     0
370
    -2
100
AcDbLine
 10
0.0
 20
0.0
 30
0.0
 11
-1.0
 21
0.0
 31
0.0
  0
CIRCLE
  5
87
330
83
100
AcDbEntity
  8
0
  6
Continuous
 62
     0
370
    -2
100
AcDbCircle
 10
0.0
 20
0.0
 30
0.0
 40
0.5
  0
ENDBLK
  5
85
330
83
100
AcDbEntity
  8
0
100
AcDbBlockEnd
  0
BLOCK
  5
89
330
88
100
AcDbEntity
  8
0
100
AcDbBlockBegin
  2
FXTIP_UPARROW_S
 70
     0
 10
0.0
 20
0.0
 30
0.0
  3
FXTIP_UPARROW_S
  1

  0
LINE
  5
8B
330
88
100
AcDbEntity
  8
0
  6
Continuous
 62
     0
370
    -2
100
AcDbLine
 10
0.0
 20
0.0
 30
0.0
 11
-1.0
 21
0.0000000000000001
 31
0.0
  0
LINE
  5
8C
330
88
100
AcDbEntity
  8
0
  6
Continuous
 62
     0
370
    -2
100
AcDbLine
 10
0.0
 20
0.0
 30
0.0
 11
-0.9914448613738104
 21
-0.1305261922200515
 31
0.0
  0
ENDBLK
  5
8A
330
88
100
AcDbEntity
  8
0
100
AcDbBlockEnd
  0
BLOCK
  5
8E
330
8D
100
AcDbEntity
  8
0
100
AcDbBlockBegin
  2
FXTIP_UPARROW_E
 70
     0
 10
0.0
 20
0.0
 30
0.0
  3
FXTIP_UPARROW_E
  1

  0
LINE
  5
90
330
8D
100
AcDbEntity
  8
0
  6
Continuous
 62
     0
370
    -2
100
AcDbLine
 10
0.0
 20
0.0
 30
0.0
 11
-1.0
 21
0.0
 31
0.0
  0
LINE
  5
91
330
8D
100
AcDbEntity
  8
0
  6
Continuous
 62
     0
370
    -2
100
AcDbLine
 10
0.0
 20
0.0
 30
0.0
 11
-0.9914448613738104
 21
0.1305261922200516
 31
0.0
  0
ENDBLK
  5
8F
330
8D
100
AcDbEntity
  8
0
100
AcDbBlockEnd
  0
BLOCK
  5
93
330
92
100
AcDbEntity
  8
0
100
AcDbBlockBegin
  2
FXTIP_DOWNARROW_S
 70
     0
 10
0.0
 20
0.0
 30
0.0
  3
FXTIP_DOWNARROW_S
  1

  0
LINE
  5
95
330
92
100
AcDbEntity
  8
0
  6
Continuous
 62
     0
370
    -2
100
AcDbLine
 10
0.0
 20
0.0
 30
0.0
 11
-1.0
 21
0.0000000000000001
 31
0.0
  0
LINE
  5
96
330
92
100
AcDbEntity
  8
0
  6
Continuous
 62
     0
370
    -2
100
AcDbLine
 10
0.0
 20
0.0
 30
0.0
 11
-0.9914448613738104
 21
0.1305261922200517
 31
0.0
  0
ENDBLK
  5
94
330
92
100
AcDbEntity
  8
0
100
AcDbBlockEnd
  0
BLOCK
  5
98
330
97
100
AcDbEntity
  8
0
100
AcDbBlockBegin
  2
FXTIP_DOWNARROW_E
 70
     0
 10
0.0
 20
0.0
 30
0.0
  3
FXTIP_DOWNARROW_E
  1

  0
LINE
  5
9A
330
97
100
AcDbEntity
  8
0
  6
Continuous
 62
     0
370
    -2
100
AcDbLine
 10
0.0
 20
0.0
 30
0.0
 11
-1.0
 21
0.0
 31
0.0
  0
LINE
  5
9B
330
97
100
AcDbEntity
  8
0
  6
Continuous
 62
     0
370
    -2
100
AcDbLine
 10
0.0
 20
0.0
 30
0.0
 11
-0.9914448613738104
 21
-0.1305261922200516
 31
0.0
  0
ENDBLK
  5
99
330
97
100
AcDbEntity
  8
0
100
AcDbBlockEnd
  0
BLOCK
  5
9D
330
9C
100
AcDbEntity
  8
0
100
AcDbBlockBegin
  2
FXTIP_BLACKTRIANGLE_S
 70
     0
 10
0.0
 20
0.0
 30
0.0
  3
FXTIP_BLACKTRIANGLE_S
  1

  0
LINE
  5
9F
330
9C
100
AcDbEntity
  8
0
  6
Continuous
 62
     0
370
    -2
100
AcDbLine
 10
0.0
 20
0.0
 30
0.0
 11
-1.0
 21
0.0000000000000001
 31
0.0
  0
SOLID
  5
A0
330
9C
100
AcDbEntity
  8
0
  6
Continuous
 62
     0
370
    -2
100
AcDbTrace
 10
0.0
 20
0.0
 30
0.0
 11
-0.9914448613738104
 21
-0.1305261922200515
 31
0.0
 12
-0.9914448613738104
 22
0.1305261922200517
 32
0.0
 13
-0.9914448613738104
 23
0.1305261922200517
 33
0.0
  0
ENDBLK
  5
9E
330
9C
100
AcDbEntity
  8
0
100
AcDbBlockEnd
  0
BLOCK
  5
A2
330
A1
100
AcDbEntity
  8
0
100
AcDbBlockBegin
  2
FXTIP_BLACKTRIANGLE_E
 70
     0
 10
0.0
 20
0.0
 30
0.0
  3
FXTIP_BLACKTRIANGLE_E
  1

  0
LINE
  5
A4
330
A1
100
AcDbEntity
  8
0
  6
Continuous
 62
     0
370
    -2
100
AcDbLine
 10
0.0
 20
0.0
 30
0.0
 11
-1.0
 21
0.0
 31
0.0
  0
SOLID
  5
A5
330
A1
100
AcDbEntity
  8
0
  6
Continuous
 62
     0
370
    -2
100
AcDbTrace
 10
0.0
 20
0.0
 30
0.0
 11
-0.9914448613738104
 21
0.1305261922200516
 31
0.0
 12
-0.9914448613738104
 22
-0.1305261922200516
 32
0.0
 13
-0.9914448613738104
 23
-0.1305261922200516
 33
0.0
  0
ENDBLK
  5
A3
330
A1
100
AcDbEntity
  8
0
100
AcDbBlockEnd
  0
ENDSEC
  0
SECTION
  2
ENTITIES
  0
LINE
  5
AA
330
1F
100
AcDbEntity
  8
GR1_01
  6
一点鎖線
 62
     7
100
AcDbLine
 10
117.4545454545455
 20
118.5
 30
0.0
 11
242.4545454545455
 21
118.5
 31
0.0
  0
ARC
  5
AB
330
1F
100
AcDbEntity
  8
GR1_01
 62
     3
370
    40
100
AcDbCircle
 10
47.3690461151631
 20
118.4999999999998
 30
0.0
 40
25.0
100
AcDbArc
 50
192.7090329943953
 51
347.2909670056047
  0
ARC
  5
AC
330
1F
100
AcDbEntity
  8
GR1_01
 62
     3
370
    40
100
AcDbCircle
 10
47.3690461151631
 20
118.4999999999998
 30
0.0
 40
25.0
100
AcDbArc
 50
12.70903299439556
 51
167.2909670056045
  0
LINE
  5
AD
330
1F
100
AcDbEntity
  8
GR1_01
  6
一点鎖線
 62
     7
100
AcDbLine
 10
362.7215548961889
 20
128.5
 30
0.0
 11
338.721554896189
 21
128.5
 31
0.0
  0
ARC
  5
AE
330
1F
100
AcDbEntity
  8
GR1_01
 62
     3
370
    40
100
AcDbCircle
 10
370.6401391832309
 20
130.0
 30
0.0
 40
8.0
100
AcDbArc
 50
333.9155956926158
 51
86.08440430738402
  0
ARC
  5
AF
330
1F
100
AcDbEntity
  8
GR1_01
 62
     3
370
    40
100
AcDbCircle
 10
330.802970609147
 20
130.0
 30
0.0
 40
8.0
100
AcDbArc
 50
93.91559569261601
 51
206.0844043073839
  0
LINE
  5
B0
330
1F
100
AcDbEntity
  8
GR1_01
 62
     3
370
    40
100
AcDbLine
 10
359.7215548961889
 20
91.27868482236809
 30
0.0
 11
359.7215548961889
 21
88.50000000000003
 31
0.0
  0
LINE
  5
B1
330
1F
100
AcDbEntity
  8
GR1_01
 62
     3
370
    40
100
AcDbLine
 10
341.721554896189
 20
91.27868482236809
 30
0.0
 11
341.721554896189
 21
88.50000000000003
 31
0.0
  0
ARC
  5
B2
330
1F
100
AcDbEntity
  8
GR1_01
 62
     3
370
    40
100
AcDbCircle
 10
350.721554896189
 20
118.5
 30
0.0
 40
28.0
100
AcDbArc
 50
44.92431601089001
 51
135.075683989111
  0
ARC
  5
B3
330
1F
100
AcDbEntity
  8
GR1_01
 62
     3
370
    40
100
AcDbCircle
 10
350.721554896189
 20
118.5
 30
0.0
 40
28.0
100
AcDbArc
 50
164.92431601089
 51
249.828728653535
  0
ARC
  5
B4
330
1F
100
AcDbEntity
  8
GR1_01
 62
     3
370
    40
100
AcDbCircle
 10
350.721554896189
 20
118.5
 30
0.0
 40
28.0
100
AcDbArc
 50
290.171271346465
 51
15.07568398911096
  0
ARC
  5
B5
330
1F
100
AcDbEntity
  8
GR1_01
 62
     3
370
    40
100
AcDbCircle
 10
360.7215548961889
 20
91.27868482236809
 30
0.0
 40
1.0
100
AcDbArc
 50
110.171271346465
 51
180.0
  0
ARC
  5
B6
330
1F
100
AcDbEntity
  8
GR1_01
 62
     3
370
    40
100
AcDbCircle
 10
340.721554896189
 20
91.27868482236809
 30
0.0
 40
1.0
100
AcDbArc
 50
0.0
 51
69.82872865353501
  0
ARC
  5
B7
330
1F
100
AcDbEntity
  8
GR1_01
 62
     3
370
    40
100
AcDbCircle
 10
322.719644978851
 20
126.042747575073
 30
0.0
 40
1.0
100
AcDbArc
 50
344.92431601089
 51
26.08440430738403
  0
ARC
  5
B8
330
1F
100
AcDbEntity
  8
GR1_01
 62
     3
370
    40
100
AcDbCircle
 10
371.2547208692049
 20
138.9789915553621
 30
0.0
 40
1.0
100
AcDbArc
 50
224.924316010888
 51
266.084404307384
  0
ARC
  5
B9
330
1F
100
AcDbEntity
  8
GR1_01
 62
     3
370
    40
100
AcDbCircle
 10
378.7234648135269
 20
126.042747575073
 30
0.0
 40
1.0
100
AcDbArc
 50
153.915595692616
 51
195.07568398911
  0
ARC
  5
BA
330
1F
100
AcDbEntity
  8
GR1_01
 62
     3
370
    40
100
AcDbCircle
 10
330.188388923173
 20
138.9789915553621
 30
0.0
 40
1.0
100
AcDbArc
 50
273.9155956926159
 51
315.0756839891117
  0
CIRCLE
  5
BB
330
1F
100
AcDbEntity
  8
GR1_01
 62
     3
370
    40
100
AcDbCircle
 10
350.721554896189
 20
128.5
 30
0.0
 40
4.0
  0
CIRCLE
  5
BC
330
1F
100
AcDbEntity
  8
GR1_01
 62
     3
370
    40
100
AcDbCircle
 10
350.721554896189
 20
128.5
 30
0.0
 40
9.0
  0
LINE
  5
BD
330
1F
100
AcDbEntity
  8
GR1_01
 62
     3
370
    40
100
AcDbLine
 10
348.0758035851239
 20
131.5
 30
0.0
 11
353.3673062072539
 21
131.5
 31
0.0
  0
ARC
  5
BE
330
1F
100
AcDbEntity
  8
GR1_01
  6
一点鎖線
 62
     7
100
AcDbCircle
 10
350.721554896189
 20
118.5
 30
0.0
 40
35.0
100
AcDbArc
 50
122.698720344118
 51
147.3012796558821
  0
LINE
  5
BF
330
1F
100
AcDbEntity
  8
GR1_01
  6
一点鎖線
 62
     7
100
AcDbLine
 10
321.2718074278831
 20
147.9497474683058
 30
0.0
 11
331.2761184135588
 21
137.9454364826301
 31
0.0
  0
ARC
  5
C0
330
1F
100
AcDbEntity
  8
GR1_01
  6
一点鎖線
 62
     7
100
AcDbCircle
 10
350.721554896189
 20
118.5
 30
0.0
 40
35.0
100
AcDbArc
 50
33.41085428052732
 51
57.30127965588202
  0
LINE
  5
C1
330
1F
100
AcDbEntity
  8
GR1_01
  6
一点鎖線
 62
     7
100
AcDbLine
 10
380.1713023644947
 20
147.9497474683058
 30
0.0
 11
370.166991378819
 21
137.9454364826301
 31
0.0
  0
ARC
  5
C2
330
1F
100
AcDbEntity
  8
GR1_01
  6
一点鎖線
 62
     7
100
AcDbCircle
 10
350.721554896189
 20
118.5
 30
0.0
 40
35.0
100
AcDbArc
 50
212.5129074674452
 51
237.301279655882
  0
LINE
  5
C3
330
1F
100
AcDbEntity
  8
GR1_01
  6
一点鎖線
 62
     7
100
AcDbLine
 10
321.2718074278831
 20
89.05025253169427
 30
0.0
 11
331.2761184135589
 21
99.05456351736998
 31
0.0
  0
ARC
  5
C4
330
1F
100
AcDbEntity
  8
GR1_01
  6
一点鎖線
 62
     7
100
AcDbCircle
 10
350.721554896189
 20
118.5
 30
0.0
 40
35.0
100
AcDbArc
 50
302.698720344118
 51
327.3012796558821
  0
LINE
  5
C5
330
1F
100
AcDbEntity
  8
GR1_01
  6
一点鎖線
 62
     7
100
AcDbLine
 10
380.1713023644949
 20
89.05025253169416
 30
0.0
 11
370.166991378819
 21
99.05456351736996
 31
0.0
  0
LINE
  5
C6
330
1F
100
AcDbEntity
  8
GR1_01
  6
一点鎖線
 62
     7
100
AcDbLine
 10
42.33354296126491
 20
98.99999999999989
 30
0.0
 11
52.47925816873457
 21
98.99999999999989
 31
0.0
  0
LINE
  5
C7
330
1F
100
AcDbEntity
  8
GR1_01
  6
一点鎖線
 62
     7
100
AcDbLine
 10
52.47925816873457
 20
137.9999999999999
 30
0.0
 11
42.12655130404117
 21
137.9999999999999
 31
0.0
  0
CIRCLE
  5
C8
330
1F
100
AcDbEntity
  8
GR1_01
 62
     3
370
    40
100
AcDbCircle
 10
47.3690461151631
 20
118.4999999999999
 30
0.0
 40
9.0
  0
LINE
  5
C9
330
1F
100
AcDbEntity
  8
GR1_01
 62
     3
370
    40
100
AcDbLine
 10
21.26904611516316
 20
114.4999999999999
 30
0.0
 11
21.26904611516316
 21
115.4999999999999
 31
0.0
  0
LINE
  5
CA
330
1F
100
AcDbEntity
  8
GR1_01
 62
     3
370
    40
100
AcDbLine
 10
21.26904611516316
 20
115.4999999999999
 30
0.0
 11
19.86904611516313
 21
115.4999999999999
 31
0.0
  0
LINE
  5
CB
330
1F
100
AcDbEntity
  8
GR1_01
 62
     3
370
    40
100
AcDbLine
 10
20.86904611516313
 20
115.4999999999999
 30
0.0
 11
20.86904611516313
 21
121.4999999999999
 31
0.0
  0
LINE
  5
CC
330
1F
100
AcDbEntity
  8
GR1_01
 62
     3
370
    40
100
AcDbLine
 10
21.26904611516316
 20
121.4999999999999
 30
0.0
 11
19.86904611516313
 21
121.4999999999999
 31
0.0
  0
LINE
  5
CD
330
1F
100
AcDbEntity
  8
GR1_01
 62
     3
370
    40
100
AcDbLine
 10
21.26904611516316
 20
121.4999999999999
 30
0.0
 11
21.26904611516316
 21
122.4999999999999
 31
0.0
  0
LINE
  5
CE
330
1F
100
AcDbEntity
  8
GR1_01
 62
     3
370
    40
100
AcDbLine
 10
21.26904611516316
 20
122.4999999999999
 30
0.0
 11
22.86904611516313
 21
122.4999999999999
 31
0.0
  0
LINE
  5
CF
330
1F
100
AcDbEntity
  8
GR1_01
 62
     3
370
    40
100
AcDbLine
 10
22.86904611516313
 20
122.4999999999999
 30
0.0
 11
22.86904611516313
 21
114.4999999999999
 31
0.0
  0
LINE
  5
D0
330
1F
100
AcDbEntity
  8
GR1_01
 62
     3
370
    40
100
AcDbLine
 10
22.86904611516313
 20
114.4999999999999
 30
0.0
 11
21.26904611516316
 21
114.4999999999999
 31
0.0
  0
LINE
  5
D1
330
1F
100
AcDbEntity
  8
GR1_01
 62
     3
370
    40
100
AcDbLine
 10
22.36904611516313
 20
114.4999999999999
 30
0.0
 11
22.36904611516313
 21
122.4999999999999
 31
0.0
  0
LINE
  5
D2
330
1F
100
AcDbEntity
  8
GR1_01
 62
     3
370
    40
100
AcDbLine
 10
22.36904611516313
 20
121.3999999999999
 30
0.0
 11
22.86904611516313
 21
121.3999999999999
 31
0.0
  0
LINE
  5
D3
330
1F
100
AcDbEntity
  8
GR1_01
 62
     3
370
    40
100
AcDbLine
 10
22.86904611516313
 20
120.8999999999999
 30
0.0
 11
22.36904611516313
 21
120.8999999999999
 31
0.0
  0
LINE
  5
D4
330
1F
100
AcDbEntity
  8
GR1_01
 62
     3
370
    40
100
AcDbLine
 10
73.46904611516315
 20
122.4999999999999
 30
0.0
 11
71.86904611516313
 21
122.4999999999999
 31
0.0
  0
LINE
  5
D5
330
1F
100
AcDbEntity
  8
GR1_01
 62
     3
370
    40
100
AcDbLine
 10
71.86904611516313
 20
122.4999999999999
 30
0.0
 11
71.86904611516313
 21
114.4999999999999
 31
0.0
  0
LINE
  5
D6
330
1F
100
AcDbEntity
  8
GR1_01
 62
     3
370
    40
100
AcDbLine
 10
71.86904611516313
 20
114.4999999999999
 30
0.0
 11
73.46904611516315
 21
114.4999999999999
 31
0.0
  0
LINE
  5
D7
330
1F
100
AcDbEntity
  8
GR1_01
 62
     3
370
    40
100
AcDbLine
 10
73.46904611516315
 20
114.4999999999999
 30
0.0
 11
73.46904611516315
 21
115.4999999999999
 31
0.0
  0
LINE
  5
D8
330
1F
100
AcDbEntity
  8
GR1_01
 62
     3
370
    40
100
AcDbLine
 10
73.46904611516315
 20
115.4999999999999
 30
0.0
 11
74.86904611516313
 21
115.4999999999999
 31
0.0
  0
LINE
  5
D9
330
1F
100
AcDbEntity
  8
GR1_01
 62
     3
370
    40
100
AcDbLine
 10
73.86904611516313
 20
115.4999999999999
 30
0.0
 11
73.86904611516313
 21
121.4999999999999
 31
0.0
  0
LINE
  5
DA
330
1F
100
AcDbEntity
  8
GR1_01
 62
     3
370
    40
100
AcDbLine
 10
73.46904611516315
 20
121.4999999999999
 30
0.0
 11
74.86904611516313
 21
121.4999999999999
 31
0.0
  0
LINE
  5
DB
330
1F
100
AcDbEntity
  8
GR1_01
 62
     3
370
    40
100
AcDbLine
 10
73.46904611516315
 20
121.4999999999999
 30
0.0
 11
73.46904611516315
 21
122.4999999999999
 31
0.0
  0
LINE
  5
DC
330
1F
100
AcDbEntity
  8
GR1_01
 62
     3
370
    40
100
AcDbLine
 10
72.36904611516313
 20
122.4999999999999
 30
0.0
 11
72.36904611516313
 21
114.4999999999999
 31
0.0
  0
LINE
  5
DD
330
1F
100
AcDbEntity
  8
GR1_01
 62
     3
370
    40
100
AcDbLine
 10
72.36904611516313
 20
115.5999999999999
 30
0.0
 11
71.86904611516313
 21
115.5999999999999
 31
0.0
  0
LINE
  5
DE
330
1F
100
AcDbEntity
  8
GR1_01
 62
     3
370
    40
100
AcDbLine
 10
71.86904611516313
 20
116.0999999999999
 30
0.0
 11
72.36904611516313
 21
116.0999999999999
 31
0.0
  0
LINE
  5
DF
330
1F
100
AcDbEntity
  8
GR1_01
 62
     3
370
    40
100
AcDbLine
 10
22.86904611516313
 20
115.5999999999999
 30
0.0
 11
22.36904611516313
 21
115.5999999999999
 31
0.0
  0
LINE
  5
E0
330
1F
100
AcDbEntity
  8
GR1_01
 62
     3
370
    40
100
AcDbLine
 10
22.36904611516313
 20
116.0999999999999
 30
0.0
 11
22.86904611516313
 21
116.0999999999999
 31
0.0
  0
LINE
  5
E1
330
1F
100
AcDbEntity
  8
GR1_01
 62
     3
370
    40
100
AcDbLine
 10
71.86904611516313
 20
120.8999999999999
 30
0.0
 11
72.36904611516313
 21
120.8999999999999
 31
0.0
  0
LINE
  5
E2
330
1F
100
AcDbEntity
  8
GR1_01
 62
     3
370
    40
100
AcDbLine
 10
72.36904611516313
 20
121.3999999999999
 30
0.0
 11
71.86904611516313
 21
121.3999999999999
 31
0.0
  0
LINE
  5
E3
330
1F
100
AcDbEntity
  8
GR1_01
  6
一点鎖線
 62
     7
100
AcDbLine
 10
27.36904611516316
 20
115.3542928890305
 30
0.0
 11
27.36904611516316
 21
121.5615234374999
 31
0.0
  0
LINE
  5
E4
330
1F
100
AcDbEntity
  8
GR1_01
  6
一点鎖線
 62
     7
100
AcDbLine
 10
67.36904611516316
 20
121.5615234374999
 30
0.0
 11
67.36904611516316
 21
115.3542928890305
 31
0.0
  0
LINE
  5
E5
330
1F
100
AcDbEntity
  8
GR1_01
 62
     3
370
    40
100
AcDbLine
 10
74.86904611516316
 20
122.9999999999999
 30
0.0
 11
74.86904611516316
 21
113.9999999999999
 31
0.0
  0
LINE
  5
E6
330
1F
100
AcDbEntity
  8
GR1_01
 62
     3
370
    40
100
AcDbLine
 10
19.86904611516316
 20
113.9999999999999
 30
0.0
 11
19.86904611516316
 21
122.9999999999998
 31
0.0
  0
ARC
  5
E7
330
1F
100
AcDbEntity
  8
GR1_01
 62
     3
370
    40
100
AcDbCircle
 10
68.61904611516316
 20
118.4999999999999
 30
0.0
 40
0.25
100
AcDbArc
 50
270.0
 51
90.0
  0
LINE
  5
E8
330
1F
100
AcDbEntity
  8
GR1_01
 62
     3
370
    40
100
AcDbLine
 10
68.61904611516316
 20
118.2499999999999
 30
0.0
 11
67.61904611516319
 21
118.2499999999999
 31
0.0
  0
LINE
  5
E9
330
1F
100
AcDbEntity
  8
GR1_01
 62
     3
370
    40
100
AcDbLine
 10
67.61904611516319
 20
118.2499999999999
 30
0.0
 11
67.61904611516319
 21
117.2499999999999
 31
0.0
  0
ARC
  5
EA
330
1F
100
AcDbEntity
  8
GR1_01
 62
     3
370
    40
100
AcDbCircle
 10
67.36904611516319
 20
117.2499999999999
 30
0.0
 40
0.25
100
AcDbArc
 50
180.0
 51
0.0
  0
LINE
  5
EB
330
1F
100
AcDbEntity
  8
GR1_01
 62
     3
370
    40
100
AcDbLine
 10
67.11904611516319
 20
117.2499999999999
 30
0.0
 11
67.11904611516319
 21
118.2499999999999
 31
0.0
  0
LINE
  5
EC
330
1F
100
AcDbEntity
  8
GR1_01
 62
     3
370
    40
100
AcDbLine
 10
67.11904611516319
 20
118.2499999999999
 30
0.0
 11
66.11904611516316
 21
118.2499999999999
 31
0.0
  0
ARC
  5
ED
330
1F
100
AcDbEntity
  8
GR1_01
 62
     3
370
    40
100
AcDbCircle
 10
66.11904611516316
 20
118.4999999999999
 30
0.0
 40
0.25
100
AcDbArc
 50
90.0
 51
270.0
  0
LINE
  5
EE
330
1F
100
AcDbEntity
  8
GR1_01
 62
     3
370
    40
100
AcDbLine
 10
66.11904611516316
 20
118.7499999999999
 30
0.0
 11
67.11904611516319
 21
118.7499999999999
 31
0.0
  0
LINE
  5
EF
330
1F
100
AcDbEntity
  8
GR1_01
 62
     3
370
    40
100
AcDbLine
 10
67.11904611516319
 20
118.7499999999999
 30
0.0
 11
67.11904611516319
 21
119.7499999999999
 31
0.0
  0
ARC
  5
F0
330
1F
100
AcDbEntity
  8
GR1_01
 62
     3
370
    40
100
AcDbCircle
 10
67.36904611516319
 20
119.7499999999999
 30
0.0
 40
0.25
100
AcDbArc
 50
0.0
 51
180.0
  0
LINE
  5
F1
330
1F
100
AcDbEntity
  8
GR1_01
 62
     3
370
    40
100
AcDbLine
 10
67.61904611516319
 20
119.7499999999999
 30
0.0
 11
67.61904611516319
 21
118.7499999999999
 31
0.0
  0
LINE
  5
F2
330
1F
100
AcDbEntity
  8
GR1_01
 62
     3
370
    40
100
AcDbLine
 10
67.61904611516319
 20
118.7499999999999
 30
0.0
 11
68.61904611516316
 21
118.7499999999999
 31
0.0
  0
LINE
  5
F3
330
1F
100
AcDbEntity
  8
GR1_01
 62
     3
370
    40
100
AcDbLine
 10
27.61904611516313
 20
117.2499999999999
 30
0.0
 11
27.61904611516313
 21
119.7499999999999
 31
0.0
  0
ARC
  5
F4
330
1F
100
AcDbEntity
  8
GR1_01
 62
     3
370
    40
100
AcDbCircle
 10
27.36904611516313
 20
117.2499999999999
 30
0.0
 40
0.25
100
AcDbArc
 50
180.0
 51
0.0
  0
LINE
  5
F5
330
1F
100
AcDbEntity
  8
GR1_01
 62
     3
370
    40
100
AcDbLine
 10
27.11904611516313
 20
117.2499999999999
 30
0.0
 11
27.11904611516313
 21
119.7499999999999
 31
0.0
  0
ARC
  5
F6
330
1F
100
AcDbEntity
  8
GR1_01
 62
     3
370
    40
100
AcDbCircle
 10
27.36904611516313
 20
119.7499999999999
 30
0.0
 40
0.25
100
AcDbArc
 50
0.0
 51
180.0
  0
LINE
  5
F7
330
1F
100
AcDbEntity
  8
GR1_01
 62
     3
370
    40
100
AcDbLine
 10
73.86904611516321
 20
123.9999999999999
 30
0.0
 11
69.93181808019035
 21
123.9999999999999
 31
0.0
  0
LINE
  5
F8
330
1F
100
AcDbEntity
  8
GR1_01
 62
     3
370
    40
100
AcDbLine
 10
73.86904611516321
 20
112.9999999999999
 30
0.0
 11
69.93181808019033
 21
112.9999999999999
 31
0.0
  0
LINE
  5
F9
330
1F
100
AcDbEntity
  8
GR1_01
 62
     3
370
    40
100
AcDbLine
 10
74.86904611516321
 20
122.9999999999999
 30
0.0
 11
73.86904611516321
 21
123.9999999999999
 31
0.0
  0
LINE
  5
FA
330
1F
100
AcDbEntity
  8
GR1_01
 62
     3
370
    40
100
AcDbLine
 10
74.86904611516321
 20
113.9999999999999
 30
0.0
 11
73.86904611516321
 21
112.9999999999999
 31
0.0
  0
LINE
  5
FB
330
1F
100
AcDbEntity
  8
GR1_01
 62
     3
370
    40
100
AcDbLine
 10
20.86904611516316
 20
123.9999999999999
 30
0.0
 11
24.8375226776631
 21
123.9999999999999
 31
0.0
  0
LINE
  5
FC
330
1F
100
AcDbEntity
  8
GR1_01
 62
     3
370
    40
100
AcDbLine
 10
20.86904611516316
 20
112.9999999999999
 30
0.0
 11
24.81852971058025
 21
112.9999999999999
 31
0.0
  0
LINE
  5
FD
330
1F
100
AcDbEntity
  8
GR1_01
 62
     3
370
    40
100
AcDbLine
 10
19.86904611516316
 20
122.9999999999999
 30
0.0
 11
20.86904611516316
 21
123.9999999999999
 31
0.0
  0
LINE
  5
FE
330
1F
100
AcDbEntity
  8
GR1_01
 62
     3
370
    40
100
AcDbLine
 10
19.86904611516316
 20
113.9999999999999
 30
0.0
 11
20.86904611516316
 21
112.9999999999999
 31
0.0
  0
ARC
  5
FF
330
1F
100
AcDbEntity
  8
GR1_01
 62
     3
370
    40
100
AcDbCircle
 10
47.36904611516319
 20
118.4999999999999
 30
0.0
 40
24.0
100
AcDbArc
 50
194.175803515867
 51
345.824196484133
  0
ARC
  5
100
330
1F
100
AcDbEntity
  8
GR1_01
 62
     3
370
    40
100
AcDbCircle
 10
47.36904611516319
 20
118.4999999999999
 30
0.0
 40
24.0
100
AcDbArc
 50
14.17580351586702
 51
165.824196484133
  0
ARC
  5
101
330
1F
100
AcDbEntity
  8
GR1_01
 62
     3
370
    40
100
AcDbCircle
 10
71.1229931556026
 20
124.4999999999999
 30
0.0
 40
0.5
100
AcDbArc
 50
194.1758035158667
 51
270.0
  0
ARC
  5
102
330
1F
100
AcDbEntity
  8
GR1_01
 62
     3
370
    40
100
AcDbCircle
 10
71.1229931556026
 20
112.4999999999999
 30
0.0
 40
0.5
100
AcDbArc
 50
90.0
 51
165.8241964841334
  0
ARC
  5
103
330
1F
100
AcDbEntity
  8
GR1_01
 62
     3
370
    40
100
AcDbCircle
 10
23.61509907472377
 20
112.4999999999999
 30
0.0
 40
0.5
100
AcDbArc
 50
14.17580351586668
 51
90.0
  0
ARC
  5
104
330
1F
100
AcDbEntity
  8
GR1_01
 62
     3
370
    40
100
AcDbCircle
 10
23.61509907472377
 20
124.4999999999999
 30
0.0
 40
0.5
100
AcDbArc
 50
270.0
 51
345.8241964841333
  0
LINE
  5
105
330
1F
100
AcDbEntity
  8
GR1_01
 62
     3
370
    40
100
AcDbLine
 10
59.70557723213444
 20
115.3999999999999
 30
0.0
 11
69.86904611516316
 21
115.3999999999999
 31
0.0
  0
LINE
  5
106
330
1F
100
AcDbEntity
  8
GR1_01
 62
     3
370
    40
100
AcDbLine
 10
59.70557723213444
 20
121.5999999999999
 30
0.0
 11
69.86904611516316
 21
121.5999999999999
 31
0.0
  0
ARC
  5
107
330
1F
100
AcDbEntity
  8
GR1_01
 62
     3
370
    40
100
AcDbCircle
 10
59.70557723213444
 20
114.3999999999999
 30
0.0
 40
1.0
100
AcDbArc
 50
90.0
 51
161.6159657715024
  0
ARC
  5
108
330
1F
100
AcDbEntity
  8
GR1_01
 62
     3
370
    40
100
AcDbCircle
 10
59.70557723213444
 20
122.5999999999999
 30
0.0
 40
1.0
100
AcDbArc
 50
198.3840342284976
 51
270.0
  0
LINE
  5
109
330
1F
100
AcDbEntity
  8
GR1_01
 62
     3
370
    40
100
AcDbLine
 10
58.32349726526654
 20
112.4999999999999
 30
0.0
 11
68.06741561616492
 21
112.4999999999999
 31
0.0
  0
LINE
  5
10A
330
1F
100
AcDbEntity
  8
GR1_01
 62
     3
370
    40
100
AcDbLine
 10
58.32349726526648
 20
124.4999999999999
 30
0.0
 11
68.06741561616492
 21
124.4999999999999
 31
0.0
  0
ARC
  5
10B
330
1F
100
AcDbEntity
  8
GR1_01
 62
     3
370
    40
100
AcDbCircle
 10
58.32349726526654
 20
111.4999999999999
 30
0.0
 40
1.0
100
AcDbArc
 50
90.0
 51
147.4210296071958
  0
ARC
  5
10C
330
1F
100
AcDbEntity
  8
GR1_01
 62
     3
370
    40
100
AcDbCircle
 10
58.32349726526648
 20
125.4999999999999
 30
0.0
 40
1.0
100
AcDbArc
 50
212.5789703928043
 51
270.0
  0
LINE
  5
10D
330
1F
100
AcDbEntity
  8
GR1_01
 62
     3
370
    40
100
AcDbLine
 10
35.03251499819181
 20
115.3999999999999
 30
0.0
 11
24.73030719268782
 21
115.3999999999999
 31
0.0
  0
LINE
  5
10E
330
1F
100
AcDbEntity
  8
GR1_01
 62
     3
370
    40
100
AcDbLine
 10
35.03251499819181
 20
121.5999999999999
 30
0.0
 11
24.73030719268782
 21
121.5999999999999
 31
0.0
  0
ARC
  5
10F
330
1F
100
AcDbEntity
  8
GR1_01
 62
     3
370
    40
100
AcDbCircle
 10
35.03251499819181
 20
114.3999999999999
 30
0.0
 40
1.0
100
AcDbArc
 50
18.38403422849757
 51
90.0
  0
ARC
  5
110
330
1F
100
AcDbEntity
  8
GR1_01
 62
     3
370
    40
100
AcDbCircle
 10
35.03251499819181
 20
122.5999999999999
 30
0.0
 40
1.0
100
AcDbArc
 50
270.0
 51
341.6159657715024
  0
LINE
  5
111
330
1F
100
AcDbEntity
  8
GR1_01
 62
     3
370
    40
100
AcDbLine
 10
36.41459496505972
 20
112.4999999999999
 30
0.0
 11
26.67067661416139
 21
112.4999999999999
 31
0.0
  0
LINE
  5
112
330
1F
100
AcDbEntity
  8
GR1_01
 62
     3
370
    40
100
AcDbLine
 10
36.41459496505978
 20
124.4999999999999
 30
0.0
 11
26.67067661416139
 21
124.4999999999999
 31
0.0
  0
ARC
  5
113
330
1F
100
AcDbEntity
  8
GR1_01
 62
     3
370
    40
100
AcDbCircle
 10
36.41459496505972
 20
111.4999999999999
 30
0.0
 40
1.0
100
AcDbArc
 50
32.57897039280351
 51
90.0
  0
ARC
  5
114
330
1F
100
AcDbEntity
  8
GR1_01
 62
     3
370
    40
100
AcDbCircle
 10
36.41459496505978
 20
125.4999999999999
 30
0.0
 40
1.0
100
AcDbArc
 50
270.0
 51
327.4210296071959
  0
ARC
  5
115
330
1F
100
AcDbEntity
  8
GR1_01
 62
     3
370
    40
100
AcDbCircle
 10
69.93181808019033
 20
112.4999999999999
 30
0.0
 40
0.5
100
AcDbArc
 50
90.0
 51
164.8783346850901
  0
ARC
  5
116
330
1F
100
AcDbEntity
  8
GR1_01
 62
     3
370
    40
100
AcDbCircle
 10
69.93181808019035
 20
124.4999999999999
 30
0.0
 40
0.5
100
AcDbArc
 50
195.1216653149099
 51
270.0
  0
ARC
  5
117
330
1F
100
AcDbEntity
  8
GR1_01
 62
     3
370
    40
100
AcDbCircle
 10
24.81852971058025
 20
112.4999999999999
 30
0.0
 40
0.5
100
AcDbArc
 50
15.12166531491147
 51
90.0
  0
ARC
  5
118
330
1F
100
AcDbEntity
  8
GR1_01
 62
     3
370
    40
100
AcDbCircle
 10
24.82789789229129
 20
124.4999999999999
 30
0.0
 40
0.5
100
AcDbArc
 50
270.0
 51
344.8783346850901
  0
ARC
  5
119
330
1F
100
AcDbEntity
  8
GR1_01
 62
     3
370
    40
100
AcDbCircle
 10
47.36904611516316
 20
118.4999999999999
 30
0.0
 40
22.85
100
AcDbArc
 50
281.9979950098526
 51
349.9588266534112
  0
ARC
  5
11A
330
1F
100
AcDbEntity
  8
GR1_01
 62
     3
370
    40
100
AcDbCircle
 10
68.06741561616492
 20
111.4999999999999
 30
0.0
 40
1.0
100
AcDbArc
 50
341.3149315208776
 51
90.0
  0
ARC
  5
11B
330
1F
100
AcDbEntity
  8
GR1_01
 62
     3
370
    40
100
AcDbCircle
 10
68.06741561616492
 20
125.4999999999999
 30
0.0
 40
1.0
100
AcDbArc
 50
270.0
 51
18.68506847912293
  0
ARC
  5
11C
330
1F
100
AcDbEntity
  8
GR1_01
 62
     3
370
    40
100
AcDbCircle
 10
26.67067661416139
 20
111.4999999999999
 30
0.0
 40
1.0
100
AcDbArc
 50
90.0
 51
198.6850684791232
  0
ARC
  5
11D
330
1F
100
AcDbEntity
  8
GR1_01
 62
     3
370
    40
100
AcDbCircle
 10
26.67067661416139
 20
125.4999999999999
 30
0.0
 40
1.0
100
AcDbArc
 50
161.3149315208771
 51
270.0
  0
LINE
  5
11E
330
1F
100
AcDbEntity
  8
GR1_01
 62
     3
370
    40
100
AcDbLine
 10
51.36904611516319
 20
94.83568086760141
 30
0.0
 11
52.11904611516313
 21
96.1491610895697
 31
0.0
  0
LINE
  5
11F
330
1F
100
AcDbEntity
  8
GR1_01
 62
     3
370
    40
100
AcDbLine
 10
43.36904611516307
 20
94.83568086760141
 30
0.0
 11
42.61904611516313
 21
96.1491610895697
 31
0.0
  0
LINE
  5
120
330
1F
100
AcDbEntity
  8
GR1_01
 62
     3
370
    40
100
AcDbLine
 10
51.36904611516319
 20
142.1643191323984
 30
0.0
 11
52.11904611516313
 21
140.8508389104301
 31
0.0
  0
LINE
  5
121
330
1F
100
AcDbEntity
  8
GR1_01
 62
     3
370
    40
100
AcDbLine
 10
43.36904611516307
 20
142.1643191323984
 30
0.0
 11
42.61904611516313
 21
140.8508389104301
 31
0.0
  0
ARC
  5
122
330
1F
100
AcDbEntity
  8
GR1_01
 62
     3
370
    40
100
AcDbCircle
 10
47.36904611516316
 20
118.4999999999999
 30
0.0
 40
22.85
100
AcDbArc
 50
101.9979950098528
 51
172.2027860708269
  0
ARC
  5
123
330
1F
100
AcDbEntity
  8
GR1_01
 62
     3
370
    40
100
AcDbCircle
 10
47.36904611516316
 20
118.4999999999999
 30
0.0
 40
22.85
100
AcDbArc
 50
10.04117334658872
 51
78.00200499014726
  0
LINE
  5
124
330
1F
100
AcDbEntity
  8
GR1_01
 62
     3
370
    40
100
AcDbLine
 10
24.73030719268782
 20
115.3999999999999
 30
0.0
 11
24.73030719268782
 21
121.5999999999999
 31
0.0
  0
ARC
  5
125
330
1F
100
AcDbEntity
  8
GR1_01
 62
     3
370
    40
100
AcDbCircle
 10
47.36904611516316
 20
118.4999999999999
 30
0.0
 40
22.85
100
AcDbArc
 50
187.7972139291731
 51
258.0020049901472
  0
LINE
  5
126
330
1F
100
AcDbEntity
  8
GR1_01
 62
     3
370
    40
100
AcDbLine
 10
69.86904611516316
 20
122.4840306223722
 30
0.0
 11
69.86904611516316
 21
114.5159693776276
 31
0.0
  0
ARC
  5
127
330
1F
100
AcDbEntity
  8
GR1_01
 62
     3
370
    40
100
AcDbCircle
 10
47.36904611516319
 20
118.4999999999999
 30
0.0
 40
12.0
100
AcDbArc
 50
320.9680959742635
 51
39.03190402573726
  0
ARC
  5
128
330
1F
100
AcDbEntity
  8
GR1_01
 62
     3
370
    40
100
AcDbCircle
 10
47.36904611516319
 20
118.4999999999999
 30
0.0
 40
12.0
100
AcDbArc
 50
50.96809597426387
 51
129.031904025737
  0
ARC
  5
129
330
1F
100
AcDbEntity
  8
GR1_01
 62
     3
370
    40
100
AcDbCircle
 10
47.36904611516319
 20
118.4999999999999
 30
0.0
 40
12.0
100
AcDbArc
 50
140.9680959742637
 51
219.0319040257367
  0
ARC
  5
12A
330
1F
100
AcDbEntity
  8
GR1_01
 62
     3
370
    40
100
AcDbCircle
 10
47.36904611516319
 20
118.4999999999999
 30
0.0
 40
12.0
100
AcDbArc
 50
230.9680959742633
 51
309.0319040257369
  0
ARC
  5
12B
330
1F
100
AcDbEntity
  8
GR1_01
 62
     3
370
    40
100
AcDbCircle
 10
55.85432748940163
 20
126.9852813742385
 30
0.0
 40
1.0
100
AcDbArc
 50
325.3398908939312
 51
124.6601091060697
  0
ARC
  5
12C
330
1F
100
AcDbEntity
  8
GR1_01
 62
     3
370
    40
100
AcDbCircle
 10
56.92362973609524
 20
126.2459622920987
 30
0.0
 40
0.3
100
AcDbArc
 50
145.3398908939336
 51
219.0319040257359
  0
ARC
  5
12D
330
1F
100
AcDbEntity
  8
GR1_01
 62
     3
370
    40
100
AcDbCircle
 10
55.11500840726184
 20
128.0545836209321
 30
0.0
 40
0.3
100
AcDbArc
 50
230.9680959742642
 51
304.660109106068
  0
ARC
  5
12E
330
1F
100
AcDbEntity
  8
GR1_01
 62
     3
370
    40
100
AcDbCircle
 10
38.88376474092458
 20
126.9852813742384
 30
0.0
 40
1.0
100
AcDbArc
 50
55.33989089393128
 51
214.6601091060697
  0
ARC
  5
12F
330
1F
100
AcDbEntity
  8
GR1_01
 62
     3
370
    40
100
AcDbCircle
 10
39.62308382306433
 20
128.054583620932
 30
0.0
 40
0.3
100
AcDbArc
 50
235.3398908939336
 51
309.0319040257359
  0
ARC
  5
130
330
1F
100
AcDbEntity
  8
GR1_01
 62
     3
370
    40
100
AcDbCircle
 10
37.81446249423097
 20
126.2459622920986
 30
0.0
 40
0.3
100
AcDbArc
 50
320.9680959742642
 51
34.66010910606801
  0
ARC
  5
131
330
1F
100
AcDbEntity
  8
GR1_01
 62
     3
370
    40
100
AcDbCircle
 10
38.88376474092463
 20
110.0147186257614
 30
0.0
 40
1.0
100
AcDbArc
 50
145.3398908939313
 51
304.6601091060697
  0
ARC
  5
132
330
1F
100
AcDbEntity
  8
GR1_01
 62
     3
370
    40
100
AcDbCircle
 10
37.81446249423102
 20
110.7540377079011
 30
0.0
 40
0.3
100
AcDbArc
 50
325.3398908939336
 51
39.03190402573589
  0
ARC
  5
133
330
1F
100
AcDbEntity
  8
GR1_01
 62
     3
370
    40
100
AcDbCircle
 10
39.62308382306442
 20
108.9454163790678
 30
0.0
 40
0.3
100
AcDbArc
 50
50.96809597426419
 51
124.660109106068
  0
ARC
  5
134
330
1F
100
AcDbEntity
  8
GR1_01
 62
     3
370
    40
100
AcDbCircle
 10
55.85432748940168
 20
110.0147186257614
 30
0.0
 40
1.0
100
AcDbArc
 50
235.3398908939313
 51
34.6601091060697
  0
ARC
  5
135
330
1F
100
AcDbEntity
  8
GR1_01
 62
     3
370
    40
100
AcDbCircle
 10
55.11500840726193
 20
108.9454163790678
 30
0.0
 40
0.3
100
AcDbArc
 50
55.33989089393361
 51
129.031904025736
  0
ARC
  5
136
330
1F
100
AcDbEntity
  8
GR1_01
 62
     3
370
    40
100
AcDbCircle
 10
56.92362973609529
 20
110.7540377079012
 30
0.0
 40
0.3
100
AcDbArc
 50
140.9680959742642
 51
214.660109106068
  0
LINE
  5
137
330
1F
100
AcDbEntity
  8
GR1_01
  6
一点鎖線
 62
     7
100
AcDbLine
 10
47.3690461151631
 20
90.49999999999983
 30
0.0
 11
47.3690461151631
 21
146.4999999999998
 31
0.0
  0
LINE
  5
138
330
1F
100
AcDbEntity
  8
GR1_01
  6
一点鎖線
 62
     7
100
AcDbLine
 10
16.86904611516319
 20
118.4999999999999
 30
0.0
 11
77.86904611516313
 21
118.4999999999999
 31
0.0
  0
LINE
  5
139
330
1F
100
AcDbEntity
  8
GR1_01
 62
     3
370
    40
100
AcDbLine
 10
191.4545454545455
 20
147.5000000000001
 30
0.0
 11
191.4545454545455
 21
89.50000000000006
 31
0.0
  0
LINE
  5
13A
330
1F
100
AcDbEntity
  8
GR1_01
 62
     3
370
    40
100
AcDbLine
 10
197.4545454545455
 20
148.5000000000001
 30
0.0
 11
197.4545454545455
 21
88.50000000000006
 31
0.0
  0
LINE
  5
13B
330
1F
100
AcDbEntity
  8
GR1_01
 62
     3
370
    40
100
AcDbLine
 10
192.4545454545455
 20
88.50000000000006
 30
0.0
 11
197.4545454545455
 21
88.50000000000006
 31
0.0
  0
LINE
  5
13C
330
1F
100
AcDbEntity
  8
GR1_01
 62
     3
370
    40
100
AcDbLine
 10
192.4545454545455
 20
148.5000000000001
 30
0.0
 11
197.4545454545455
 21
148.5000000000001
 31
0.0
  0
ARC
  5
13D
330
1F
100
AcDbEntity
  8
GR1_01
 62
     3
370
    40
100
AcDbCircle
 10
192.4545454545455
 20
89.50000000000006
 30
0.0
 40
1.0
100
AcDbArc
 50
180.0
 51
270.0
  0
ARC
  5
13E
330
1F
100
AcDbEntity
  8
GR1_01
 62
     3
370
    40
100
AcDbCircle
 10
192.4545454545455
 20
147.5000000000001
 30
0.0
 40
1.0
100
AcDbArc
 50
90.0
 51
180.0
  0
LINE
  5
13F
330
1F
100
AcDbEntity
  8
GR1_01
  6
一点鎖線
 62
     7
100
AcDbLine
 10
333.552970609147
 20
134.7631397208144
 30
0.0
 11
328.052970609147
 21
125.2368602791857
 31
0.0
  0
CIRCLE
  5
140
330
1F
100
AcDbEntity
  8
GR1_01
 62
     3
370
    40
100
AcDbCircle
 10
330.802970609147
 20
130.0
 30
0.0
 40
3.5
  0
LINE
  5
141
330
1F
100
AcDbEntity
  8
GR1_01
  6
一点鎖線
 62
     7
100
AcDbLine
 10
326.0398308883326
 20
132.75
 30
0.0
 11
335.5661103299614
 21
127.25
 31
0.0
  0
LINE
  5
142
330
1F
100
AcDbEntity
  8
GR1_01
  6
一点鎖線
 62
     7
100
AcDbLine
 10
356.221554896189
 20
95.50000000000003
 30
0.0
 11
345.221554896189
 21
95.50000000000003
 31
0.0
  0
CIRCLE
  5
143
330
1F
100
AcDbEntity
  8
GR1_01
 62
     3
370
    40
100
AcDbCircle
 10
350.721554896189
 20
95.50000000000003
 30
0.0
 40
3.5
  0
LINE
  5
144
330
1F
100
AcDbEntity
  8
GR1_01
  6
一点鎖線
 62
     7
100
AcDbLine
 10
373.3901391832309
 20
125.2368602791856
 30
0.0
 11
367.8901391832309
 21
134.7631397208143
 31
0.0
  0
CIRCLE
  5
145
330
1F
100
AcDbEntity
  8
GR1_01
 62
     3
370
    40
100
AcDbCircle
 10
370.6401391832309
 20
130.0
 30
0.0
 40
3.5
  0
LINE
  5
146
330
1F
100
AcDbEntity
  8
GR1_01
  6
一点鎖線
 62
     7
100
AcDbLine
 10
375.4032789040452
 20
132.7499999999999
 30
0.0
 11
365.8769994624165
 21
127.25
 31
0.0
  0
LINE
  5
147
330
1F
100
AcDbEntity
  8
GR1_01
  6
一点鎖線
 62
     7
100
AcDbLine
 10
317.721554896189
 20
118.5
 30
0.0
 11
383.7215548961889
 21
118.5
 31
0.0
  0
LINE
  5
148
330
1F
100
AcDbEntity
  8
GR1_01
  6
一点鎖線
 62
     7
100
AcDbLine
 10
350.721554896189
 20
151.5
 30
0.0
 11
350.721554896189
 21
85.50000000000003
 31
0.0
  0
LINE
  5
149
330
1F
100
AcDbEntity
  8
GR1_01
 62
     3
370
    40
100
AcDbLine
 10
375.2215548961889
 20
88.50000000000003
 30
0.0
 11
326.221554896189
 21
88.50000000000003
 31
0.0
  0
LINE
  5
14A
330
1F
100
AcDbEntity
  8
GR1_01
 62
     3
370
    40
100
AcDbLine
 10
380.7215548961889
 20
143.0
 30
0.0
 11
380.7215548961889
 21
94.00000000000003
 31
0.0
  0
ARC
  5
14B
330
1F
100
AcDbEntity
  8
GR1_01
 62
     3
370
    40
100
AcDbCircle
 10
375.2215548961889
 20
143.0
 30
0.0
 40
5.5
100
AcDbArc
 50
0.0
 51
90.0
  0
LINE
  5
14C
330
1F
100
AcDbEntity
  8
GR1_01
 62
     3
370
    40
100
AcDbLine
 10
375.2215548961889
 20
148.5
 30
0.0
 11
326.221554896189
 21
148.5
 31
0.0
  0
LINE
  5
14D
330
1F
100
AcDbEntity
  8
GR1_01
 62
     3
370
    40
100
AcDbLine
 10
320.721554896189
 20
143.0
 30
0.0
 11
320.721554896189
 21
94.00000000000003
 31
0.0
  0
ARC
  5
14E
330
1F
100
AcDbEntity
  8
GR1_01
 62
     3
370
    40
100
AcDbCircle
 10
326.221554896189
 20
143.0
 30
0.0
 40
5.5
100
AcDbArc
 50
90.0
 51
180.0
  0
ARC
  5
14F
330
1F
100
AcDbEntity
  8
GR1_01
 62
     3
370
    40
100
AcDbCircle
 10
326.221554896189
 20
94.00000000000003
 30
0.0
 40
5.5
100
AcDbArc
 50
180.0
 51
270.0
  0
ARC
  5
150
330
1F
100
AcDbEntity
  8
GR1_01
 62
     3
370
    40
100
AcDbCircle
 10
375.221554896189
 20
94.00000000000003
 30
0.0
 40
5.5
100
AcDbArc
 50
270.0
 51
0.0
  0
LINE
  5
151
330
1F
100
AcDbEntity
  8
GR1_01
 62
     3
370
    40
100
AcDbLine
 10
197.4545454545455
 20
148.5
 30
0.0
 11
197.4545454545455
 21
88.5
 31
0.0
  0
LINE
  5
152
330
1F
100
AcDbEntity
  8
GR1_01
 62
     3
370
    40
100
AcDbLine
 10
239.4545454545455
 20
147.5
 30
0.0
 11
239.4545454545455
 21
89.5
 31
0.0
  0
LINE
  5
153
330
1F
100
AcDbEntity
  8
GR1_01
 62
     3
370
    40
100
AcDbLine
 10
197.4545454545455
 20
88.5
 30
0.0
 11
238.4545454545455
 21
88.5
 31
0.0
  0
LINE
  5
154
330
1F
100
AcDbEntity
  8
GR1_01
 62
     3
370
    40
100
AcDbLine
 10
197.4545454545455
 20
148.5
 30
0.0
 11
238.4545454545455
 21
148.5
 31
0.0
  0
LINE
  5
155
330
1F
100
AcDbEntity
  8
GR1_01
 62
     3
370
    40
100
AcDbLine
 10
244.4545454545455
 20
137.0
 30
0.0
 11
244.4545454545455
 21
120.0
 31
0.0
  0
LINE
  5
156
330
1F
100
AcDbEntity
  8
GR1_01
 62
     3
370
    40
100
AcDbLine
 10
239.4545454545455
 20
119.5
 30
0.0
 11
243.9545454545455
 21
119.5
 31
0.0
  0
LINE
  5
157
330
1F
100
AcDbEntity
  8
GR1_01
 62
     3
370
    40
100
AcDbLine
 10
239.4545454545455
 20
137.5
 30
0.0
 11
243.9545454545455
 21
137.5
 31
0.0
  0
LINE
  5
158
330
1F
100
AcDbEntity
  8
GR1_01
 62
     3
370
    40
100
AcDbLine
 10
244.4545454545455
 20
124.5
 30
0.0
 11
271.4545454545455
 21
124.5
 31
0.0
  0
LINE
  5
159
330
1F
100
AcDbEntity
  8
GR1_01
 62
     3
370
    40
100
AcDbLine
 10
244.4545454545455
 20
132.5
 30
0.0
 11
257.4545454545455
 21
132.5
 31
0.0
  0
LINE
  5
15A
330
1F
100
AcDbEntity
  8
GR1_01
 62
     3
370
    40
100
AcDbLine
 10
271.4545454545455
 20
131.5
 30
0.0
 11
271.4545454545455
 21
124.5
 31
0.0
  0
LINE
  5
15B
330
1F
100
AcDbEntity
  8
GR1_01
 62
     3
370
    40
100
AcDbLine
 10
257.4545454545455
 20
132.4999999999999
 30
0.0
 11
257.4545454545455
 21
131.5
 31
0.0
  0
LINE
  5
15C
330
1F
100
AcDbEntity
  8
GR1_01
 62
     3
370
    40
100
AcDbLine
 10
257.4545454545455
 20
131.5
 30
0.0
 11
271.4545454545455
 21
131.5
 31
0.0
  0
LINE
  5
15D
330
1F
100
AcDbEntity
  8
GR1_01
  6
一点鎖線
 62
     7
100
AcDbLine
 10
236.4545454545455
 20
128.5
 30
0.0
 11
274.4545454545455
 21
128.5
 31
0.0
  0
ARC
  5
15E
330
1F
100
AcDbEntity
  8
GR1_01
 62
     3
370
    40
100
AcDbCircle
 10
238.4545454545455
 20
147.5
 30
0.0
 40
1.0
100
AcDbArc
 50
0.0
 51
90.0
  0
ARC
  5
15F
330
1F
100
AcDbEntity
  8
GR1_01
 62
     3
370
    40
100
AcDbCircle
 10
238.4545454545455
 20
89.5
 30
0.0
 40
1.0
100
AcDbArc
 50
270.0
 51
0.0
  0
ARC
  5
160
330
1F
100
AcDbEntity
  8
GR1_01
 62
     3
370
    40
100
AcDbCircle
 10
243.9545454545455
 20
137.0
 30
0.0
 40
0.5
100
AcDbArc
 50
0.0
 51
90.0
  0
ARC
  5
161
330
1F
100
AcDbEntity
  8
GR1_01
 62
     3
370
    40
100
AcDbCircle
 10
243.9545454545455
 20
120.0
 30
0.0
 40
0.5
100
AcDbArc
 50
270.0
 51
0.0
  0
LINE
  5
162
330
1F
100
AcDbEntity
  8
GR1_01
  6
一点鎖線
 62
     7
100
AcDbLine
 10
185.8545454545455
 20
143.2487373415292
 30
0.0
 11
259.4545454545455
 21
143.2487373415292
 31
0.0
  0
LINE
  5
163
330
1F
100
AcDbEntity
  8
GR1_01
 62
     3
370
    40
100
AcDbLine
 10
191.4545454545455
 20
139.7487373415292
 30
0.0
 11
190.391621471582
 21
139.804442827023
 31
0.0
  0
LINE
  5
164
330
1F
100
AcDbEntity
  8
GR1_01
 62
     3
370
    40
100
AcDbLine
 10
191.4545454545455
 20
146.7487373415292
 30
0.0
 11
190.391621471582
 21
146.6930318560354
 31
0.0
  0
LINE
  5
165
330
1F
100
AcDbEntity
  8
GR1_01
 62
     3
370
    40
100
AcDbLine
 10
191.4545454545455
 20
139.7487373415292
 30
0.0
 11
191.4545454545455
 21
146.7487373415292
 31
0.0
  0
ARC
  5
166
330
1F
100
AcDbEntity
  8
GR1_01
 62
     3
370
    40
100
AcDbCircle
 10
190.4596582146979
 20
141.1026612222039
 30
0.0
 40
1.3
100
AcDbArc
 50
196.1832992197579
 51
266.9999999999994
  0
ARC
  5
167
330
1F
100
AcDbEntity
  8
GR1_01
 62
     3
370
    40
100
AcDbCircle
 10
190.4596582146979
 20
145.3948134608544
 30
0.0
 40
1.3
100
AcDbArc
 50
93.00000000000053
 51
163.8167007802421
  0
ARC
  5
168
330
1F
100
AcDbEntity
  8
GR1_01
 62
     3
370
    40
100
AcDbCircle
 10
197.8545454545455
 20
143.2487373415292
 30
0.0
 40
9.0
100
AcDbArc
 50
163.8167007802421
 51
196.1832992197579
  0
LINE
  5
169
330
1F
100
AcDbEntity
  8
GR1_01
 62
     3
370
    40
100
AcDbLine
 10
243.4545454545455
 20
141.2487373415292
 30
0.0
 11
255.6545454545455
 21
141.2487373415292
 31
0.0
  0
LINE
  5
16A
330
1F
100
AcDbEntity
  8
GR1_01
 62
     3
370
    40
100
AcDbLine
 10
243.4545454545455
 20
145.2487373415292
 30
0.0
 11
255.6545454545455
 21
145.2487373415292
 31
0.0
  0
LINE
  5
16B
330
1F
100
AcDbEntity
  8
GR1_01
 62
     3
370
    40
100
AcDbLine
 10
256.4545454545455
 20
142.0487373415292
 30
0.0
 11
256.4545454545455
 21
144.4487373415292
 31
0.0
  0
LINE
  5
16C
330
1F
100
AcDbEntity
  8
GR1_01
 62
     7
100
AcDbLine
 10
243.4545454545455
 20
141.6487373415292
 30
0.0
 11
256.0545454545455
 21
141.6487373415292
 31
0.0
  0
LINE
  5
16D
330
1F
100
AcDbEntity
  8
GR1_01
 62
     7
100
AcDbLine
 10
243.4545454545455
 20
144.8487373415292
 30
0.0
 11
256.0545454545455
 21
144.8487373415292
 31
0.0
  0
LINE
  5
16E
330
1F
100
AcDbEntity
  8
GR1_01
 62
     3
370
    40
100
AcDbLine
 10
255.6545454545455
 20
141.2487373415292
 30
0.0
 11
256.4545454545455
 21
142.0487373415292
 31
0.0
  0
LINE
  5
16F
330
1F
100
AcDbEntity
  8
GR1_01
 62
     3
370
    40
100
AcDbLine
 10
256.4545454545455
 20
144.4487373415292
 30
0.0
 11
255.6545454545455
 21
145.2487373415292
 31
0.0
  0
LINE
  5
170
330
1F
100
AcDbEntity
  8
GR1_01
 62
     3
370
    40
100
AcDbLine
 10
255.6545454545456
 20
145.2487373415292
 30
0.0
 11
255.6545454545456
 21
141.2487373415292
 31
0.0
  0
LINE
  5
171
330
1F
100
AcDbEntity
  8
GR1_01
  6
一点鎖線
 62
     7
100
AcDbLine
 10
185.8545454545456
 20
93.75126265847092
 30
0.0
 11
259.4545454545455
 21
93.75126265847089
 31
0.0
  0
LINE
  5
172
330
1F
100
AcDbEntity
  8
GR1_01
 62
     3
370
    40
100
AcDbLine
 10
191.4545454545456
 20
90.25126265847089
 30
0.0
 11
190.3916214715821
 21
90.3069681439647
 31
0.0
  0
LINE
  5
173
330
1F
100
AcDbEntity
  8
GR1_01
 62
     3
370
    40
100
AcDbLine
 10
191.4545454545456
 20
97.25126265847089
 30
0.0
 11
190.3916214715821
 21
97.19555717297709
 31
0.0
  0
LINE
  5
174
330
1F
100
AcDbEntity
  8
GR1_01
 62
     3
370
    40
100
AcDbLine
 10
191.4545454545456
 20
90.25126265847089
 30
0.0
 11
191.4545454545456
 21
97.25126265847089
 31
0.0
  0
ARC
  5
175
330
1F
100
AcDbEntity
  8
GR1_01
 62
     3
370
    40
100
AcDbCircle
 10
190.4596582146979
 20
91.60518653914565
 30
0.0
 40
1.3
100
AcDbArc
 50
196.1832992197579
 51
266.9999999999994
  0
ARC
  5
176
330
1F
100
AcDbEntity
  8
GR1_01
 62
     3
370
    40
100
AcDbCircle
 10
190.4596582146979
 20
95.89733877779614
 30
0.0
 40
1.3
100
AcDbArc
 50
93.00000000000053
 51
163.8167007802421
  0
ARC
  5
177
330
1F
100
AcDbEntity
  8
GR1_01
 62
     3
370
    40
100
AcDbCircle
 10
197.8545454545456
 20
93.75126265847089
 30
0.0
 40
9.0
100
AcDbArc
 50
163.8167007802421
 51
196.1832992197579
  0
LINE
  5
178
330
1F
100
AcDbEntity
  8
GR1_01
 62
     3
370
    40
100
AcDbLine
 10
243.4545454545455
 20
91.75126265847089
 30
0.0
 11
255.6545454545456
 21
91.75126265847089
 31
0.0
  0
LINE
  5
179
330
1F
100
AcDbEntity
  8
GR1_01
 62
     3
370
    40
100
AcDbLine
 10
243.4545454545455
 20
95.75126265847089
 30
0.0
 11
255.6545454545456
 21
95.75126265847089
 31
0.0
  0
LINE
  5
17A
330
1F
100
AcDbEntity
  8
GR1_01
 62
     3
370
    40
100
AcDbLine
 10
256.4545454545456
 20
92.5512626584709
 30
0.0
 11
256.4545454545456
 21
94.95126265847088
 31
0.0
  0
LINE
  5
17B
330
1F
100
AcDbEntity
  8
GR1_01
 62
     7
100
AcDbLine
 10
243.4545454545455
 20
92.1512626584709
 30
0.0
 11
256.0545454545456
 21
92.1512626584709
 31
0.0
  0
LINE
  5
17C
330
1F
100
AcDbEntity
  8
GR1_01
 62
     7
100
AcDbLine
 10
243.4545454545455
 20
95.35126265847086
 30
0.0
 11
256.0545454545456
 21
95.35126265847089
 31
0.0
  0
LINE
  5
17D
330
1F
100
AcDbEntity
  8
GR1_01
 62
     3
370
    40
100
AcDbLine
 10
256.4545454545456
 20
94.95126265847088
 30
0.0
 11
255.6545454545456
 21
95.75126265847089
 31
0.0
  0
LINE
  5
17E
330
1F
100
AcDbEntity
  8
GR1_01
 62
     3
370
    40
100
AcDbLine
 10
255.6545454545456
 20
91.75126265847089
 30
0.0
 11
256.4545454545456
 21
92.5512626584709
 31
0.0
  0
LINE
  5
17F
330
1F
100
AcDbEntity
  8
GR1_01
 62
     3
370
    40
100
AcDbLine
 10
255.6545454545456
 20
95.75126265847092
 30
0.0
 11
255.6545454545456
 21
91.75126265847089
 31
0.0
  0
LINE
  5
180
330
1F
100
AcDbEntity
  8
GR1_01
 62
     3
370
    40
100
AcDbLine
 10
141.4545458181503
 20
181.6131778732405
 30
0.0
 11
130.4545458181503
 21
181.6131778732403
 31
0.0
  0
LINE
  5
181
330
1F
100
AcDbEntity
  8
GR1_01
 62
     3
370
    40
100
AcDbLine
 10
126.9545458181502
 20
188.2650753456547
 30
0.0
 11
126.9545458181503
 21
229.9612804008262
 31
0.0
  0
LINE
  5
182
330
1F
100
AcDbEntity
  8
GR1_01
 62
     3
370
    40
100
AcDbLine
 10
139.4545458181503
 20
185.7518851007931
 30
0.0
 11
141.4545458181503
 21
185.7518851007931
 31
0.0
  0
LINE
  5
183
330
1F
100
AcDbEntity
  8
GR1_01
 62
     3
370
    40
100
AcDbLine
 10
126.9545458181504
 20
205.1131778732405
 30
0.0
 11
139.4545458181503
 21
205.1131778732405
 31
0.0
  0
LINE
  5
184
330
1F
100
AcDbEntity
  8
GR1_01
 62
     3
370
    40
100
AcDbLine
 10
126.9545458181504
 20
204.4131778732404
 30
0.0
 11
139.4545458181503
 21
204.4131778732404
 31
0.0
  0
LINE
  5
185
330
1F
100
AcDbEntity
  8
GR1_01
 62
     3
370
    40
100
AcDbLine
 10
141.4545458181503
 20
236.6131778732405
 30
0.0
 11
130.4545458181503
 21
236.6131778732405
 31
0.0
  0
LINE
  5
186
330
1F
100
AcDbEntity
  8
GR1_01
 62
     3
370
    40
100
AcDbLine
 10
139.4545458181503
 20
232.4744706456878
 30
0.0
 11
141.4545458181503
 21
232.4744706456878
 31
0.0
  0
LINE
  5
187
330
1F
100
AcDbEntity
  8
GR1_01
 62
     3
370
    40
100
AcDbLine
 10
126.9545458181504
 20
213.1131778732405
 30
0.0
 11
139.4545458181503
 21
213.1131778732405
 31
0.0
  0
LINE
  5
188
330
1F
100
AcDbEntity
  8
GR1_01
 62
     3
370
    40
100
AcDbLine
 10
126.9545458181504
 20
213.8131778732404
 30
0.0
 11
139.4545458181503
 21
213.8131778732404
 31
0.0
  0
LINE
  5
189
330
1F
100
AcDbEntity
  8
GR1_01
 62
     3
370
    40
100
AcDbLine
 10
141.4545458181503
 20
182.6131778732405
 30
0.0
 11
130.4545458181503
 21
182.6131778732404
 31
0.0
  0
LINE
  5
18A
330
1F
100
AcDbEntity
  8
GR1_01
 62
     3
370
    40
100
AcDbLine
 10
141.4545458181503
 20
235.6131778732405
 30
0.0
 11
130.4545458181503
 21
235.6131778732405
 31
0.0
  0
LINE
  5
18B
330
1F
100
AcDbEntity
  8
GR1_01
 62
     3
370
    40
100
AcDbLine
 10
130.4545458181503
 20
181.6131778732405
 30
0.0
 11
130.4545458181503
 21
186.9349791186075
 31
0.0
  0
LINE
  5
18C
330
1F
100
AcDbEntity
  8
GR1_01
 62
     3
370
    40
100
AcDbLine
 10
130.4545458181503
 20
236.6131778732405
 30
0.0
 11
130.4545458181503
 21
231.2913766278734
 31
0.0
  0
LINE
  5
18D
330
1F
100
AcDbEntity
  8
GR1_01
 62
     3
370
    40
100
AcDbLine
 10
139.4545458181503
 20
205.1131778732405
 30
0.0
 11
139.4545458181503
 21
185.7518851007931
 31
0.0
  0
LINE
  5
18E
330
1F
100
AcDbEntity
  8
GR1_01
 62
     3
370
    40
100
AcDbLine
 10
139.4545458181503
 20
213.1131778732405
 30
0.0
 11
139.4545458181503
 21
232.4744706456878
 31
0.0
  0
LINE
  5
18F
330
1F
100
AcDbEntity
  8
GR1_01
 62
     3
370
    40
100
AcDbLine
 10
127.7321290304303
 20
187.2901236686264
 30
0.0
 11
130.4545458181503
 21
186.6690557623637
 31
0.0
  0
LINE
  5
190
330
1F
100
AcDbEntity
  8
GR1_01
 62
     3
370
    40
100
AcDbLine
 10
130.4545458181503
 20
186.9349791186075
 30
0.0
 11
139.4545458181503
 21
186.9349791186075
 31
0.0
  0
LINE
  5
191
330
1F
100
AcDbEntity
  8
GR1_01
 62
     3
370
    40
100
AcDbLine
 10
127.7321290304304
 20
230.9362320778544
 30
0.0
 11
130.4545458181503
 21
231.5572999841172
 31
0.0
  0
LINE
  5
192
330
1F
100
AcDbEntity
  8
GR1_01
 62
     3
370
    40
100
AcDbLine
 10
130.4545458181503
 20
231.2913766278734
 30
0.0
 11
139.4545458181503
 21
231.2913766278734
 31
0.0
  0
ARC
  5
193
330
1F
100
AcDbEntity
  8
GR1_01
 62
     3
370
    40
100
AcDbCircle
 10
127.9545458181502
 20
188.2650753456547
 30
0.0
 40
1.0
100
AcDbArc
 50
180.0
 51
257.1489776641747
  0
ARC
  5
194
330
1F
100
AcDbEntity
  8
GR1_01
 62
     3
370
    40
100
AcDbCircle
 10
127.9545458181503
 20
229.9612804008262
 30
0.0
 40
1.0
100
AcDbArc
 50
102.8510223358265
 51
180.0
  0
LINE
  5
195
330
1F
100
AcDbEntity
  8
GR1_01
 62
     3
370
    40
100
AcDbLine
 10
130.4545305593603
 20
234.613154848456
 30
0.0
 11
123.4545305593603
 21
234.613154848456
 31
0.0
  0
LINE
  5
196
330
1F
100
AcDbEntity
  8
GR1_01
 62
     3
370
    40
100
AcDbLine
 10
123.4545305593603
 20
234.613154848456
 30
0.0
 11
123.4545305593603
 21
234.113154848456
 31
0.0
  0
LINE
  5
197
330
1F
100
AcDbEntity
  8
GR1_01
 62
     3
370
    40
100
AcDbLine
 10
123.4545305593603
 20
234.113154848456
 30
0.0
 11
130.4545305593603
 21
234.113154848456
 31
0.0
  0
LINE
  5
198
330
1F
100
AcDbEntity
  8
GR1_01
 62
     3
370
    40
100
AcDbLine
 10
130.4545305593603
 20
184.113170107246
 30
0.0
 11
123.4545305593603
 21
184.113170107246
 31
0.0
  0
LINE
  5
199
330
1F
100
AcDbEntity
  8
GR1_01
 62
     3
370
    40
100
AcDbLine
 10
123.4545305593603
 20
184.113170107246
 30
0.0
 11
123.4545305593603
 21
183.6131701072461
 31
0.0
  0
LINE
  5
19A
330
1F
100
AcDbEntity
  8
GR1_01
 62
     3
370
    40
100
AcDbLine
 10
123.4545305593603
 20
183.6131701072461
 30
0.0
 11
130.4545305593603
 21
183.6131701072461
 31
0.0
  0
LINE
  5
19B
330
1F
100
AcDbEntity
  8
GR1_01
 62
     3
370
    40
100
AcDbLine
 10
120.4545458181503
 20
198.3058561766441
 30
0.0
 11
120.4545458181503
 21
219.9205086236372
 31
0.0
  0
LINE
  5
19C
330
1F
100
AcDbEntity
  8
GR1_01
 62
     3
370
    40
100
AcDbLine
 10
121.4110726932161
 20
199.6595017681597
 30
0.0
 11
125.9980189430844
 21
199.4599041805769
 31
0.0
  0
LINE
  5
19D
330
1F
100
AcDbEntity
  8
GR1_01
 62
     3
370
    40
100
AcDbLine
 10
121.4110726932161
 20
201.1483474356613
 30
0.0
 11
126.4762823806174
 21
200.9279385668557
 31
0.0
  0
ARC
  5
19E
330
1F
100
AcDbEntity
  8
GR1_01
 62
     3
370
    40
100
AcDbCircle
 10
125.9545458181503
 20
198.4608495837662
 30
0.0
 40
1.0
100
AcDbArc
 50
0.0
 51
87.50838817693985
  0
LINE
  5
19F
330
1F
100
AcDbEntity
  8
GR1_01
 62
     3
370
    40
100
AcDbLine
 10
121.4110726932161
 20
218.5668630321217
 30
0.0
 11
125.9980189430844
 21
218.7664606197045
 31
0.0
  0
LINE
  5
1A0
330
1F
100
AcDbEntity
  8
GR1_01
 62
     3
370
    40
100
AcDbLine
 10
121.4110726932161
 20
217.07801736462
 30
0.0
 11
126.4762823806174
 21
217.2984262334257
 31
0.0
  0
ARC
  5
1A1
330
1F
100
AcDbEntity
  8
GR1_01
 62
     3
370
    40
100
AcDbCircle
 10
125.9545458181503
 20
219.7655152165151
 30
0.0
 40
1.0
100
AcDbArc
 50
272.4916118230602
 51
0.0
  0
ARC
  5
1A2
330
1F
100
AcDbEntity
  8
GR1_01
 62
     3
370
    40
100
AcDbCircle
 10
121.4545458181503
 20
200.6585563649703
 30
0.0
 40
1.0
100
AcDbArc
 50
180.0
 51
267.5083881769398
  0
ARC
  5
1A3
330
1F
100
AcDbEntity
  8
GR1_01
 62
     3
370
    40
100
AcDbCircle
 10
121.4545458181503
 20
202.1474020324719
 30
0.0
 40
1.0
100
AcDbArc
 50
180.0
 51
267.5083881769398
  0
ARC
  5
1A4
330
1F
100
AcDbEntity
  8
GR1_01
 62
     3
370
    40
100
AcDbCircle
 10
121.4545458181503
 20
216.0789627678094
 30
0.0
 40
1.0
100
AcDbArc
 50
92.49161182306011
 51
180.0
  0
ARC
  5
1A5
330
1F
100
AcDbEntity
  8
GR1_01
 62
     3
370
    40
100
AcDbCircle
 10
121.4545458181503
 20
217.5678084353112
 30
0.0
 40
1.0
100
AcDbArc
 50
92.49161182306017
 51
180.0
  0
ARC
  5
1A6
330
1F
100
AcDbEntity
  8
GR1_01
 62
     3
370
    40
100
AcDbCircle
 10
126.4545458181503
 20
200.4284112684503
 30
0.0
 40
0.5
100
AcDbArc
 50
0.0
 51
87.50838817694019
  0
ARC
  5
1A7
330
1F
100
AcDbEntity
  8
GR1_01
 62
     3
370
    40
100
AcDbCircle
 10
126.4545458181503
 20
217.797953531831
 30
0.0
 40
0.5
100
AcDbArc
 50
272.4916118230601
 51
0.0
  0
LINE
  5
1A8
330
1F
100
AcDbEntity
  8
GR1_01
 62
     3
370
    40
100
AcDbLine
 10
121.4196463214478
 20
220.9198994506563
 30
0.0
 11
126.9545458181503
 21
221.1131824001406
 31
0.0
  0
ARC
  5
1A9
330
1F
100
AcDbEntity
  8
GR1_01
 62
     3
370
    40
100
AcDbCircle
 10
121.4545458181503
 20
219.9205086236372
 30
0.0
 40
1.0
100
AcDbArc
 50
92.00000000000036
 51
179.9999999999984
  0
LINE
  5
1AA
330
1F
100
AcDbEntity
  8
GR1_01
 62
     3
370
    40
100
AcDbLine
 10
121.4196463214478
 20
197.3064653496251
 30
0.0
 11
126.9545458181503
 21
197.1131824001407
 31
0.0
  0
ARC
  5
1AB
330
1F
100
AcDbEntity
  8
GR1_01
 62
     3
370
    40
100
AcDbCircle
 10
121.4545458181503
 20
198.3058561766441
 30
0.0
 40
1.0
100
AcDbArc
 50
180.0
 51
267.9999999999997
  0
LINE
  5
1AC
330
1F
100
AcDbEntity
  8
GR1_01
 62
     3
370
    40
100
AcDbLine
 10
141.4545458181503
 20
181.6131778732405
 30
0.0
 11
141.4545458181503
 21
236.6131778732405
 31
0.0
  0
LINE
  5
1AD
330
1F
100
AcDbEntity
  8
GR1_01
  6
一点鎖線
 62
     7
100
AcDbLine
 10
117.4545458181502
 20
209.1131824001407
 30
0.0
 11
274.4545454545456
 21
209.1131824001407
 31
0.0
  0
LINE
  5
1AE
330
1F
100
AcDbEntity
  8
GR1_01
 62
     3
370
    40
100
AcDbLine
 10
325.9728175546597
 20
139.2072854572018
 30
0.0
 11
329.4728175546597
 21
141.2280113993655
 31
0.0
  0
LINE
  5
1AF
330
1F
100
AcDbEntity
  8
GR1_01
 62
     3
370
    40
100
AcDbLine
 10
329.4728175546597
 20
141.2280113993655
 30
0.0
 11
329.4728175546597
 21
145.2694632836929
 31
0.0
  0
LINE
  5
1B0
330
1F
100
AcDbEntity
  8
GR1_01
 62
     3
370
    40
100
AcDbLine
 10
329.4728175546597
 20
145.2694632836929
 30
0.0
 11
325.9728175546597
 21
147.2901892258566
 31
0.0
  0
LINE
  5
1B1
330
1F
100
AcDbEntity
  8
GR1_01
 62
     3
370
    40
100
AcDbLine
 10
325.9728175546597
 20
147.2901892258566
 30
0.0
 11
322.4728175546597
 21
145.2694632836929
 31
0.0
  0
LINE
  5
1B2
330
1F
100
AcDbEntity
  8
GR1_01
 62
     3
370
    40
100
AcDbLine
 10
322.4728175546597
 20
145.2694632836929
 30
0.0
 11
322.4728175546597
 21
141.2280113993655
 31
0.0
  0
LINE
  5
1B3
330
1F
100
AcDbEntity
  8
GR1_01
 62
     3
370
    40
100
AcDbLine
 10
322.4728175546597
 20
141.2280113993655
 30
0.0
 11
325.9728175546597
 21
139.2072854572018
 31
0.0
  0
CIRCLE
  5
1B4
330
1F
100
AcDbEntity
  8
GR1_01
 62
     3
370
    40
100
AcDbCircle
 10
325.9728175546597
 20
143.2487373415292
 30
0.0
 40
3.4
  0
CIRCLE
  5
1B5
330
1F
100
AcDbEntity
  8
GR1_01
 62
     3
370
    40
100
AcDbCircle
 10
325.9728175546597
 20
143.2487373415292
 30
0.0
 40
4.5
  0
LINE
  5
1B6
330
1F
100
AcDbEntity
  8
GR1_01
 62
     3
370
    40
100
AcDbLine
 10
375.4702922377181
 20
139.2072854572018
 30
0.0
 11
378.9702922377181
 21
141.2280113993655
 31
0.0
  0
LINE
  5
1B7
330
1F
100
AcDbEntity
  8
GR1_01
 62
     3
370
    40
100
AcDbLine
 10
378.9702922377181
 20
141.2280113993655
 30
0.0
 11
378.9702922377181
 21
145.2694632836928
 31
0.0
  0
LINE
  5
1B8
330
1F
100
AcDbEntity
  8
GR1_01
 62
     3
370
    40
100
AcDbLine
 10
378.9702922377181
 20
145.2694632836928
 30
0.0
 11
375.4702922377181
 21
147.2901892258566
 31
0.0
  0
LINE
  5
1B9
330
1F
100
AcDbEntity
  8
GR1_01
 62
     3
370
    40
100
AcDbLine
 10
375.4702922377181
 20
147.2901892258566
 30
0.0
 11
371.9702922377181
 21
145.2694632836928
 31
0.0
  0
LINE
  5
1BA
330
1F
100
AcDbEntity
  8
GR1_01
 62
     3
370
    40
100
AcDbLine
 10
371.9702922377181
 20
145.2694632836928
 30
0.0
 11
371.9702922377181
 21
141.2280113993655
 31
0.0
  0
LINE
  5
1BB
330
1F
100
AcDbEntity
  8
GR1_01
 62
     3
370
    40
100
AcDbLine
 10
371.9702922377181
 20
141.2280113993655
 30
0.0
 11
375.4702922377181
 21
139.2072854572018
 31
0.0
  0
CIRCLE
  5
1BC
330
1F
100
AcDbEntity
  8
GR1_01
 62
     3
370
    40
100
AcDbCircle
 10
375.4702922377181
 20
143.2487373415292
 30
0.0
 40
3.4
  0
CIRCLE
  5
1BD
330
1F
100
AcDbEntity
  8
GR1_01
 62
     3
370
    40
100
AcDbCircle
 10
375.4702922377181
 20
143.2487373415292
 30
0.0
 40
4.5
  0
LINE
  5
1BE
330
1F
100
AcDbEntity
  8
GR1_01
 62
     3
370
    40
100
AcDbLine
 10
325.9728175546597
 20
97.79271454279828
 30
0.0
 11
322.4728175546597
 21
95.77198860063456
 31
0.0
  0
LINE
  5
1BF
330
1F
100
AcDbEntity
  8
GR1_01
 62
     3
370
    40
100
AcDbLine
 10
322.4728175546597
 20
95.77198860063456
 30
0.0
 11
322.4728175546597
 21
91.73053671630723
 31
0.0
  0
LINE
  5
1C0
330
1F
100
AcDbEntity
  8
GR1_01
 62
     3
370
    40
100
AcDbLine
 10
322.4728175546597
 20
91.73053671630723
 30
0.0
 11
325.9728175546597
 21
89.7098107741435
 31
0.0
  0
LINE
  5
1C1
330
1F
100
AcDbEntity
  8
GR1_01
 62
     3
370
    40
100
AcDbLine
 10
325.9728175546597
 20
89.7098107741435
 30
0.0
 11
329.4728175546597
 21
91.73053671630723
 31
0.0
  0
LINE
  5
1C2
330
1F
100
AcDbEntity
  8
GR1_01
 62
     3
370
    40
100
AcDbLine
 10
329.4728175546597
 20
91.73053671630723
 30
0.0
 11
329.4728175546597
 21
95.77198860063456
 31
0.0
  0
LINE
  5
1C3
330
1F
100
AcDbEntity
  8
GR1_01
 62
     3
370
    40
100
AcDbLine
 10
329.4728175546597
 20
95.77198860063456
 30
0.0
 11
325.9728175546597
 21
97.79271454279828
 31
0.0
  0
CIRCLE
  5
1C4
330
1F
100
AcDbEntity
  8
GR1_01
 62
     3
370
    40
100
AcDbCircle
 10
325.9728175546597
 20
93.75126265847089
 30
0.0
 40
3.4
  0
CIRCLE
  5
1C5
330
1F
100
AcDbEntity
  8
GR1_01
 62
     3
370
    40
100
AcDbCircle
 10
325.9728175546597
 20
93.75126265847089
 30
0.0
 40
4.5
  0
LINE
  5
1C6
330
1F
100
AcDbEntity
  8
GR1_01
 62
     3
370
    40
100
AcDbLine
 10
375.4702922377181
 20
89.70981077414348
 30
0.0
 11
378.9702922377181
 21
91.7305367163072
 31
0.0
  0
LINE
  5
1C7
330
1F
100
AcDbEntity
  8
GR1_01
 62
     3
370
    40
100
AcDbLine
 10
378.9702922377181
 20
91.7305367163072
 30
0.0
 11
378.9702922377181
 21
95.77198860063453
 31
0.0
  0
LINE
  5
1C8
330
1F
100
AcDbEntity
  8
GR1_01
 62
     3
370
    40
100
AcDbLine
 10
378.9702922377181
 20
95.77198860063453
 30
0.0
 11
375.4702922377181
 21
97.79271454279825
 31
0.0
  0
LINE
  5
1C9
330
1F
100
AcDbEntity
  8
GR1_01
 62
     3
370
    40
100
AcDbLine
 10
375.4702922377181
 20
97.79271454279825
 30
0.0
 11
371.9702922377181
 21
95.77198860063453
 31
0.0
  0
LINE
  5
1CA
330
1F
100
AcDbEntity
  8
GR1_01
 62
     3
370
    40
100
AcDbLine
 10
371.9702922377181
 20
95.77198860063453
 30
0.0
 11
371.9702922377181
 21
91.7305367163072
 31
0.0
  0
LINE
  5
1CB
330
1F
100
AcDbEntity
  8
GR1_01
 62
     3
370
    40
100
AcDbLine
 10
371.9702922377181
 20
91.7305367163072
 30
0.0
 11
375.4702922377181
 21
89.70981077414348
 31
0.0
  0
CIRCLE
  5
1CC
330
1F
100
AcDbEntity
  8
GR1_01
 62
     3
370
    40
100
AcDbCircle
 10
375.4702922377181
 20
93.75126265847086
 30
0.0
 40
3.4
  0
CIRCLE
  5
1CD
330
1F
100
AcDbEntity
  8
GR1_01
 62
     3
370
    40
100
AcDbCircle
 10
375.4702922377181
 20
93.75126265847086
 30
0.0
 40
4.5
  0
LINE
  5
1CE
330
1F
100
AcDbEntity
  8
GR1_01
 62
     3
370
    40
100
AcDbLine
 10
141.4545383253569
 20
94.50002302478555
 30
0.0
 11
141.4545533109435
 21
142.4999769752192
 31
0.0
  0
LINE
  5
1CF
330
1F
100
AcDbEntity
  8
GR1_01
 62
     3
370
    40
100
AcDbLine
 10
141.4545448815501
 20
115.5000000000001
 30
0.0
 11
129.4545296227595
 21
115.5000000000001
 31
0.0
  0
LINE
  5
1D0
330
1F
100
AcDbEntity
  8
GR1_01
 62
     3
370
    40
100
AcDbLine
 10
141.4545458181502
 20
114.0
 30
0.0
 11
130.4545305593596
 21
114.0
 31
0.0
  0
LINE
  5
1D1
330
1F
100
AcDbEntity
  8
GR1_01
 62
     3
370
    40
100
AcDbLine
 10
141.4545455059501
 20
113.0
 30
0.0
 11
130.4545302471596
 21
113.0
 31
0.0
  0
LINE
  5
1D2
330
1F
100
AcDbEntity
  8
GR1_01
 62
     3
370
    40
100
AcDbLine
 10
141.4545458181503
 20
121.5000000000001
 30
0.0
 11
129.4545314959597
 21
121.5000000000001
 31
0.0
  0
LINE
  5
1D3
330
1F
100
AcDbEntity
  8
GR1_01
 62
     3
370
    40
100
AcDbLine
 10
141.4545461303502
 20
122.9999999999999
 30
0.0
 11
130.4545308715597
 21
122.9999999999999
 31
0.0
  0
LINE
  5
1D4
330
1F
100
AcDbEntity
  8
GR1_01
 62
     3
370
    40
100
AcDbLine
 10
141.4545458181502
 20
123.9999999999999
 30
0.0
 11
130.4545305593596
 21
123.9999999999999
 31
0.0
  0
LINE
  5
1D5
330
1F
100
AcDbEntity
  8
GR1_01
 62
     3
370
    40
100
AcDbLine
 10
130.4545302471596
 20
113.0
 30
0.0
 11
130.4545343057599
 21
124.0
 31
0.0
  0
LINE
  5
1D6
330
1F
100
AcDbEntity
  8
GR1_01
 62
     3
370
    40
100
AcDbLine
 10
140.4545448815501
 20
115.5000000000001
 30
0.0
 11
140.4545467547502
 21
121.5
 31
0.0
  0
LINE
  5
1D7
330
1F
100
AcDbEntity
  8
GR1_01
 62
     3
370
    40
100
AcDbLine
 10
129.4545296227595
 20
115.5000000000001
 30
0.0
 11
129.4545298100795
 21
116.1000000000001
 31
0.0
  0
LINE
  5
1D8
330
1F
100
AcDbEntity
  8
GR1_01
 62
     3
370
    40
100
AcDbLine
 10
129.4545298100795
 20
116.1
 30
0.0
 11
123.4545298100793
 21
116.1
 31
0.0
  0
LINE
  5
1D9
330
1F
100
AcDbEntity
  8
GR1_01
 62
     3
370
    40
100
AcDbLine
 10
129.4545298100795
 20
120.9
 30
0.0
 11
123.4545313086394
 21
120.9
 31
0.0
  0
LINE
  5
1DA
330
1F
100
AcDbEntity
  8
GR1_01
 62
     3
370
    40
100
AcDbLine
 10
129.4545313086396
 20
120.9
 30
0.0
 11
129.4545314959597
 21
121.5
 31
0.0
  0
LINE
  5
1DB
330
1F
100
AcDbEntity
  8
GR1_01
 62
     3
370
    40
100
AcDbLine
 10
123.4545298100793
 20
116.1000000000001
 30
0.0
 11
123.4545313086394
 21
120.9
 31
0.0
  0
CIRCLE
  5
1DC
330
1F
100
AcDbEntity
  8
GR1_01
 62
     3
370
    40
100
AcDbCircle
 10
125.4545305593594
 20
118.5000000000001
 30
0.0
 40
1.0
  0
LINE
  5
1DD
330
1F
100
AcDbEntity
  8
GR1_01
  6
一点鎖線
 62
     7
100
AcDbLine
 10
125.4545299557727
 20
116.5666666666671
 30
0.0
 11
125.4545311629461
 21
120.4333333333333
 31
0.0
  0
LINE
  5
1DE
330
1F
100
AcDbEntity
  8
GR1_01
 62
     3
370
    40
100
AcDbLine
 10
133.4545296227597
 20
115.5000000000001
 30
0.0
 11
133.4545314959599
 21
121.5000000000001
 31
0.0
  0
LINE
  5
1DF
330
1F
100
AcDbEntity
  8
GR1_01
 62
     3
370
    40
100
AcDbLine
 10
134.4545296227598
 20
115.5000000000001
 30
0.0
 11
134.4545314959599
 21
121.5000000000001
 31
0.0
  0
LINE
  5
1E0
330
1F
100
AcDbEntity
  8
GR1_01
 62
     3
370
    40
100
AcDbLine
 10
126.9545458181502
 20
95.97203993243721
 30
0.0
 11
126.9545458181502
 21
112.5
 31
0.0
  0
LINE
  5
1E1
330
1F
100
AcDbEntity
  8
GR1_01
 62
     3
370
    40
100
AcDbLine
 10
141.4545458181501
 20
94.49999999999994
 30
0.0
 11
141.4545458181503
 21
142.5
 31
0.0
  0
LINE
  5
1E2
330
1F
100
AcDbEntity
  8
GR1_01
 62
     3
370
    40
100
AcDbLine
 10
141.4545458181502
 20
94.49999999999994
 30
0.0
 11
127.9196463214477
 21
94.97264910541861
 31
0.0
  0
LINE
  5
1E3
330
1F
100
AcDbEntity
  8
GR1_01
 62
     3
370
    40
100
AcDbLine
 10
141.4545458181503
 20
142.5
 30
0.0
 11
127.9196463214477
 21
142.0273508945819
 31
0.0
  0
LINE
  5
1E4
330
1F
100
AcDbEntity
  8
GR1_01
 62
     3
370
    40
100
AcDbLine
 10
139.4545458181501
 20
94.85954817142562
 30
0.0
 11
139.4545473791503
 21
113.0
 31
0.0
  0
LINE
  5
1E5
330
1F
100
AcDbEntity
  8
GR1_01
 62
     3
370
    40
100
AcDbLine
 10
139.4545476913503
 20
123.9999999999999
 30
0.0
 11
139.4545458181503
 21
142.1404518285743
 31
0.0
  0
LINE
  5
1E6
330
1F
100
AcDbEntity
  8
GR1_01
 62
     3
370
    40
100
AcDbLine
 10
126.9545458181502
 20
124.5000000000001
 30
0.0
 11
130.4545458181503
 21
122.47
 31
0.0
  0
LINE
  5
1E7
330
1F
100
AcDbEntity
  8
GR1_01
 62
     3
370
    40
100
AcDbLine
 10
126.9545458181502
 20
112.5
 30
0.0
 11
130.4545458181502
 21
114.53
 31
0.0
  0
LINE
  5
1E8
330
1F
100
AcDbEntity
  8
GR1_01
 62
     3
370
    40
100
AcDbLine
 10
126.9545458181503
 20
141.0279600675628
 30
0.0
 11
126.9545458181503
 21
124.5
 31
0.0
  0
LINE
  5
1E9
330
1F
100
AcDbEntity
  8
GR1_01
 62
     3
370
    40
100
AcDbLine
 10
139.4545458181503
 20
142.1404518285743
 30
0.0
 11
127.9196463214477
 21
141.7376442621394
 31
0.0
  0
LINE
  5
1EA
330
1F
100
AcDbEntity
  8
GR1_01
 62
     3
370
    40
100
AcDbLine
 10
139.4545458181503
 20
140.8508389104302
 30
0.0
 11
127.9196463214477
 21
140.4480313439953
 31
0.0
  0
ARC
  5
1EB
330
1F
100
AcDbEntity
  8
GR1_01
 62
     3
370
    40
100
AcDbCircle
 10
127.9545458181503
 20
141.0279600675628
 30
0.0
 40
1.0
100
AcDbArc
 50
91.99999999999946
 51
179.9999999999999
  0
ARC
  5
1EC
330
1F
100
AcDbEntity
  8
GR1_01
 62
     3
370
    40
100
AcDbCircle
 10
127.9545458181503
 20
140.7382534351203
 30
0.0
 40
1.0
100
AcDbArc
 50
92.00000000000031
 51
179.9999999999999
  0
ARC
  5
1ED
330
1F
100
AcDbEntity
  8
GR1_01
 62
     3
370
    40
100
AcDbCircle
 10
127.9545458181503
 20
139.4486405169762
 30
0.0
 40
1.0
100
AcDbArc
 50
92.00000000000026
 51
179.9999999999999
  0
LINE
  5
1EE
330
1F
100
AcDbEntity
  8
GR1_01
 62
     3
370
    40
100
AcDbLine
 10
139.4545458181502
 20
94.85954817142567
 30
0.0
 11
127.9196463214477
 21
95.26235573786062
 31
0.0
  0
LINE
  5
1EF
330
1F
100
AcDbEntity
  8
GR1_01
 62
     3
370
    40
100
AcDbLine
 10
139.4545458181502
 20
96.14916108956976
 30
0.0
 11
127.9196463214477
 21
96.5519686560047
 31
0.0
  0
ARC
  5
1F0
330
1F
100
AcDbEntity
  8
GR1_01
 62
     3
370
    40
100
AcDbCircle
 10
127.9545458181502
 20
95.97203993243721
 30
0.0
 40
1.0
100
AcDbArc
 50
179.9999999999999
 51
268.0000000000003
  0
ARC
  5
1F1
330
1F
100
AcDbEntity
  8
GR1_01
 62
     3
370
    40
100
AcDbCircle
 10
127.9545458181502
 20
96.26174656487973
 30
0.0
 40
1.0
100
AcDbArc
 50
179.9999999999999
 51
267.9999999999995
  0
ARC
  5
1F2
330
1F
100
AcDbEntity
  8
GR1_01
 62
     3
370
    40
100
AcDbCircle
 10
127.9545458181502
 20
97.55135948302382
 30
0.0
 40
1.0
100
AcDbArc
 50
179.9999999999999
 51
267.9999999999995
  0
LINE
  5
1F3
330
1F
100
AcDbEntity
  8
GR1_01
 62
     3
370
    40
100
AcDbLine
 10
120.4545456836429
 20
129.3073260990371
 30
0.0
 11
120.4545459554826
 21
107.4656886503477
 31
0.0
  0
LINE
  5
1F4
330
1F
100
AcDbEntity
  8
GR1_01
 62
     3
370
    40
100
AcDbLine
 10
121.4110725755561
 20
127.9536805194266
 30
0.0
 11
125.9980188229403
 21
128.1532781640981
 31
0.0
  0
LINE
  5
1F5
330
1F
100
AcDbEntity
  8
GR1_01
 62
     3
370
    40
100
AcDbLine
 10
121.4110725940862
 20
126.4648348519249
 30
0.0
 11
126.4762822787442
 21
126.6852437837719
 31
0.0
  0
ARC
  5
1F6
330
1F
100
AcDbEntity
  8
GR1_01
 62
     3
370
    40
100
AcDbCircle
 10
125.954545685572
 20
129.1523327603677
 30
0.0
 40
1.0
100
AcDbArc
 50
272.49161253616
 51
0.00000071309985
  0
LINE
  5
1F7
330
1F
100
AcDbEntity
  8
GR1_01
 62
     3
370
    40
100
AcDbLine
 10
121.411072810876
 20
109.0463192554644
 30
0.0
 11
125.9980190632285
 21
108.8467217249706
 31
0.0
  0
LINE
  5
1F8
330
1F
100
AcDbEntity
  8
GR1_01
 62
     3
370
    40
100
AcDbLine
 10
121.4110727923459
 20
110.5351649229662
 30
0.0
 11
126.4762824824903
 21
110.3147561172018
 31
0.0
  0
ARC
  5
1F9
330
1F
100
AcDbEntity
  8
GR1_01
 62
     3
370
    40
100
AcDbCircle
 10
125.9545459507285
 20
107.8476671276189
 30
0.0
 40
1.0
100
AcDbArc
 50
0.000000713099837
 51
87.50838889003967
  0
ARC
  5
1FA
330
1F
100
AcDbEntity
  8
GR1_01
 62
     3
370
    40
100
AcDbCircle
 10
121.4545459048459
 20
111.5342195203179
 30
0.0
 40
1.0
100
AcDbArc
 50
180.0000007130998
 51
267.5083888900396
  0
ARC
  5
1FB
330
1F
100
AcDbEntity
  8
GR1_01
 62
     3
370
    40
100
AcDbCircle
 10
121.4545457314546
 20
125.4657802556553
 30
0.0
 40
1.0
100
AcDbArc
 50
92.49161253615995
 51
180.0000007130998
  0
ARC
  5
1FC
330
1F
100
AcDbEntity
  8
GR1_01
 62
     3
370
    40
100
AcDbCircle
 10
121.4545457129245
 20
126.954625923157
 30
0.0
 40
1.0
100
AcDbArc
 50
92.49161253615986
 51
180.0000007130998
  0
ARC
  5
1FD
330
1F
100
AcDbEntity
  8
GR1_01
 62
     3
370
    40
100
AcDbCircle
 10
121.454545923376
 20
110.0453738528162
 30
0.0
 40
1.0
100
AcDbArc
 50
180.0000007130998
 51
267.5083888900396
  0
ARC
  5
1FE
330
1F
100
AcDbEntity
  8
GR1_01
 62
     3
370
    40
100
AcDbCircle
 10
126.45454571006
 20
127.1847710819066
 30
0.0
 40
0.5
100
AcDbArc
 50
272.4916125361598
 51
0.0000007130997991
  0
ARC
  5
1FF
330
1F
100
AcDbEntity
  8
GR1_01
 62
     3
370
    40
100
AcDbCircle
 10
126.4545459262403
 20
109.815228818526
 30
0.0
 40
0.5
100
AcDbArc
 50
0.0000007130997801
 51
87.50838889003954
  0
LINE
  5
200
330
1F
100
AcDbEntity
  8
GR1_01
 62
     3
370
    40
100
AcDbLine
 10
121.4196464683934
 20
106.6932828370366
 30
0.0
 11
125.9894454637845
 21
106.5337019966396
 31
0.0
  0
ARC
  5
201
330
1F
100
AcDbEntity
  8
GR1_01
 62
     3
370
    40
100
AcDbCircle
 10
125.9545459795203
 20
105.5343111691862
 30
0.0
 40
1.0
100
AcDbArc
 50
0.0000007130997801
 51
88.00000071309938
  0
ARC
  5
202
330
1F
100
AcDbEntity
  8
GR1_01
 62
     3
370
    40
100
AcDbCircle
 10
121.4545459526576
 20
107.69267366449
 30
0.0
 40
1.0
100
AcDbArc
 50
180.0000007131006
 51
268.0000007130994
  0
LINE
  5
203
330
1F
100
AcDbEntity
  8
GR1_01
 62
     3
370
    40
100
AcDbLine
 10
121.4196461745021
 20
130.3067169380678
 30
0.0
 11
125.9894451659208
 21
130.4662978922156
 31
0.0
  0
ARC
  5
204
330
1F
100
AcDbEntity
  8
GR1_01
 62
     3
370
    40
100
AcDbCircle
 10
125.95454565678
 20
131.4656887188003
 30
0.0
 40
1.0
100
AcDbArc
 50
272.0000007131001
 51
0.0000007130997991
  0
ARC
  5
205
330
1F
100
AcDbEntity
  8
GR1_01
 62
     3
370
    40
100
AcDbCircle
 10
121.4545456836429
 20
129.3073261114831
 30
0.0
 40
1.0
100
AcDbArc
 50
92.00000071310019
 51
180.0000007130998
  0
LINE
  5
206
330
1F
100
AcDbEntity
  8
GR1_01
 62
     3
370
    40
100
AcDbLine
 10
243.1419380633758
 20
147.2901892258566
 30
0.0
 11
243.4545454545455
 21
146.7487373415292
 31
0.0
  0
LINE
  5
207
330
1F
100
AcDbEntity
  8
GR1_01
 62
     3
370
    40
100
AcDbLine
 10
243.4545454545455
 20
146.7487373415292
 30
0.0
 11
243.4545454545455
 21
139.7487373415292
 31
0.0
  0
LINE
  5
208
330
1F
100
AcDbEntity
  8
GR1_01
 62
     3
370
    40
100
AcDbLine
 10
243.4545454545455
 20
139.7487373415292
 30
0.0
 11
243.1419380633758
 21
139.2072854572018
 31
0.0
  0
ARC
  5
209
330
1F
100
AcDbEntity
  8
GR1_01
 62
     3
370
    40
100
AcDbCircle
 10
241.6654695306493
 20
146.2798262547747
 30
0.0
 40
1.78907592389621
100
AcDbArc
 50
325.6157525319575
 51
34.38424746804246
  0
ARC
  5
20A
330
1F
100
AcDbEntity
  8
GR1_01
 62
     3
370
    40
100
AcDbCircle
 10
236.7671528457154
 20
143.2487373415292
 30
0.0
 40
6.687392608830049
100
AcDbArc
 50
342.4120462260061
 51
17.5879537739948
  0
ARC
  5
20B
330
1F
100
AcDbEntity
  8
GR1_01
 62
     3
370
    40
100
AcDbCircle
 10
241.6654695306492
 20
140.2176484282837
 30
0.0
 40
1.78907592389621
100
AcDbArc
 50
325.6157525319575
 51
34.38424746804246
  0
LINE
  5
20C
330
1F
100
AcDbEntity
  8
GR1_01
 62
     3
370
    40
100
AcDbLine
 10
243.1419380633758
 20
139.2072854572018
 30
0.0
 11
240.2545454545455
 21
139.2072854572018
 31
0.0
  0
LINE
  5
20D
330
1F
100
AcDbEntity
  8
GR1_01
 62
     3
370
    40
100
AcDbLine
 10
240.2545454545455
 20
139.2072854572018
 30
0.0
 11
240.2545454545455
 21
147.2901892258566
 31
0.0
  0
LINE
  5
20E
330
1F
100
AcDbEntity
  8
GR1_01
 62
     3
370
    40
100
AcDbLine
 10
240.2545454545455
 20
147.2901892258566
 30
0.0
 11
243.1419380633758
 21
147.2901892258566
 31
0.0
  0
LINE
  5
20F
330
1F
100
AcDbEntity
  8
GR1_01
 62
     3
370
    40
100
AcDbLine
 10
243.1419380633758
 20
145.2694632836929
 30
0.0
 11
240.2545454545455
 21
145.2694632836929
 31
0.0
  0
LINE
  5
210
330
1F
100
AcDbEntity
  8
GR1_01
 62
     3
370
    40
100
AcDbLine
 10
243.1419380633758
 20
141.2280113993655
 30
0.0
 11
240.2545454545455
 21
141.2280113993655
 31
0.0
  0
LINE
  5
211
330
1F
100
AcDbEntity
  8
GR1_01
 62
     3
370
    40
100
AcDbLine
 10
240.2545454545455
 20
147.7487373415292
 30
0.0
 11
240.2545454545455
 21
138.7487373415292
 31
0.0
  0
LINE
  5
212
330
1F
100
AcDbEntity
  8
GR1_01
 62
     3
370
    40
100
AcDbLine
 10
240.2545454545455
 20
138.7487373415292
 30
0.0
 11
239.4545454545455
 21
138.7487373415292
 31
0.0
  0
LINE
  5
213
330
1F
100
AcDbEntity
  8
GR1_01
 62
     3
370
    40
100
AcDbLine
 10
239.4545454545455
 20
138.7487373415292
 30
0.0
 11
239.4545454545455
 21
147.7487373415292
 31
0.0
  0
LINE
  5
214
330
1F
100
AcDbEntity
  8
GR1_01
 62
     3
370
    40
100
AcDbLine
 10
239.4545454545455
 20
147.7487373415292
 30
0.0
 11
240.2545454545455
 21
147.7487373415292
 31
0.0
  0
LINE
  5
215
330
1F
100
AcDbEntity
  8
GR1_01
 62
     3
370
    40
100
AcDbLine
 10
243.1419380633758
 20
97.79271454279828
 30
0.0
 11
243.4545454545455
 21
97.25126265847089
 31
0.0
  0
LINE
  5
216
330
1F
100
AcDbEntity
  8
GR1_01
 62
     3
370
    40
100
AcDbLine
 10
243.4545454545455
 20
97.25126265847089
 30
0.0
 11
243.4545454545455
 21
90.25126265847089
 31
0.0
  0
LINE
  5
217
330
1F
100
AcDbEntity
  8
GR1_01
 62
     3
370
    40
100
AcDbLine
 10
243.4545454545455
 20
90.25126265847089
 30
0.0
 11
243.1419380633758
 21
89.7098107741435
 31
0.0
  0
ARC
  5
218
330
1F
100
AcDbEntity
  8
GR1_01
 62
     3
370
    40
100
AcDbCircle
 10
241.6654695306493
 20
96.78235157171642
 30
0.0
 40
1.78907592389621
100
AcDbArc
 50
325.6157525319575
 51
34.38424746804246
  0
ARC
  5
219
330
1F
100
AcDbEntity
  8
GR1_01
 62
     3
370
    40
100
AcDbCircle
 10
236.7671528457154
 20
93.75126265847089
 30
0.0
 40
6.687392608830049
100
AcDbArc
 50
342.4120462260061
 51
17.5879537739948
  0
ARC
  5
21A
330
1F
100
AcDbEntity
  8
GR1_01
 62
     3
370
    40
100
AcDbCircle
 10
241.6654695306492
 20
90.72017374522537
 30
0.0
 40
1.78907592389621
100
AcDbArc
 50
325.6157525319575
 51
34.38424746804246
  0
LINE
  5
21B
330
1F
100
AcDbEntity
  8
GR1_01
 62
     3
370
    40
100
AcDbLine
 10
243.1419380633758
 20
89.7098107741435
 30
0.0
 11
240.2545454545455
 21
89.7098107741435
 31
0.0
  0
LINE
  5
21C
330
1F
100
AcDbEntity
  8
GR1_01
 62
     3
370
    40
100
AcDbLine
 10
240.2545454545455
 20
89.7098107741435
 30
0.0
 11
240.2545454545455
 21
97.79271454279828
 31
0.0
  0
LINE
  5
21D
330
1F
100
AcDbEntity
  8
GR1_01
 62
     3
370
    40
100
AcDbLine
 10
240.2545454545455
 20
97.79271454279828
 30
0.0
 11
243.1419380633758
 21
97.79271454279828
 31
0.0
  0
LINE
  5
21E
330
1F
100
AcDbEntity
  8
GR1_01
 62
     3
370
    40
100
AcDbLine
 10
243.1419380633758
 20
95.77198860063456
 30
0.0
 11
240.2545454545455
 21
95.77198860063456
 31
0.0
  0
LINE
  5
21F
330
1F
100
AcDbEntity
  8
GR1_01
 62
     3
370
    40
100
AcDbLine
 10
243.1419380633758
 20
91.73053671630723
 30
0.0
 11
240.2545454545455
 21
91.73053671630723
 31
0.0
  0
LINE
  5
220
330
1F
100
AcDbEntity
  8
GR1_01
 62
     3
370
    40
100
AcDbLine
 10
240.2545454545455
 20
98.25126265847089
 30
0.0
 11
240.2545454545455
 21
89.25126265847089
 31
0.0
  0
LINE
  5
221
330
1F
100
AcDbEntity
  8
GR1_01
 62
     3
370
    40
100
AcDbLine
 10
240.2545454545455
 20
89.25126265847089
 30
0.0
 11
239.4545454545455
 21
89.25126265847089
 31
0.0
  0
LINE
  5
222
330
1F
100
AcDbEntity
  8
GR1_01
 62
     3
370
    40
100
AcDbLine
 10
239.4545454545455
 20
89.25126265847089
 30
0.0
 11
239.4545454545455
 21
98.25126265847089
 31
0.0
  0
LINE
  5
223
330
1F
100
AcDbEntity
  8
GR1_01
 62
     3
370
    40
100
AcDbLine
 10
239.4545454545455
 20
98.25126265847089
 30
0.0
 11
240.2545454545455
 21
98.25126265847089
 31
0.0
  0
LINE
  5
224
330
1F
100
AcDbEntity
  8
GR1_01
 62
     7
100
AcDbLine
 10
149.704545454545
 20
143.5
 30
0.0
 11
149.7045454545449
 21
132.5
 31
0.0
  0
LINE
  5
225
330
1F
100
AcDbEntity
  8
GR1_01
 62
     7
100
AcDbLine
 10
150.7045454545449
 20
131.5
 30
0.0
 11
180.7045607133349
 21
131.5
 31
0.0
  0
LINE
  5
226
330
1F
100
AcDbEntity
  8
GR1_01
 62
     7
100
AcDbLine
 10
181.7045607133349
 20
132.5
 30
0.0
 11
181.7045470263291
 21
143.5
 31
0.0
  0
ARC
  5
227
330
1F
100
AcDbEntity
  8
GR1_01
 62
     7
100
AcDbCircle
 10
150.7045454545449
 20
132.5
 30
0.0
 40
1.0
100
AcDbArc
 50
180.00001866933
 51
270.0000280039999
  0
ARC
  5
228
330
1F
100
AcDbEntity
  8
GR1_01
 62
     7
100
AcDbCircle
 10
180.7045607133349
 20
132.5
 30
0.0
 40
1.0
100
AcDbArc
 50
270.0000280039999
 51
359.9426910704
  0
TEXT
  5
229
330
1F
100
AcDbEntity
  8
GR1_01
 62
     7
100
AcDbText
 10
163.6885070800781
 20
141.1924133300781
 30
0.0
 40
3.5
  1
ＮＰ
 50
270.0000076293945
 41
1.272727272727274
 51
10.0
  7
FX_VECTOR
 72
     5
 11
163.6885080121845
 21
134.1924133300782
 31
0.0
100
AcDbText
  0
LINE
  5
22A
330
1F
100
AcDbEntity
  8
GR1_01
 62
     3
370
    40
100
AcDbLine
 10
142.4545454393953
 20
93.5
 30
0.0
 11
188.8580535228836
 21
93.5
 31
0.0
  0
LINE
  5
22B
330
1F
100
AcDbEntity
  8
GR1_01
 62
     3
370
    40
100
AcDbLine
 10
142.4545461969051
 20
143.5
 30
0.0
 11
188.8580535228836
 21
143.5
 31
0.0
  0
LINE
  5
22C
330
1F
100
AcDbEntity
  8
GR1_01
 62
     3
370
    40
100
AcDbLine
 10
142.4545461969051
 20
143.4999999848498
 30
0.0
 11
142.4545454393953
 21
93.49999998484984
 31
0.0
  0
LINE
  5
22D
330
1F
100
AcDbEntity
  8
GR1_01
 62
     3
370
    40
100
AcDbLine
 10
141.4545461817549
 20
142.5
 30
0.0
 11
142.4545461969051
 21
143.5
 31
0.0
  0
LINE
  5
22E
330
1F
100
AcDbEntity
  8
GR1_01
 62
     3
370
    40
100
AcDbLine
 10
141.4545454545455
 20
94.5
 30
0.0
 11
142.4545454393953
 21
93.5
 31
0.0
  0
LINE
  5
22F
330
1F
100
AcDbEntity
  8
GR1_01
 62
     3
370
    40
100
AcDbLine
 10
51.41049799949049
 20
137.9999999999999
 30
0.0
 11
49.38977205732679
 21
141.4999999999999
 31
0.0
  0
LINE
  5
230
330
1F
100
AcDbEntity
  8
GR1_01
 62
     3
370
    40
100
AcDbLine
 10
49.38977205732679
 20
141.4999999999999
 30
0.0
 11
45.34832017299941
 21
141.4999999999999
 31
0.0
  0
LINE
  5
231
330
1F
100
AcDbEntity
  8
GR1_01
 62
     3
370
    40
100
AcDbLine
 10
45.34832017299941
 20
141.4999999999999
 30
0.0
 11
43.32759423083571
 21
137.9999999999999
 31
0.0
  0
LINE
  5
232
330
1F
100
AcDbEntity
  8
GR1_01
 62
     3
370
    40
100
AcDbLine
 10
43.32759423083571
 20
137.9999999999999
 30
0.0
 11
45.34832017299941
 21
134.4999999999999
 31
0.0
  0
LINE
  5
233
330
1F
100
AcDbEntity
  8
GR1_01
 62
     3
370
    40
100
AcDbLine
 10
45.34832017299941
 20
134.4999999999999
 30
0.0
 11
49.38977205732679
 21
134.4999999999999
 31
0.0
  0
LINE
  5
234
330
1F
100
AcDbEntity
  8
GR1_01
 62
     3
370
    40
100
AcDbLine
 10
49.38977205732679
 20
134.4999999999999
 30
0.0
 11
51.41049799949049
 21
137.9999999999999
 31
0.0
  0
CIRCLE
  5
235
330
1F
100
AcDbEntity
  8
GR1_01
 62
     3
370
    40
100
AcDbCircle
 10
47.3690461151631
 20
137.9999999999999
 30
0.0
 40
3.4
  0
CIRCLE
  5
236
330
1F
100
AcDbEntity
  8
GR1_01
 62
     3
370
    40
100
AcDbCircle
 10
47.3690461151631
 20
137.9999999999999
 30
0.0
 40
1.6
  0
ARC
  5
237
330
1F
100
AcDbEntity
  8
GR1_01
 62
     7
100
AcDbCircle
 10
47.3690461151631
 20
137.9999999999999
 30
0.0
 40
2.0
100
AcDbArc
 50
80.0
 51
349.9999999999999
  0
LINE
  5
238
330
1F
100
AcDbEntity
  8
GR1_01
 62
     3
370
    40
100
AcDbLine
 10
51.41049799949047
 20
98.99999999999986
 30
0.0
 11
49.38977205732678
 21
102.4999999999999
 31
0.0
  0
LINE
  5
239
330
1F
100
AcDbEntity
  8
GR1_01
 62
     3
370
    40
100
AcDbLine
 10
49.38977205732678
 20
102.4999999999999
 30
0.0
 11
45.34832017299939
 21
102.4999999999999
 31
0.0
  0
LINE
  5
23A
330
1F
100
AcDbEntity
  8
GR1_01
 62
     3
370
    40
100
AcDbLine
 10
45.34832017299939
 20
102.4999999999999
 30
0.0
 11
43.3275942308357
 21
98.99999999999986
 31
0.0
  0
LINE
  5
23B
330
1F
100
AcDbEntity
  8
GR1_01
 62
     3
370
    40
100
AcDbLine
 10
43.3275942308357
 20
98.99999999999986
 30
0.0
 11
45.34832017299939
 21
95.49999999999986
 31
0.0
  0
LINE
  5
23C
330
1F
100
AcDbEntity
  8
GR1_01
 62
     3
370
    40
100
AcDbLine
 10
45.34832017299939
 20
95.49999999999986
 30
0.0
 11
49.38977205732678
 21
95.49999999999986
 31
0.0
  0
LINE
  5
23D
330
1F
100
AcDbEntity
  8
GR1_01
 62
     3
370
    40
100
AcDbLine
 10
49.38977205732678
 20
95.49999999999986
 30
0.0
 11
51.41049799949047
 21
98.99999999999986
 31
0.0
  0
CIRCLE
  5
23E
330
1F
100
AcDbEntity
  8
GR1_01
 62
     3
370
    40
100
AcDbCircle
 10
47.36904611516309
 20
98.99999999999986
 30
0.0
 40
3.4
  0
CIRCLE
  5
23F
330
1F
100
AcDbEntity
  8
GR1_01
 62
     3
370
    40
100
AcDbCircle
 10
47.36904611516309
 20
98.99999999999986
 30
0.0
 40
1.6
  0
ARC
  5
240
330
1F
100
AcDbEntity
  8
GR1_01
 62
     7
100
AcDbCircle
 10
47.36904611516309
 20
98.99999999999986
 30
0.0
 40
2.0
100
AcDbArc
 50
80.0
 51
349.9999999999999
  0
ARC
  5
241
330
1F
100
AcDbEntity
  8
GR1_01
 62
     7
100
AcDbCircle
 10
325.9728175546597
 20
143.2487373415292
 30
0.0
 40
1.6
100
AcDbArc
 50
80.0
 51
349.9999999999999
  0
CIRCLE
  5
242
330
1F
100
AcDbEntity
  8
GR1_01
 62
     3
370
    40
100
AcDbCircle
 10
325.9728175546599
 20
143.2487373415292
 30
0.0
 40
1.999999999999986
  0
ARC
  5
243
330
1F
100
AcDbEntity
  8
GR1_01
 62
     7
100
AcDbCircle
 10
375.4702922377181
 20
143.2487373415292
 30
0.0
 40
1.6
100
AcDbArc
 50
80.0
 51
349.9999999999999
  0
CIRCLE
  5
244
330
1F
100
AcDbEntity
  8
GR1_01
 62
     3
370
    40
100
AcDbCircle
 10
375.4702922377181
 20
143.2487373415292
 30
0.0
 40
1.999999999999986
  0
ARC
  5
245
330
1F
100
AcDbEntity
  8
GR1_01
 62
     7
100
AcDbCircle
 10
325.9728175546597
 20
93.75126265847089
 30
0.0
 40
1.6
100
AcDbArc
 50
80.0
 51
349.9999999999999
  0
CIRCLE
  5
246
330
1F
100
AcDbEntity
  8
GR1_01
 62
     3
370
    40
100
AcDbCircle
 10
325.9728175546597
 20
93.75126265847089
 30
0.0
 40
1.999999999999986
  0
ARC
  5
247
330
1F
100
AcDbEntity
  8
GR1_01
 62
     7
100
AcDbCircle
 10
375.470292237718
 20
93.75126265847086
 30
0.0
 40
1.6
100
AcDbArc
 50
80.0
 51
349.9999999999999
  0
CIRCLE
  5
248
330
1F
100
AcDbEntity
  8
GR1_01
 62
     3
370
    40
100
AcDbCircle
 10
375.4702922377181
 20
93.75126265847086
 30
0.0
 40
1.999999999999986
  0
LINE
  5
249
330
1F
100
AcDbEntity
  8
GR1_01
 62
     3
370
    40
100
AcDbLine
 10
191.4545454545455
 20
238.1131824001407
 30
0.0
 11
191.4545454545455
 21
180.1131824001407
 31
0.0
  0
LINE
  5
24A
330
1F
100
AcDbEntity
  8
GR1_01
 62
     3
370
    40
100
AcDbLine
 10
197.4545454545455
 20
239.1131824001407
 30
0.0
 11
197.4545454545455
 21
179.1131824001407
 31
0.0
  0
LINE
  5
24B
330
1F
100
AcDbEntity
  8
GR1_01
 62
     3
370
    40
100
AcDbLine
 10
192.4545454545455
 20
179.1131824001407
 30
0.0
 11
197.4545454545455
 21
179.1131824001407
 31
0.0
  0
LINE
  5
24C
330
1F
100
AcDbEntity
  8
GR1_01
 62
     3
370
    40
100
AcDbLine
 10
192.4545454545455
 20
239.1131824001407
 30
0.0
 11
197.4545454545455
 21
239.1131824001407
 31
0.0
  0
ARC
  5
24D
330
1F
100
AcDbEntity
  8
GR1_01
 62
     3
370
    40
100
AcDbCircle
 10
192.4545454545455
 20
180.1131824001407
 30
0.0
 40
1.0
100
AcDbArc
 50
180.0
 51
270.0
  0
ARC
  5
24E
330
1F
100
AcDbEntity
  8
GR1_01
 62
     3
370
    40
100
AcDbCircle
 10
192.4545454545455
 20
238.1131824001407
 30
0.0
 40
1.0
100
AcDbArc
 50
90.0
 51
180.0
  0
LINE
  5
24F
330
1F
100
AcDbEntity
  8
GR1_01
 62
     3
370
    40
100
AcDbLine
 10
197.4545454545455
 20
239.1131824001407
 30
0.0
 11
197.4545454545455
 21
179.1131824001407
 31
0.0
  0
LINE
  5
250
330
1F
100
AcDbEntity
  8
GR1_01
 62
     3
370
    40
100
AcDbLine
 10
239.4545454545455
 20
238.1131824001407
 30
0.0
 11
239.4545454545455
 21
180.1131824001407
 31
0.0
  0
LINE
  5
251
330
1F
100
AcDbEntity
  8
GR1_01
 62
     3
370
    40
100
AcDbLine
 10
197.4545454545455
 20
179.1131824001407
 30
0.0
 11
238.4545454545455
 21
179.1131824001407
 31
0.0
  0
LINE
  5
252
330
1F
100
AcDbEntity
  8
GR1_01
 62
     3
370
    40
100
AcDbLine
 10
197.4545454545455
 20
239.1131824001407
 30
0.0
 11
238.4545454545455
 21
239.1131824001407
 31
0.0
  0
LINE
  5
253
330
1F
100
AcDbEntity
  8
GR1_01
 62
     3
370
    40
100
AcDbLine
 10
244.4545454545455
 20
217.6131824001406
 30
0.0
 11
244.4545454545455
 21
200.6131824001406
 31
0.0
  0
LINE
  5
254
330
1F
100
AcDbEntity
  8
GR1_01
 62
     3
370
    40
100
AcDbLine
 10
239.4545454545455
 20
200.1131824001406
 30
0.0
 11
243.9545454545455
 21
200.1131824001406
 31
0.0
  0
LINE
  5
255
330
1F
100
AcDbEntity
  8
GR1_01
 62
     3
370
    40
100
AcDbLine
 10
239.4545454545455
 20
218.1131824001406
 30
0.0
 11
243.9545454545455
 21
218.1131824001406
 31
0.0
  0
LINE
  5
256
330
1F
100
AcDbEntity
  8
GR1_01
 62
     3
370
    40
100
AcDbLine
 10
244.4545454545455
 20
205.1131824001406
 30
0.0
 11
271.4545454545455
 21
205.1131824001406
 31
0.0
  0
LINE
  5
257
330
1F
100
AcDbEntity
  8
GR1_01
 62
     3
370
    40
100
AcDbLine
 10
244.4545454545455
 20
213.1131824001406
 30
0.0
 11
271.4545454545455
 21
213.1131824001406
 31
0.0
  0
LINE
  5
258
330
1F
100
AcDbEntity
  8
GR1_01
 62
     3
370
    40
100
AcDbLine
 10
271.4545454545455
 20
213.1131824001406
 30
0.0
 11
271.4545454545455
 21
205.1131824001406
 31
0.0
  0
LINE
  5
259
330
1F
100
AcDbEntity
  8
GR1_01
 62
     3
370
    40
100
AcDbLine
 10
257.4545454545455
 20
211.7589337112053
 30
0.0
 11
257.4545454545455
 21
206.4674310890761
 31
0.0
  0
ARC
  5
25A
330
1F
100
AcDbEntity
  8
GR1_01
 62
     3
370
    40
100
AcDbCircle
 10
238.4545454545455
 20
238.1131824001407
 30
0.0
 40
1.0
100
AcDbArc
 50
0.0
 51
90.0
  0
ARC
  5
25B
330
1F
100
AcDbEntity
  8
GR1_01
 62
     3
370
    40
100
AcDbCircle
 10
238.4545454545455
 20
180.1131824001407
 30
0.0
 40
1.0
100
AcDbArc
 50
270.0
 51
0.0
  0
ARC
  5
25C
330
1F
100
AcDbEntity
  8
GR1_01
 62
     3
370
    40
100
AcDbCircle
 10
243.9545454545455
 20
217.6131824001406
 30
0.0
 40
0.5
100
AcDbArc
 50
0.0
 51
90.0
  0
ARC
  5
25D
330
1F
100
AcDbEntity
  8
GR1_01
 62
     3
370
    40
100
AcDbCircle
 10
243.9545454545455
 20
200.6131824001406
 30
0.0
 40
0.5
100
AcDbArc
 50
270.0
 51
0.0
  0
LINE
  5
25E
330
1F
100
AcDbEntity
  8
GR1_01
  6
一点鎖線
 62
     7
100
AcDbLine
 10
185.8545454545455
 20
233.8619197416699
 30
0.0
 11
259.4545454545455
 21
233.8619197416699
 31
0.0
  0
LINE
  5
25F
330
1F
100
AcDbEntity
  8
GR1_01
 62
     3
370
    40
100
AcDbLine
 10
191.4545454545455
 20
230.3619197416699
 30
0.0
 11
190.391621471582
 21
230.4176252271637
 31
0.0
  0
LINE
  5
260
330
1F
100
AcDbEntity
  8
GR1_01
 62
     3
370
    40
100
AcDbLine
 10
191.4545454545455
 20
237.3619197416699
 30
0.0
 11
190.391621471582
 21
237.306214256176
 31
0.0
  0
LINE
  5
261
330
1F
100
AcDbEntity
  8
GR1_01
 62
     3
370
    40
100
AcDbLine
 10
191.4545454545455
 20
230.3619197416699
 30
0.0
 11
191.4545454545455
 21
237.3619197416699
 31
0.0
  0
ARC
  5
262
330
1F
100
AcDbEntity
  8
GR1_01
 62
     3
370
    40
100
AcDbCircle
 10
190.4596582146979
 20
231.7158436223446
 30
0.0
 40
1.3
100
AcDbArc
 50
196.1832992197579
 51
266.9999999999994
  0
ARC
  5
263
330
1F
100
AcDbEntity
  8
GR1_01
 62
     3
370
    40
100
AcDbCircle
 10
190.4596582146979
 20
236.0079958609951
 30
0.0
 40
1.3
100
AcDbArc
 50
93.00000000000053
 51
163.8167007802421
  0
ARC
  5
264
330
1F
100
AcDbEntity
  8
GR1_01
 62
     3
370
    40
100
AcDbCircle
 10
197.8545454545455
 20
233.8619197416699
 30
0.0
 40
9.0
100
AcDbArc
 50
163.8167007802421
 51
196.1832992197579
  0
LINE
  5
265
330
1F
100
AcDbEntity
  8
GR1_01
 62
     3
370
    40
100
AcDbLine
 10
243.4545454545455
 20
231.8619197416699
 30
0.0
 11
255.6545454545455
 21
231.8619197416699
 31
0.0
  0
LINE
  5
266
330
1F
100
AcDbEntity
  8
GR1_01
 62
     3
370
    40
100
AcDbLine
 10
243.4545454545455
 20
235.8619197416699
 30
0.0
 11
255.6545454545455
 21
235.8619197416698
 31
0.0
  0
LINE
  5
267
330
1F
100
AcDbEntity
  8
GR1_01
 62
     3
370
    40
100
AcDbLine
 10
256.4545454545455
 20
232.6619197416699
 30
0.0
 11
256.4545454545455
 21
235.0619197416698
 31
0.0
  0
LINE
  5
268
330
1F
100
AcDbEntity
  8
GR1_01
 62
     7
100
AcDbLine
 10
243.4545454545455
 20
232.2619197416699
 30
0.0
 11
256.0545454545455
 21
232.2619197416698
 31
0.0
  0
LINE
  5
269
330
1F
100
AcDbEntity
  8
GR1_01
 62
     7
100
AcDbLine
 10
243.4545454545455
 20
235.4619197416698
 30
0.0
 11
256.0545454545455
 21
235.4619197416698
 31
0.0
  0
LINE
  5
26A
330
1F
100
AcDbEntity
  8
GR1_01
 62
     3
370
    40
100
AcDbLine
 10
255.6545454545455
 20
231.8619197416699
 30
0.0
 11
256.4545454545455
 21
232.6619197416699
 31
0.0
  0
LINE
  5
26B
330
1F
100
AcDbEntity
  8
GR1_01
 62
     3
370
    40
100
AcDbLine
 10
256.4545454545455
 20
235.0619197416698
 30
0.0
 11
255.6545454545455
 21
235.8619197416698
 31
0.0
  0
LINE
  5
26C
330
1F
100
AcDbEntity
  8
GR1_01
 62
     3
370
    40
100
AcDbLine
 10
255.6545454545456
 20
235.8619197416699
 30
0.0
 11
255.6545454545456
 21
231.8619197416698
 31
0.0
  0
LINE
  5
26D
330
1F
100
AcDbEntity
  8
GR1_01
  6
一点鎖線
 62
     7
100
AcDbLine
 10
185.8545454545456
 20
184.3644450586116
 30
0.0
 11
259.4545454545455
 21
184.3644450586116
 31
0.0
  0
LINE
  5
26E
330
1F
100
AcDbEntity
  8
GR1_01
 62
     3
370
    40
100
AcDbLine
 10
191.4545454545456
 20
180.8644450586116
 30
0.0
 11
190.3916214715821
 21
180.9201505441054
 31
0.0
  0
LINE
  5
26F
330
1F
100
AcDbEntity
  8
GR1_01
 62
     3
370
    40
100
AcDbLine
 10
191.4545454545456
 20
187.8644450586116
 30
0.0
 11
190.3916214715821
 21
187.8087395731177
 31
0.0
  0
LINE
  5
270
330
1F
100
AcDbEntity
  8
GR1_01
 62
     3
370
    40
100
AcDbLine
 10
191.4545454545456
 20
180.8644450586116
 30
0.0
 11
191.4545454545456
 21
187.8644450586116
 31
0.0
  0
ARC
  5
271
330
1F
100
AcDbEntity
  8
GR1_01
 62
     3
370
    40
100
AcDbCircle
 10
190.4596582146979
 20
182.2183689392863
 30
0.0
 40
1.3
100
AcDbArc
 50
196.1832992197579
 51
266.9999999999994
  0
ARC
  5
272
330
1F
100
AcDbEntity
  8
GR1_01
 62
     3
370
    40
100
AcDbCircle
 10
190.4596582146979
 20
186.5105211779368
 30
0.0
 40
1.3
100
AcDbArc
 50
93.00000000000053
 51
163.8167007802421
  0
ARC
  5
273
330
1F
100
AcDbEntity
  8
GR1_01
 62
     3
370
    40
100
AcDbCircle
 10
197.8545454545456
 20
184.3644450586116
 30
0.0
 40
9.0
100
AcDbArc
 50
163.8167007802421
 51
196.1832992197579
  0
LINE
  5
274
330
1F
100
AcDbEntity
  8
GR1_01
 62
     3
370
    40
100
AcDbLine
 10
243.4545454545455
 20
182.3644450586116
 30
0.0
 11
255.6545454545456
 21
182.3644450586116
 31
0.0
  0
LINE
  5
275
330
1F
100
AcDbEntity
  8
GR1_01
 62
     3
370
    40
100
AcDbLine
 10
243.4545454545455
 20
186.3644450586116
 30
0.0
 11
255.6545454545456
 21
186.3644450586116
 31
0.0
  0
LINE
  5
276
330
1F
100
AcDbEntity
  8
GR1_01
 62
     3
370
    40
100
AcDbLine
 10
256.4545454545456
 20
183.1644450586116
 30
0.0
 11
256.4545454545456
 21
185.5644450586115
 31
0.0
  0
LINE
  5
277
330
1F
100
AcDbEntity
  8
GR1_01
 62
     7
100
AcDbLine
 10
243.4545454545455
 20
182.7644450586116
 30
0.0
 11
256.0545454545456
 21
182.7644450586116
 31
0.0
  0
LINE
  5
278
330
1F
100
AcDbEntity
  8
GR1_01
 62
     7
100
AcDbLine
 10
243.4545454545455
 20
185.9644450586115
 30
0.0
 11
256.0545454545456
 21
185.9644450586115
 31
0.0
  0
LINE
  5
279
330
1F
100
AcDbEntity
  8
GR1_01
 62
     3
370
    40
100
AcDbLine
 10
256.4545454545456
 20
185.5644450586115
 30
0.0
 11
255.6545454545456
 21
186.3644450586116
 31
0.0
  0
LINE
  5
27A
330
1F
100
AcDbEntity
  8
GR1_01
 62
     3
370
    40
100
AcDbLine
 10
255.6545454545456
 20
182.3644450586116
 30
0.0
 11
256.4545454545456
 21
183.1644450586116
 31
0.0
  0
LINE
  5
27B
330
1F
100
AcDbEntity
  8
GR1_01
 62
     3
370
    40
100
AcDbLine
 10
255.6545454545456
 20
186.3644450586116
 30
0.0
 11
255.6545454545456
 21
182.3644450586116
 31
0.0
  0
LINE
  5
27C
330
1F
100
AcDbEntity
  8
GR1_01
 62
     3
370
    40
100
AcDbLine
 10
240.2545454545455
 20
238.3619197416699
 30
0.0
 11
240.2545454545455
 21
229.3619197416699
 31
0.0
  0
LINE
  5
27D
330
1F
100
AcDbEntity
  8
GR1_01
 62
     3
370
    40
100
AcDbLine
 10
240.2545454545455
 20
229.3619197416699
 30
0.0
 11
239.4545454545455
 21
229.3619197416699
 31
0.0
  0
LINE
  5
27E
330
1F
100
AcDbEntity
  8
GR1_01
 62
     3
370
    40
100
AcDbLine
 10
239.4545454545455
 20
229.3619197416699
 30
0.0
 11
239.4545454545455
 21
238.3619197416699
 31
0.0
  0
LINE
  5
27F
330
1F
100
AcDbEntity
  8
GR1_01
 62
     3
370
    40
100
AcDbLine
 10
239.4545454545455
 20
238.3619197416699
 30
0.0
 11
240.2545454545455
 21
238.3619197416699
 31
0.0
  0
LINE
  5
280
330
1F
100
AcDbEntity
  8
GR1_01
 62
     3
370
    40
100
AcDbLine
 10
240.2545454545455
 20
188.8644450586116
 30
0.0
 11
240.2545454545455
 21
179.8644450586116
 31
0.0
  0
LINE
  5
281
330
1F
100
AcDbEntity
  8
GR1_01
 62
     3
370
    40
100
AcDbLine
 10
240.2545454545455
 20
179.8644450586116
 30
0.0
 11
239.4545454545455
 21
179.8644450586116
 31
0.0
  0
LINE
  5
282
330
1F
100
AcDbEntity
  8
GR1_01
 62
     3
370
    40
100
AcDbLine
 10
239.4545454545455
 20
179.8644450586116
 30
0.0
 11
239.4545454545455
 21
188.8644450586116
 31
0.0
  0
LINE
  5
283
330
1F
100
AcDbEntity
  8
GR1_01
 62
     3
370
    40
100
AcDbLine
 10
239.4545454545455
 20
188.8644450586116
 30
0.0
 11
240.2545454545455
 21
188.8644450586116
 31
0.0
  0
LINE
  5
284
330
1F
100
AcDbEntity
  8
GR1_01
 62
     3
370
    35
100
AcDbLine
 10
240.2545454545455
 20
230.3619197416699
 30
0.0
 11
240.2545454545455
 21
237.3619197416699
 31
0.0
  0
LINE
  5
285
330
1F
100
AcDbEntity
  8
GR1_01
 62
     3
370
    35
100
AcDbLine
 10
240.2545454545455
 20
237.3619197416699
 30
0.0
 11
243.4545454545455
 21
237.3619197416699
 31
0.0
  0
LINE
  5
286
330
1F
100
AcDbEntity
  8
GR1_01
 62
     3
370
    35
100
AcDbLine
 10
243.4545454545455
 20
237.3619197416699
 30
0.0
 11
243.4545454545455
 21
230.3619197416699
 31
0.0
  0
LINE
  5
287
330
1F
100
AcDbEntity
  8
GR1_01
 62
     3
370
    35
100
AcDbLine
 10
243.4545454545455
 20
230.3619197416699
 30
0.0
 11
240.2545454545455
 21
230.3619197416699
 31
0.0
  0
LINE
  5
288
330
1F
100
AcDbEntity
  8
GR1_01
 62
     3
370
    35
100
AcDbLine
 10
240.2545454545455
 20
233.8619197416699
 30
0.0
 11
243.1838195123817
 21
233.8619197416699
 31
0.0
  0
ARC
  5
289
330
1F
100
AcDbEntity
  8
GR1_01
 62
     3
370
    35
100
AcDbCircle
 10
237.6630935702181
 20
235.6119197416699
 30
0.0
 40
5.791451884327388
100
AcDbArc
 50
342.4120462260057
 51
17.58795377399322
  0
ARC
  5
28A
330
1F
100
AcDbEntity
  8
GR1_01
 62
     3
370
    35
100
AcDbCircle
 10
237.6630935702181
 20
232.1119197416699
 30
0.0
 40
5.791451884327388
100
AcDbArc
 50
342.4120462260062
 51
17.58795377399378
  0
LINE
  5
28B
330
1F
100
AcDbEntity
  8
GR1_01
 62
     3
370
    35
100
AcDbLine
 10
240.2545454545455
 20
180.8644450586116
 30
0.0
 11
240.2545454545455
 21
187.8644450586116
 31
0.0
  0
LINE
  5
28C
330
1F
100
AcDbEntity
  8
GR1_01
 62
     3
370
    35
100
AcDbLine
 10
240.2545454545455
 20
187.8644450586116
 30
0.0
 11
243.4545454545455
 21
187.8644450586116
 31
0.0
  0
LINE
  5
28D
330
1F
100
AcDbEntity
  8
GR1_01
 62
     3
370
    35
100
AcDbLine
 10
243.4545454545455
 20
187.8644450586116
 30
0.0
 11
243.4545454545455
 21
180.8644450586116
 31
0.0
  0
LINE
  5
28E
330
1F
100
AcDbEntity
  8
GR1_01
 62
     3
370
    35
100
AcDbLine
 10
243.4545454545455
 20
180.8644450586116
 30
0.0
 11
240.2545454545455
 21
180.8644450586116
 31
0.0
  0
LINE
  5
28F
330
1F
100
AcDbEntity
  8
GR1_01
 62
     3
370
    35
100
AcDbLine
 10
240.2545454545455
 20
184.3644450586116
 30
0.0
 11
243.1838195123817
 21
184.3644450586116
 31
0.0
  0
ARC
  5
290
330
1F
100
AcDbEntity
  8
GR1_01
 62
     3
370
    35
100
AcDbCircle
 10
237.6630935702181
 20
186.1144450586116
 30
0.0
 40
5.791451884327388
100
AcDbArc
 50
342.4120462260057
 51
17.58795377399322
  0
ARC
  5
291
330
1F
100
AcDbEntity
  8
GR1_01
 62
     3
370
    35
100
AcDbCircle
 10
237.6630935702181
 20
182.6144450586116
 30
0.0
 40
5.791451884327388
100
AcDbArc
 50
342.4120462260062
 51
17.58795377399378
  0
LINE
  5
293
330
1F
100
AcDbEntity
  8
基準ﾚｲﾔｸﾞﾙｰﾌﾟ_01
370
    40
100
AcDbLine
 10
271.4545454545455
 20
211.7589337112052
 30
0.0
 11
257.4545454545455
 21
211.7589337112052
 31
0.0
  0
LINE
  5
294
330
1F
100
AcDbEntity
  8
基準ﾚｲﾔｸﾞﾙｰﾌﾟ_01
370
    40
100
AcDbLine
 10
271.4545454545455
 20
206.4674310890761
 30
0.0
 11
257.4545454545455
 21
206.4674310890761
 31
0.0
  0
LINE
  5
295
330
1F
100
AcDbEntity
  8
GR1_01
 62
     7
100
AcDbLine
 10
181.704545454545
 20
189.0754243567669
 30
0.0
 11
181.704545454545
 21
229.1509248450469
 31
0.0
  0
ARC
  5
296
330
1F
100
AcDbEntity
  8
GR1_01
 62
     7
100
AcDbCircle
 10
180.704545454545
 20
189.0754243567669
 30
0.0
 40
1.0
100
AcDbArc
 50
270.0
 51
0.0
  0
ARC
  5
297
330
1F
100
AcDbEntity
  8
GR1_01
 62
     7
100
AcDbCircle
 10
150.704545454545
 20
189.0754243567669
 30
0.0
 40
1.0
100
AcDbArc
 50
180.00000500896
 51
270.00000068325
  0
LINE
  5
298
330
1F
100
AcDbEntity
  8
GR1_01
 62
     7
100
AcDbLine
 10
149.704545454545
 20
189.0754243567669
 30
0.0
 11
149.704545454545
 21
229.1509248450469
 31
0.0
  0
ARC
  5
299
330
1F
100
AcDbEntity
  8
GR1_01
 62
     7
100
AcDbCircle
 10
150.704532717541
 20
229.150919035466
 30
0.0
 40
1.0
100
AcDbArc
 50
90.00003573684188
 51
180.0000314111311
  0
LINE
  5
29A
330
1F
100
AcDbEntity
  8
GR1_01
 62
     7
100
AcDbLine
 10
150.704545454545
 20
230.1509248450469
 30
0.0
 11
180.704545454545
 21
230.1509248450469
 31
0.0
  0
LINE
  5
29B
330
1F
100
AcDbEntity
  8
GR1_01
 62
     7
100
AcDbLine
 10
180.704545454545
 20
188.0754243567669
 30
0.0
 11
150.704545454545
 21
188.0754243567669
 31
0.0
  0
TEXT
  5
29C
330
1F
100
AcDbEntity
  8
GR1_01
 62
     7
100
AcDbText
 10
163.9545440673828
 20
214.5881958007812
 30
0.0
 40
3.5
  1
Ｎ　Ｐ
 50
270.0
 41
1.235294117647059
 51
10.0
  7
FX_VECTOR
 72
     5
 11
163.9545440673828
 21
204.0881958007812
 31
0.0
100
AcDbText
  0
ARC
  5
29D
330
1F
100
AcDbEntity
  8
GR1_01
 62
     7
100
AcDbCircle
 10
180.704545454545
 20
229.1509248450469
 30
0.0
 40
1.0
100
AcDbArc
 50
0.0
 51
90.0
  0
TEXT
  5
29F
330
1F
100
AcDbEntity
  8
GR1_01
 62
     3
370
    40
100
AcDbText
 10
48.80997991407495
 20
110.7533997841388
 30
0.0
 40
1.406249962747097
  1
　
 50
16.04281616210938
 41
0.8277136284763988
  7
STYLE003
 72
     1
 11
49.60752868652344
 21
110.715446472168
 31
0.0
100
AcDbText
 73
     1
  0
CIRCLE
  5
2A0
330
1F
100
AcDbEntity
  8
GR1_01
 62
     3
370
    40
100
AcDbCircle
 10
330.802970609147
 20
130.0
 30
0.0
 40
2.624944
  0
ARC
  5
2A1
330
1F
100
AcDbEntity
  8
GR1_01
 62
     3
370
    40
100
AcDbCircle
 10
330.802970609147
 20
130.0
 30
0.0
 40
1.536785
100
AcDbArc
 50
43.39841457055605
 51
76.60160527728584
  0
ARC
  5
2A2
330
1F
100
AcDbEntity
  8
GR1_01
 62
     3
370
    40
100
AcDbCircle
 10
330.802970609147
 20
130.0
 30
0.0
 40
1.536785
100
AcDbArc
 50
133.3984531423685
 51
166.6015865533165
  0
ARC
  5
2A3
330
1F
100
AcDbEntity
  8
GR1_01
 62
     3
370
    40
100
AcDbCircle
 10
330.802970609147
 20
130.0
 30
0.0
 40
1.536785
100
AcDbArc
 50
223.3984344184005
 51
256.601567829349
  0
ARC
  5
2A4
330
1F
100
AcDbEntity
  8
GR1_01
 62
     3
370
    40
100
AcDbCircle
 10
330.802970609147
 20
130.0
 30
0.0
 40
1.536785
100
AcDbArc
 50
313.3984156944322
 51
346.6016064011597
  0
LINE
  5
2A5
330
1F
100
AcDbEntity
  8
GR1_01
 62
     3
370
    40
100
AcDbLine
 10
329.9836266126754
 20
129.4590285692349
 30
0.0
 11
329.6863476126754
 21
128.9441262372116
 31
0.0
  0
LINE
  5
2A6
330
1F
100
AcDbEntity
  8
GR1_01
 62
     3
370
    40
100
AcDbLine
 10
330.8617931126755
 20
130.9800575647398
 30
0.0
 11
331.1590726126755
 21
131.4949607627885
 31
0.0
  0
LINE
  5
2A7
330
1F
100
AcDbEntity
  8
GR1_01
 62
     3
370
    40
100
AcDbLine
 10
330.7441476056184
 20
129.0199415692348
 30
0.0
 11
330.4468686056184
 21
128.5050392372115
 31
0.0
  0
LINE
  5
2A8
330
1F
100
AcDbEntity
  8
GR1_01
 62
     3
370
    40
100
AcDbLine
 10
331.6223141056186
 20
130.5409705647398
 30
0.0
 11
331.9195936056185
 21
131.0558737627885
 31
0.0
  0
LINE
  5
2A9
330
1F
100
AcDbEntity
  8
GR1_01
 62
     3
370
    40
100
AcDbLine
 10
330.2619931162041
 20
130.8193474964716
 30
0.0
 11
329.7470907841807
 21
131.1166264964716
 31
0.0
  0
LINE
  5
2AA
330
1F
100
AcDbEntity
  8
GR1_01
 62
     3
370
    40
100
AcDbLine
 10
331.783022111709
 20
129.9411809964716
 30
0.0
 11
332.2979244437323
 21
129.6439019964716
 31
0.0
  0
LINE
  5
2AB
330
1F
100
AcDbEntity
  8
GR1_01
 62
     3
370
    40
100
AcDbLine
 10
329.822906116204
 20
130.0588265035285
 30
0.0
 11
329.3080037841806
 21
130.3561055035285
 31
0.0
  0
LINE
  5
2AC
330
1F
100
AcDbEntity
  8
GR1_01
 62
     3
370
    40
100
AcDbLine
 10
331.3439351117089
 20
129.1806600035285
 30
0.0
 11
331.8588374437322
 21
128.8833810035285
 31
0.0
  0
ARC
  5
2AD
330
1F
100
AcDbEntity
  8
GR1_01
 62
     3
370
    40
100
AcDbCircle
 10
329.6033661162039
 20
129.6785720692349
 30
0.0
 40
0.439082
100
AcDbArc
 50
330.0
 51
59.99998127603534
  0
ARC
  5
2AE
330
1F
100
AcDbEntity
  8
GR1_01
 62
     3
370
    40
100
AcDbCircle
 10
331.1243951117088
 20
128.8004055692348
 30
0.0
 40
0.439082
100
AcDbArc
 50
59.99998127603533
 51
150.0000198478448
  0
ARC
  5
2AF
330
1F
100
AcDbEntity
  8
GR1_01
 62
     3
370
    40
100
AcDbCircle
 10
332.002561611709
 20
130.3214345647398
 30
0.0
 40
0.439082
100
AcDbArc
 50
150.000019847841
 51
240.0
  0
ARC
  5
2B0
330
1F
100
AcDbEntity
  8
GR1_01
 62
     3
370
    40
100
AcDbCircle
 10
330.481532616204
 20
131.1996010647398
 30
0.0
 40
0.439082
100
AcDbArc
 50
240.0
 51
329.9426866203962
  0
CIRCLE
  5
2B1
330
1F
100
AcDbEntity
  8
GR1_01
 62
     3
370
    40
100
AcDbCircle
 10
350.721554896189
 20
95.50000000000003
 30
0.0
 40
2.624944
  0
ARC
  5
2B2
330
1F
100
AcDbEntity
  8
GR1_01
 62
     3
370
    40
100
AcDbCircle
 10
350.721554896189
 20
95.50000000000003
 30
0.0
 40
1.536785
100
AcDbArc
 50
343.398414570556
 51
16.60160527728584
  0
ARC
  5
2B3
330
1F
100
AcDbEntity
  8
GR1_01
 62
     3
370
    40
100
AcDbCircle
 10
350.721554896189
 20
95.50000000000003
 30
0.0
 40
1.536785
100
AcDbArc
 50
73.39845314236852
 51
106.6015865533165
  0
ARC
  5
2B4
330
1F
100
AcDbEntity
  8
GR1_01
 62
     3
370
    40
100
AcDbCircle
 10
350.721554896189
 20
95.50000000000003
 30
0.0
 40
1.536785
100
AcDbArc
 50
163.3984344184005
 51
196.6015678293489
  0
ARC
  5
2B5
330
1F
100
AcDbEntity
  8
GR1_01
 62
     3
370
    40
100
AcDbCircle
 10
350.721554896189
 20
95.50000000000003
 30
0.0
 40
1.536785
100
AcDbArc
 50
253.3984156944322
 51
286.6016064011597
  0
LINE
  5
2B6
330
1F
100
AcDbEntity
  8
GR1_01
 62
     3
370
    40
100
AcDbLine
 10
349.8433878961889
 20
95.93908700000011
 30
0.0
 11
349.2488298961889
 21
95.93908700000011
 31
0.0
  0
LINE
  5
2B7
330
1F
100
AcDbEntity
  8
GR1_01
 62
     3
370
    40
100
AcDbLine
 10
351.599720896189
 20
95.93908700000011
 30
0.0
 11
352.194279896189
 21
95.93908700000011
 31
0.0
  0
LINE
  5
2B8
330
1F
100
AcDbEntity
  8
GR1_01
 62
     3
370
    40
100
AcDbLine
 10
349.8433878961889
 20
95.06091299999994
 30
0.0
 11
349.2488298961889
 21
95.06091299999994
 31
0.0
  0
LINE
  5
2B9
330
1F
100
AcDbEntity
  8
GR1_01
 62
     3
370
    40
100
AcDbLine
 10
351.599720896189
 20
95.06091299999994
 30
0.0
 11
352.194279896189
 21
95.06091299999994
 31
0.0
  0
LINE
  5
2BA
330
1F
100
AcDbEntity
  8
GR1_01
 62
     3
370
    40
100
AcDbLine
 10
351.160641896189
 20
96.37817400000009
 30
0.0
 11
351.160641896189
 21
96.9727320000001
 31
0.0
  0
LINE
  5
2BB
330
1F
100
AcDbEntity
  8
GR1_01
 62
     3
370
    40
100
AcDbLine
 10
351.160641896189
 20
94.62184100000005
 30
0.0
 11
351.160641896189
 21
94.02728300000004
 31
0.0
  0
LINE
  5
2BC
330
1F
100
AcDbEntity
  8
GR1_01
 62
     3
370
    40
100
AcDbLine
 10
350.2824678961889
 20
96.37817400000009
 30
0.0
 11
350.2824678961889
 21
96.9727320000001
 31
0.0
  0
LINE
  5
2BD
330
1F
100
AcDbEntity
  8
GR1_01
 62
     3
370
    40
100
AcDbLine
 10
350.2824678961889
 20
94.62184100000005
 30
0.0
 11
350.2824678961889
 21
94.02728300000004
 31
0.0
  0
ARC
  5
2BE
330
1F
100
AcDbEntity
  8
GR1_01
 62
     3
370
    40
100
AcDbCircle
 10
349.8433878961889
 20
96.37817400000009
 30
0.0
 40
0.439082
100
AcDbArc
 50
270.0
 51
359.9999812760353
  0
ARC
  5
2BF
330
1F
100
AcDbEntity
  8
GR1_01
 62
     3
370
    40
100
AcDbCircle
 10
349.8433878961889
 20
94.62184100000005
 30
0.0
 40
0.439082
100
AcDbArc
 50
359.9999812760353
 51
90.00001984784478
  0
ARC
  5
2C0
330
1F
100
AcDbEntity
  8
GR1_01
 62
     3
370
    40
100
AcDbCircle
 10
351.599720896189
 20
94.62184100000005
 30
0.0
 40
0.439082
100
AcDbArc
 50
90.00001984784102
 51
180.0
  0
ARC
  5
2C1
330
1F
100
AcDbEntity
  8
GR1_01
 62
     3
370
    40
100
AcDbCircle
 10
351.599720896189
 20
96.37817400000009
 30
0.0
 40
0.439082
100
AcDbArc
 50
180.0
 51
269.9426866203962
  0
CIRCLE
  5
2C2
330
1F
100
AcDbEntity
  8
GR1_01
 62
     3
370
    40
100
AcDbCircle
 10
370.6401391832309
 20
130.0
 30
0.0
 40
2.624944
  0
ARC
  5
2C3
330
1F
100
AcDbEntity
  8
GR1_01
 62
     3
370
    40
100
AcDbCircle
 10
370.6401391832309
 20
130.0
 30
0.0
 40
1.536785
100
AcDbArc
 50
283.398414570556
 51
316.6016052772858
  0
ARC
  5
2C4
330
1F
100
AcDbEntity
  8
GR1_01
 62
     3
370
    40
100
AcDbCircle
 10
370.6401391832309
 20
130.0
 30
0.0
 40
1.536785
100
AcDbArc
 50
13.39845314236851
 51
46.60158655331654
  0
ARC
  5
2C5
330
1F
100
AcDbEntity
  8
GR1_01
 62
     3
370
    40
100
AcDbCircle
 10
370.6401391832309
 20
130.0
 30
0.0
 40
1.536785
100
AcDbArc
 50
103.3984344184005
 51
136.6015678293489
  0
ARC
  5
2C6
330
1F
100
AcDbEntity
  8
GR1_01
 62
     3
370
    40
100
AcDbCircle
 10
370.6401391832309
 20
130.0
 30
0.0
 40
1.536785
100
AcDbArc
 50
193.3984156944322
 51
226.6016064011597
  0
LINE
  5
2C7
330
1F
100
AcDbEntity
  8
GR1_01
 62
     3
370
    40
100
AcDbLine
 10
370.5813161797024
 20
130.9800584307651
 30
0.0
 11
370.2840371797024
 21
131.4949607627884
 31
0.0
  0
LINE
  5
2C8
330
1F
100
AcDbEntity
  8
GR1_01
 62
     3
370
    40
100
AcDbLine
 10
371.4594826797025
 20
129.4590294352602
 30
0.0
 11
371.7567621797025
 21
128.9441262372115
 31
0.0
  0
LINE
  5
2C9
330
1F
100
AcDbEntity
  8
GR1_01
 62
     3
370
    40
100
AcDbLine
 10
369.8207951867594
 20
130.5409714307651
 30
0.0
 11
369.5235161867594
 21
131.0558737627884
 31
0.0
  0
LINE
  5
2CA
330
1F
100
AcDbEntity
  8
GR1_01
 62
     3
370
    40
100
AcDbLine
 10
370.6989616867595
 20
129.0199424352601
 30
0.0
 11
370.9962411867594
 21
128.5050392372114
 31
0.0
  0
LINE
  5
2CB
330
1F
100
AcDbEntity
  8
GR1_01
 62
     3
370
    40
100
AcDbLine
 10
371.620203676174
 20
130.0588265035284
 30
0.0
 11
372.1351060081972
 21
130.3561055035284
 31
0.0
  0
LINE
  5
2CC
330
1F
100
AcDbEntity
  8
GR1_01
 62
     3
370
    40
100
AcDbLine
 10
370.099174680669
 20
129.1806600035284
 30
0.0
 11
369.5842723486458
 21
128.8833810035284
 31
0.0
  0
LINE
  5
2CD
330
1F
100
AcDbEntity
  8
GR1_01
 62
     3
370
    40
100
AcDbLine
 10
371.1811166761739
 20
130.8193474964715
 30
0.0
 11
371.6960190081971
 21
131.1166264964715
 31
0.0
  0
LINE
  5
2CE
330
1F
100
AcDbEntity
  8
GR1_01
 62
     3
370
    40
100
AcDbLine
 10
369.6600876806689
 20
129.9411809964714
 30
0.0
 11
369.1451853486457
 21
129.6439019964714
 31
0.0
  0
ARC
  5
2CF
330
1F
100
AcDbEntity
  8
GR1_01
 62
     3
370
    40
100
AcDbCircle
 10
370.9615766761739
 20
131.1996019307651
 30
0.0
 40
0.439082
100
AcDbArc
 50
210.0
 51
299.9999812760353
  0
ARC
  5
2D0
330
1F
100
AcDbEntity
  8
GR1_01
 62
     3
370
    40
100
AcDbCircle
 10
369.4405476806688
 20
130.3214354307651
 30
0.0
 40
0.439082
100
AcDbArc
 50
299.9999812760353
 51
30.0000198478448
  0
ARC
  5
2D1
330
1F
100
AcDbEntity
  8
GR1_01
 62
     3
370
    40
100
AcDbCircle
 10
370.318714180669
 20
128.8004064352601
 30
0.0
 40
0.439082
100
AcDbArc
 50
30.00001984784103
 51
120.0
  0
ARC
  5
2D2
330
1F
100
AcDbEntity
  8
GR1_01
 62
     3
370
    40
100
AcDbCircle
 10
371.839743176174
 20
129.6785729352601
 30
0.0
 40
0.439082
100
AcDbArc
 50
120.0
 51
209.9426866203962
  0
LINE
  5
2D3
330
1F
100
AcDbEntity
  8
GR1_01
 62
     3
370
    40
100
AcDbLine
 10
141.4545458181503
 20
233.1131749853575
 30
0.0
 11
142.4545458181503
 21
234.1131749853575
 31
0.0
  0
LINE
  5
2D4
330
1F
100
AcDbEntity
  8
GR1_01
 62
     3
370
    40
100
AcDbLine
 10
142.4545610769303
 20
234.1131749853575
 30
0.0
 11
142.4545610769303
 21
184.1131749853575
 31
0.0
  0
LINE
  5
2D5
330
1F
100
AcDbEntity
  8
GR1_01
 62
     3
370
    40
100
AcDbLine
 10
142.4545458181503
 20
184.1131902441474
 30
0.0
 11
141.4545458181503
 21
185.1131902441474
 31
0.0
  0
LINE
  5
2D6
330
1F
100
AcDbEntity
  8
GR1_01
 62
     3
370
    40
100
AcDbLine
 10
142.4545458181503
 20
184.1131902441474
 30
0.0
 11
188.8580533038121
 21
184.1131902441474
 31
0.0
  0
LINE
  5
2D7
330
1F
100
AcDbEntity
  8
GR1_01
 62
     3
370
    40
100
AcDbLine
 10
188.858053719379
 20
234.1131894355849
 30
0.0
 11
142.4545610769303
 21
234.1131749853575
 31
0.0
  0
LINE
  5
2D8
330
1F
100
AcDbEntity
  8
GR1_01
 62
     3
370
    40
100
AcDbLine
 10
141.4545458181503
 20
185.1131902441474
 30
0.0
 11
141.4545458181503
 21
233.1131749853575
 31
0.0
  0
LINE
  5
2D9
330
1F
100
AcDbEntity
  8
GR1_01
 62
     3
370
    40
100
AcDbLine
 10
191.4545454545455
 20
143.4999922007662
 30
0.0
 11
191.4545454545455
 21
93.49999220077095
 31
0.0
  0
LINE
  5
2DA
330
1F
100
AcDbEntity
  8
GR1_01
 62
     3
370
    40
100
AcDbLine
 10
141.4545461817549
 20
142.5
 30
0.0
 11
141.4545454545455
 21
94.5
 31
0.0
  0
TEXT
  5
2DB
330
1F
100
AcDbEntity
  8
GR1_01
 62
     7
100
AcDbText
 10
45.86143760083981
 20
110.505699156676
 30
0.0
 40
1.799999952316284
  1
Ｒ
 50
354.6524047851564
 41
1.17600000370873
  7
FX_VECTOR
 72
     5
 11
47.36685677171878
 21
110.3647842417615
 31
0.0
100
AcDbText
  0
TEXT
  5
2DC
330
1F
100
AcDbEntity
  8
GR1_01
 62
     7
100
AcDbText
 10
44.40400774124032
 20
110.9243789403518
 30
0.0
 40
1.799999952316284
  1
Ｕ
 50
343.9571838378901
 41
1.176000003708735
  7
FX_VECTOR
 72
     5
 11
45.85712354538077
 21
110.5065292627732
 31
0.0
100
AcDbText
  0
TEXT
  5
2DD
330
1F
100
AcDbEntity
  8
GR1_01
 62
     7
100
AcDbText
 10
43.04961030971661
 20
111.6062467336099
 30
0.0
 40
1.799999952316284
  1
Ｍ
 50
333.261962890625
 41
1.176000003708731
  7
FX_VECTOR
 72
     5
 11
44.39993650424824
 21
110.9259798288901
 31
0.0
100
AcDbText
  0
TEXT
  5
2DE
330
1F
100
AcDbEntity
  8
GR1_01
 62
     7
100
AcDbText
 10
41.8452875541546
 20
112.5276090565271
 30
0.0
 40
1.799999952316284
  1
Ａ
 50
322.5667724609374
 41
1.176000003708738
  7
FX_VECTOR
 72
     5
 11
43.04590965043524
 21
111.6085603770667
 31
0.0
100
AcDbText
  0
TEXT
  5
2DF
330
1F
100
AcDbEntity
  8
GR1_01
 62
     7
100
AcDbText
 10
40.83284235891453
 20
113.6564865069884
 30
0.0
 40
1.799999952316284
  1
Ｗ
 50
311.8715515136719
 41
1.176000003708727
  7
FX_VECTOR
 72
     5
 11
41.84204625192532
 21
112.5305862469178
 31
0.0
100
AcDbText
  0
TEXT
  5
2E0
330
1F
100
AcDbEntity
  8
GR1_01
 62
     7
100
AcDbText
 10
40.04752349807681
 20
114.953671343889
 30
0.0
 40
1.799999952316284
  1
Ａ
 50
301.1763305664062
 41
1.176000003708739
  7
FX_VECTOR
 72
     5
 11
40.83024597213804
 21
113.6600371522047
 31
0.0
100
AcDbText
  0
TEXT
  5
2E1
330
1F
100
AcDbEntity
  8
GR1_01
 62
     7
100
AcDbText
 10
39.51655466980873
 20
116.3740437888294
 30
0.0
 40
1.799999952316284
  1
Ｓ
 50
290.4811401367188
 41
1.176000003708727
  7
FX_VECTOR
 72
     5
 11
40.04560200743736
 21
114.9576212502331
 31
0.0
100
AcDbText
  0
TEXT
  5
2E2
330
1F
100
AcDbEntity
  8
GR1_01
 62
     7
100
AcDbText
 10
47.37123374341794
 20
110.3647842417615
 30
0.0
 40
1.799999952316284
  1
Ａ
 50
5.347595214843563
 41
1.17600000370873
  7
FX_VECTOR
 72
     5
 11
48.8766529142969
 21
110.505699156676
 31
0.0
100
AcDbText
  0
TEXT
  5
2E3
330
1F
100
AcDbEntity
  8
GR1_01
 62
     7
100
AcDbText
 10
50.33818452846661
 20
110.9259798288901
 30
0.0
 40
1.799999952316284
  1
Ｄ
 50
26.73803710937499
 41
1.176000003708731
  7
FX_VECTOR
 72
     5
 11
51.68851072299824
 21
111.6062467336099
 31
0.0
100
AcDbText
  0
TEXT
  5
2E4
330
1F
100
AcDbEntity
  8
GR1_01
 62
     7
100
AcDbText
 10
51.6922113822796
 20
111.6085603770667
 30
0.0
 40
1.799999952316284
  1
Ｅ
 50
37.43322753906262
 41
1.176000003708738
  7
FX_VECTOR
 72
     5
 11
52.89283347856024
 21
112.5276090565271
 31
0.0
100
AcDbText
  0
TEXT
  5
2E5
330
1F
100
AcDbEntity
  8
GR1_01
 62
     7
100
AcDbText
 10
52.89607478078953
 20
112.5305862469178
 30
0.0
 40
1.799999952316284
  1
Ｎ
 50
48.12844848632808
 41
1.176000003708727
  7
FX_VECTOR
 72
     5
 11
53.90527867380032
 21
113.6564865069884
 31
0.0
100
AcDbText
  0
TEXT
  5
2E6
330
1F
100
AcDbEntity
  8
GR1_01
 62
     7
100
AcDbText
 10
53.90787506057681
 20
113.6600371522047
 30
0.0
 40
1.799999952316284
  1
Ｋ
 50
58.82366943359375
 41
1.176000003708739
  7
FX_VECTOR
 72
     5
 11
54.69059753463804
 21
114.953671343889
 31
0.0
100
AcDbText
  0
TEXT
  5
2E7
330
1F
100
AcDbEntity
  8
GR1_01
 62
     7
100
AcDbText
 10
54.69251902527748
 20
114.9576212502331
 30
0.0
 40
1.799999952316284
  1
Ｉ
 50
69.51885986328115
 41
1.176000003708727
  7
FX_VECTOR
 72
     5
 11
55.22156636290611
 21
116.3740437888294
 31
0.0
100
AcDbText
  0
LINE
  5
2E8
330
1F
100
AcDbEntity
  8
基準ﾚｲﾔｸﾞﾙｰﾌﾟ_01
 62
     7
100
AcDbLine
 10
257.4545454545455
 20
206.4674310890761
 30
0.0
 11
271.4545454545455
 21
211.7589337112052
 31
0.0
  0
LINE
  5
2E9
330
1F
100
AcDbEntity
  8
基準ﾚｲﾔｸﾞﾙｰﾌﾟ_01
 62
     7
100
AcDbLine
 10
257.4545454545455
 20
211.7589337112053
 30
0.0
 11
271.4545454545455
 21
206.4674310890761
 31
0.0
  0
ARC
  5
2EA
330
1F
100
AcDbEntity
  8
GR1_01
  6
一点鎖線
 62
     7
100
AcDbCircle
 10
47.36904611516309
 20
118.5
 30
0.0
 40
35.0
100
AcDbArc
 50
122.698720344118
 51
147.3012796558821
  0
LINE
  5
2EB
330
1F
100
AcDbEntity
  8
GR1_01
  6
一点鎖線
 62
     7
100
AcDbLine
 10
17.91929864685721
 20
147.9497474683058
 30
0.0
 11
27.92360963253293
 21
137.9454364826301
 31
0.0
  0
ARC
  5
2EC
330
1F
100
AcDbEntity
  8
GR1_01
  6
一点鎖線
 62
     7
100
AcDbCircle
 10
47.36904611516309
 20
118.5
 30
0.0
 40
35.0
100
AcDbArc
 50
33.41085428052732
 51
57.30127965588202
  0
LINE
  5
2ED
330
1F
100
AcDbEntity
  8
GR1_01
  6
一点鎖線
 62
     7
100
AcDbLine
 10
76.81879358346885
 20
147.9497474683058
 30
0.0
 11
66.81448259779313
 21
137.9454364826301
 31
0.0
  0
ARC
  5
2EE
330
1F
100
AcDbEntity
  8
GR1_01
  6
一点鎖線
 62
     7
100
AcDbCircle
 10
47.36904611516309
 20
118.5
 30
0.0
 40
35.0
100
AcDbArc
 50
212.5129074674452
 51
237.301279655882
  0
LINE
  5
2EF
330
1F
100
AcDbEntity
  8
GR1_01
  6
一点鎖線
 62
     7
100
AcDbLine
 10
17.91929864685721
 20
89.05025253169427
 30
0.0
 11
27.92360963253304
 21
99.05456351736998
 31
0.0
  0
ARC
  5
2F0
330
1F
100
AcDbEntity
  8
GR1_01
  6
一点鎖線
 62
     7
100
AcDbCircle
 10
47.36904611516309
 20
118.5
 30
0.0
 40
35.0
100
AcDbArc
 50
302.698720344118
 51
327.3012796558821
  0
LINE
  5
2F1
330
1F
100
AcDbEntity
  8
GR1_01
  6
一点鎖線
 62
     7
100
AcDbLine
 10
76.81879358346896
 20
89.05025253169416
 30
0.0
 11
66.81448259779313
 21
99.05456351736996
 31
0.0
  0
LINE
  5
2F2
330
1F
100
AcDbEntity
  8
GR1_01
 62
     3
370
    40
100
AcDbLine
 10
71.86904611516297
 20
88.50000000000003
 30
0.0
 11
22.86904611516309
 21
88.50000000000003
 31
0.0
  0
LINE
  5
2F3
330
1F
100
AcDbEntity
  8
GR1_01
 62
     3
370
    40
100
AcDbLine
 10
77.36904611516297
 20
143.0
 30
0.0
 11
77.36904611516297
 21
94.00000000000003
 31
0.0
  0
ARC
  5
2F4
330
1F
100
AcDbEntity
  8
GR1_01
 62
     3
370
    40
100
AcDbCircle
 10
71.86904611516297
 20
143.0
 30
0.0
 40
5.5
100
AcDbArc
 50
0.0
 51
90.0
  0
LINE
  5
2F5
330
1F
100
AcDbEntity
  8
GR1_01
 62
     3
370
    40
100
AcDbLine
 10
71.86904611516297
 20
148.5
 30
0.0
 11
22.86904611516309
 21
148.5
 31
0.0
  0
LINE
  5
2F6
330
1F
100
AcDbEntity
  8
GR1_01
 62
     3
370
    40
100
AcDbLine
 10
17.36904611516309
 20
143.0
 30
0.0
 11
17.36904611516309
 21
94.00000000000003
 31
0.0
  0
ARC
  5
2F7
330
1F
100
AcDbEntity
  8
GR1_01
 62
     3
370
    40
100
AcDbCircle
 10
22.86904611516309
 20
143.0
 30
0.0
 40
5.5
100
AcDbArc
 50
90.0
 51
180.0
  0
ARC
  5
2F8
330
1F
100
AcDbEntity
  8
GR1_01
 62
     3
370
    40
100
AcDbCircle
 10
22.86904611516309
 20
94.00000000000003
 30
0.0
 40
5.5
100
AcDbArc
 50
180.0
 51
270.0
  0
ARC
  5
2F9
330
1F
100
AcDbEntity
  8
GR1_01
 62
     3
370
    40
100
AcDbCircle
 10
71.86904611516309
 20
94.00000000000003
 30
0.0
 40
5.5
100
AcDbArc
 50
270.0
 51
0.0
  0
CIRCLE
  5
2FB
330
1F
100
AcDbEntity
  8
作図レイヤ
 62
     3
100
AcDbCircle
 10
72.11776844735496
 20
93.75127102341906
 30
0.0
 40
3.5
  0
ARC
  5
2FC
330
1F
100
AcDbEntity
  8
作図レイヤ
 62
     3
100
AcDbCircle
 10
72.1177677726628
 20
93.75125820011868
 30
0.0
 40
1.944444444449555
100
AcDbArc
 50
253.3984156175
 51
286.60157709757
  0
ARC
  5
2FD
330
1F
100
AcDbEntity
  8
作図レイヤ
 62
     3
100
AcDbCircle
 10
72.1177677726628
 20
93.75125820011868
 30
0.0
 40
1.944444444449555
100
AcDbArc
 50
343.39842176444
 51
16.60158324451999
  0
ARC
  5
2FE
330
1F
100
AcDbEntity
  8
作図レイヤ
 62
     3
100
AcDbCircle
 10
72.1177677726628
 20
93.75125820011868
 30
0.0
 40
1.944444444449555
100
AcDbArc
 50
73.39843792930003
 51
106.60157208862
  0
ARC
  5
2FF
330
1F
100
AcDbEntity
  8
作図レイヤ
 62
     3
100
AcDbCircle
 10
72.1177677726628
 20
93.75125820011868
 30
0.0
 40
1.944444444449555
100
AcDbArc
 50
163.39840628283
 51
196.60159508366
  0
LINE
  5
300
330
1F
100
AcDbEntity
  8
作図レイヤ
 62
     3
100
AcDbLine
 10
72.67333018028594
 20
94.8623830153648
 30
0.0
 11
72.67333018028594
 21
95.6146395364409
 31
0.0
  0
LINE
  5
301
330
1F
100
AcDbEntity
  8
作図レイヤ
 62
     3
100
AcDbLine
 10
72.67333018028577
 20
92.64013338487274
 30
0.0
 11
72.67333018028594
 21
91.88787686378708
 31
0.0
  0
LINE
  5
302
330
1F
100
AcDbEntity
  8
作図レイヤ
 62
     3
100
AcDbLine
 10
71.56220536503989
 20
94.86238301536468
 30
0.0
 11
71.56220536503989
 21
95.61463953644085
 31
0.0
  0
LINE
  5
303
330
1F
100
AcDbEntity
  8
作図レイヤ
 62
     3
100
AcDbLine
 10
71.56220536503977
 20
92.64013338487274
 30
0.0
 11
71.56220536503989
 21
91.88787686378708
 31
0.0
  0
LINE
  5
304
330
1F
100
AcDbEntity
  8
作図レイヤ
 62
     3
100
AcDbLine
 10
73.22886362824138
 20
93.19569579249566
 30
0.0
 11
73.98117806867137
 21
93.19569579249566
 31
0.0
  0
LINE
  5
305
330
1F
100
AcDbEntity
  8
作図レイヤ
 62
     3
100
AcDbLine
 10
71.00667191709377
 20
93.19569579249566
 30
0.0
 11
70.25435747666373
 21
93.19569579249566
 31
0.0
  0
LINE
  5
306
330
1F
100
AcDbEntity
  8
作図レイヤ
 62
     3
100
AcDbLine
 10
73.22886362824138
 20
94.30682060774177
 30
0.0
 11
73.98117806867137
 21
94.30682060774177
 31
0.0
  0
LINE
  5
307
330
1F
100
AcDbEntity
  8
作図レイヤ
 62
     3
100
AcDbLine
 10
71.00667191709377
 20
94.30682060774177
 30
0.0
 11
70.25435747666373
 21
94.30682060774177
 31
0.0
  0
ARC
  5
308
330
1F
100
AcDbEntity
  8
作図レイヤ
 62
     3
100
AcDbCircle
 10
73.22886362824138
 20
94.86238301536468
 30
0.0
 40
0.5555555636372842
100
AcDbArc
 50
180.00000068325
 51
269.9426910704
  0
ARC
  5
309
330
1F
100
AcDbEntity
  8
作図レイヤ
 62
     3
100
AcDbCircle
 10
71.00667191709377
 20
94.86238301536468
 30
0.0
 40
0.5555555636372842
100
AcDbArc
 50
270.000010017913
 51
0.0000161648570162
  0
ARC
  5
30A
330
1F
100
AcDbEntity
  8
作図レイヤ
 62
     3
100
AcDbCircle
 10
71.00667191709377
 20
92.64013338487268
 30
0.0
 40
0.5555555636372842
100
AcDbArc
 50
0.0000161648570156
 51
90.00000500895999
  0
ARC
  5
30B
330
1F
100
AcDbEntity
  8
作図レイヤ
 62
     3
100
AcDbCircle
 10
73.22886362824138
 20
92.64013338487268
 30
0.0
 40
0.5555555636372842
100
AcDbArc
 50
90.00000500895999
 51
179.94265441497
  0
CIRCLE
  5
30C
330
1F
100
AcDbEntity
  8
作図レイヤ
 62
     3
100
AcDbCircle
 10
72.11776844735495
 20
143.2487457064774
 30
0.0
 40
3.5
  0
ARC
  5
30D
330
1F
100
AcDbEntity
  8
作図レイヤ
 62
     3
100
AcDbCircle
 10
72.11776777266279
 20
143.248732883177
 30
0.0
 40
1.944444444449555
100
AcDbArc
 50
253.3984156175
 51
286.60157709757
  0
ARC
  5
30E
330
1F
100
AcDbEntity
  8
作図レイヤ
 62
     3
100
AcDbCircle
 10
72.11776777266279
 20
143.248732883177
 30
0.0
 40
1.944444444449555
100
AcDbArc
 50
343.39842176444
 51
16.60158324451999
  0
ARC
  5
30F
330
1F
100
AcDbEntity
  8
作図レイヤ
 62
     3
100
AcDbCircle
 10
72.11776777266279
 20
143.248732883177
 30
0.0
 40
1.944444444449555
100
AcDbArc
 50
73.39843792930003
 51
106.60157208862
  0
ARC
  5
310
330
1F
100
AcDbEntity
  8
作図レイヤ
 62
     3
100
AcDbCircle
 10
72.11776777266279
 20
143.248732883177
 30
0.0
 40
1.944444444449555
100
AcDbArc
 50
163.39840628283
 51
196.60159508366
  0
LINE
  5
311
330
1F
100
AcDbEntity
  8
作図レイヤ
 62
     3
100
AcDbLine
 10
72.67333018028593
 20
144.3598576984232
 30
0.0
 11
72.67333018028593
 21
145.1121142194993
 31
0.0
  0
LINE
  5
312
330
1F
100
AcDbEntity
  8
作図レイヤ
 62
     3
100
AcDbLine
 10
72.67333018028576
 20
142.1376080679311
 30
0.0
 11
72.67333018028593
 21
141.3853515468454
 31
0.0
  0
LINE
  5
313
330
1F
100
AcDbEntity
  8
作図レイヤ
 62
     3
100
AcDbLine
 10
71.56220536503987
 20
144.359857698423
 30
0.0
 11
71.56220536503987
 21
145.1121142194992
 31
0.0
  0
LINE
  5
314
330
1F
100
AcDbEntity
  8
作図レイヤ
 62
     3
100
AcDbLine
 10
71.56220536503976
 20
142.1376080679311
 30
0.0
 11
71.56220536503987
 21
141.3853515468454
 31
0.0
  0
LINE
  5
315
330
1F
100
AcDbEntity
  8
作図レイヤ
 62
     3
100
AcDbLine
 10
73.22886362824137
 20
142.693170475554
 30
0.0
 11
73.98117806867135
 21
142.693170475554
 31
0.0
  0
LINE
  5
316
330
1F
100
AcDbEntity
  8
作図レイヤ
 62
     3
100
AcDbLine
 10
71.00667191709375
 20
142.693170475554
 30
0.0
 11
70.25435747666371
 21
142.693170475554
 31
0.0
  0
LINE
  5
317
330
1F
100
AcDbEntity
  8
作図レイヤ
 62
     3
100
AcDbLine
 10
73.22886362824137
 20
143.8042952908001
 30
0.0
 11
73.98117806867135
 21
143.8042952908001
 31
0.0
  0
LINE
  5
318
330
1F
100
AcDbEntity
  8
作図レイヤ
 62
     3
100
AcDbLine
 10
71.00667191709375
 20
143.8042952908001
 30
0.0
 11
70.25435747666371
 21
143.8042952908001
 31
0.0
  0
ARC
  5
319
330
1F
100
AcDbEntity
  8
作図レイヤ
 62
     3
100
AcDbCircle
 10
73.22886362824137
 20
144.359857698423
 30
0.0
 40
0.5555555636372842
100
AcDbArc
 50
180.00000068325
 51
269.9426910704
  0
ARC
  5
31A
330
1F
100
AcDbEntity
  8
作図レイヤ
 62
     3
100
AcDbCircle
 10
71.00667191709375
 20
144.359857698423
 30
0.0
 40
0.5555555636372842
100
AcDbArc
 50
270.000010017913
 51
0.0000161648570162
  0
ARC
  5
31B
330
1F
100
AcDbEntity
  8
作図レイヤ
 62
     3
100
AcDbCircle
 10
71.00667191709375
 20
142.137608067931
 30
0.0
 40
0.5555555636372842
100
AcDbArc
 50
0.0000161648570156
 51
90.00000500895999
  0
ARC
  5
31C
330
1F
100
AcDbEntity
  8
作図レイヤ
 62
     3
100
AcDbCircle
 10
73.22886362824137
 20
142.137608067931
 30
0.0
 40
0.5555555636372842
100
AcDbArc
 50
90.00000500895999
 51
179.94265441497
  0
CIRCLE
  5
31D
330
1F
100
AcDbEntity
  8
作図レイヤ
 62
     3
100
AcDbCircle
 10
22.6202937642966
 20
143.2487457064774
 30
0.0
 40
3.5
  0
ARC
  5
31E
330
1F
100
AcDbEntity
  8
作図レイヤ
 62
     3
100
AcDbCircle
 10
22.62029308960444
 20
143.248732883177
 30
0.0
 40
1.944444444449555
100
AcDbArc
 50
253.3984156175
 51
286.60157709757
  0
ARC
  5
31F
330
1F
100
AcDbEntity
  8
作図レイヤ
 62
     3
100
AcDbCircle
 10
22.62029308960444
 20
143.248732883177
 30
0.0
 40
1.944444444449555
100
AcDbArc
 50
343.39842176444
 51
16.60158324451999
  0
ARC
  5
320
330
1F
100
AcDbEntity
  8
作図レイヤ
 62
     3
100
AcDbCircle
 10
22.62029308960444
 20
143.248732883177
 30
0.0
 40
1.944444444449555
100
AcDbArc
 50
73.39843792930003
 51
106.60157208862
  0
ARC
  5
321
330
1F
100
AcDbEntity
  8
作図レイヤ
 62
     3
100
AcDbCircle
 10
22.62029308960444
 20
143.248732883177
 30
0.0
 40
1.944444444449555
100
AcDbArc
 50
163.39840628283
 51
196.60159508366
  0
LINE
  5
322
330
1F
100
AcDbEntity
  8
作図レイヤ
 62
     3
100
AcDbLine
 10
23.17585549722759
 20
144.3598576984231
 30
0.0
 11
23.17585549722759
 21
145.1121142194992
 31
0.0
  0
LINE
  5
323
330
1F
100
AcDbEntity
  8
作図レイヤ
 62
     3
100
AcDbLine
 10
23.17585549722742
 20
142.137608067931
 30
0.0
 11
23.17585549722759
 21
141.3853515468454
 31
0.0
  0
LINE
  5
324
330
1F
100
AcDbEntity
  8
作図レイヤ
 62
     3
100
AcDbLine
 10
22.06473068198153
 20
144.359857698423
 30
0.0
 11
22.06473068198153
 21
145.1121142194991
 31
0.0
  0
LINE
  5
325
330
1F
100
AcDbEntity
  8
作図レイヤ
 62
     3
100
AcDbLine
 10
22.06473068198142
 20
142.137608067931
 30
0.0
 11
22.06473068198153
 21
141.3853515468454
 31
0.0
  0
LINE
  5
326
330
1F
100
AcDbEntity
  8
作図レイヤ
 62
     3
100
AcDbLine
 10
23.73138894518303
 20
142.693170475554
 30
0.0
 11
24.48370338561301
 21
142.693170475554
 31
0.0
  0
LINE
  5
327
330
1F
100
AcDbEntity
  8
作図レイヤ
 62
     3
100
AcDbLine
 10
21.50919723403541
 20
142.693170475554
 30
0.0
 11
20.75688279360537
 21
142.693170475554
 31
0.0
  0
LINE
  5
328
330
1F
100
AcDbEntity
  8
作図レイヤ
 62
     3
100
AcDbLine
 10
23.73138894518303
 20
143.8042952908001
 30
0.0
 11
24.48370338561301
 21
143.8042952908001
 31
0.0
  0
LINE
  5
329
330
1F
100
AcDbEntity
  8
作図レイヤ
 62
     3
100
AcDbLine
 10
21.50919723403541
 20
143.8042952908001
 30
0.0
 11
20.75688279360537
 21
143.8042952908001
 31
0.0
  0
ARC
  5
32A
330
1F
100
AcDbEntity
  8
作図レイヤ
 62
     3
100
AcDbCircle
 10
23.73138894518303
 20
144.359857698423
 30
0.0
 40
0.5555555636372842
100
AcDbArc
 50
180.00000068325
 51
269.9426910704
  0
ARC
  5
32B
330
1F
100
AcDbEntity
  8
作図レイヤ
 62
     3
100
AcDbCircle
 10
21.50919723403541
 20
144.359857698423
 30
0.0
 40
0.5555555636372842
100
AcDbArc
 50
270.000010017913
 51
0.0000161648570162
  0
ARC
  5
32C
330
1F
100
AcDbEntity
  8
作図レイヤ
 62
     3
100
AcDbCircle
 10
21.50919723403541
 20
142.137608067931
 30
0.0
 40
0.5555555636372842
100
AcDbArc
 50
0.0000161648570156
 51
90.00000500895999
  0
ARC
  5
32D
330
1F
100
AcDbEntity
  8
作図レイヤ
 62
     3
100
AcDbCircle
 10
23.73138894518303
 20
142.137608067931
 30
0.0
 40
0.5555555636372842
100
AcDbArc
 50
90.00000500895999
 51
179.94265441497
  0
CIRCLE
  5
32E
330
1F
100
AcDbEntity
  8
作図レイヤ
 62
     3
100
AcDbCircle
 10
22.6202937642966
 20
93.7512710234191
 30
0.0
 40
3.5
  0
ARC
  5
32F
330
1F
100
AcDbEntity
  8
作図レイヤ
 62
     3
100
AcDbCircle
 10
22.62029308960444
 20
93.75125820011871
 30
0.0
 40
1.944444444449555
100
AcDbArc
 50
253.3984156175
 51
286.60157709757
  0
ARC
  5
330
330
1F
100
AcDbEntity
  8
作図レイヤ
 62
     3
100
AcDbCircle
 10
22.62029308960444
 20
93.75125820011871
 30
0.0
 40
1.944444444449555
100
AcDbArc
 50
343.39842176444
 51
16.60158324451999
  0
ARC
  5
331
330
1F
100
AcDbEntity
  8
作図レイヤ
 62
     3
100
AcDbCircle
 10
22.62029308960444
 20
93.75125820011871
 30
0.0
 40
1.944444444449555
100
AcDbArc
 50
73.39843792930003
 51
106.60157208862
  0
ARC
  5
332
330
1F
100
AcDbEntity
  8
作図レイヤ
 62
     3
100
AcDbCircle
 10
22.62029308960444
 20
93.75125820011871
 30
0.0
 40
1.944444444449555
100
AcDbArc
 50
163.39840628283
 51
196.60159508366
  0
LINE
  5
333
330
1F
100
AcDbEntity
  8
作図レイヤ
 62
     3
100
AcDbLine
 10
23.17585549722759
 20
94.86238301536483
 30
0.0
 11
23.17585549722759
 21
95.61463953644093
 31
0.0
  0
LINE
  5
334
330
1F
100
AcDbEntity
  8
作図レイヤ
 62
     3
100
AcDbLine
 10
23.17585549722742
 20
92.64013338487277
 30
0.0
 11
23.17585549722759
 21
91.88787686378711
 31
0.0
  0
LINE
  5
335
330
1F
100
AcDbEntity
  8
作図レイヤ
 62
     3
100
AcDbLine
 10
22.06473068198153
 20
94.86238301536471
 30
0.0
 11
22.06473068198153
 21
95.61463953644088
 31
0.0
  0
LINE
  5
336
330
1F
100
AcDbEntity
  8
作図レイヤ
 62
     3
100
AcDbLine
 10
22.06473068198142
 20
92.64013338487277
 30
0.0
 11
22.06473068198153
 21
91.88787686378711
 31
0.0
  0
LINE
  5
337
330
1F
100
AcDbEntity
  8
作図レイヤ
 62
     3
100
AcDbLine
 10
23.73138894518303
 20
93.19569579249568
 30
0.0
 11
24.48370338561301
 21
93.19569579249568
 31
0.0
  0
LINE
  5
338
330
1F
100
AcDbEntity
  8
作図レイヤ
 62
     3
100
AcDbLine
 10
21.50919723403541
 20
93.19569579249568
 30
0.0
 11
20.75688279360537
 21
93.19569579249568
 31
0.0
  0
LINE
  5
339
330
1F
100
AcDbEntity
  8
作図レイヤ
 62
     3
100
AcDbLine
 10
23.73138894518303
 20
94.3068206077418
 30
0.0
 11
24.48370338561301
 21
94.3068206077418
 31
0.0
  0
LINE
  5
33A
330
1F
100
AcDbEntity
  8
作図レイヤ
 62
     3
100
AcDbLine
 10
21.50919723403541
 20
94.3068206077418
 30
0.0
 11
20.75688279360537
 21
94.3068206077418
 31
0.0
  0
ARC
  5
33B
330
1F
100
AcDbEntity
  8
作図レイヤ
 62
     3
100
AcDbCircle
 10
23.73138894518303
 20
94.86238301536471
 30
0.0
 40
0.5555555636372842
100
AcDbArc
 50
180.00000068325
 51
269.9426910704
  0
ARC
  5
33C
330
1F
100
AcDbEntity
  8
作図レイヤ
 62
     3
100
AcDbCircle
 10
21.50919723403541
 20
94.86238301536471
 30
0.0
 40
0.5555555636372842
100
AcDbArc
 50
270.000010017913
 51
0.0000161648570162
  0
ARC
  5
33D
330
1F
100
AcDbEntity
  8
作図レイヤ
 62
     3
100
AcDbCircle
 10
21.50919723403541
 20
92.64013338487271
 30
0.0
 40
0.5555555636372842
100
AcDbArc
 50
0.0000161648570156
 51
90.00000500895999
  0
ARC
  5
33E
330
1F
100
AcDbEntity
  8
作図レイヤ
 62
     3
100
AcDbCircle
 10
23.73138894518303
 20
92.64013338487271
 30
0.0
 40
0.5555555636372842
100
AcDbArc
 50
90.00000500895999
 51
179.94265441497
  0
ENDSEC
  0
SECTION
  2
OBJECTS
  0
DICTIONARY
  5
C
330
0
100
AcDbDictionary
281
     1
  3
ACAD_GROUP
350
D
  3
ACAD_LAYOUT
350
1A
  3
ACAD_MATERIAL
350
3B
  3
ACAD_MLEADERSTYLE
350
341
  3
ACAD_MLINESTYLE
350
17
  3
ACAD_PLOTSETTINGS
350
19
  3
ACAD_PLOTSTYLENAME
350
E
  3
ACAD_VISUALSTYLE
350
2A
  3
AcDbVariableDictionary
350
33F
  0
DICTIONARY
  5
D
102
{ACAD_REACTORS
330
C
102
}
330
C
100
AcDbDictionary
281
     1
  0
DICTIONARY
  5
1A
102
{ACAD_REACTORS
330
C
102
}
330
C
100
AcDbDictionary
281
     1
  3
Layout1
350
1E
  3
Layout2
350
26
  3
Model
350
22
  0
DICTIONARY
  5
3B
102
{ACAD_REACTORS
330
C
102
}
330
C
100
AcDbDictionary
281
     1
  3
ByBlock
350
3D
  3
ByLayer
350
3C
  3
Global
350
3E
  0
DICTIONARY
  5
341
102
{ACAD_REACTORS
330
C
102
}
330
C
100
AcDbDictionary
281
     1
  0
DICTIONARY
  5
17
102
{ACAD_REACTORS
330
C
102
}
330
C
100
AcDbDictionary
281
     1
  3
Standard
350
18
  0
DICTIONARY
  5
19
102
{ACAD_REACTORS
330
C
102
}
330
C
100
AcDbDictionary
281
     1
  0
ACDBDICTIONARYWDFLT
  5
E
102
{ACAD_REACTORS
330
C
102
}
330
C
100
AcDbDictionary
281
     1
  3
Normal
350
F
100
AcDbDictionaryWithDefault
340
F
  0
DICTIONARY
  5
2A
102
{ACAD_REACTORS
330
C
102
}
330
C
100
AcDbDictionary
281
     1
  3
2dWireframe
350
2F
  3
3D Hidden
350
31
  3
3dWireframe
350
30
  3
Basic
350
32
  3
Brighten
350
36
  3
ColorChange
350
3A
  3
Conceptual
350
34
  3
Dim
350
35
  3
Facepattern
350
39
  3
Flat
350
2B
  3
FlatWithEdges
350
2C
  3
Gouraud
350
2D
  3
GouraudWithEdges
350
2E
  3
Linepattern
350
38
  3
Realistic
350
33
  3
Thicken
350
37
  0
DICTIONARY
  5
33F
102
{ACAD_REACTORS
330
C
102
}
330
C
100
AcDbDictionary
281
     1
  3
DIMASSOC
350
344
  3
HIDETEXT
350
345
  3
PSOLHEIGHT
350
343
  3
PSOLWIDTH
350
342
  0
LAYOUT
  5
1E
102
{ACAD_REACTORS
330
1A
102
}
330
1A
100
AcDbPlotSettings
  1

  2
none_device
  4

  6

 40
0.0
 41
0.0
 42
0.0
 43
0.0
 44
0.0
 45
0.0
 46
0.0
 47
0.0
 48
0.0
 49
0.0
140
0.0
141
0.0
142
1.0
143
1.0
 70
   688
 72
     0
 73
     0
 74
     5
  7

 75
    16
147
1.0
148
0.0
149
0.0
100
AcDbLayout
  1
Layout1
 70
     1
 71
     1
 10
0.0
 20
0.0
 11
420.0
 21
297.0
 12
0.0
 22
0.0
 32
0.0
 14
1.000000000000000E+20
 24
1.000000000000000E+20
 34
1.000000000000000E+20
 15
-1.000000000000000E+20
 25
-1.000000000000000E+20
 35
-1.000000000000000E+20
146
0.0
 13
0.0
 23
0.0
 33
0.0
 16
1.0
 26
0.0
 36
0.0
 17
0.0
 27
1.0
 37
0.0
 76
     0
330
1B
  0
LAYOUT
  5
26
102
{ACAD_REACTORS
330
1A
102
}
330
1A
100
AcDbPlotSettings
  1

  2
none_device
  4

  6

 40
0.0
 41
0.0
 42
0.0
 43
0.0
 44
0.0
 45
0.0
 46
0.0
 47
0.0
 48
0.0
 49
0.0
140
0.0
141
0.0
142
1.0
143
1.0
 70
   688
 72
     0
 73
     0
 74
     5
  7

 75
    16
147
1.0
148
0.0
149
0.0
100
AcDbLayout
  1
Layout2
 70
     1
 71
     2
 10
0.0
 20
0.0
 11
0.0
 21
0.0
 12
0.0
 22
0.0
 32
0.0
 14
0.0
 24
0.0
 34
0.0
 15
0.0
 25
0.0
 35
0.0
146
0.0
 13
0.0
 23
0.0
 33
0.0
 16
1.0
 26
0.0
 36
0.0
 17
0.0
 27
1.0
 37
0.0
 76
     0
330
23
  0
LAYOUT
  5
22
102
{ACAD_REACTORS
330
1A
102
}
330
1A
100
AcDbPlotSettings
  1

  2
none_device
  4

  6

 40
0.0
 41
0.0
 42
0.0
 43
0.0
 44
0.0
 45
0.0
 46
0.0
 47
0.0
 48
0.0
 49
0.0
140
0.0
141
0.0
142
1.0
143
1.0
 70
  1712
 72
     0
 73
     0
 74
     0
  7

 75
     0
147
1.0
148
0.0
149
0.0
100
AcDbLayout
  1
Model
 70
     1
 71
     0
 10
0.0
 20
0.0
 11
420.0
 21
297.0
 12
0.0
 22
0.0
 32
0.0
 14
0.0
 24
0.0
 34
0.0
 15
420.0
 25
297.0
 35
0.0
146
0.0
 13
0.0
 23
0.0
 33
0.0
 16
1.0
 26
0.0
 36
0.0
 17
0.0
 27
1.0
 37
0.0
 76
     0
330
1F
331
29
  0
MATERIAL
  5
3D
102
{ACAD_REACTORS
330
3B
102
}
102
{ACAD_XDICTIONARY
360
368
102
}
330
3B
100
AcDbMaterial
  1
ByBlock
  0
MATERIAL
  5
3C
102
{ACAD_REACTORS
330
3B
102
}
102
{ACAD_XDICTIONARY
360
366
102
}
330
3B
100
AcDbMaterial
  1
ByLayer
  0
MATERIAL
  5
3E
102
{ACAD_REACTORS
330
3B
102
}
102
{ACAD_XDICTIONARY
360
36A
102
}
330
3B
100
AcDbMaterial
  1
Global
  0
MLINESTYLE
  5
18
102
{ACAD_REACTORS
330
17
102
}
330
17
100
AcDbMlineStyle
  2
Standard
 70
     0
  3

 62
   256
 51
90.0
 52
90.0
 71
     2
 49
0.5
 62
   256
  6
BYLAYER
 49
-0.5
 62
   256
  6
BYLAYER
  0
ACDBPLACEHOLDER
  5
F
102
{ACAD_REACTORS
330
E
102
}
330
E
  0
VISUALSTYLE
  5
2F
102
{ACAD_REACTORS
330
2A
102
}
102
{ACAD_XDICTIONARY
360
34E
102
}
330
2A
100
AcDbVisualStyle
  2
2dWireframe
 70
     4
 71
     0
 72
     2
 73
     0
 90
        0
 40
-0.6
 41
-30.0
 62
     5
 63
     7
 74
     1
 91
        4
 64
     7
 65
   257
 75
     1
175
     1
 42
1.0
 92
        0
 66
   257
 43
1.0
 76
     1
 77
     6
 78
     2
 67
     7
 79
     5
170
     0
171
     0
290
     0
174
     0
 93
        1
 44
0.0
173
     0
291
     0
 45
0.0
1001
ACAD
1000
AcDbSavedByObjectVersion
1070
     0
  0
VISUALSTYLE
  5
31
102
{ACAD_REACTORS
330
2A
102
}
102
{ACAD_XDICTIONARY
360
352
102
}
330
2A
100
AcDbVisualStyle
  2
3D Hidden
 70
     6
 71
     1
 72
     2
 73
     2
 90
        0
 40
-0.6
 41
-30.0
 62
     5
 63
     7
 74
     2
 91
        2
 64
     7
 65
   257
 75
     2
175
     1
 42
40.0
 92
        0
 66
   257
 43
1.0
 76
     1
 77
     6
 78
     2
 67
     7
 79
     3
170
     0
171
     0
290
     0
174
     0
 93
        1
 44
0.0
173
     0
291
     0
 45
0.0
1001
ACAD
1000
AcDbSavedByObjectVersion
1070
     0
  0
VISUALSTYLE
  5
30
102
{ACAD_REACTORS
330
2A
102
}
102
{ACAD_XDICTIONARY
360
350
102
}
330
2A
100
AcDbVisualStyle
  2
3dWireframe
 70
     5
 71
     0
 72
     2
 73
     0
 90
        0
 40
-0.6
 41
-30.0
 62
     5
 63
     7
 74
     1
 91
        4
 64
     7
 65
   257
 75
     1
175
     1
 42
1.0
 92
        0
 66
   257
 43
1.0
 76
     1
 77
     6
 78
     2
 67
     7
 79
     5
170
     0
171
     0
290
     0
174
     0
 93
        1
 44
0.0
173
     0
291
     0
 45
0.0
1001
ACAD
1000
AcDbSavedByObjectVersion
1070
     0
  0
VISUALSTYLE
  5
32
102
{ACAD_REACTORS
330
2A
102
}
102
{ACAD_XDICTIONARY
360
354
102
}
330
2A
100
AcDbVisualStyle
  2
Basic
 70
     7
 71
     1
 72
     0
 73
     1
 90
        0
 40
-0.6
 41
-30.0
 62
     5
 63
     7
 74
     0
 91
        4
 64
     7
 65
   257
 75
     1
175
     1
 42
1.0
 92
        8
 66
     7
 43
1.0
 76
     1
 77
     6
 78
     2
 67
     7
 79
     5
170
     0
171
     0
290
     0
174
     0
 93
        1
 44
0.0
173
     0
291
     1
 45
0.0
1001
ACAD
1000
AcDbSavedByObjectVersion
1070
     0
  0
VISUALSTYLE
  5
36
102
{ACAD_REACTORS
330
2A
102
}
102
{ACAD_XDICTIONARY
360
35C
102
}
330
2A
100
AcDbVisualStyle
  2
Brighten
 70
    12
 71
     2
 72
     2
 73
     0
 90
        0
 40
-0.6
 41
-30.0
 62
     5
 63
     7
 74
     1
 91
        4
 64
     7
 65
   257
 75
     1
175
     1
 42
1.0
 92
        8
 66
     7
 43
1.0
 76
     1
 77
     6
 78
     2
 67
     7
 79
     5
170
     0
171
     0
290
     0
174
     0
 93
        1
 44
50.0
173
     0
291
     1
 45
0.0
1001
ACAD
1000
AcDbSavedByObjectVersion
1070
     0
  0
VISUALSTYLE
  5
3A
102
{ACAD_REACTORS
330
2A
102
}
102
{ACAD_XDICTIONARY
360
364
102
}
330
2A
100
AcDbVisualStyle
  2
ColorChange
 70
    16
 71
     2
 72
     2
 73
     3
 90
        0
 40
-0.6
 41
-30.0
 62
     5
 63
     8
 74
     1
 91
        4
 64
     7
 65
   257
 75
     1
175
     1
 42
1.0
 92
        8
 66
     8
 43
1.0
 76
     1
 77
     6
 78
     2
 67
     7
 79
     5
170
     0
171
     0
290
     0
174
     0
 93
        1
 44
0.0
173
     0
291
     1
 45
0.0
1001
ACAD
1000
AcDbSavedByObjectVersion
1070
     0
  0
VISUALSTYLE
  5
34
102
{ACAD_REACTORS
330
2A
102
}
102
{ACAD_XDICTIONARY
360
358
102
}
330
2A
100
AcDbVisualStyle
  2
Conceptual
 70
     9
 71
     3
 72
     2
 73
     0
 90
        0
 40
-0.6
 41
-30.0
 62
     5
 63
     7
 74
     2
 91
        2
 64
     7
 65
   257
 75
     1
175
     1
 42
40.0
 92
        8
 66
     7
 43
1.0
 76
     1
 77
     6
 78
     2
 67
     7
 79
     3
170
     0
171
     0
290
     0
174
     0
 93
        1
 44
0.0
173
     0
291
     0
 45
0.0
1001
ACAD
1000
AcDbSavedByObjectVersion
1070
     0
  0
VISUALSTYLE
  5
35
102
{ACAD_REACTORS
330
2A
102
}
102
{ACAD_XDICTIONARY
360
35A
102
}
330
2A
100
AcDbVisualStyle
  2
Dim
 70
    11
 71
     2
 72
     2
 73
     0
 90
        0
 40
-0.6
 41
-30.0
 62
     5
 63
     7
 74
     1
 91
        4
 64
     7
 65
   257
 75
     1
175
     1
 42
1.0
 92
        8
 66
     7
 43
1.0
 76
     1
 77
     6
 78
     2
 67
     7
 79
     5
170
     0
171
     0
290
     0
174
     0
 93
        1
 44
-50.0
173
     0
291
     1
 45
0.0
1001
ACAD
1000
AcDbSavedByObjectVersion
1070
     0
  0
VISUALSTYLE
  5
39
102
{ACAD_REACTORS
330
2A
102
}
102
{ACAD_XDICTIONARY
360
362
102
}
330
2A
100
AcDbVisualStyle
  2
Facepattern
 70
    15
 71
     2
 72
     2
 73
     0
 90
        0
 40
-0.6
 41
-30.0
 62
     5
 63
     7
 74
     1
 91
        4
 64
     7
 65
   257
 75
     1
175
     1
 42
1.0
 92
        8
 66
     7
 43
1.0
 76
     1
 77
     6
 78
     2
 67
     7
 79
     5
170
     0
171
     0
290
     0
174
     0
 93
        1
 44
0.0
173
     0
291
     1
 45
0.0
1001
ACAD
1000
AcDbSavedByObjectVersion
1070
     0
  0
VISUALSTYLE
  5
2B
102
{ACAD_REACTORS
330
2A
102
}
102
{ACAD_XDICTIONARY
360
346
102
}
330
2A
100
AcDbVisualStyle
  2
Flat
 70
     0
 71
     2
 72
     1
 73
     1
 90
        2
 40
-0.6
 41
30.0
 62
     5
 63
     7
 74
     0
 91
        4
 64
     7
 65
   257
 75
     1
175
     1
 42
1.0
 92
        8
 66
     7
 43
1.0
 76
     1
 77
     6
 78
     2
 67
     7
 79
     5
170
     0
171
     0
290
     0
174
     0
 93
       13
 44
0.0
173
     0
291
     1
 45
0.0
1001
ACAD
1000
AcDbSavedByObjectVersion
1070
     0
  0
VISUALSTYLE
  5
2C
102
{ACAD_REACTORS
330
2A
102
}
102
{ACAD_XDICTIONARY
360
348
102
}
330
2A
100
AcDbVisualStyle
  2
FlatWithEdges
 70
     1
 71
     2
 72
     1
 73
     1
 90
        2
 40
-0.6
 41
30.0
 62
     5
 63
     7
 74
     1
 91
        4
 64
     7
 65
   257
 75
     1
175
     1
 42
1.0
 92
        0
 66
   257
 43
1.0
 76
     1
 77
     6
 78
     2
 67
     7
 79
     5
170
     0
171
     0
290
     0
174
     0
 93
       13
 44
0.0
173
     0
291
     1
 45
0.0
1001
ACAD
1000
AcDbSavedByObjectVersion
1070
     0
  0
VISUALSTYLE
  5
2D
102
{ACAD_REACTORS
330
2A
102
}
102
{ACAD_XDICTIONARY
360
34A
102
}
330
2A
100
AcDbVisualStyle
  2
Gouraud
 70
     2
 71
     2
 72
     2
 73
     1
 90
        2
 40
-0.6
 41
30.0
 62
     5
 63
     7
 74
     0
 91
        4
 64
     7
 65
   257
 75
     1
175
     1
 42
1.0
 92
        0
 66
     7
 43
1.0
 76
     1
 77
     6
 78
     2
 67
     7
 79
     5
170
     0
171
     0
290
     0
174
     0
 93
       13
 44
0.0
173
     0
291
     1
 45
0.0
1001
ACAD
1000
AcDbSavedByObjectVersion
1070
     0
  0
VISUALSTYLE
  5
2E
102
{ACAD_REACTORS
330
2A
102
}
102
{ACAD_XDICTIONARY
360
34C
102
}
330
2A
100
AcDbVisualStyle
  2
GouraudWithEdges
 70
     3
 71
     2
 72
     2
 73
     1
 90
        2
 40
-0.6
 41
30.0
 62
     5
 63
     7
 74
     1
 91
        4
 64
     7
 65
   257
 75
     1
175
     1
 42
1.0
 92
        0
 66
   257
 43
1.0
 76
     1
 77
     6
 78
     2
 67
     7
 79
     5
170
     0
171
     0
290
     0
174
     0
 93
       13
 44
0.0
173
     0
291
     1
 45
0.0
1001
ACAD
1000
AcDbSavedByObjectVersion
1070
     0
  0
VISUALSTYLE
  5
38
102
{ACAD_REACTORS
330
2A
102
}
102
{ACAD_XDICTIONARY
360
360
102
}
330
2A
100
AcDbVisualStyle
  2
Linepattern
 70
    14
 71
     2
 72
     2
 73
     0
 90
        0
 40
-0.6
 41
-30.0
 62
     5
 63
     7
 74
     1
 91
        4
 64
     7
 65
   257
 75
     7
175
     7
 42
1.0
 92
        8
 66
     7
 43
1.0
 76
     1
 77
     6
 78
     2
 67
     7
 79
     5
170
     0
171
     0
290
     0
174
     0
 93
        1
 44
0.0
173
     0
291
     1
 45
0.0
1001
ACAD
1000
AcDbSavedByObjectVersion
1070
     0
  0
VISUALSTYLE
  5
33
102
{ACAD_REACTORS
330
2A
102
}
102
{ACAD_XDICTIONARY
360
356
102
}
330
2A
100
AcDbVisualStyle
  2
Realistic
 70
     8
 71
     2
 72
     2
 73
     0
 90
        0
 40
-0.6
 41
-30.0
 62
     5
 63
     7
 74
     1
 91
        0
 64
     7
 65
   257
 75
     1
175
     1
 42
1.0
 92
        8
 66
     8
 43
1.0
 76
     1
 77
     6
 78
     2
 67
     7
 79
     5
170
     0
171
     0
290
     0
174
     0
 93
       13
 44
0.0
173
     0
291
     0
 45
0.0
1001
ACAD
1000
AcDbSavedByObjectVersion
1070
     0
  0
VISUALSTYLE
  5
37
102
{ACAD_REACTORS
330
2A
102
}
102
{ACAD_XDICTIONARY
360
35E
102
}
330
2A
100
AcDbVisualStyle
  2
Thicken
 70
    13
 71
     2
 72
     2
 73
     0
 90
        0
 40
-0.6
 41
-30.0
 62
     5
 63
     7
 74
     1
 91
        4
 64
     7
 65
   257
 75
     1
175
     1
 42
1.0
 92
       12
 66
     7
 43
1.0
 76
     1
 77
     6
 78
     2
 67
     7
 79
     5
170
     0
171
     0
290
     0
174
     0
 93
        1
 44
0.0
173
     0
291
     1
 45
0.0
1001
ACAD
1000
AcDbSavedByObjectVersion
1070
     0
  0
DICTIONARYVAR
  5
344
102
{ACAD_REACTORS
330
33F
102
}
330
33F
100
DictionaryVariables
280
     0
  1
2
  0
DICTIONARYVAR
  5
345
102
{ACAD_REACTORS
330
33F
102
}
330
33F
100
DictionaryVariables
280
     0
  1
1
  0
DICTIONARYVAR
  5
343
102
{ACAD_REACTORS
330
33F
102
}
330
33F
100
DictionaryVariables
280
     0
  1
80.000000
  0
DICTIONARYVAR
  5
342
102
{ACAD_REACTORS
330
33F
102
}
330
33F
100
DictionaryVariables
280
     0
  1
5.000000
  0
DICTIONARY
  5
368
330
3D
100
AcDbDictionary
280
     1
281
     1
  3
ACAD_XREC_ROUNDTRIP
360
369
  0
DICTIONARY
  5
366
330
3C
100
AcDbDictionary
280
     1
281
     1
  3
ACAD_XREC_ROUNDTRIP
360
367
  0
DICTIONARY
  5
36A
330
3E
100
AcDbDictionary
280
     1
281
     1
  3
ACAD_XREC_ROUNDTRIP
360
36B
  0
DICTIONARY
  5
34E
330
2F
100
AcDbDictionary
280
     1
281
     1
  3
ACAD_XREC_ROUNDTRIP
360
34F
  0
DICTIONARY
  5
352
330
31
100
AcDbDictionary
280
     1
281
     1
  3
ACAD_XREC_ROUNDTRIP
360
353
  0
DICTIONARY
  5
350
330
30
100
AcDbDictionary
280
     1
281
     1
  3
ACAD_XREC_ROUNDTRIP
360
351
  0
DICTIONARY
  5
354
330
32
100
AcDbDictionary
280
     1
281
     1
  3
ACAD_XREC_ROUNDTRIP
360
355
  0
DICTIONARY
  5
35C
330
36
100
AcDbDictionary
280
     1
281
     1
  3
ACAD_XREC_ROUNDTRIP
360
35D
  0
DICTIONARY
  5
364
330
3A
100
AcDbDictionary
280
     1
281
     1
  3
ACAD_XREC_ROUNDTRIP
360
365
  0
DICTIONARY
  5
358
330
34
100
AcDbDictionary
280
     1
281
     1
  3
ACAD_XREC_ROUNDTRIP
360
359
  0
DICTIONARY
  5
35A
330
35
100
AcDbDictionary
280
     1
281
     1
  3
ACAD_XREC_ROUNDTRIP
360
35B
  0
DICTIONARY
  5
362
330
39
100
AcDbDictionary
280
     1
281
     1
  3
ACAD_XREC_ROUNDTRIP
360
363
  0
DICTIONARY
  5
346
330
2B
100
AcDbDictionary
280
     1
281
     1
  3
ACAD_XREC_ROUNDTRIP
360
347
  0
DICTIONARY
  5
348
330
2C
100
AcDbDictionary
280
     1
281
     1
  3
ACAD_XREC_ROUNDTRIP
360
349
  0
DICTIONARY
  5
34A
330
2D
100
AcDbDictionary
280
     1
281
     1
  3
ACAD_XREC_ROUNDTRIP
360
34B
  0
DICTIONARY
  5
34C
330
2E
100
AcDbDictionary
280
     1
281
     1
  3
ACAD_XREC_ROUNDTRIP
360
34D
  0
DICTIONARY
  5
360
330
38
100
AcDbDictionary
280
     1
281
     1
  3
ACAD_XREC_ROUNDTRIP
360
361
  0
DICTIONARY
  5
356
330
33
100
AcDbDictionary
280
     1
281
     1
  3
ACAD_XREC_ROUNDTRIP
360
357
  0
DICTIONARY
  5
35E
330
37
100
AcDbDictionary
280
     1
281
     1
  3
ACAD_XREC_ROUNDTRIP
360
35F
  0
XRECORD
  5
369
102
{ACAD_REACTORS
330
368
102
}
330
368
100
AcDbXrecord
280
     1
102
MATERIAL
148
0.0
149
0.0
149
0.0
 93
        0
 94
      127
282
     0
 72
     1
 77
     1
171
     1
175
     1
179
     1
273
     0
  0
XRECORD
  5
367
102
{ACAD_REACTORS
330
366
102
}
330
366
100
AcDbXrecord
280
     1
102
MATERIAL
148
0.0
149
0.0
149
0.0
 93
        0
 94
      127
282
     0
 72
     1
 77
     1
171
     1
175
     1
179
     1
273
     0
  0
XRECORD
  5
36B
102
{ACAD_REACTORS
330
36A
102
}
330
36A
100
AcDbXrecord
280
     1
102
MATERIAL
148
0.0
149
0.0
149
0.0
 93
        0
 94
      127
282
     0
 72
     1
 77
     1
171
     1
175
     1
179
     1
273
     0
  0
XRECORD
  5
34F
102
{ACAD_REACTORS
330
34E
102
}
330
34E
100
AcDbXrecord
280
     1
102
RTVSPropertyOp0
 70
     1
102
RTVSPropertyOp1
 70
     1
102
RTVSPropertyOp2
 70
     1
102
RTVSPropertyOp3
 70
     1
102
RTVSPropertyOp4
 70
     1
102
RTVSPropertyOp5
 70
     1
102
RTVSPropertyOp6
 70
     1
102
RTVSPropertyOp7
 70
     1
102
RTVSPropertyOp8
 70
     1
102
RTVSPropertyOp9
 70
     1
102
RTVSPropertyOp10
 70
     1
102
RTVSPropertyOp11
 70
     1
102
RTVSPropertyOp12
 70
     1
102
RTVSPropertyOp13
 70
     1
102
RTVSPropertyOp14
 70
     1
102
RTVSPropertyOp15
 70
     1
102
RTVSPropertyOp16
 70
     1
102
RTVSPropertyOp17
 70
     1
102
RTVSPropertyOp18
 70
     1
102
RTVSPropertyOp19
 70
     1
102
RTVSPropertyOp20
 70
     1
102
RTVSPropertyOp21
 70
     1
102
RTVSPropertyOp22
 70
     1
102
RTVSPropertyOp23
 70
     1
102
RTVSPropertyOp24
 70
     1
102
RTVSPropertyOp25
 70
     1
102
RTVSPropertyOp26
 70
     1
102
RTVSPropertyOp27
 70
     1
  0
XRECORD
  5
353
102
{ACAD_REACTORS
330
352
102
}
330
352
100
AcDbXrecord
280
     1
102
RTVSPropertyOp0
 70
     1
102
RTVSPropertyOp1
 70
     1
102
RTVSPropertyOp2
 70
     1
102
RTVSPropertyOp3
 70
     1
102
RTVSPropertyOp4
 70
     1
102
RTVSPropertyOp5
 70
     1
102
RTVSPropertyOp6
 70
     1
102
RTVSPropertyOp7
 70
     1
102
RTVSPropertyOp8
 70
     1
102
RTVSPropertyOp9
 70
     1
102
RTVSPropertyOp10
 70
     1
102
RTVSPropertyOp11
 70
     1
102
RTVSPropertyOp12
 70
     1
102
RTVSPropertyOp13
 70
     1
102
RTVSPropertyOp14
 70
     1
102
RTVSPropertyOp15
 70
     1
102
RTVSPropertyOp16
 70
     1
102
RTVSPropertyOp17
 70
     1
102
RTVSPropertyOp18
 70
     1
102
RTVSPropertyOp19
 70
     1
102
RTVSPropertyOp20
 70
     1
102
RTVSPropertyOp21
 70
     1
102
RTVSPropertyOp22
 70
     1
102
RTVSPropertyOp23
 70
     1
102
RTVSPropertyOp24
 70
     1
102
RTVSPropertyOp25
 70
     1
102
RTVSPropertyOp26
 70
     1
102
RTVSPropertyOp27
 70
     1
  0
XRECORD
  5
351
102
{ACAD_REACTORS
330
350
102
}
330
350
100
AcDbXrecord
280
     1
102
RTVSPropertyOp0
 70
     1
102
RTVSPropertyOp1
 70
     1
102
RTVSPropertyOp2
 70
     1
102
RTVSPropertyOp3
 70
     1
102
RTVSPropertyOp4
 70
     1
102
RTVSPropertyOp5
 70
     1
102
RTVSPropertyOp6
 70
     1
102
RTVSPropertyOp7
 70
     1
102
RTVSPropertyOp8
 70
     1
102
RTVSPropertyOp9
 70
     1
102
RTVSPropertyOp10
 70
     1
102
RTVSPropertyOp11
 70
     1
102
RTVSPropertyOp12
 70
     1
102
RTVSPropertyOp13
 70
     1
102
RTVSPropertyOp14
 70
     1
102
RTVSPropertyOp15
 70
     1
102
RTVSPropertyOp16
 70
     1
102
RTVSPropertyOp17
 70
     1
102
RTVSPropertyOp18
 70
     1
102
RTVSPropertyOp19
 70
     1
102
RTVSPropertyOp20
 70
     1
102
RTVSPropertyOp21
 70
     1
102
RTVSPropertyOp22
 70
     1
102
RTVSPropertyOp23
 70
     1
102
RTVSPropertyOp24
 70
     1
102
RTVSPropertyOp25
 70
     1
102
RTVSPropertyOp26
 70
     1
102
RTVSPropertyOp27
 70
     1
  0
XRECORD
  5
355
102
{ACAD_REACTORS
330
354
102
}
330
354
100
AcDbXrecord
280
     1
102
RTVSPropertyOp0
 70
     1
102
RTVSPropertyOp1
 70
     1
102
RTVSPropertyOp2
 70
     1
102
RTVSPropertyOp3
 70
     1
102
RTVSPropertyOp4
 70
     1
102
RTVSPropertyOp5
 70
     1
102
RTVSPropertyOp6
 70
     1
102
RTVSPropertyOp7
 70
     1
102
RTVSPropertyOp8
 70
     1
102
RTVSPropertyOp9
 70
     1
102
RTVSPropertyOp10
 70
     1
102
RTVSPropertyOp11
 70
     1
102
RTVSPropertyOp12
 70
     1
102
RTVSPropertyOp13
 70
     1
102
RTVSPropertyOp14
 70
     1
102
RTVSPropertyOp15
 70
     1
102
RTVSPropertyOp16
 70
     1
102
RTVSPropertyOp17
 70
     1
102
RTVSPropertyOp18
 70
     1
102
RTVSPropertyOp19
 70
     1
102
RTVSPropertyOp20
 70
     1
102
RTVSPropertyOp21
 70
     1
102
RTVSPropertyOp22
 70
     1
102
RTVSPropertyOp23
 70
     1
102
RTVSPropertyOp24
 70
     1
102
RTVSPropertyOp25
 70
     1
102
RTVSPropertyOp26
 70
     1
102
RTVSPropertyOp27
 70
     1
  0
XRECORD
  5
35D
102
{ACAD_REACTORS
330
35C
102
}
330
35C
100
AcDbXrecord
280
     1
102
RTVSPropertyOp0
 70
     1
102
RTVSPropertyOp1
 70
     1
102
RTVSPropertyOp2
 70
     1
102
RTVSPropertyOp3
 70
     1
102
RTVSPropertyOp4
 70
     1
102
RTVSPropertyOp5
 70
     1
102
RTVSPropertyOp6
 70
     1
102
RTVSPropertyOp7
 70
     1
102
RTVSPropertyOp8
 70
     1
102
RTVSPropertyOp9
 70
     1
102
RTVSPropertyOp10
 70
     1
102
RTVSPropertyOp11
 70
     1
102
RTVSPropertyOp12
 70
     1
102
RTVSPropertyOp13
 70
     1
102
RTVSPropertyOp14
 70
     1
102
RTVSPropertyOp15
 70
     1
102
RTVSPropertyOp16
 70
     1
102
RTVSPropertyOp17
 70
     1
102
RTVSPropertyOp18
 70
     1
102
RTVSPropertyOp19
 70
     1
102
RTVSPropertyOp20
 70
     1
102
RTVSPropertyOp21
 70
     1
102
RTVSPropertyOp22
 70
     1
102
RTVSPropertyOp23
 70
     1
102
RTVSPropertyOp24
 70
     1
102
RTVSPropertyOp25
 70
     1
102
RTVSPropertyOp26
 70
     1
102
RTVSPropertyOp27
 70
     1
  0
XRECORD
  5
365
102
{ACAD_REACTORS
330
364
102
}
330
364
100
AcDbXrecord
280
     1
102
RTVSPropertyOp0
 70
     1
102
RTVSPropertyOp1
 70
     1
102
RTVSPropertyOp2
 70
     1
102
RTVSPropertyOp3
 70
     1
102
RTVSPropertyOp4
 70
     1
102
RTVSPropertyOp5
 70
     1
102
RTVSPropertyOp6
 70
     1
102
RTVSPropertyOp7
 70
     1
102
RTVSPropertyOp8
 70
     1
102
RTVSPropertyOp9
 70
     1
102
RTVSPropertyOp10
 70
     1
102
RTVSPropertyOp11
 70
     1
102
RTVSPropertyOp12
 70
     1
102
RTVSPropertyOp13
 70
     1
102
RTVSPropertyOp14
 70
     1
102
RTVSPropertyOp15
 70
     1
102
RTVSPropertyOp16
 70
     1
102
RTVSPropertyOp17
 70
     1
102
RTVSPropertyOp18
 70
     1
102
RTVSPropertyOp19
 70
     1
102
RTVSPropertyOp20
 70
     1
102
RTVSPropertyOp21
 70
     1
102
RTVSPropertyOp22
 70
     1
102
RTVSPropertyOp23
 70
     1
102
RTVSPropertyOp24
 70
     1
102
RTVSPropertyOp25
 70
     1
102
RTVSPropertyOp26
 70
     1
102
RTVSPropertyOp27
 70
     1
  0
XRECORD
  5
359
102
{ACAD_REACTORS
330
358
102
}
330
358
100
AcDbXrecord
280
     1
102
RTVSPropertyOp0
 70
     1
102
RTVSPropertyOp1
 70
     1
102
RTVSPropertyOp2
 70
     1
102
RTVSPropertyOp3
 70
     1
102
RTVSPropertyOp4
 70
     1
102
RTVSPropertyOp5
 70
     1
102
RTVSPropertyOp6
 70
     1
102
RTVSPropertyOp7
 70
     1
102
RTVSPropertyOp8
 70
     1
102
RTVSPropertyOp9
 70
     1
102
RTVSPropertyOp10
 70
     1
102
RTVSPropertyOp11
 70
     1
102
RTVSPropertyOp12
 70
     1
102
RTVSPropertyOp13
 70
     1
102
RTVSPropertyOp14
 70
     1
102
RTVSPropertyOp15
 70
     1
102
RTVSPropertyOp16
 70
     1
102
RTVSPropertyOp17
 70
     1
102
RTVSPropertyOp18
 70
     1
102
RTVSPropertyOp19
 70
     1
102
RTVSPropertyOp20
 70
     1
102
RTVSPropertyOp21
 70
     1
102
RTVSPropertyOp22
 70
     1
102
RTVSPropertyOp23
 70
     1
102
RTVSPropertyOp24
 70
     1
102
RTVSPropertyOp25
 70
     1
102
RTVSPropertyOp26
 70
     1
102
RTVSPropertyOp27
 70
     1
  0
XRECORD
  5
35B
102
{ACAD_REACTORS
330
35A
102
}
330
35A
100
AcDbXrecord
280
     1
102
RTVSPropertyOp0
 70
     1
102
RTVSPropertyOp1
 70
     1
102
RTVSPropertyOp2
 70
     1
102
RTVSPropertyOp3
 70
     1
102
RTVSPropertyOp4
 70
     1
102
RTVSPropertyOp5
 70
     1
102
RTVSPropertyOp6
 70
     1
102
RTVSPropertyOp7
 70
     1
102
RTVSPropertyOp8
 70
     1
102
RTVSPropertyOp9
 70
     1
102
RTVSPropertyOp10
 70
     1
102
RTVSPropertyOp11
 70
     1
102
RTVSPropertyOp12
 70
     1
102
RTVSPropertyOp13
 70
     1
102
RTVSPropertyOp14
 70
     1
102
RTVSPropertyOp15
 70
     1
102
RTVSPropertyOp16
 70
     1
102
RTVSPropertyOp17
 70
     1
102
RTVSPropertyOp18
 70
     1
102
RTVSPropertyOp19
 70
     1
102
RTVSPropertyOp20
 70
     1
102
RTVSPropertyOp21
 70
     1
102
RTVSPropertyOp22
 70
     1
102
RTVSPropertyOp23
 70
     1
102
RTVSPropertyOp24
 70
     1
102
RTVSPropertyOp25
 70
     1
102
RTVSPropertyOp26
 70
     1
102
RTVSPropertyOp27
 70
     1
  0
XRECORD
  5
363
102
{ACAD_REACTORS
330
362
102
}
330
362
100
AcDbXrecord
280
     1
102
RTVSPropertyOp0
 70
     1
102
RTVSPropertyOp1
 70
     1
102
RTVSPropertyOp2
 70
     1
102
RTVSPropertyOp3
 70
     1
102
RTVSPropertyOp4
 70
     1
102
RTVSPropertyOp5
 70
     1
102
RTVSPropertyOp6
 70
     1
102
RTVSPropertyOp7
 70
     1
102
RTVSPropertyOp8
 70
     1
102
RTVSPropertyOp9
 70
     1
102
RTVSPropertyOp10
 70
     1
102
RTVSPropertyOp11
 70
     1
102
RTVSPropertyOp12
 70
     1
102
RTVSPropertyOp13
 70
     1
102
RTVSPropertyOp14
 70
     1
102
RTVSPropertyOp15
 70
     1
102
RTVSPropertyOp16
 70
     1
102
RTVSPropertyOp17
 70
     1
102
RTVSPropertyOp18
 70
     1
102
RTVSPropertyOp19
 70
     1
102
RTVSPropertyOp20
 70
     1
102
RTVSPropertyOp21
 70
     1
102
RTVSPropertyOp22
 70
     1
102
RTVSPropertyOp23
 70
     1
102
RTVSPropertyOp24
 70
     1
102
RTVSPropertyOp25
 70
     1
102
RTVSPropertyOp26
 70
     1
102
RTVSPropertyOp27
 70
     1
  0
XRECORD
  5
347
102
{ACAD_REACTORS
330
346
102
}
330
346
100
AcDbXrecord
280
     1
102
RTVSPropertyOp0
 70
     1
102
RTVSPropertyOp1
 70
     1
102
RTVSPropertyOp2
 70
     1
102
RTVSPropertyOp3
 70
     1
102
RTVSPropertyOp4
 70
     1
102
RTVSPropertyOp5
 70
     1
102
RTVSPropertyOp6
 70
     1
102
RTVSPropertyOp7
 70
     1
102
RTVSPropertyOp8
 70
     1
102
RTVSPropertyOp9
 70
     1
102
RTVSPropertyOp10
 70
     1
102
RTVSPropertyOp11
 70
     1
102
RTVSPropertyOp12
 70
     1
102
RTVSPropertyOp13
 70
     1
102
RTVSPropertyOp14
 70
     1
102
RTVSPropertyOp15
 70
     1
102
RTVSPropertyOp16
 70
     1
102
RTVSPropertyOp17
 70
     1
102
RTVSPropertyOp18
 70
     1
102
RTVSPropertyOp19
 70
     1
102
RTVSPropertyOp20
 70
     1
102
RTVSPropertyOp21
 70
     1
102
RTVSPropertyOp22
 70
     1
102
RTVSPropertyOp23
 70
     1
102
RTVSPropertyOp24
 70
     1
102
RTVSPropertyOp25
 70
     1
102
RTVSPropertyOp26
 70
     1
102
RTVSPropertyOp27
 70
     1
  0
XRECORD
  5
349
102
{ACAD_REACTORS
330
348
102
}
330
348
100
AcDbXrecord
280
     1
102
RTVSPropertyOp0
 70
     1
102
RTVSPropertyOp1
 70
     1
102
RTVSPropertyOp2
 70
     1
102
RTVSPropertyOp3
 70
     1
102
RTVSPropertyOp4
 70
     1
102
RTVSPropertyOp5
 70
     1
102
RTVSPropertyOp6
 70
     1
102
RTVSPropertyOp7
 70
     1
102
RTVSPropertyOp8
 70
     1
102
RTVSPropertyOp9
 70
     1
102
RTVSPropertyOp10
 70
     1
102
RTVSPropertyOp11
 70
     1
102
RTVSPropertyOp12
 70
     1
102
RTVSPropertyOp13
 70
     1
102
RTVSPropertyOp14
 70
     1
102
RTVSPropertyOp15
 70
     1
102
RTVSPropertyOp16
 70
     1
102
RTVSPropertyOp17
 70
     1
102
RTVSPropertyOp18
 70
     1
102
RTVSPropertyOp19
 70
     1
102
RTVSPropertyOp20
 70
     1
102
RTVSPropertyOp21
 70
     1
102
RTVSPropertyOp22
 70
     1
102
RTVSPropertyOp23
 70
     1
102
RTVSPropertyOp24
 70
     1
102
RTVSPropertyOp25
 70
     1
102
RTVSPropertyOp26
 70
     1
102
RTVSPropertyOp27
 70
     1
  0
XRECORD
  5
34B
102
{ACAD_REACTORS
330
34A
102
}
330
34A
100
AcDbXrecord
280
     1
102
RTVSPropertyOp0
 70
     1
102
RTVSPropertyOp1
 70
     1
102
RTVSPropertyOp2
 70
     1
102
RTVSPropertyOp3
 70
     1
102
RTVSPropertyOp4
 70
     1
102
RTVSPropertyOp5
 70
     1
102
RTVSPropertyOp6
 70
     1
102
RTVSPropertyOp7
 70
     1
102
RTVSPropertyOp8
 70
     1
102
RTVSPropertyOp9
 70
     1
102
RTVSPropertyOp10
 70
     1
102
RTVSPropertyOp11
 70
     1
102
RTVSPropertyOp12
 70
     1
102
RTVSPropertyOp13
 70
     1
102
RTVSPropertyOp14
 70
     1
102
RTVSPropertyOp15
 70
     1
102
RTVSPropertyOp16
 70
     1
102
RTVSPropertyOp17
 70
     1
102
RTVSPropertyOp18
 70
     1
102
RTVSPropertyOp19
 70
     1
102
RTVSPropertyOp20
 70
     1
102
RTVSPropertyOp21
 70
     1
102
RTVSPropertyOp22
 70
     1
102
RTVSPropertyOp23
 70
     1
102
RTVSPropertyOp24
 70
     1
102
RTVSPropertyOp25
 70
     1
102
RTVSPropertyOp26
 70
     1
102
RTVSPropertyOp27
 70
     1
  0
XRECORD
  5
34D
102
{ACAD_REACTORS
330
34C
102
}
330
34C
100
AcDbXrecord
280
     1
102
RTVSPropertyOp0
 70
     1
102
RTVSPropertyOp1
 70
     1
102
RTVSPropertyOp2
 70
     1
102
RTVSPropertyOp3
 70
     1
102
RTVSPropertyOp4
 70
     1
102
RTVSPropertyOp5
 70
     1
102
RTVSPropertyOp6
 70
     1
102
RTVSPropertyOp7
 70
     1
102
RTVSPropertyOp8
 70
     1
102
RTVSPropertyOp9
 70
     1
102
RTVSPropertyOp10
 70
     1
102
RTVSPropertyOp11
 70
     1
102
RTVSPropertyOp12
 70
     1
102
RTVSPropertyOp13
 70
     1
102
RTVSPropertyOp14
 70
     1
102
RTVSPropertyOp15
 70
     1
102
RTVSPropertyOp16
 70
     1
102
RTVSPropertyOp17
 70
     1
102
RTVSPropertyOp18
 70
     1
102
RTVSPropertyOp19
 70
     1
102
RTVSPropertyOp20
 70
     1
102
RTVSPropertyOp21
 70
     1
102
RTVSPropertyOp22
 70
     1
102
RTVSPropertyOp23
 70
     1
102
RTVSPropertyOp24
 70
     1
102
RTVSPropertyOp25
 70
     1
102
RTVSPropertyOp26
 70
     1
102
RTVSPropertyOp27
 70
     1
  0
XRECORD
  5
361
102
{ACAD_REACTORS
330
360
102
}
330
360
100
AcDbXrecord
280
     1
102
RTVSPropertyOp0
 70
     1
102
RTVSPropertyOp1
 70
     1
102
RTVSPropertyOp2
 70
     1
102
RTVSPropertyOp3
 70
     1
102
RTVSPropertyOp4
 70
     1
102
RTVSPropertyOp5
 70
     1
102
RTVSPropertyOp6
 70
     1
102
RTVSPropertyOp7
 70
     1
102
RTVSPropertyOp8
 70
     1
102
RTVSPropertyOp9
 70
     1
102
RTVSPropertyOp10
 70
     1
102
RTVSPropertyOp11
 70
     1
102
RTVSPropertyOp12
 70
     1
102
RTVSPropertyOp13
 70
     1
102
RTVSPropertyOp14
 70
     1
102
RTVSPropertyOp15
 70
     1
102
RTVSPropertyOp16
 70
     1
102
RTVSPropertyOp17
 70
     1
102
RTVSPropertyOp18
 70
     1
102
RTVSPropertyOp19
 70
     1
102
RTVSPropertyOp20
 70
     1
102
RTVSPropertyOp21
 70
     1
102
RTVSPropertyOp22
 70
     1
102
RTVSPropertyOp23
 70
     1
102
RTVSPropertyOp24
 70
     1
102
RTVSPropertyOp25
 70
     1
102
RTVSPropertyOp26
 70
     1
102
RTVSPropertyOp27
 70
     1
  0
XRECORD
  5
357
102
{ACAD_REACTORS
330
356
102
}
330
356
100
AcDbXrecord
280
     1
102
RTVSPropertyOp0
 70
     1
102
RTVSPropertyOp1
 70
     1
102
RTVSPropertyOp2
 70
     1
102
RTVSPropertyOp3
 70
     1
102
RTVSPropertyOp4
 70
     1
102
RTVSPropertyOp5
 70
     1
102
RTVSPropertyOp6
 70
     1
102
RTVSPropertyOp7
 70
     1
102
RTVSPropertyOp8
 70
     1
102
RTVSPropertyOp9
 70
     1
102
RTVSPropertyOp10
 70
     1
102
RTVSPropertyOp11
 70
     1
102
RTVSPropertyOp12
 70
     1
102
RTVSPropertyOp13
 70
     1
102
RTVSPropertyOp14
 70
     1
102
RTVSPropertyOp15
 70
     1
102
RTVSPropertyOp16
 70
     1
102
RTVSPropertyOp17
 70
     1
102
RTVSPropertyOp18
 70
     1
102
RTVSPropertyOp19
 70
     1
102
RTVSPropertyOp20
 70
     1
102
RTVSPropertyOp21
 70
     1
102
RTVSPropertyOp22
 70
     1
102
RTVSPropertyOp23
 70
     1
102
RTVSPropertyOp24
 70
     1
102
RTVSPropertyOp25
 70
     1
102
RTVSPropertyOp26
 70
     1
102
RTVSPropertyOp27
 70
     1
  0
XRECORD
  5
35F
102
{ACAD_REACTORS
330
35E
102
}
330
35E
100
AcDbXrecord
280
     1
102
RTVSPropertyOp0
 70
     1
102
RTVSPropertyOp1
 70
     1
102
RTVSPropertyOp2
 70
     1
102
RTVSPropertyOp3
 70
     1
102
RTVSPropertyOp4
 70
     1
102
RTVSPropertyOp5
 70
     1
102
RTVSPropertyOp6
 70
     1
102
RTVSPropertyOp7
 70
     1
102
RTVSPropertyOp8
 70
     1
102
RTVSPropertyOp9
 70
     1
102
RTVSPropertyOp10
 70
     1
102
RTVSPropertyOp11
 70
     1
102
RTVSPropertyOp12
 70
     1
102
RTVSPropertyOp13
 70
     1
102
RTVSPropertyOp14
 70
     1
102
RTVSPropertyOp15
 70
     1
102
RTVSPropertyOp16
 70
     1
102
RTVSPropertyOp17
 70
     1
102
RTVSPropertyOp18
 70
     1
102
RTVSPropertyOp19
 70
     1
102
RTVSPropertyOp20
 70
     1
102
RTVSPropertyOp21
 70
     1
102
RTVSPropertyOp22
 70
     1
102
RTVSPropertyOp23
 70
     1
102
RTVSPropertyOp24
 70
     1
102
RTVSPropertyOp25
 70
     1
102
RTVSPropertyOp26
 70
     1
102
RTVSPropertyOp27
 70
     1
  0
ENDSEC
  0
EOF
