  0
SECTION
  2
HEADER
  9
$ACADVER
  1
AC1006
  9
$INSBASE
 10
0.000000
 20
0.000000
 30
0.0
  9
$EXTMIN
 10
0.000000
 20
0.000000
  9
$EXTMAX
 10
420.000000
 20
297.000000
  9
$LIMMIN
 10
0.000000
 20
0.000000
  9
$LIMMAX
 10
420.000000
 20
297.000000
  9
$VIEWCTR
 10
210.000000
 20
148.500000
  9
$VIEWSIZE
 40
297.000000
  9
$SNAPMODE
 70
     0
  9
$SNAPUNIT
 10
1.0
 20
1.0
  9
$SNAPBASE
 10
0.0
 20
0.0
  9
$SNAPANG
 50
0.0
  9
$SNAPSTYLE
 70
     0
  9
$SNAPISOPAIR
 70
     0
  9
$GRIDMODE
 70
     0
  9
$GRIDUNIT
 10
0.0
 20
0.0
  9
$ORTHOMODE
 70
     0
  9
$REGENMODE
 70
     1
  9
$FILLMODE
 70
     1
  9
$QTEXTMODE
 70
     0
  9
$DRAGMODE
 70
     2
  9
$LTSCALE
 40
15.000000
  9
$OSMODE
 70
     0
  9
$ATTMODE
 70
     1
  9
$TEXTSIZE
 40
0.2
  9
$TRACEWID
 40
0.05
  9
$TEXTSTYLE
  7
STANDARD
  9
$CLAYER
  8
CSLAYER1
  9
$CELTYPE
  6
BYLAYER
  9
$CECOLOR
 62
   256
  9
$DIMSCALE
 40
1.0
  9
$DIMASZ
 40
0.18
  9
$DIMEXO
 40
0.0625
  9
$DIMDLI
 40
0.38
  9
$DIMRND
 40
0.0
  9
$DIMDLE
 40
0.0
  9
$DIMEXE
 40
0.18
  9
$DIMTP
 40
0.0
  9
$DIMTM
 40
0.0
  9
$DIMTXT
 40
0.18
  9
$DIMCEN
 40
0.09
  9
$DIMTSZ
 40
0.0
  9
$DIMTOL
 70
     0
  9
$DIMLIM
 70
     0
  9
$DIMTIH
 70
     1
  9
$DIMTOH
 70
     1
  9
$DIMSE1
 70
     0
  9
$DIMSE2
 70
     0
  9
$DIMTAD
 70
     0
  9
$DIMZIN
 70
     0
  9
$DIMBLK
  1

  9
$LUNITS
 70
     2
  9
$LUPREC
 70
     4
  9
$AXISMODE
 70
     0
  9
$AXISUNIT
 10
0.0
 20
0.0
  9
$SKETCHINC
 40
0.1
  9
$FILLETRAD
 40
0.0
  9
$AUNITS
 70
     0
  9
$AUPREC
 70
     0
  9
$MENU
  1
ACAD
  9
$ELEVATION
 40
0.0
  9
$THICKNESS
 40
0.0
  9
$VIEWDIR
 10
0.0
 20
0.0
 30
1.0
  9
$LIMCHECK
 70
     0
  9
$BLIPMODE
 70
     1
  9
$CHAMFERA
 40
0.0
  9
$CHAMFERB
 40
0.0
  9
$FASTZOOM
 70
     1
  9
$SKPOLY
 70
     0
  9
$TDCREATE
 40
0.000000
  9
$TDUPDATE
 40
0.000000
  9
$TDINDWG
 40
0.0
  9
$TDUSRTIMER
 40
0.0
  9
$USRTIMER
 70
     1
  9
$ANGBASE
 50
0.0
  9
$ANGDIR
 70
     0
  9
$PDMODE
 70
     0
  9
$PDSIZE
 40
0.0
  9
$PLINEWID
 40
0.0
  9
$COORDS
 70
     0
  9
$USERI1
 70
     0
  9
$USERI2
 70
     0
  9
$USERI3
 70
     0
  9
$USERI4
 70
     0
  9
$USERI5
 70
     0
  9
$USERR1
 40
0.0
  9
$USERR2
 40
0.0
  9
$USERR3
 40
0.0
  9
$USERR4
 40
0.0
  9
$USERR5
 40
0.0
  0
ENDSEC
  0
SECTION
  2
TABLES
  0
TABLE
  2
LTYPE
 70
     9
  0
LTYPE
  2
CONTINUOUS
 70
    64
  3
Solid line
 72
    65
 73
     0
 40
0.0
  0
LTYPE
  2
DASHED
 70
    64
  3
__ __ __ __ __ __ __ __ __ __ __ __ __ __ __
 72
    65
 73
     2
 40
0.75
 49
0.5
 49
-0.25
  0
LTYPE
  2
HIDDEN
 70
    64
  3
_ _ _ _ _ _ _ _ _ _ _ _ _ _ _ _ _ _ _ _ _ _ _
 72
    65
 73
     2
 40
0.375
 49
0.25
 49
-0.125
  0
LTYPE
  2
DOT
 70
    64
  3
...............................................
 72
    65
 73
     2
 40
0.25
 49
0.0
 49
-0.25
  0
LTYPE
  2
DASHDOT
 70
    64
  3
__ . __ . __ . __ . __ . __ . __ . __ . __ . __
 72
    65
 73
     4
 40
1.0
 49
0.5
 49
-0.25
 49
0.0
 49
-0.25
  0
LTYPE
  2
DIVIDE
 70
    64
  3
__ . . __ . . __ . . __ . . __ . . __ . . __
 72
    65
 73
     6
 40
1.25
 49
0.5
 49
-0.25
 49
0.0
 49
-0.25
 49
0.0
 49
-0.25
  0
LTYPE
  2
CENTER
 70
    64
  3
____ _ ____ _ ____ _ ____ _ ____ _ ____ _ ____ 
 72
    65
 73
     4
 40
2.0
 49
1.25
 49
-0.25
 49
0.25
 49
-0.25
  0
LTYPE
  2
PHANTOM
 70
    64
  3
______  __  __  ______  __  __  ______  __  __ 
 72
    65
 73
     6
 40
2.5
 49
1.25
 49
-0.25
 49
0.25
 49
-0.25
 49
0.25
 49
-0.25
  0
LTYPE
  2
BORDER
 70
    64
  3
__ __ . __ __ . __ __ . __ __ . __ __ . __ __ .
 72
    65
 73
     6
 40
1.75
 49
0.5
 49
-0.25
 49
0.5
 49
-0.25
 49
0.0
 49
-0.25
  0
ENDTAB
  0
TABLE
  2
LAYER
 70
    16
  0
LAYER
  2
CSLAYER1
 70
    64
 62
     7
  6
CONTINUOUS
  0
LAYER
  2
CSLAYER2
 70
    64
 62
     7
  6
CONTINUOUS
  0
LAYER
  2
CSLAYER3
 70
    64
 62
     7
  6
CONTINUOUS
  0
LAYER
  2
CSLAYER4
 70
    64
 62
     7
  6
CONTINUOUS
  0
LAYER
  2
CSLAYER5
 70
    64
 62
     7
  6
CONTINUOUS
  0
LAYER
  2
CSLAYER6
 70
    64
 62
     7
  6
CONTINUOUS
  0
LAYER
  2
CSLAYER7
 70
    64
 62
     7
  6
CONTINUOUS
  0
LAYER
  2
CSLAYER8
 70
    64
 62
     7
  6
CONTINUOUS
  0
LAYER
  2
CSLAYER9
 70
    64
 62
     7
  6
CONTINUOUS
  0
LAYER
  2
CSLAYER10
 70
    64
 62
     7
  6
CONTINUOUS
  0
LAYER
  2
CSLAYER11
 70
    64
 62
     7
  6
CONTINUOUS
  0
LAYER
  2
CSLAYER12
 70
    64
 62
     7
  6
CONTINUOUS
  0
LAYER
  2
CSLAYER13
 70
    64
 62
     7
  6
CONTINUOUS
  0
LAYER
  2
CSLAYER14
 70
    64
 62
     7
  6
CONTINUOUS
  0
LAYER
  2
CSLAYER15
 70
    64
 62
     7
  6
CONTINUOUS
  0
LAYER
  2
CSLAYER16
 70
    64
 62
     7
  6
CONTINUOUS
  0
ENDTAB
  0
TABLE
  2
STYLE
 70
     1
  0
STYLE
  2
JX_FONT
 70
     0
 40
1.0
 41
1.0
 50
0.0
 71
     0
 42
1.0
  3
monotxt
  4
bigfont
  0
ENDTAB
  0
TABLE
  2
VIEW
 70
     0
  0
ENDTAB
  0
ENDSEC
  0
SECTION
  2
BLOCKS
  0
ENDSEC
  0
SECTION
  2
ENTITIES
  0
LINE
  8
CSLAYER1
  6
CENTER
 62
     3
 10
252.504087
 20
242.854001
 11
146.504087
 21
242.854001
  0
LINE
  8
CSLAYER1
  6
CENTER
 62
     3
 10
254.104104
 20
154.665258
 11
146.504104
 21
154.665258
  0
LINE
  8
CSLAYER1
  6
CONTINUOUS
 62
     6
 10
207.504104
 20
129.165258
 11
207.504104
 21
180.044579
  0
LINE
  8
CSLAYER1
  6
CONTINUOUS
 62
     6
 10
213.504104
 20
127.165258
 11
213.504104
 21
181.665258
  0
LINE
  8
CSLAYER1
  6
CONTINUOUS
 62
     6
 10
218.504104
 20
181.665258
 11
209.504104
 21
181.665258
  0
LINE
  8
CSLAYER1
  6
CONTINUOUS
 62
     6
 10
209.504104
 20
127.665258
 11
213.504104
 21
127.665258
  0
ARC
  8
CSLAYER1
  6
CONTINUOUS
 62
     6
 10
209.504104
 20
179.665258
 40
2.000000
 50
90.000000
 51
180.000000
  0
ARC
  8
CSLAYER1
  6
CONTINUOUS
 62
     6
 10
209.983333
 20
130.098641
 40
2.480124
 50
178.460834
 51
258.858783
  0
LINE
  8
CSLAYER1
  6
CONTINUOUS
 62
     6
 10
206.659304
 20
173.285974
 11
206.659304
 21
180.044579
  0
ARC
  8
CSLAYER1
  6
CONTINUOUS
 62
     6
 10
212.693800
 20
176.665276
 40
8.448294
 50
163.742994
 51
196.257016
  0
LINE
  8
CSLAYER1
  6
CONTINUOUS
 62
     6
 10
206.396842
 20
179.961284
 11
205.636711
 21
179.894785
  0
ARC
  8
CSLAYER1
  6
CONTINUOUS
 62
     6
 10
205.741902
 20
178.692471
 40
1.206899
 50
95.000111
 51
163.742611
  0
ARC
  8
CSLAYER1
  6
CONTINUOUS
 62
     6
 10
206.417910
 20
179.720829
 40
0.241380
 50
0.000000
 51
95.000152
  0
LINE
  8
CSLAYER1
  6
CONTINUOUS
 62
     6
 10
206.779965
 20
180.165276
 11
207.383414
 21
180.165276
  0
ARC
  8
CSLAYER1
  6
CONTINUOUS
 62
     6
 10
206.779965
 20
180.044579
 40
0.120690
 50
90.000003
 51
180.000005
  0
ARC
  8
CSLAYER1
  6
CONTINUOUS
 62
     6
 10
207.383414
 20
180.044579
 40
0.120690
 50
0.000000
 51
90.000003
  0
LINE
  8
CSLAYER1
  6
CONTINUOUS
 62
     6
 10
206.396842
 20
173.369269
 11
205.636711
 21
173.435768
  0
ARC
  8
CSLAYER1
  6
CONTINUOUS
 62
     6
 10
205.741902
 20
174.638082
 40
1.206899
 50
196.257399
 51
264.999892
  0
ARC
  8
CSLAYER1
  6
CONTINUOUS
 62
     6
 10
206.417910
 20
173.609724
 40
0.241380
 50
264.999865
 51
359.942691
  0
ARC
  8
CSLAYER1
  6
CONTINUOUS
 62
     6
 10
206.779965
 20
173.285974
 40
0.120690
 50
180.000005
 51
270.000001
  0
LINE
  8
CSLAYER1
  6
CONTINUOUS
 62
     6
 10
206.779965
 20
173.165276
 11
207.383414
 21
173.165276
  0
ARC
  8
CSLAYER1
  6
CONTINUOUS
 62
     6
 10
207.383414
 20
173.285974
 40
0.120690
 50
270.000001
 51
359.942691
  0
LINE
  8
CSLAYER1
  6
CONTINUOUS
 62
     6
 10
206.659304
 20
175.946047
 11
207.504111
 21
176.481744
  0
LINE
  8
CSLAYER1
  6
CONTINUOUS
 62
     6
 10
206.659304
 20
176.549496
 11
207.504111
 21
177.085194
  0
LINE
  8
CSLAYER1
  6
CONTINUOUS
 62
     6
 10
206.659304
 20
129.285974
 11
206.659304
 21
136.044579
  0
ARC
  8
CSLAYER1
  6
CONTINUOUS
 62
     6
 10
212.693800
 20
132.665276
 40
8.448294
 50
163.742994
 51
196.257016
  0
LINE
  8
CSLAYER1
  6
CONTINUOUS
 62
     6
 10
206.396842
 20
135.961284
 11
205.636711
 21
135.894785
  0
ARC
  8
CSLAYER1
  6
CONTINUOUS
 62
     6
 10
205.741902
 20
134.692471
 40
1.206899
 50
95.000111
 51
163.742611
  0
ARC
  8
CSLAYER1
  6
CONTINUOUS
 62
     6
 10
206.417910
 20
135.720829
 40
0.241380
 50
0.000000
 51
95.000152
  0
LINE
  8
CSLAYER1
  6
CONTINUOUS
 62
     6
 10
206.779965
 20
136.165276
 11
207.383414
 21
136.165276
  0
ARC
  8
CSLAYER1
  6
CONTINUOUS
 62
     6
 10
206.779965
 20
136.044579
 40
0.120690
 50
90.000003
 51
180.000005
  0
ARC
  8
CSLAYER1
  6
CONTINUOUS
 62
     6
 10
207.383414
 20
136.044579
 40
0.120690
 50
0.000000
 51
90.000003
  0
LINE
  8
CSLAYER1
  6
CONTINUOUS
 62
     6
 10
206.396842
 20
129.369269
 11
205.636711
 21
129.435768
  0
ARC
  8
CSLAYER1
  6
CONTINUOUS
 62
     6
 10
205.741902
 20
130.638082
 40
1.206899
 50
196.257399
 51
264.999892
  0
ARC
  8
CSLAYER1
  6
CONTINUOUS
 62
     6
 10
206.417910
 20
129.609724
 40
0.241380
 50
264.999865
 51
359.942691
  0
ARC
  8
CSLAYER1
  6
CONTINUOUS
 62
     6
 10
206.779965
 20
129.285974
 40
0.120690
 50
180.000005
 51
270.000001
  0
LINE
  8
CSLAYER1
  6
CONTINUOUS
 62
     6
 10
206.779965
 20
129.165276
 11
207.383414
 21
129.165276
  0
ARC
  8
CSLAYER1
  6
CONTINUOUS
 62
     6
 10
207.383414
 20
129.285974
 40
0.120690
 50
270.000001
 51
359.942691
  0
LINE
  8
CSLAYER1
  6
CONTINUOUS
 62
     6
 10
206.659304
 20
131.946047
 11
207.504111
 21
132.481744
  0
LINE
  8
CSLAYER1
  6
CONTINUOUS
 62
     6
 10
206.659304
 20
132.549496
 11
207.504111
 21
133.085194
  0
LINE
  8
CSLAYER1
  6
CENTER
 62
     3
 10
216.504104
 20
132.665258
 11
201.245506
 21
132.665258
  0
LINE
  8
CSLAYER1
  6
CENTER
 62
     3
 10
223.504104
 20
176.665258
 11
201.245506
 21
176.665258
  0
LINE
  8
CSLAYER1
  6
CONTINUOUS
 62
     6
 10
220.504104
 20
154.665258
 11
220.504104
 21
179.665258
  0
ARC
  8
CSLAYER1
  6
CONTINUOUS
 62
     6
 10
218.504104
 20
179.665258
 40
2.000000
 50
0.000000
 51
90.000000
  0
LINE
  8
CSLAYER1
  6
CENTER
 62
     3
 10
236.104104
 20
93.165258
 11
236.104104
 21
175.665258
  0
LINE
  8
CSLAYER1
  6
CONTINUOUS
 62
     6
 10
240.069104
 20
96.165258
 11
240.069104
 21
127.165258
  0
LINE
  8
CSLAYER1
  6
CONTINUOUS
 62
     6
 10
240.069104
 20
96.165258
 11
232.139104
 21
96.165258
  0
LINE
  8
CSLAYER1
  6
CONTINUOUS
 62
     6
 10
232.139104
 20
96.165258
 11
232.139104
 21
127.165258
  0
LINE
  8
CSLAYER1
  6
CENTER
 62
     3
 10
235.504104
 20
143.665258
 11
216.504104
 21
143.665258
  0
LINE
  8
CSLAYER1
  6
CENTER
 62
     3
 10
226.004104
 20
153.165258
 11
226.004104
 21
134.165258
  0
CIRCLE
  8
CSLAYER1
  6
CONTINUOUS
 62
     6
 10
226.004104
 20
143.665258
 40
5.250000
  0
CIRCLE
  8
CSLAYER1
  6
CONTINUOUS
 62
     6
 10
226.004104
 20
143.665258
 40
4.500000
  0
LINE
  8
CSLAYER1
  6
CONTINUOUS
 62
     6
 10
226.754104
 20
148.861410
 11
226.754104
 21
138.469106
  0
LINE
  8
CSLAYER1
  6
CONTINUOUS
 62
     6
 10
225.254104
 20
148.861410
 11
225.254104
 21
138.469106
  0
ARC
  8
CSLAYER1
  6
CONTINUOUS
 62
     6
 10
226.004104
 20
143.665258
 40
7.500000
 50
-90.000000
 51
90.000000
  0
LINE
  8
CSLAYER1
  6
CONTINUOUS
 62
     6
 10
226.004104
 20
151.165258
 11
213.504104
 21
151.165258
  0
LINE
  8
CSLAYER1
  6
CONTINUOUS
 62
     6
 10
226.004104
 20
136.165258
 11
213.504104
 21
136.165258
  0
LINE
  8
CSLAYER1
  6
CONTINUOUS
 62
     6
 10
222.504104
 20
172.665258
 11
242.504104
 21
172.665258
  0
LINE
  8
CSLAYER1
  6
CONTINUOUS
 62
     6
 10
244.004104
 20
170.665258
 11
244.004104
 21
164.165258
  0
LINE
  8
CSLAYER1
  6
CONTINUOUS
 62
     6
 10
239.104104
 20
162.165258
 11
249.104104
 21
162.165258
  0
LINE
  8
CSLAYER1
  6
CONTINUOUS
 62
     6
 10
250.704104
 20
160.165258
 11
250.704104
 21
136.865258
  0
LINE
  8
CSLAYER1
  6
CONTINUOUS
 62
     6
 10
249.504104
 20
127.165258
 11
249.504104
 21
133.665258
  0
LINE
  8
CSLAYER1
  6
CONTINUOUS
 62
     6
 10
239.104104
 20
135.665258
 11
247.504104
 21
135.665258
  0
ARC
  8
CSLAYER1
  6
CONTINUOUS
 62
     6
 10
247.504104
 20
133.665258
 40
2.000000
 50
0.000000
 51
90.000000
  0
LINE
  8
CSLAYER1
  6
CONTINUOUS
 62
     6
 10
237.104104
 20
137.665258
 11
237.104104
 21
166.665258
  0
ARC
  8
CSLAYER1
  6
CONTINUOUS
 62
     6
 10
239.104104
 20
137.665258
 40
2.000000
 50
180.000000
 51
270.000000
  0
ARC
  8
CSLAYER1
  6
CONTINUOUS
 62
     6
 10
248.704104
 20
136.865258
 40
2.000000
 50
314.427004
 51
360.000000
  0
ARC
  8
CSLAYER1
  6
CONTINUOUS
 62
     6
 10
248.704104
 20
160.165258
 40
2.000000
 50
0.000000
 51
90.000000
  0
ARC
  8
CSLAYER1
  6
CONTINUOUS
 62
     6
 10
239.104104
 20
164.165258
 40
2.000000
 50
180.000000
 51
270.000000
  0
ARC
  8
CSLAYER1
  6
CONTINUOUS
 62
     6
 10
222.504104
 20
174.665258
 40
2.000000
 50
180.000000
 51
270.000000
  0
LINE
  8
CSLAYER1
  6
CONTINUOUS
 62
     6
 10
222.504104
 20
168.665258
 11
235.104104
 21
168.665258
  0
ARC
  8
CSLAYER1
  6
CONTINUOUS
 62
     6
 10
222.504104
 20
170.665258
 40
2.000000
 50
180.000000
 51
270.000000
  0
ARC
  8
CSLAYER1
  6
CONTINUOUS
 62
     6
 10
235.104104
 20
166.665258
 40
2.000000
 50
0.000000
 51
90.000000
  0
ARC
  8
CSLAYER1
  6
CONTINUOUS
 62
     6
 10
242.004104
 20
170.665258
 40
2.000000
 50
0.000000
 51
90.000000
  0
ARC
  8
CSLAYER1
  6
CONTINUOUS
 62
     6
 10
246.004104
 20
164.165258
 40
2.000000
 50
180.000000
 51
270.000000
  0
LINE
  8
CSLAYER1
  6
CENTER
 62
     3
 10
82.806242
 20
184.665258
 11
82.806223
 21
124.165258
  0
LINE
  8
CSLAYER1
  6
CENTER
 62
     3
 10
52.806232
 20
154.665258
 11
112.806232
 21
154.665258
  0
LINE
  8
CSLAYER1
  6
CONTINUOUS
 62
     6
 10
98.771214
 20
96.165258
 11
90.841214
 21
96.165258
  0
LINE
  8
CSLAYER1
  6
CENTER
 62
     3
 10
94.806224
 20
130.165258
 11
94.806213
 21
93.165258
  0
LINE
  8
CSLAYER1
  6
CONTINUOUS
 62
     6
 10
98.771224
 20
127.165258
 11
98.771214
 21
96.165258
  0
LINE
  8
CSLAYER1
  6
CONTINUOUS
 62
     6
 10
90.841224
 20
127.165261
 11
90.841214
 21
96.165258
  0
LINE
  8
CSLAYER1
  6
CENTER
 62
     3
 10
106.806229
 20
143.665258
 11
123.306229
 21
143.665258
  0
LINE
  8
CSLAYER1
  6
CONTINUOUS
 62
     6
 10
55.806239
 20
176.665260
 11
55.806224
 21
127.165258
  0
LINE
  8
CSLAYER1
  6
CONTINUOUS
 62
     6
 10
60.806239
 20
181.665258
 11
104.806239
 21
181.665258
  0
LINE
  8
CSLAYER1
  6
CONTINUOUS
 62
     6
 10
109.806239
 20
176.665256
 11
109.806224
 21
127.165258
  0
LINE
  8
CSLAYER1
  6
CONTINUOUS
 62
     6
 10
104.806225
 20
127.165258
 11
60.806225
 21
127.165258
  0
ARC
  8
CSLAYER1
  6
CONTINUOUS
 62
     6
 10
60.806239
 20
176.665258
 40
5.000000
 50
90.000000
 51
179.999982
  0
ARC
  8
CSLAYER1
  6
CONTINUOUS
 62
     6
 10
104.806239
 20
176.665258
 40
5.000000
 50
-0.000018
 51
90.000000
  0
ARC
  8
CSLAYER1
  6
CONTINUOUS
 62
     6
 10
104.806225
 20
132.665258
 40
5.000000
 50
270.000000
 51
359.999982
  0
ARC
  8
CSLAYER1
  6
CONTINUOUS
 62
     6
 10
60.806239
 20
132.665258
 40
5.000000
 50
179.999982
 51
270.000000
  0
LINE
  8
CSLAYER1
  6
CONTINUOUS
 62
     6
 10
55.806224
 20
127.165258
 11
60.806215
 21
127.165258
  0
LINE
  8
CSLAYER1
  6
CONTINUOUS
 62
     6
 10
104.806233
 20
127.165258
 11
109.806224
 21
127.165258
  0
LINE
  8
CSLAYER1
  6
CENTER
 62
     3
 10
326.701971
 20
184.665258
 11
326.701990
 21
124.165258
  0
LINE
  8
CSLAYER1
  6
CENTER
 62
     3
 10
356.701981
 20
154.665258
 11
296.701981
 21
154.665258
  0
LINE
  8
CSLAYER1
  6
CONTINUOUS
 62
     6
 10
310.736999
 20
96.165258
 11
318.666999
 21
96.165258
  0
LINE
  8
CSLAYER1
  6
CENTER
 62
     3
 10
314.701971
 20
184.665254
 11
314.702000
 21
93.165258
  0
LINE
  8
CSLAYER1
  6
CONTINUOUS
 62
     6
 10
310.736989
 20
127.165258
 11
310.736999
 21
96.165258
  0
LINE
  8
CSLAYER1
  6
CONTINUOUS
 62
     6
 10
318.666989
 20
127.165261
 11
318.666999
 21
96.165258
  0
LINE
  8
CSLAYER1
  6
CENTER
 62
     3
 10
356.701981
 20
143.665258
 11
284.701984
 21
143.665258
  0
LINE
  8
CSLAYER1
  6
CONTINUOUS
 62
     6
 10
290.701984
 20
150.165258
 11
290.701984
 21
137.165258
  0
LINE
  8
CSLAYER1
  6
CONTINUOUS
 62
     6
 10
296.601984
 20
136.165258
 11
291.701984
 21
136.165258
  0
ARC
  8
CSLAYER1
  6
CONTINUOUS
 62
     6
 10
296.601984
 20
133.065258
 40
3.100000
 50
0.000000
 51
90.000000
  0
ARC
  8
CSLAYER1
  6
CONTINUOUS
 62
     6
 10
291.701984
 20
137.165258
 40
1.000000
 50
180.000000
 51
270.000000
  0
LINE
  8
CSLAYER1
  6
CONTINUOUS
 62
     6
 10
296.601984
 20
151.165258
 11
291.701984
 21
151.165258
  0
ARC
  8
CSLAYER1
  6
CONTINUOUS
 62
     6
 10
296.601984
 20
154.265258
 40
3.100000
 50
270.000000
 51
359.915345
  0
ARC
  8
CSLAYER1
  6
CONTINUOUS
 62
     6
 10
291.701984
 20
150.165258
 40
1.000000
 50
90.000000
 51
180.000000
  0
LINE
  8
CSLAYER1
  6
CONTINUOUS
 62
     6
 10
353.701989
 20
127.165258
 11
353.701974
 21
176.665260
  0
LINE
  8
CSLAYER1
  6
CONTINUOUS
 62
     6
 10
348.701974
 20
181.665258
 11
304.701974
 21
181.665258
  0
LINE
  8
CSLAYER1
  6
CONTINUOUS
 62
     6
 10
299.701974
 20
176.665256
 11
299.701989
 21
127.165258
  0
LINE
  8
CSLAYER1
  6
CONTINUOUS
 62
     6
 10
299.701989
 20
127.165258
 11
353.701989
 21
127.165258
  0
ARC
  8
CSLAYER1
  6
CONTINUOUS
 62
     6
 10
348.701974
 20
176.665258
 40
5.000000
 50
0.000018
 51
90.000000
  0
ARC
  8
CSLAYER1
  6
CONTINUOUS
 62
     6
 10
304.701974
 20
176.665258
 40
5.000000
 50
90.000000
 51
180.000018
  0
LINE
  8
CSLAYER1
  6
CONTINUOUS
 62
     6
 10
352.208977
 20
135.665258
 11
301.201986
 21
135.665258
  0
LINE
  8
CSLAYER1
  6
CONTINUOUS
 62
     6
 10
302.701979
 20
160.165257
 11
302.701986
 21
137.165259
  0
LINE
  8
CSLAYER1
  6
CONTINUOUS
 62
     6
 10
304.701979
 20
162.165258
 11
325.701979
 21
162.165258
  0
ARC
  8
CSLAYER1
  6
CONTINUOUS
 62
     6
 10
304.701979
 20
160.165258
 40
2.000000
 50
90.000000
 51
180.000018
  0
LINE
  8
CSLAYER1
  6
CONTINUOUS
 62
     6
 10
327.701979
 20
160.165259
 11
327.701981
 21
153.915260
  0
ARC
  8
CSLAYER1
  6
CONTINUOUS
 62
     6
 10
325.701979
 20
160.165258
 40
2.000000
 50
0.000018
 51
90.000000
  0
LINE
  8
CSLAYER1
  6
CONTINUOUS
 62
     6
 10
309.201976
 20
172.665258
 11
320.201976
 21
172.665258
  0
LINE
  8
CSLAYER1
  6
CONTINUOUS
 62
     6
 10
307.201976
 20
170.665257
 11
307.201978
 21
164.165259
  0
LINE
  8
CSLAYER1
  6
CONTINUOUS
 62
     6
 10
322.201976
 20
170.665259
 11
322.201978
 21
164.165257
  0
ARC
  8
CSLAYER1
  6
CONTINUOUS
 62
     6
 10
309.201976
 20
170.665258
 40
2.000000
 50
90.000000
 51
180.000018
  0
ARC
  8
CSLAYER1
  6
CONTINUOUS
 62
     6
 10
320.201976
 20
170.665258
 40
2.000000
 50
0.000018
 51
90.000000
  0
ARC
  8
CSLAYER1
  6
CONTINUOUS
 62
     6
 10
324.201978
 20
164.165258
 40
2.000000
 50
180.000018
 51
270.000000
  0
CIRCLE
  8
CSLAYER1
  6
CONTINUOUS
 62
     3
 10
348.701974
 20
176.665258
 40
2.000000
  0
CIRCLE
  8
CSLAYER1
  6
CONTINUOUS
 62
     6
 10
348.701974
 20
176.665258
 40
1.600000
  0
LINE
  8
CSLAYER1
  6
CENTER
 62
     3
 10
352.701974
 20
176.665258
 11
344.701974
 21
176.665258
  0
LINE
  8
CSLAYER1
  6
CENTER
 62
     3
 10
348.701974
 20
172.665258
 11
348.701974
 21
180.665258
  0
ARC
  8
CSLAYER1
  6
CONTINUOUS
 62
     6
 10
301.201986
 20
137.165258
 40
1.500000
 50
-90.000000
 51
0.000018
  0
ARC
  8
CSLAYER1
  6
CONTINUOUS
 62
     6
 10
301.201987
 20
134.165258
 40
1.500000
 50
90.000000
 51
180.000018
  0
ARC
  8
CSLAYER1
  6
CONTINUOUS
 62
     6
 10
352.201987
 20
134.165274
 40
1.500000
 50
0.000018
 51
90.000037
  0
ARC
  8
CSLAYER1
  6
CONTINUOUS
 62
     6
 10
326.701981
 20
154.665258
 40
14.000000
 50
0.000000
 51
90.000000
  0
LINE
  8
CSLAYER1
  6
CONTINUOUS
 62
     6
 10
326.701976
 20
168.665258
 11
324.201976
 21
168.665258
  0
ARC
  8
CSLAYER1
  6
CONTINUOUS
 62
     6
 10
324.201976
 20
170.665258
 40
2.000000
 50
180.000018
 51
270.000000
  0
LINE
  8
CSLAYER1
  6
CONTINUOUS
 62
     6
 10
342.701981
 20
151.165258
 11
349.701982
 21
151.165258
  0
LINE
  8
CSLAYER1
  6
CONTINUOUS
 62
     6
 10
340.701981
 20
154.665258
 11
340.701986
 21
137.665257
  0
ARC
  8
CSLAYER1
  6
CONTINUOUS
 62
     6
 10
342.701981
 20
153.165258
 40
2.000000
 50
180.000018
 51
270.000000
  0
ARC
  8
CSLAYER1
  6
CONTINUOUS
 62
     6
 10
342.701986
 20
137.665258
 40
2.000000
 50
180.000018
 51
270.000000
  0
LINE
  8
CSLAYER1
  6
CONTINUOUS
 62
     6
 10
338.701981
 20
152.915260
 11
328.701981
 21
152.915260
  0
LINE
  8
CSLAYER1
  6
CONTINUOUS
 62
     6
 10
305.701976
 20
168.665258
 11
305.590043
 21
168.665258
  0
ARC
  8
CSLAYER1
  6
CONTINUOUS
 62
     6
 10
305.701976
 20
170.165258
 40
1.500000
 50
-90.000000
 51
0.000018
  0
ARC
  8
CSLAYER1
  6
CONTINUOUS
 62
     6
 10
319.435835
 20
155.163344
 40
20.000000
 50
140.283062
 51
170.642407
  0
ARC
  8
CSLAYER1
  6
CONTINUOUS
 62
     6
 10
305.590043
 20
166.665258
 40
2.000000
 50
90.000000
 51
140.283062
  0
ARC
  8
CSLAYER1
  6
CONTINUOUS
 62
     6
 10
305.201978
 20
164.165258
 40
2.000000
 50
-90.000000
 51
0.000018
  0
ARC
  8
CSLAYER1
  6
CONTINUOUS
 62
     6
 10
82.806232
 20
154.665258
 40
23.000000
 50
12.720569
 51
167.279394
  0
ARC
  8
CSLAYER1
  6
CONTINUOUS
 62
     6
 10
82.806232
 20
154.665258
 40
23.000000
 50
192.720533
 51
347.279431
  0
ARC
  8
CSLAYER1
  6
CONTINUOUS
 62
     6
 10
328.701981
 20
153.915260
 40
1.000000
 50
180.000018
 51
270.000000
  0
ARC
  8
CSLAYER1
  6
CONTINUOUS
 62
     6
 10
347.446353
 20
144.028340
 40
20.744369
 50
154.633836
 51
197.862746
  0
CIRCLE
  8
CSLAYER1
  6
CONTINUOUS
 62
     3
 10
304.701974
 20
176.665258
 40
2.000000
  0
CIRCLE
  8
CSLAYER1
  6
CONTINUOUS
 62
     6
 10
304.701974
 20
176.665258
 40
1.600000
  0
LINE
  8
CSLAYER1
  6
CENTER
 62
     3
 10
300.701974
 20
176.665256
 11
308.701974
 21
176.665261
  0
LINE
  8
CSLAYER1
  6
CENTER
 62
     3
 10
304.701976
 20
172.665258
 11
304.701971
 21
180.665258
  0
LINE
  8
CSLAYER1
  6
CONTINUOUS
 62
     6
 10
351.701986
 20
137.324503
 11
351.701982
 21
149.165259
  0
ARC
  8
CSLAYER1
  6
CONTINUOUS
 62
     6
 10
349.701982
 20
149.165258
 40
2.000000
 50
0.000018
 51
90.000000
  0
ARC
  8
CSLAYER1
  6
CONTINUOUS
 62
     6
 10
353.701986
 20
137.324504
 40
2.000000
 50
180.000018
 51
242.633247
  0
LINE
  8
CSLAYER1
  6
CENTER
 62
     3
 10
60.806239
 20
183.165266
 11
60.806239
 21
170.232009
  0
CIRCLE
  8
CSLAYER1
  6
CONTINUOUS
 62
     6
 10
60.806248
 20
176.665273
 40
3.500000
  0
ARC
  8
CSLAYER1
  6
CONTINUOUS
 62
     6
 10
60.806235
 20
176.665274
 40
1.944444
 50
163.398416
 51
196.601577
  0
ARC
  8
CSLAYER1
  6
CONTINUOUS
 62
     6
 10
60.806235
 20
176.665274
 40
1.944444
 50
253.398422
 51
286.601583
  0
ARC
  8
CSLAYER1
  6
CONTINUOUS
 62
     6
 10
60.806235
 20
176.665274
 40
1.944444
 50
-16.601562
 51
16.601572
  0
ARC
  8
CSLAYER1
  6
CONTINUOUS
 62
     6
 10
60.806235
 20
176.665274
 40
1.944444
 50
73.398406
 51
106.601595
  0
LINE
  8
CSLAYER1
  6
CONTINUOUS
 62
     6
 10
61.917360
 20
176.109711
 11
62.669616
 21
176.109711
  0
LINE
  8
CSLAYER1
  6
CONTINUOUS
 62
     6
 10
59.695110
 20
176.109711
 11
58.942854
 21
176.109711
  0
LINE
  8
CSLAYER1
  6
CONTINUOUS
 62
     6
 10
61.917360
 20
177.220836
 11
62.669616
 21
177.220836
  0
LINE
  8
CSLAYER1
  6
CONTINUOUS
 62
     6
 10
59.695110
 20
177.220836
 11
58.942854
 21
177.220836
  0
LINE
  8
CSLAYER1
  6
CONTINUOUS
 62
     6
 10
60.250672
 20
175.554178
 11
60.250672
 21
174.801863
  0
LINE
  8
CSLAYER1
  6
CONTINUOUS
 62
     6
 10
60.250672
 20
177.776370
 11
60.250672
 21
178.528684
  0
LINE
  8
CSLAYER1
  6
CONTINUOUS
 62
     6
 10
61.361797
 20
175.554178
 11
61.361797
 21
174.801863
  0
LINE
  8
CSLAYER1
  6
CONTINUOUS
 62
     6
 10
61.361797
 20
177.776370
 11
61.361797
 21
178.528684
  0
ARC
  8
CSLAYER1
  6
CONTINUOUS
 62
     6
 10
61.917360
 20
175.554178
 40
0.555556
 50
90.000001
 51
179.942691
  0
ARC
  8
CSLAYER1
  6
CONTINUOUS
 62
     6
 10
61.917360
 20
177.776370
 40
0.555556
 50
180.000010
 51
270.000016
  0
ARC
  8
CSLAYER1
  6
CONTINUOUS
 62
     6
 10
59.695110
 20
177.776370
 40
0.555556
 50
-89.999984
 51
0.000005
  0
ARC
  8
CSLAYER1
  6
CONTINUOUS
 62
     6
 10
59.695110
 20
175.554178
 40
0.555556
 50
0.000005
 51
89.942654
  0
LINE
  8
CSLAYER1
  6
CENTER
 62
     3
 10
54.306231
 20
176.665258
 11
67.306248
 21
176.665258
  0
LINE
  8
CSLAYER1
  6
CENTER
 62
     3
 10
104.806239
 20
183.165266
 11
104.806239
 21
170.232009
  0
CIRCLE
  8
CSLAYER1
  6
CONTINUOUS
 62
     6
 10
104.806248
 20
176.665273
 40
3.500000
  0
ARC
  8
CSLAYER1
  6
CONTINUOUS
 62
     6
 10
104.806235
 20
176.665274
 40
1.944444
 50
163.398416
 51
196.601577
  0
ARC
  8
CSLAYER1
  6
CONTINUOUS
 62
     6
 10
104.806235
 20
176.665274
 40
1.944444
 50
253.398422
 51
286.601583
  0
ARC
  8
CSLAYER1
  6
CONTINUOUS
 62
     6
 10
104.806235
 20
176.665274
 40
1.944444
 50
-16.601562
 51
16.601572
  0
ARC
  8
CSLAYER1
  6
CONTINUOUS
 62
     6
 10
104.806235
 20
176.665274
 40
1.944444
 50
73.398406
 51
106.601595
  0
LINE
  8
CSLAYER1
  6
CONTINUOUS
 62
     6
 10
105.917360
 20
176.109711
 11
106.669616
 21
176.109711
  0
LINE
  8
CSLAYER1
  6
CONTINUOUS
 62
     6
 10
103.695110
 20
176.109711
 11
102.942854
 21
176.109711
  0
LINE
  8
CSLAYER1
  6
CONTINUOUS
 62
     6
 10
105.917360
 20
177.220836
 11
106.669616
 21
177.220836
  0
LINE
  8
CSLAYER1
  6
CONTINUOUS
 62
     6
 10
103.695110
 20
177.220836
 11
102.942854
 21
177.220836
  0
LINE
  8
CSLAYER1
  6
CONTINUOUS
 62
     6
 10
104.250672
 20
175.554178
 11
104.250672
 21
174.801863
  0
LINE
  8
CSLAYER1
  6
CONTINUOUS
 62
     6
 10
104.250672
 20
177.776370
 11
104.250672
 21
178.528684
  0
LINE
  8
CSLAYER1
  6
CONTINUOUS
 62
     6
 10
105.361797
 20
175.554178
 11
105.361797
 21
174.801863
  0
LINE
  8
CSLAYER1
  6
CONTINUOUS
 62
     6
 10
105.361797
 20
177.776370
 11
105.361797
 21
178.528684
  0
ARC
  8
CSLAYER1
  6
CONTINUOUS
 62
     6
 10
105.917360
 20
175.554178
 40
0.555556
 50
90.000001
 51
179.942691
  0
ARC
  8
CSLAYER1
  6
CONTINUOUS
 62
     6
 10
105.917360
 20
177.776370
 40
0.555556
 50
180.000010
 51
270.000016
  0
ARC
  8
CSLAYER1
  6
CONTINUOUS
 62
     6
 10
103.695110
 20
177.776370
 40
0.555556
 50
-89.999984
 51
0.000005
  0
ARC
  8
CSLAYER1
  6
CONTINUOUS
 62
     6
 10
103.695110
 20
175.554178
 40
0.555556
 50
0.000005
 51
89.942654
  0
LINE
  8
CSLAYER1
  6
CENTER
 62
     3
 10
98.306231
 20
176.665258
 11
111.306248
 21
176.665258
  0
LINE
  8
CSLAYER1
  6
CENTER
 62
     3
 10
104.806225
 20
139.165266
 11
104.806225
 21
126.232009
  0
CIRCLE
  8
CSLAYER1
  6
CONTINUOUS
 62
     6
 10
104.806234
 20
132.665273
 40
3.500000
  0
ARC
  8
CSLAYER1
  6
CONTINUOUS
 62
     6
 10
104.806221
 20
132.665274
 40
1.944444
 50
163.398416
 51
196.601577
  0
ARC
  8
CSLAYER1
  6
CONTINUOUS
 62
     6
 10
104.806221
 20
132.665274
 40
1.944444
 50
253.398422
 51
286.601583
  0
ARC
  8
CSLAYER1
  6
CONTINUOUS
 62
     6
 10
104.806221
 20
132.665274
 40
1.944444
 50
-16.601562
 51
16.601572
  0
ARC
  8
CSLAYER1
  6
CONTINUOUS
 62
     6
 10
104.806221
 20
132.665274
 40
1.944444
 50
73.398406
 51
106.601595
  0
LINE
  8
CSLAYER1
  6
CONTINUOUS
 62
     6
 10
105.917346
 20
132.109711
 11
106.669602
 21
132.109711
  0
LINE
  8
CSLAYER1
  6
CONTINUOUS
 62
     6
 10
103.695096
 20
132.109711
 11
102.942839
 21
132.109711
  0
LINE
  8
CSLAYER1
  6
CONTINUOUS
 62
     6
 10
105.917346
 20
133.220836
 11
106.669602
 21
133.220836
  0
LINE
  8
CSLAYER1
  6
CONTINUOUS
 62
     6
 10
103.695096
 20
133.220836
 11
102.942839
 21
133.220836
  0
LINE
  8
CSLAYER1
  6
CONTINUOUS
 62
     6
 10
104.250658
 20
131.554178
 11
104.250658
 21
130.801863
  0
LINE
  8
CSLAYER1
  6
CONTINUOUS
 62
     6
 10
104.250658
 20
133.776370
 11
104.250658
 21
134.528684
  0
LINE
  8
CSLAYER1
  6
CONTINUOUS
 62
     6
 10
105.361783
 20
131.554178
 11
105.361783
 21
130.801863
  0
LINE
  8
CSLAYER1
  6
CONTINUOUS
 62
     6
 10
105.361783
 20
133.776370
 11
105.361783
 21
134.528684
  0
ARC
  8
CSLAYER1
  6
CONTINUOUS
 62
     6
 10
105.917346
 20
131.554178
 40
0.555556
 50
90.000001
 51
179.942691
  0
ARC
  8
CSLAYER1
  6
CONTINUOUS
 62
     6
 10
105.917346
 20
133.776370
 40
0.555556
 50
180.000010
 51
270.000016
  0
ARC
  8
CSLAYER1
  6
CONTINUOUS
 62
     6
 10
103.695096
 20
133.776370
 40
0.555556
 50
-89.999984
 51
0.000005
  0
ARC
  8
CSLAYER1
  6
CONTINUOUS
 62
     6
 10
103.695096
 20
131.554178
 40
0.555556
 50
0.000005
 51
89.942654
  0
LINE
  8
CSLAYER1
  6
CENTER
 62
     3
 10
98.306217
 20
132.665258
 11
111.306234
 21
132.665258
  0
LINE
  8
CSLAYER1
  6
CENTER
 62
     3
 10
60.806225
 20
139.165266
 11
60.806225
 21
126.232009
  0
CIRCLE
  8
CSLAYER1
  6
CONTINUOUS
 62
     6
 10
60.806234
 20
132.665273
 40
3.500000
  0
ARC
  8
CSLAYER1
  6
CONTINUOUS
 62
     6
 10
60.806221
 20
132.665274
 40
1.944444
 50
163.398416
 51
196.601577
  0
ARC
  8
CSLAYER1
  6
CONTINUOUS
 62
     6
 10
60.806221
 20
132.665274
 40
1.944444
 50
253.398422
 51
286.601583
  0
ARC
  8
CSLAYER1
  6
CONTINUOUS
 62
     6
 10
60.806221
 20
132.665274
 40
1.944444
 50
-16.601562
 51
16.601572
  0
ARC
  8
CSLAYER1
  6
CONTINUOUS
 62
     6
 10
60.806221
 20
132.665274
 40
1.944444
 50
73.398406
 51
106.601595
  0
LINE
  8
CSLAYER1
  6
CONTINUOUS
 62
     6
 10
61.917346
 20
132.109711
 11
62.669602
 21
132.109711
  0
LINE
  8
CSLAYER1
  6
CONTINUOUS
 62
     6
 10
59.695096
 20
132.109711
 11
58.942839
 21
132.109711
  0
LINE
  8
CSLAYER1
  6
CONTINUOUS
 62
     6
 10
61.917346
 20
133.220836
 11
62.669602
 21
133.220836
  0
LINE
  8
CSLAYER1
  6
CONTINUOUS
 62
     6
 10
59.695096
 20
133.220836
 11
58.942839
 21
133.220836
  0
LINE
  8
CSLAYER1
  6
CONTINUOUS
 62
     6
 10
60.250658
 20
131.554178
 11
60.250658
 21
130.801863
  0
LINE
  8
CSLAYER1
  6
CONTINUOUS
 62
     6
 10
60.250658
 20
133.776370
 11
60.250658
 21
134.528684
  0
LINE
  8
CSLAYER1
  6
CONTINUOUS
 62
     6
 10
61.361783
 20
131.554178
 11
61.361783
 21
130.801863
  0
LINE
  8
CSLAYER1
  6
CONTINUOUS
 62
     6
 10
61.361783
 20
133.776370
 11
61.361783
 21
134.528684
  0
ARC
  8
CSLAYER1
  6
CONTINUOUS
 62
     6
 10
61.917346
 20
131.554178
 40
0.555556
 50
90.000001
 51
179.942691
  0
ARC
  8
CSLAYER1
  6
CONTINUOUS
 62
     6
 10
61.917346
 20
133.776370
 40
0.555556
 50
180.000010
 51
270.000016
  0
ARC
  8
CSLAYER1
  6
CONTINUOUS
 62
     6
 10
59.695096
 20
133.776370
 40
0.555556
 50
-89.999984
 51
0.000005
  0
ARC
  8
CSLAYER1
  6
CONTINUOUS
 62
     6
 10
59.695096
 20
131.554178
 40
0.555556
 50
0.000005
 51
89.942654
  0
LINE
  8
CSLAYER1
  6
CENTER
 62
     3
 10
54.306217
 20
132.665258
 11
67.306234
 21
132.665258
  0
LINE
  8
CSLAYER1
  6
CONTINUOUS
 62
     6
 10
287.701986
 20
139.165258
 11
287.701983
 21
148.165258
  0
LINE
  8
CSLAYER1
  6
CONTINUOUS
 62
     6
 10
288.451982
 20
148.915258
 11
290.701984
 21
148.915258
  0
LINE
  8
CSLAYER1
  6
CONTINUOUS
 62
     3
 10
287.951982
 20
148.415258
 11
290.701984
 21
148.415258
  0
LINE
  8
CSLAYER1
  6
CONTINUOUS
 62
     6
 10
287.701983
 20
148.165258
 11
288.451982
 21
148.915258
  0
LINE
  8
CSLAYER1
  6
CONTINUOUS
 62
     6
 10
288.451986
 20
138.415258
 11
290.701984
 21
138.415258
  0
LINE
  8
CSLAYER1
  6
CONTINUOUS
 62
     3
 10
287.951986
 20
138.915258
 11
290.701984
 21
138.915258
  0
LINE
  8
CSLAYER1
  6
CONTINUOUS
 62
     6
 10
287.701983
 20
139.165261
 11
288.451986
 21
138.415258
  0
LINE
  8
CSLAYER1
  6
CONTINUOUS
 62
     6
 10
288.451982
 20
148.915258
 11
288.451982
 21
138.415258
  0
LINE
  8
CSLAYER1
  6
CONTINUOUS
 62
     6
 10
207.504104
 20
16.030058
 11
207.504104
 21
66.788664
  0
LINE
  8
CSLAYER1
  6
CONTINUOUS
 62
     6
 10
213.504104
 20
14.409343
 11
213.504104
 21
77.409343
  0
LINE
  8
CSLAYER1
  6
CONTINUOUS
 62
     6
 10
209.504104
 20
68.409343
 11
244.504104
 21
68.409343
  0
LINE
  8
CSLAYER1
  6
CONTINUOUS
 62
     6
 10
149.504104
 20
33.909343
 11
149.504104
 21
48.909343
  0
LINE
  8
CSLAYER1
  6
CONTINUOUS
 62
     6
 10
154.504104
 20
23.409343
 11
154.504104
 21
59.409343
  0
LINE
  8
CSLAYER1
  6
CONTINUOUS
 62
     6
 10
204.485658
 20
61.409343
 11
169.504104
 21
61.409343
  0
LINE
  8
CSLAYER1
  6
CONTINUOUS
 62
     6
 10
209.504104
 20
14.409343
 11
244.504104
 21
14.409343
  0
LINE
  8
CSLAYER1
  6
CONTINUOUS
 62
     6
 10
204.485649
 20
21.409343
 11
169.504104
 21
21.409343
  0
LINE
  8
CSLAYER1
  6
CONTINUOUS
 62
     6
 10
168.504104
 20
18.909343
 11
168.504104
 21
63.909343
  0
LINE
  8
CSLAYER1
  6
CONTINUOUS
 62
     6
 10
169.504104
 20
21.409343
 11
168.504104
 21
22.409343
  0
LINE
  8
CSLAYER1
  6
CONTINUOUS
 62
     6
 10
169.504104
 20
61.409343
 11
168.504104
 21
60.409343
  0
LINE
  8
CSLAYER1
  6
CONTINUOUS
 62
     6
 10
169.504104
 20
21.409343
 11
169.504104
 21
61.409343
  0
LINE
  8
CSLAYER1
  6
CONTINUOUS
 62
     6
 10
152.504104
 20
50.909343
 11
151.504104
 21
50.909343
  0
LINE
  8
CSLAYER1
  6
CONTINUOUS
 62
     6
 10
152.504104
 20
31.909343
 11
151.504104
 21
31.909343
  0
ARC
  8
CSLAYER1
  6
CONTINUOUS
 62
     6
 10
151.504104
 20
33.909343
 40
2.000000
 50
180.000000
 51
270.000000
  0
ARC
  8
CSLAYER1
  6
CONTINUOUS
 62
     6
 10
151.504104
 20
48.909343
 40
2.000000
 50
90.000000
 51
180.000000
  0
ARC
  8
CSLAYER1
  6
CONTINUOUS
 62
     6
 10
152.504104
 20
29.909343
 40
2.000000
 50
0.000000
 51
90.000000
  0
ARC
  8
CSLAYER1
  6
CONTINUOUS
 62
     6
 10
152.504104
 20
52.909343
 40
2.000000
 50
270.000000
 51
360.000000
  0
ARC
  8
CSLAYER1
  6
CONTINUOUS
 62
     6
 10
155.504104
 20
23.409343
 40
1.000000
 50
180.000000
 51
270.000000
  0
ARC
  8
CSLAYER1
  6
CONTINUOUS
 62
     6
 10
155.504104
 20
59.409343
 40
1.000000
 50
90.000000
 51
180.000000
  0
LINE
  8
CSLAYER1
  6
CONTINUOUS
 62
     6
 10
156.504104
 20
60.409343
 11
155.504104
 21
60.409343
  0
LINE
  8
CSLAYER1
  6
CONTINUOUS
 62
     6
 10
156.504104
 20
22.409343
 11
155.504104
 21
22.409343
  0
LINE
  8
CSLAYER1
  6
CONTINUOUS
 62
     6
 10
168.504104
 20
63.909343
 11
156.504104
 21
63.909343
  0
LINE
  8
CSLAYER1
  6
CONTINUOUS
 62
     6
 10
168.504104
 20
18.909343
 11
156.504104
 21
18.909343
  0
LINE
  8
CSLAYER1
  6
CONTINUOUS
 62
     6
 10
168.504104
 20
22.909343
 11
156.504104
 21
22.909343
  0
LINE
  8
CSLAYER1
  6
CONTINUOUS
 62
     6
 10
168.504104
 20
59.909343
 11
156.504104
 21
59.909343
  0
LINE
  8
CSLAYER1
  6
CONTINUOUS
 62
     6
 10
156.504104
 20
59.909343
 11
156.504104
 21
63.909343
  0
LINE
  8
CSLAYER1
  6
CONTINUOUS
 62
     6
 10
156.504104
 20
18.909343
 11
156.504104
 21
22.909343
  0
LINE
  8
CSLAYER1
  6
CONTINUOUS
 62
     6
 10
168.504104
 20
62.909343
 11
156.504104
 21
62.909343
  0
LINE
  8
CSLAYER1
  6
CONTINUOUS
 62
     6
 10
168.504104
 20
19.909343
 11
156.504104
 21
19.909343
  0
LINE
  8
CSLAYER1
  6
CONTINUOUS
 62
     6
 10
156.504104
 20
20.409343
 11
149.504104
 21
20.409343
  0
LINE
  8
CSLAYER1
  6
CONTINUOUS
 62
     6
 10
149.504104
 20
62.409343
 11
156.504104
 21
62.409343
  0
LINE
  8
CSLAYER1
  6
CONTINUOUS
 62
     6
 10
156.504104
 20
20.909343
 11
149.504104
 21
20.909343
  0
LINE
  8
CSLAYER1
  6
CONTINUOUS
 62
     6
 10
149.504104
 20
61.909343
 11
156.504104
 21
61.909343
  0
LINE
  8
CSLAYER1
  6
CONTINUOUS
 62
     6
 10
149.504104
 20
20.409343
 11
149.504104
 21
20.909343
  0
LINE
  8
CSLAYER1
  6
CONTINUOUS
 62
     6
 10
149.504104
 20
61.909343
 11
149.504104
 21
62.409343
  0
LINE
  8
CSLAYER1
  6
CENTER
 62
     3
 10
252.504104
 20
41.409343
 11
146.504104
 21
41.409343
  0
ARC
  8
CSLAYER1
  6
CONTINUOUS
 62
     6
 10
209.504104
 20
66.409343
 40
2.000000
 50
90.000000
 51
180.000000
  0
ARC
  8
CSLAYER1
  6
CONTINUOUS
 62
     6
 10
209.504104
 20
16.409343
 40
2.000000
 50
180.000000
 51
270.000000
  0
LINE
  8
CSLAYER1
  6
CONTINUOUS
 62
     6
 10
206.659304
 20
60.030058
 11
206.659304
 21
66.788664
  0
ARC
  8
CSLAYER1
  6
CONTINUOUS
 62
     6
 10
212.693800
 20
63.409361
 40
8.448294
 50
163.742994
 51
196.257016
  0
LINE
  8
CSLAYER1
  6
CONTINUOUS
 62
     6
 10
206.396842
 20
66.705369
 11
205.636711
 21
66.638870
  0
ARC
  8
CSLAYER1
  6
CONTINUOUS
 62
     6
 10
205.741902
 20
65.436556
 40
1.206899
 50
95.000111
 51
163.742611
  0
ARC
  8
CSLAYER1
  6
CONTINUOUS
 62
     6
 10
206.417910
 20
66.464914
 40
0.241380
 50
0.000000
 51
95.000152
  0
LINE
  8
CSLAYER1
  6
CONTINUOUS
 62
     6
 10
206.779965
 20
66.909361
 11
207.383414
 21
66.909361
  0
ARC
  8
CSLAYER1
  6
CONTINUOUS
 62
     6
 10
206.779965
 20
66.788664
 40
0.120690
 50
90.000003
 51
180.000005
  0
ARC
  8
CSLAYER1
  6
CONTINUOUS
 62
     6
 10
207.383414
 20
66.788664
 40
0.120690
 50
0.000000
 51
90.000003
  0
LINE
  8
CSLAYER1
  6
CONTINUOUS
 62
     6
 10
206.396842
 20
60.113353
 11
205.636711
 21
60.179853
  0
ARC
  8
CSLAYER1
  6
CONTINUOUS
 62
     6
 10
205.741902
 20
61.382166
 40
1.206899
 50
196.257399
 51
264.999892
  0
ARC
  8
CSLAYER1
  6
CONTINUOUS
 62
     6
 10
206.417910
 20
60.353808
 40
0.241380
 50
264.999865
 51
359.942691
  0
ARC
  8
CSLAYER1
  6
CONTINUOUS
 62
     6
 10
206.779965
 20
60.030058
 40
0.120690
 50
180.000005
 51
270.000001
  0
LINE
  8
CSLAYER1
  6
CONTINUOUS
 62
     6
 10
206.779965
 20
59.909361
 11
207.383414
 21
59.909361
  0
ARC
  8
CSLAYER1
  6
CONTINUOUS
 62
     6
 10
207.383414
 20
60.030058
 40
0.120690
 50
270.000001
 51
359.942691
  0
LINE
  8
CSLAYER1
  6
CONTINUOUS
 62
     6
 10
206.659304
 20
62.690131
 11
207.504111
 21
63.225829
  0
LINE
  8
CSLAYER1
  6
CONTINUOUS
 62
     6
 10
206.659304
 20
63.293581
 11
207.504111
 21
63.829279
  0
LINE
  8
CSLAYER1
  6
CONTINUOUS
 62
     6
 10
206.659304
 20
16.030058
 11
206.659304
 21
22.788664
  0
ARC
  8
CSLAYER1
  6
CONTINUOUS
 62
     6
 10
212.693800
 20
19.409361
 40
8.448294
 50
163.742994
 51
196.257016
  0
LINE
  8
CSLAYER1
  6
CONTINUOUS
 62
     6
 10
206.396842
 20
22.705369
 11
205.636711
 21
22.638870
  0
ARC
  8
CSLAYER1
  6
CONTINUOUS
 62
     6
 10
205.741902
 20
21.436556
 40
1.206899
 50
95.000111
 51
163.742611
  0
ARC
  8
CSLAYER1
  6
CONTINUOUS
 62
     6
 10
206.417910
 20
22.464914
 40
0.241380
 50
0.000000
 51
95.000152
  0
LINE
  8
CSLAYER1
  6
CONTINUOUS
 62
     6
 10
206.779965
 20
22.909361
 11
207.383414
 21
22.909361
  0
ARC
  8
CSLAYER1
  6
CONTINUOUS
 62
     6
 10
206.779965
 20
22.788664
 40
0.120690
 50
90.000003
 51
180.000005
  0
ARC
  8
CSLAYER1
  6
CONTINUOUS
 62
     6
 10
207.383414
 20
22.788664
 40
0.120690
 50
0.000000
 51
90.000003
  0
LINE
  8
CSLAYER1
  6
CONTINUOUS
 62
     6
 10
206.396842
 20
16.113353
 11
205.636711
 21
16.179853
  0
ARC
  8
CSLAYER1
  6
CONTINUOUS
 62
     6
 10
205.741902
 20
17.382166
 40
1.206899
 50
196.257399
 51
264.999892
  0
ARC
  8
CSLAYER1
  6
CONTINUOUS
 62
     6
 10
206.417910
 20
16.353808
 40
0.241380
 50
264.999865
 51
359.942691
  0
ARC
  8
CSLAYER1
  6
CONTINUOUS
 62
     6
 10
206.779965
 20
16.030058
 40
0.120690
 50
180.000005
 51
270.000001
  0
LINE
  8
CSLAYER1
  6
CONTINUOUS
 62
     6
 10
206.779965
 20
15.909361
 11
207.383414
 21
15.909361
  0
ARC
  8
CSLAYER1
  6
CONTINUOUS
 62
     6
 10
207.383414
 20
16.030058
 40
0.120690
 50
270.000001
 51
359.942691
  0
LINE
  8
CSLAYER1
  6
CONTINUOUS
 62
     6
 10
206.659304
 20
18.690131
 11
207.504111
 21
19.225829
  0
LINE
  8
CSLAYER1
  6
CONTINUOUS
 62
     6
 10
206.659304
 20
19.293581
 11
207.504111
 21
19.829279
  0
LINE
  8
CSLAYER1
  6
CENTER
 62
     3
 10
216.504104
 20
19.409343
 11
200.012363
 21
19.409343
  0
LINE
  8
CSLAYER1
  6
CENTER
 62
     3
 10
216.504104
 20
63.409343
 11
200.012363
 21
63.409343
  0
LINE
  8
CSLAYER1
  6
CENTER
 62
     3
 10
219.104104
 20
20.409343
 11
219.104104
 21
28.409343
  0
LINE
  8
CSLAYER1
  6
CENTER
 62
     3
 10
244.104104
 20
20.409343
 11
244.104104
 21
28.409343
  0
LINE
  8
CSLAYER1
  6
CONTINUOUS
 62
     6
 10
249.504104
 20
19.409343
 11
249.504104
 21
63.409343
  0
ARC
  8
CSLAYER1
  6
CONTINUOUS
 62
     6
 10
244.504104
 20
63.409343
 40
5.000000
 50
0.000000
 51
90.000000
  0
ARC
  8
CSLAYER1
  6
CONTINUOUS
 62
     6
 10
244.504104
 20
19.409343
 40
5.000000
 50
-90.000000
 51
0.000000
  0
LINE
  8
CSLAYER1
  6
CENTER
 62
     3
 10
236.104104
 20
44.909343
 11
236.104104
 21
61.909343
  0
LINE
  8
CSLAYER1
  6
CENTER
 62
     3
 10
248.104104
 20
58.409343
 11
240.104104
 21
58.409343
  0
LINE
  8
CSLAYER1
  6
CENTER
 62
     3
 10
248.104104
 20
24.409343
 11
240.104104
 21
24.409343
  0
CIRCLE
  8
CSLAYER1
  6
CONTINUOUS
 62
     6
 10
236.104104
 20
53.409343
 40
5.500000
  0
LINE
  8
CSLAYER1
  6
CENTER
 62
     3
 10
244.604104
 20
53.409343
 11
227.604104
 21
53.409343
  0
CIRCLE
  8
CSLAYER1
  6
CONTINUOUS
 62
     3
 10
244.104104
 20
58.409343
 40
2.000000
  0
CIRCLE
  8
CSLAYER1
  6
CONTINUOUS
 62
     6
 10
244.104104
 20
58.409343
 40
1.600000
  0
CIRCLE
  8
CSLAYER1
  6
CONTINUOUS
 62
     3
 10
244.104104
 20
24.409343
 40
2.000000
  0
CIRCLE
  8
CSLAYER1
  6
CONTINUOUS
 62
     6
 10
244.104104
 20
24.409343
 40
1.600000
  0
CIRCLE
  8
CSLAYER1
  6
CONTINUOUS
 62
     3
 10
219.104104
 20
24.409343
 40
2.000000
  0
CIRCLE
  8
CSLAYER1
  6
CONTINUOUS
 62
     6
 10
219.104104
 20
24.409343
 40
1.600000
  0
CIRCLE
  8
CSLAYER1
  6
CONTINUOUS
 62
     3
 10
219.104104
 20
58.409343
 40
2.000000
  0
CIRCLE
  8
CSLAYER1
  6
CONTINUOUS
 62
     6
 10
219.104104
 20
58.409343
 40
1.600000
  0
LINE
  8
CSLAYER1
  6
CENTER
 62
     3
 10
223.104104
 20
58.409343
 11
215.104104
 21
58.409343
  0
LINE
  8
CSLAYER1
  6
CENTER
 62
     3
 10
244.104104
 20
54.409343
 11
244.104104
 21
62.409343
  0
LINE
  8
CSLAYER1
  6
CENTER
 62
     3
 10
219.104104
 20
54.409343
 11
219.104104
 21
62.409343
  0
LINE
  8
CSLAYER1
  6
CENTER
 62
     3
 10
223.104104
 20
24.409343
 11
215.104104
 21
24.409343
  0
LINE
  8
CSLAYER1
  6
CONTINUOUS
 62
     6
 10
213.504104
 20
77.409343
 11
232.504104
 21
77.409343
  0
LINE
  8
CSLAYER1
  6
CENTER
 62
     3
 10
226.004104
 20
65.409343
 11
226.004104
 21
83.574313
  0
LINE
  8
CSLAYER1
  6
CONTINUOUS
 62
     6
 10
233.504104
 20
71.509343
 11
233.504104
 21
76.409343
  0
ARC
  8
CSLAYER1
  6
CONTINUOUS
 62
     6
 10
236.604104
 20
71.509343
 40
3.100000
 50
180.000000
 51
270.000000
  0
ARC
  8
CSLAYER1
  6
CONTINUOUS
 62
     6
 10
232.504104
 20
76.409343
 40
1.000000
 50
0.000000
 51
90.000000
  0
LINE
  8
CSLAYER1
  6
CONTINUOUS
 62
     6
 10
221.504104
 20
80.409342
 11
225.254104
 21
80.409343
  0
LINE
  8
CSLAYER1
  6
CONTINUOUS
 62
     6
 10
231.254105
 20
79.659342
 11
231.254104
 21
77.409341
  0
LINE
  8
CSLAYER1
  6
CONTINUOUS
 62
     3
 10
230.754105
 20
80.159342
 11
230.754104
 21
77.409341
  0
LINE
  8
CSLAYER1
  6
CONTINUOUS
 62
     6
 10
230.504104
 20
80.409343
 11
231.254104
 21
79.659343
  0
LINE
  8
CSLAYER1
  6
CONTINUOUS
 62
     6
 10
220.754104
 20
79.659342
 11
220.754103
 21
77.409344
  0
LINE
  8
CSLAYER1
  6
CONTINUOUS
 62
     3
 10
221.254104
 20
80.159343
 11
221.254103
 21
77.409344
  0
LINE
  8
CSLAYER1
  6
CONTINUOUS
 62
     6
 10
221.504107
 20
80.409346
 11
220.754103
 21
79.659342
  0
LINE
  8
CSLAYER1
  6
CONTINUOUS
 62
     6
 10
231.254105
 20
79.659342
 11
226.754104
 21
79.659342
  0
LINE
  8
CSLAYER1
  6
CONTINUOUS
 62
     6
 10
226.754104
 20
80.409343
 11
226.754104
 21
79.409343
  0
LINE
  8
CSLAYER1
  6
CONTINUOUS
 62
     6
 10
225.254104
 20
80.409343
 11
225.254104
 21
79.409343
  0
LINE
  8
CSLAYER1
  6
CONTINUOUS
 62
     6
 10
225.254104
 20
79.409343
 11
226.754104
 21
79.409343
  0
LINE
  8
CSLAYER1
  6
CONTINUOUS
 62
     6
 10
226.754104
 20
80.409343
 11
230.504104
 21
80.409343
  0
LINE
  8
CSLAYER1
  6
CONTINUOUS
 62
     6
 10
225.254104
 20
79.659342
 11
220.754104
 21
79.659342
  0
LINE
  8
CSLAYER1
  6
CONTINUOUS
 62
     6
 10
118.806229
 20
150.165258
 11
118.806229
 21
137.165258
  0
LINE
  8
CSLAYER1
  6
CONTINUOUS
 62
     6
 10
112.906229
 20
136.165258
 11
117.806229
 21
136.165258
  0
ARC
  8
CSLAYER1
  6
CONTINUOUS
 62
     6
 10
112.906229
 20
133.065258
 40
3.100000
 50
90.000000
 51
180.000000
  0
ARC
  8
CSLAYER1
  6
CONTINUOUS
 62
     6
 10
117.806229
 20
137.165258
 40
1.000000
 50
270.000000
 51
360.000000
  0
LINE
  8
CSLAYER1
  6
CONTINUOUS
 62
     6
 10
112.906229
 20
151.165258
 11
117.806229
 21
151.165258
  0
ARC
  8
CSLAYER1
  6
CONTINUOUS
 62
     6
 10
112.906229
 20
154.265258
 40
3.100000
 50
180.084655
 51
270.000000
  0
ARC
  8
CSLAYER1
  6
CONTINUOUS
 62
     6
 10
117.806229
 20
150.165258
 40
1.000000
 50
0.000000
 51
90.000000
  0
LINE
  8
CSLAYER1
  6
CONTINUOUS
 62
     6
 10
121.806227
 20
139.165258
 11
121.806230
 21
148.165258
  0
LINE
  8
CSLAYER1
  6
CONTINUOUS
 62
     6
 10
121.056231
 20
148.915258
 11
118.806229
 21
148.915258
  0
LINE
  8
CSLAYER1
  6
CONTINUOUS
 62
     3
 10
121.556231
 20
148.415258
 11
118.806229
 21
148.415258
  0
LINE
  8
CSLAYER1
  6
CONTINUOUS
 62
     6
 10
121.806230
 20
148.165258
 11
121.056231
 21
148.915258
  0
LINE
  8
CSLAYER1
  6
CONTINUOUS
 62
     6
 10
121.056227
 20
138.415258
 11
118.806229
 21
138.415258
  0
LINE
  8
CSLAYER1
  6
CONTINUOUS
 62
     3
 10
121.556227
 20
138.915258
 11
118.806229
 21
138.915258
  0
LINE
  8
CSLAYER1
  6
CONTINUOUS
 62
     6
 10
121.806230
 20
139.165261
 11
121.056227
 21
138.415258
  0
LINE
  8
CSLAYER1
  6
CONTINUOUS
 62
     6
 10
121.056231
 20
148.915258
 11
121.056231
 21
138.415258
  0
LINE
  8
CSLAYER1
  6
CONTINUOUS
 62
     6
 10
207.504087
 20
217.474717
 11
207.504087
 21
268.233322
  0
LINE
  8
CSLAYER1
  6
CONTINUOUS
 62
     6
 10
213.504087
 20
206.854001
 11
213.504087
 21
269.854001
  0
LINE
  8
CSLAYER1
  6
CONTINUOUS
 62
     6
 10
213.504087
 20
269.854001
 11
209.504087
 21
269.854001
  0
LINE
  8
CSLAYER1
  6
CONTINUOUS
 62
     6
 10
209.504087
 20
215.853997
 11
244.504087
 21
215.853997
  0
ARC
  8
CSLAYER1
  6
CONTINUOUS
 62
     6
 10
209.504087
 20
267.854001
 40
2.000000
 50
90.000000
 51
180.000000
  0
ARC
  8
CSLAYER1
  6
CONTINUOUS
 62
     6
 10
209.983316
 20
218.287381
 40
2.480124
 50
178.460834
 51
258.858783
  0
LINE
  8
CSLAYER1
  6
CONTINUOUS
 62
     6
 10
206.659287
 20
261.474717
 11
206.659287
 21
268.233322
  0
ARC
  8
CSLAYER1
  6
CONTINUOUS
 62
     6
 10
212.693782
 20
264.854019
 40
8.448294
 50
163.742994
 51
196.257016
  0
LINE
  8
CSLAYER1
  6
CONTINUOUS
 62
     6
 10
206.396825
 20
268.150027
 11
205.636693
 21
268.083528
  0
ARC
  8
CSLAYER1
  6
CONTINUOUS
 62
     6
 10
205.741884
 20
266.881214
 40
1.206899
 50
95.000111
 51
163.742611
  0
ARC
  8
CSLAYER1
  6
CONTINUOUS
 62
     6
 10
206.417892
 20
267.909572
 40
0.241380
 50
0.000000
 51
95.000152
  0
LINE
  8
CSLAYER1
  6
CONTINUOUS
 62
     6
 10
206.779947
 20
268.354019
 11
207.383397
 21
268.354019
  0
ARC
  8
CSLAYER1
  6
CONTINUOUS
 62
     6
 10
206.779947
 20
268.233322
 40
0.120690
 50
90.000003
 51
180.000005
  0
ARC
  8
CSLAYER1
  6
CONTINUOUS
 62
     6
 10
207.383397
 20
268.233322
 40
0.120690
 50
0.000000
 51
90.000003
  0
LINE
  8
CSLAYER1
  6
CONTINUOUS
 62
     6
 10
206.396825
 20
261.558011
 11
205.636693
 21
261.624511
  0
ARC
  8
CSLAYER1
  6
CONTINUOUS
 62
     6
 10
205.741884
 20
262.826824
 40
1.206899
 50
196.257399
 51
264.999892
  0
ARC
  8
CSLAYER1
  6
CONTINUOUS
 62
     6
 10
206.417892
 20
261.798467
 40
0.241380
 50
264.999865
 51
359.942691
  0
ARC
  8
CSLAYER1
  6
CONTINUOUS
 62
     6
 10
206.779947
 20
261.474717
 40
0.120690
 50
180.000005
 51
270.000001
  0
LINE
  8
CSLAYER1
  6
CONTINUOUS
 62
     6
 10
206.779947
 20
261.354019
 11
207.383397
 21
261.354019
  0
ARC
  8
CSLAYER1
  6
CONTINUOUS
 62
     6
 10
207.383397
 20
261.474717
 40
0.120690
 50
270.000001
 51
359.942691
  0
LINE
  8
CSLAYER1
  6
CONTINUOUS
 62
     6
 10
206.659287
 20
264.134790
 11
207.504094
 21
264.670487
  0
LINE
  8
CSLAYER1
  6
CONTINUOUS
 62
     6
 10
206.659287
 20
264.738239
 11
207.504094
 21
265.273937
  0
LINE
  8
CSLAYER1
  6
CONTINUOUS
 62
     6
 10
206.659287
 20
217.474717
 11
206.659287
 21
224.233322
  0
ARC
  8
CSLAYER1
  6
CONTINUOUS
 62
     6
 10
212.693782
 20
220.854019
 40
8.448294
 50
163.742994
 51
196.257016
  0
LINE
  8
CSLAYER1
  6
CONTINUOUS
 62
     6
 10
206.396825
 20
224.150027
 11
205.636693
 21
224.083528
  0
ARC
  8
CSLAYER1
  6
CONTINUOUS
 62
     6
 10
205.741884
 20
222.881214
 40
1.206899
 50
95.000111
 51
163.742611
  0
ARC
  8
CSLAYER1
  6
CONTINUOUS
 62
     6
 10
206.417892
 20
223.909572
 40
0.241380
 50
0.000000
 51
95.000152
  0
LINE
  8
CSLAYER1
  6
CONTINUOUS
 62
     6
 10
206.779947
 20
224.354019
 11
207.383397
 21
224.354019
  0
ARC
  8
CSLAYER1
  6
CONTINUOUS
 62
     6
 10
206.779947
 20
224.233322
 40
0.120690
 50
90.000003
 51
180.000005
  0
ARC
  8
CSLAYER1
  6
CONTINUOUS
 62
     6
 10
207.383397
 20
224.233322
 40
0.120690
 50
0.000000
 51
90.000003
  0
LINE
  8
CSLAYER1
  6
CONTINUOUS
 62
     6
 10
206.396825
 20
217.558011
 11
205.636693
 21
217.624511
  0
ARC
  8
CSLAYER1
  6
CONTINUOUS
 62
     6
 10
205.741884
 20
218.826824
 40
1.206899
 50
196.257399
 51
264.999892
  0
ARC
  8
CSLAYER1
  6
CONTINUOUS
 62
     6
 10
206.417892
 20
217.798467
 40
0.241380
 50
264.999865
 51
359.942691
  0
ARC
  8
CSLAYER1
  6
CONTINUOUS
 62
     6
 10
206.779947
 20
217.474717
 40
0.120690
 50
180.000005
 51
270.000001
  0
LINE
  8
CSLAYER1
  6
CONTINUOUS
 62
     6
 10
206.779947
 20
217.354019
 11
207.383397
 21
217.354019
  0
ARC
  8
CSLAYER1
  6
CONTINUOUS
 62
     6
 10
207.383397
 20
217.474717
 40
0.120690
 50
270.000001
 51
359.942691
  0
LINE
  8
CSLAYER1
  6
CONTINUOUS
 62
     6
 10
206.659287
 20
220.134790
 11
207.504094
 21
220.670487
  0
LINE
  8
CSLAYER1
  6
CONTINUOUS
 62
     6
 10
206.659287
 20
220.738239
 11
207.504094
 21
221.273937
  0
LINE
  8
CSLAYER1
  6
CENTER
 62
     3
 10
216.504087
 20
220.854001
 11
201.245489
 21
220.854001
  0
LINE
  8
CSLAYER1
  6
CENTER
 62
     3
 10
223.504087
 20
264.854001
 11
201.245489
 21
264.854001
  0
LINE
  8
CSLAYER1
  6
CONTINUOUS
 62
     6
 10
220.504087
 20
217.853994
 11
220.504087
 21
267.853994
  0
LINE
  8
CSLAYER1
  6
CONTINUOUS
 62
     6
 10
244.512469
 20
269.853994
 11
213.504087
 21
269.853994
  0
LINE
  8
CSLAYER1
  6
CONTINUOUS
 62
     6
 10
213.504087
 20
206.854001
 11
232.504087
 21
206.854001
  0
LINE
  8
CSLAYER1
  6
CENTER
 62
     3
 10
226.004087
 20
200.689031
 11
226.004087
 21
272.854001
  0
LINE
  8
CSLAYER1
  6
CONTINUOUS
 62
     6
 10
233.504087
 20
212.754001
 11
233.504087
 21
207.854001
  0
ARC
  8
CSLAYER1
  6
CONTINUOUS
 62
     6
 10
236.604087
 20
212.754001
 40
3.100000
 50
90.000000
 51
180.000000
  0
ARC
  8
CSLAYER1
  6
CONTINUOUS
 62
     6
 10
232.504087
 20
207.854001
 40
1.000000
 50
270.000000
 51
360.000000
  0
LINE
  8
CSLAYER1
  6
CONTINUOUS
 62
     6
 10
221.504087
 20
203.853994
 11
225.254087
 21
203.853994
  0
LINE
  8
CSLAYER1
  6
CONTINUOUS
 62
     6
 10
231.254087
 20
204.603994
 11
231.254087
 21
206.854001
  0
LINE
  8
CSLAYER1
  6
CONTINUOUS
 62
     3
 10
230.754088
 20
204.103995
 11
230.754087
 21
206.854001
  0
LINE
  8
CSLAYER1
  6
CONTINUOUS
 62
     6
 10
230.504087
 20
203.853994
 11
231.254086
 21
204.603994
  0
LINE
  8
CSLAYER1
  6
CONTINUOUS
 62
     6
 10
220.754087
 20
204.603994
 11
220.754086
 21
206.854001
  0
LINE
  8
CSLAYER1
  6
CONTINUOUS
 62
     3
 10
221.254087
 20
204.103994
 11
221.254086
 21
206.854001
  0
LINE
  8
CSLAYER1
  6
CONTINUOUS
 62
     6
 10
221.504090
 20
203.853991
 11
220.754086
 21
204.603994
  0
LINE
  8
CSLAYER1
  6
CONTINUOUS
 62
     6
 10
231.254087
 20
204.603994
 11
226.754087
 21
204.603994
  0
LINE
  8
CSLAYER1
  6
CONTINUOUS
 62
     6
 10
226.754087
 20
203.853994
 11
226.754087
 21
204.853994
  0
LINE
  8
CSLAYER1
  6
CONTINUOUS
 62
     6
 10
225.254087
 20
203.853994
 11
225.254087
 21
204.853994
  0
LINE
  8
CSLAYER1
  6
CONTINUOUS
 62
     6
 10
225.254087
 20
204.853994
 11
226.754087
 21
204.853994
  0
LINE
  8
CSLAYER1
  6
CONTINUOUS
 62
     6
 10
226.754087
 20
203.853994
 11
230.504087
 21
203.853994
  0
LINE
  8
CSLAYER1
  6
CONTINUOUS
 62
     6
 10
225.254087
 20
204.603994
 11
220.754087
 21
204.603994
  0
LINE
  8
CSLAYER1
  6
CONTINUOUS
 62
     6
 10
249.504087
 20
264.854001
 11
249.504087
 21
236.567183
  0
ARC
  8
CSLAYER1
  6
CONTINUOUS
 62
     6
 10
244.504087
 20
220.854001
 40
5.000000
 50
270.000000
 51
360.000000
  0
ARC
  8
CSLAYER1
  6
CONTINUOUS
 62
     6
 10
244.504087
 20
264.854001
 40
5.000000
 50
0.000000
 51
90.000000
  0
LINE
  8
CSLAYER1
  6
CONTINUOUS
 62
     6
 10
249.504087
 20
225.140819
 11
249.504087
 21
220.854001
  0
ARC
  8
CSLAYER1
  6
CONTINUOUS
 62
     6
 10
218.504087
 20
267.853994
 40
2.000000
 50
0.000000
 51
90.000000
  0
ARC
  8
CSLAYER1
  6
CONTINUOUS
 62
     6
 10
218.504087
 20
217.853994
 40
2.000000
 50
270.000000
 51
360.000000
  0
LINE
  8
CSLAYER1
  6
CONTINUOUS
 62
     6
 10
60.806239
 20
127.665258
 11
104.806239
 21
127.665258
  0
LINE
  8
CSLAYER1
  6
CONTINUOUS
 62
     6
 10
213.504104
 20
127.165258
 11
249.504104
 21
127.165258
  0
LINE
  8
CSLAYER1
  6
CENTER
 62
     3
 10
253.504087
 20
230.854001
 11
210.504087
 21
230.854001
  0
LINE
  8
CSLAYER1
  6
CENTER
 62
     3
 10
236.104104
 20
220.854001
 11
236.104104
 21
240.854001
  0
LINE
  8
CSLAYER1
  6
CONTINUOUS
 62
     6
 10
220.504087
 20
267.853995
 11
233.504087
 21
267.853995
  0
LINE
  8
CSLAYER1
  6
CONTINUOUS
 62
     6
 10
222.504087
 20
256.854001
 11
238.504087
 21
256.854001
  0
ARC
  8
CSLAYER1
  6
CONTINUOUS
 62
     6
 10
222.504087
 20
258.854001
 40
2.000000
 50
180.000000
 51
270.000000
  0
LINE
  8
CSLAYER1
  6
CONTINUOUS
 62
     6
 10
237.104104
 20
254.854001
 11
237.104104
 21
239.867879
  0
ARC
  8
CSLAYER1
  6
CONTINUOUS
 62
     6
 10
235.104104
 20
254.854001
 40
2.000000
 50
-0.000000
 51
90.000000
  0
CIRCLE
  8
CSLAYER1
  6
CONTINUOUS
 62
     6
 10
236.104104
 20
230.854001
 40
5.000000
  0
LINE
  8
CSLAYER1
  6
CONTINUOUS
 62
     6
 10
240.504087
 20
245.901931
 11
240.504087
 21
254.854001
  0
LINE
  8
CSLAYER1
  6
CONTINUOUS
 62
     6
 10
234.504087
 20
258.854001
 11
234.504087
 21
266.853995
  0
ARC
  8
CSLAYER1
  6
CONTINUOUS
 62
     6
 10
238.504087
 20
254.854001
 40
2.000000
 50
-0.000000
 51
90.000000
  0
ARC
  8
CSLAYER1
  6
CONTINUOUS
 62
     6
 10
233.504087
 20
266.853995
 40
1.000000
 50
-0.000000
 51
90.000000
  0
ARC
  8
CSLAYER1
  6
CONTINUOUS
 62
     6
 10
236.104104
 20
230.854001
 40
7.500000
 50
-90.000000
 51
90.000000
  0
ARC
  8
CSLAYER1
  6
CONTINUOUS
 62
     6
 10
236.504087
 20
258.854001
 40
2.000000
 50
180.000000
 51
270.000000
  0
LINE
  8
CSLAYER1
  6
CONTINUOUS
 62
     6
 10
237.104104
 20
221.840123
 11
237.104104
 21
216.852781
  0
LINE
  8
CSLAYER1
  6
CONTINUOUS
 62
     6
 10
236.104104
 20
238.354001
 11
222.504087
 21
238.354001
  0
ARC
  8
CSLAYER1
  6
CONTINUOUS
 62
     6
 10
222.504087
 20
240.354001
 40
2.000000
 50
180.000000
 51
270.000000
  0
LINE
  8
CSLAYER1
  6
CONTINUOUS
 62
     6
 10
236.104104
 20
223.354001
 11
222.504087
 21
223.354001
  0
ARC
  8
CSLAYER1
  6
CONTINUOUS
 62
     6
 10
222.504087
 20
221.354001
 40
2.000000
 50
90.000000
 51
180.000000
  0
ARC
  8
CSLAYER1
  6
CONTINUOUS
 62
     6
 10
236.104104
 20
216.852781
 40
1.000000
 50
271.397597
 51
360.000000
  0
LINE
  8
CSLAYER1
  6
CENTER
 62
     3
 10
244.104104
 20
124.165258
 11
244.104104
 21
130.165258
  0
LINE
  8
CSLAYER1
  6
CENTER
 62
     3
 10
219.104104
 20
124.165258
 11
219.104104
 21
130.165258
  0
LINE
  8
CSLAYER1
  6
CENTER
 62
     3
 10
343.701989
 20
124.165258
 11
343.701989
 21
130.165258
  0
LINE
  8
CSLAYER1
  6
CENTER
 62
     3
 10
309.701989
 20
124.165258
 11
309.701989
 21
130.165258
  0
ARC
  8
CSLAYER1
  6
CONTINUOUS
 62
     6
 10
251.504104
 20
134.008687
 40
2.000000
 50
134.427004
 51
180.000000
  0
ARC
  8
CSLAYER1
  6
CONTINUOUS
 62
     6
 10
236.504104
 20
230.854001
 40
14.200000
 50
-83.844256
 51
80.764439
  0
ARC
  8
CSLAYER1
  6
CONTINUOUS
 62
     6
 10
239.104104
 20
246.843998
 40
2.000000
 50
180.000000
 51
260.764439
  0
ARC
  8
CSLAYER1
  6
CONTINUOUS
 62
     6
 10
242.504087
 20
245.901931
 40
2.000000
 50
180.000000
 51
248.261605
  0
ARC
  8
CSLAYER1
  6
CONTINUOUS
 62
     6
 10
238.241253
 20
214.747409
 40
2.000000
 50
96.155744
 51
135.429139
  0
ARC
  8
CSLAYER1
  6
CONTINUOUS
 62
     6
 10
236.504104
 20
53.409343
 40
14.200000
 50
-23.724169
 51
23.724169
  0
ARC
  8
CSLAYER1
  6
CONTINUOUS
 62
     6
 10
239.104104
 20
239.867879
 40
2.000000
 50
180.000000
 51
251.591520
  0
ARC
  8
CSLAYER1
  6
CONTINUOUS
 62
     6
 10
239.104104
 20
221.840123
 40
2.000000
 50
108.408480
 51
180.000000
  0
CIRCLE
  8
CSLAYER1
  6
CONTINUOUS
 62
     6
 10
236.104104
 20
53.409343
 40
3.965000
  0
CIRCLE
  8
CSLAYER1
  6
CONTINUOUS
 62
     3
 10
244.104087
 20
259.854001
 40
2.000000
  0
CIRCLE
  8
CSLAYER1
  6
CONTINUOUS
 62
     6
 10
244.104087
 20
259.854001
 40
1.600000
  0
LINE
  8
CSLAYER1
  6
CENTER
 62
     3
 10
244.104087
 20
255.854001
 11
244.104087
 21
263.854001
  0
LINE
  8
CSLAYER1
  6
CENTER
 62
     3
 10
240.104087
 20
259.854001
 11
248.104087
 21
259.854001
  0
LINE
  8
CSLAYER1
  6
CENTER
 62
     3
 10
99.806224
 20
124.165258
 11
99.806224
 21
130.165258
  0
LINE
  8
CSLAYER1
  6
CENTER
 62
     3
 10
65.806224
 20
124.165258
 11
65.806224
 21
130.165258
  0
LINE
  8
CSLAYER1
  6
CONTINUOUS
 62
     6
 10
149.504087
 20
235.354001
 11
149.504087
 21
250.354001
  0
LINE
  8
CSLAYER1
  6
CONTINUOUS
 62
     6
 10
154.504087
 20
224.854001
 11
154.504087
 21
260.854001
  0
LINE
  8
CSLAYER1
  6
CONTINUOUS
 62
     6
 10
204.485640
 20
262.854001
 11
169.504087
 21
262.854001
  0
LINE
  8
CSLAYER1
  6
CONTINUOUS
 62
     6
 10
204.485631
 20
222.854001
 11
169.504087
 21
222.854001
  0
LINE
  8
CSLAYER1
  6
CONTINUOUS
 62
     6
 10
168.504087
 20
220.354001
 11
168.504087
 21
265.354001
  0
LINE
  8
CSLAYER1
  6
CONTINUOUS
 62
     6
 10
169.504087
 20
222.854001
 11
168.504087
 21
223.854001
  0
LINE
  8
CSLAYER1
  6
CONTINUOUS
 62
     6
 10
169.504087
 20
262.854001
 11
168.504087
 21
261.854001
  0
LINE
  8
CSLAYER1
  6
CONTINUOUS
 62
     6
 10
169.504087
 20
222.854001
 11
169.504087
 21
262.854001
  0
LINE
  8
CSLAYER1
  6
CONTINUOUS
 62
     6
 10
152.504087
 20
252.354001
 11
151.504087
 21
252.354001
  0
LINE
  8
CSLAYER1
  6
CONTINUOUS
 62
     6
 10
152.504087
 20
233.354001
 11
151.504087
 21
233.354001
  0
ARC
  8
CSLAYER1
  6
CONTINUOUS
 62
     6
 10
151.504087
 20
235.354001
 40
2.000000
 50
180.000000
 51
270.000000
  0
ARC
  8
CSLAYER1
  6
CONTINUOUS
 62
     6
 10
151.504087
 20
250.354001
 40
2.000000
 50
90.000000
 51
180.000000
  0
ARC
  8
CSLAYER1
  6
CONTINUOUS
 62
     6
 10
152.504087
 20
231.354001
 40
2.000000
 50
0.000000
 51
90.000000
  0
ARC
  8
CSLAYER1
  6
CONTINUOUS
 62
     6
 10
152.504087
 20
254.354001
 40
2.000000
 50
270.000000
 51
360.000000
  0
ARC
  8
CSLAYER1
  6
CONTINUOUS
 62
     6
 10
155.504087
 20
224.854001
 40
1.000000
 50
180.000000
 51
270.000000
  0
ARC
  8
CSLAYER1
  6
CONTINUOUS
 62
     6
 10
155.504087
 20
260.854001
 40
1.000000
 50
90.000000
 51
180.000000
  0
LINE
  8
CSLAYER1
  6
CONTINUOUS
 62
     6
 10
156.504087
 20
261.854001
 11
155.504087
 21
261.854001
  0
LINE
  8
CSLAYER1
  6
CONTINUOUS
 62
     6
 10
156.504087
 20
223.854001
 11
155.504087
 21
223.854001
  0
LINE
  8
CSLAYER1
  6
CONTINUOUS
 62
     6
 10
168.504087
 20
265.354001
 11
156.504087
 21
265.354001
  0
LINE
  8
CSLAYER1
  6
CONTINUOUS
 62
     6
 10
168.504087
 20
220.354001
 11
156.504087
 21
220.354001
  0
LINE
  8
CSLAYER1
  6
CONTINUOUS
 62
     6
 10
168.504087
 20
224.354001
 11
156.504087
 21
224.354001
  0
LINE
  8
CSLAYER1
  6
CONTINUOUS
 62
     6
 10
168.504087
 20
261.354001
 11
156.504087
 21
261.354001
  0
LINE
  8
CSLAYER1
  6
CONTINUOUS
 62
     6
 10
156.504087
 20
261.354001
 11
156.504087
 21
265.354001
  0
LINE
  8
CSLAYER1
  6
CONTINUOUS
 62
     6
 10
156.504087
 20
220.354001
 11
156.504087
 21
224.354001
  0
LINE
  8
CSLAYER1
  6
CONTINUOUS
 62
     6
 10
168.504087
 20
264.354001
 11
156.504087
 21
264.354001
  0
LINE
  8
CSLAYER1
  6
CONTINUOUS
 62
     6
 10
168.504087
 20
221.354001
 11
156.504087
 21
221.354001
  0
LINE
  8
CSLAYER1
  6
CONTINUOUS
 62
     6
 10
156.504087
 20
221.854001
 11
149.504087
 21
221.854001
  0
LINE
  8
CSLAYER1
  6
CONTINUOUS
 62
     6
 10
149.504087
 20
263.854001
 11
156.504087
 21
263.854001
  0
LINE
  8
CSLAYER1
  6
CONTINUOUS
 62
     6
 10
156.504087
 20
222.354001
 11
149.504087
 21
222.354001
  0
LINE
  8
CSLAYER1
  6
CONTINUOUS
 62
     6
 10
149.504087
 20
263.354001
 11
156.504087
 21
263.354001
  0
LINE
  8
CSLAYER1
  6
CONTINUOUS
 62
     6
 10
149.504087
 20
221.854001
 11
149.504087
 21
222.354001
  0
LINE
  8
CSLAYER1
  6
CONTINUOUS
 62
     6
 10
149.504087
 20
263.354001
 11
149.504087
 21
263.854001
  0
LINE
  8
CSLAYER1
  6
CONTINUOUS
 62
     3
 10
203.004087
 20
223.339480
 11
173.004087
 21
223.339480
  0
LINE
  8
CSLAYER1
  6
CONTINUOUS
 62
     3
 10
203.004087
 20
262.368521
 11
173.004087
 21
262.368521
  0
LINE
  8
CSLAYER1
  6
CONTINUOUS
 62
     3
 10
204.004087
 20
224.339480
 11
204.004087
 21
261.368521
  0
LINE
  8
CSLAYER1
  6
CONTINUOUS
 62
     3
 10
172.004087
 20
224.339480
 11
172.004087
 21
261.368521
  0
ARC
  8
CSLAYER1
  6
CONTINUOUS
 62
     3
 10
203.004087
 20
261.368521
 40
1.000000
 50
0.000000
 51
90.000000
  0
ARC
  8
CSLAYER1
  6
CONTINUOUS
 62
     3
 10
173.004087
 20
261.368521
 40
1.000000
 50
90.000000
 51
180.000000
  0
ARC
  8
CSLAYER1
  6
CONTINUOUS
 62
     3
 10
173.004087
 20
224.339480
 40
1.000000
 50
180.000000
 51
270.000000
  0
ARC
  8
CSLAYER1
  6
CONTINUOUS
 62
     3
 10
203.004087
 20
224.339480
 40
1.000000
 50
270.000000
 51
360.000000
  0
TEXT
  8
CSLAYER1
 62
     3
 10
185.928238
 20
248.093048
 40
3.500000
 41
1.125000
  1
N P
 50
270.000000
 51
10.000000
  7
JX_FONT
 72
     5
 11
185.928238
 21
237.593048
  0
LINE
  8
CSLAYER1
  6
CONTINUOUS
 62
     6
 10
154.504104
 20
136.665258
 11
154.504104
 21
152.165258
  0
LINE
  8
CSLAYER1
  6
CONTINUOUS
 62
     6
 10
204.485658
 20
174.665258
 11
169.504104
 21
174.665258
  0
LINE
  8
CSLAYER1
  6
CONTINUOUS
 62
     6
 10
204.485649
 20
134.665258
 11
169.504104
 21
134.665258
  0
LINE
  8
CSLAYER1
  6
CONTINUOUS
 62
     6
 10
168.504104
 20
135.665258
 11
168.504104
 21
173.665258
  0
LINE
  8
CSLAYER1
  6
CONTINUOUS
 62
     6
 10
169.504104
 20
134.665258
 11
168.504104
 21
135.665258
  0
LINE
  8
CSLAYER1
  6
CONTINUOUS
 62
     6
 10
169.504104
 20
174.665258
 11
168.504104
 21
173.665258
  0
LINE
  8
CSLAYER1
  6
CONTINUOUS
 62
     6
 10
169.504104
 20
134.665258
 11
169.504104
 21
174.665258
  0
ARC
  8
CSLAYER1
  6
CONTINUOUS
 62
     6
 10
155.504104
 20
136.665258
 40
1.000000
 50
180.000000
 51
270.000000
  0
ARC
  8
CSLAYER1
  6
CONTINUOUS
 62
     6
 10
155.504104
 20
172.665258
 40
1.000000
 50
90.000000
 51
180.000000
  0
LINE
  8
CSLAYER1
  6
CONTINUOUS
 62
     6
 10
168.504104
 20
173.665258
 11
155.504104
 21
173.665258
  0
LINE
  8
CSLAYER1
  6
CONTINUOUS
 62
     6
 10
168.504104
 20
135.665258
 11
155.504104
 21
135.665258
  0
LINE
  8
CSLAYER1
  6
CONTINUOUS
 62
     3
 10
203.004104
 20
159.045153
 11
173.004104
 21
159.045153
  0
LINE
  8
CSLAYER1
  6
CONTINUOUS
 62
     3
 10
204.004104
 20
160.045153
 11
204.004104
 21
174.665258
  0
LINE
  8
CSLAYER1
  6
CONTINUOUS
 62
     3
 10
172.004104
 20
160.045153
 11
172.004104
 21
174.665258
  0
ARC
  8
CSLAYER1
  6
CONTINUOUS
 62
     3
 10
173.004104
 20
160.045153
 40
1.000000
 50
180.000000
 51
270.000000
  0
ARC
  8
CSLAYER1
  6
CONTINUOUS
 62
     3
 10
203.004104
 20
160.045153
 40
1.000000
 50
270.000000
 51
360.000000
  0
LINE
  8
CSLAYER1
  6
CONTINUOUS
 62
     6
 10
168.504104
 20
160.665258
 11
156.504104
 21
160.665258
  0
LINE
  8
CSLAYER1
  6
CONTINUOUS
 62
     6
 10
156.504104
 20
160.665258
 11
156.504104
 21
148.665258
  0
LINE
  8
CSLAYER1
  6
CONTINUOUS
 62
     6
 10
156.504104
 20
159.665258
 11
168.504104
 21
159.665258
  0
LINE
  8
CSLAYER1
  6
CONTINUOUS
 62
     6
 10
166.504104
 20
157.665258
 11
155.504104
 21
157.665258
  0
LINE
  8
CSLAYER1
  6
CONTINUOUS
 62
     6
 10
168.504104
 20
148.665258
 11
156.504104
 21
148.665258
  0
LINE
  8
CSLAYER1
  6
CONTINUOUS
 62
     6
 10
156.504104
 20
149.665258
 11
168.504104
 21
149.665258
  0
LINE
  8
CSLAYER1
  6
CONTINUOUS
 62
     6
 10
166.504104
 20
151.665258
 11
155.504104
 21
151.665258
  0
LINE
  8
CSLAYER1
  6
CONTINUOUS
 62
     6
 10
149.504104
 20
147.165258
 11
149.504104
 21
162.165258
  0
LINE
  8
CSLAYER1
  6
CONTINUOUS
 62
     6
 10
154.504104
 20
157.165258
 11
154.504104
 21
172.665258
  0
LINE
  8
CSLAYER1
  6
CONTINUOUS
 62
     6
 10
155.504104
 20
157.165258
 11
149.504104
 21
157.165258
  0
LINE
  8
CSLAYER1
  6
CONTINUOUS
 62
     6
 10
155.504104
 20
152.165258
 11
149.504104
 21
152.165258
  0
LINE
  8
CSLAYER1
  6
CONTINUOUS
 62
     6
 10
155.504104
 20
157.665258
 11
155.504104
 21
157.165258
  0
LINE
  8
CSLAYER1
  6
CONTINUOUS
 62
     6
 10
155.504104
 20
152.165258
 11
155.504104
 21
151.665258
  0
LINE
  8
CSLAYER1
  6
CONTINUOUS
 62
     6
 10
156.504104
 20
159.665258
 11
154.504104
 21
161.665258
  0
LINE
  8
CSLAYER1
  6
CONTINUOUS
 62
     6
 10
156.504104
 20
149.665258
 11
154.504104
 21
147.665258
  0
CIRCLE
  8
CSLAYER1
  6
CONTINUOUS
 62
     6
 10
151.504104
 20
154.665258
 40
1.000000
  0
LINE
  8
CSLAYER1
  6
CENTER
 62
     3
 10
151.504104
 20
156.665258
 11
151.504104
 21
152.665258
  0
LINE
  8
CSLAYER1
  6
CONTINUOUS
 62
     6
 10
166.504104
 20
151.665258
 11
166.504104
 21
157.665258
  0
LINE
  8
CSLAYER1
  6
CONTINUOUS
 62
     6
 10
152.504104
 20
164.165258
 11
151.504104
 21
164.165258
  0
LINE
  8
CSLAYER1
  6
CONTINUOUS
 62
     6
 10
152.504104
 20
145.165258
 11
151.504104
 21
145.165258
  0
ARC
  8
CSLAYER1
  6
CONTINUOUS
 62
     6
 10
151.504104
 20
147.165258
 40
2.000000
 50
180.000000
 51
270.000000
  0
ARC
  8
CSLAYER1
  6
CONTINUOUS
 62
     6
 10
151.504104
 20
162.165258
 40
2.000000
 50
90.000000
 51
180.000000
  0
ARC
  8
CSLAYER1
  6
CONTINUOUS
 62
     6
 10
152.504104
 20
143.165258
 40
2.000000
 50
0.000000
 51
90.000000
  0
ARC
  8
CSLAYER1
  6
CONTINUOUS
 62
     6
 10
152.504104
 20
166.165258
 40
2.000000
 50
270.000000
 51
360.000000
  0
CIRCLE
  8
CSLAYER1
  6
PHANTOM
 62
     7
 10
204.775861
 20
242.854001
 40
0.098712
  0
TEXT
  8
CSLAYER1
 62
     3
 10
75.258163
 20
151.720703
 40
1.472728
 41
1.260000
  1
S
 50
290.000000
 51
0.000000
  7
JX_FONT
 72
     5
 11
75.681274
 21
150.558218
  0
TEXT
  8
CSLAYER1
 62
     3
 10
75.825027
 20
150.420410
 40
1.472728
 41
1.260000
  1
A
 50
300.000000
 51
0.000000
  7
JX_FONT
 72
     5
 11
76.443573
 21
149.349058
  0
TEXT
  8
CSLAYER1
 62
     3
 10
76.720535
 20
149.317032
 40
1.472728
 41
1.675800
  1
W
 50
310.000000
 51
0.000000
  7
JX_FONT
 72
     5
 11
77.778134
 21
148.056635
  0
TEXT
  8
CSLAYER1
 62
     3
 10
77.741776
 20
148.341400
 40
1.472728
 41
1.260000
  1
A
 50
320.000000
 51
0.000000
  7
JX_FONT
 72
     5
 11
78.689442
 21
147.546213
  0
TEXT
  8
CSLAYER1
 62
     3
 10
78.914963
 20
147.554550
 40
1.472728
 41
1.260000
  1
M
 50
330.000000
 51
0.000000
  7
JX_FONT
 72
     5
 11
79.986315
 21
146.936005
  0
TEXT
  8
CSLAYER1
 62
     3
 10
80.210220
 20
146.990768
 40
1.472728
 41
1.260000
  1
U
 50
340.000000
 51
0.000000
  7
JX_FONT
 72
     5
 11
81.372706
 21
146.567658
  0
TEXT
  8
CSLAYER1
 62
     3
 10
81.565674
 20
146.561523
 40
1.472728
 41
1.260000
  1
R
 50
350.000000
 51
0.000000
  7
JX_FONT
 72
     5
 11
82.783971
 21
146.346705
  0
TEXT
  8
CSLAYER1
 62
     3
 10
82.991692
 20
146.565918
 40
1.472728
 41
1.260000
  1
A
 50
360.000000
 51
0.000000
  7
JX_FONT
 72
     5
 11
84.228783
 21
146.565918
  0
TEXT
  8
CSLAYER1
 62
     3
 10
85.750954
 20
147.117691
 40
1.472728
 41
1.260000
  1
D
 50
20.000000
 51
0.000000
  7
JX_FONT
 72
     5
 11
86.913439
 21
147.540801
  0
TEXT
  8
CSLAYER1
 62
     3
 10
87.016945
 20
147.743454
 40
1.472728
 41
1.260000
  1
E
 50
30.000000
 51
0.000000
  7
JX_FONT
 72
     5
 11
88.088297
 21
148.362000
  0
TEXT
  8
CSLAYER1
 62
     3
 10
88.154991
 20
148.579956
 40
1.472728
 41
1.260000
  1
N
 50
40.000000
 51
0.000000
  7
JX_FONT
 72
     5
 11
89.102658
 21
149.375143
  0
TEXT
  8
CSLAYER1
 62
     3
 10
89.130486
 20
149.601349
 40
1.472728
 41
1.260000
  1
K
 50
50.000000
 51
0.000000
  7
JX_FONT
 72
     5
 11
89.925672
 21
150.549016
  0
TEXT
  8
CSLAYER1
 62
     3
 10
89.913841
 20
150.775970
 40
1.472728
 41
0.831600
  1
I
 50
60.000000
 51
0.000000
  7
JX_FONT
 72
     5
 11
90.322081
 21
151.483063
  0
CIRCLE
  8
CSLAYER1
  6
CONTINUOUS
 62
     6
 10
82.806232
 20
154.665258
 40
9.500000
  0
LINE
  8
CSLAYER1
  6
CONTINUOUS
 62
     6
 10
84.393951
 20
173.369808
 11
81.218524
 21
173.369808
  0
LINE
  8
CSLAYER1
  6
CONTINUOUS
 62
     6
 10
81.218524
 20
173.369808
 11
79.630811
 21
170.619808
  0
LINE
  8
CSLAYER1
  6
CONTINUOUS
 62
     6
 10
79.630811
 20
170.619808
 11
81.218524
 21
167.869808
  0
LINE
  8
CSLAYER1
  6
CONTINUOUS
 62
     6
 10
81.218524
 20
167.869808
 11
84.393951
 21
167.869808
  0
LINE
  8
CSLAYER1
  6
CONTINUOUS
 62
     6
 10
84.393951
 20
167.869808
 11
85.981664
 21
170.619808
  0
LINE
  8
CSLAYER1
  6
CONTINUOUS
 62
     6
 10
85.981664
 20
170.619808
 11
84.393951
 21
173.369808
  0
CIRCLE
  8
CSLAYER1
  6
CONTINUOUS
 62
     6
 10
82.806237
 20
170.619808
 40
2.667500
  0
CIRCLE
  8
CSLAYER1
  6
CONTINUOUS
 62
     3
 10
82.806237
 20
170.619808
 40
1.500000
  0
CIRCLE
  8
CSLAYER1
  6
CONTINUOUS
 62
     6
 10
82.806237
 20
170.619808
 40
1.245000
  0
LINE
  8
CSLAYER1
  6
CENTER
 62
     3
 10
87.715313
 20
170.619808
 11
77.897129
 21
170.619808
  0
LINE
  8
CSLAYER1
  6
CONTINUOUS
 62
     6
 10
84.393951
 20
135.960708
 11
81.218524
 21
135.960708
  0
LINE
  8
CSLAYER1
  6
CONTINUOUS
 62
     6
 10
81.218524
 20
135.960708
 11
79.630811
 21
138.710708
  0
LINE
  8
CSLAYER1
  6
CONTINUOUS
 62
     6
 10
79.630811
 20
138.710708
 11
81.218524
 21
141.460708
  0
LINE
  8
CSLAYER1
  6
CONTINUOUS
 62
     6
 10
81.218524
 20
141.460708
 11
84.393951
 21
141.460708
  0
LINE
  8
CSLAYER1
  6
CONTINUOUS
 62
     6
 10
84.393951
 20
141.460708
 11
85.981664
 21
138.710708
  0
LINE
  8
CSLAYER1
  6
CONTINUOUS
 62
     6
 10
85.981664
 20
138.710708
 11
84.393951
 21
135.960708
  0
CIRCLE
  8
CSLAYER1
  6
CONTINUOUS
 62
     6
 10
82.806237
 20
138.710708
 40
2.667500
  0
CIRCLE
  8
CSLAYER1
  6
CONTINUOUS
 62
     3
 10
82.806237
 20
138.710708
 40
1.500000
  0
CIRCLE
  8
CSLAYER1
  6
CONTINUOUS
 62
     6
 10
82.806237
 20
138.710708
 40
1.245000
  0
LINE
  8
CSLAYER1
  6
CENTER
 62
     3
 10
87.715313
 20
138.710708
 11
77.897129
 21
138.710708
  0
LINE
  8
CSLAYER1
  6
CONTINUOUS
 62
     6
 10
95.556232
 20
154.915258
 11
96.556232
 21
154.915258
  0
LINE
  8
CSLAYER1
  6
CONTINUOUS
 62
     6
 10
95.556232
 20
154.415258
 11
96.556232
 21
154.415258
  0
ARC
  8
CSLAYER1
  6
CONTINUOUS
 62
     6
 10
98.056232
 20
154.665258
 40
0.250000
 50
-90.000000
 51
90.000000
  0
ARC
  8
CSLAYER1
  6
CONTINUOUS
 62
     6
 10
95.556232
 20
154.665258
 40
0.250000
 50
90.000000
 51
270.000000
  0
LINE
  8
CSLAYER1
  6
CONTINUOUS
 62
     6
 10
96.556232
 20
153.415258
 11
96.556232
 21
154.415258
  0
LINE
  8
CSLAYER1
  6
CONTINUOUS
 62
     6
 10
97.056232
 20
153.415258
 11
97.056232
 21
154.415258
  0
ARC
  8
CSLAYER1
  6
CONTINUOUS
 62
     6
 10
96.806232
 20
155.915258
 40
0.250000
 50
0.000000
 51
180.000000
  0
ARC
  8
CSLAYER1
  6
CONTINUOUS
 62
     6
 10
96.806232
 20
153.415258
 40
0.250000
 50
180.000000
 51
360.000000
  0
LINE
  8
CSLAYER1
  6
CONTINUOUS
 62
     6
 10
97.056232
 20
154.915258
 11
98.056232
 21
154.915258
  0
LINE
  8
CSLAYER1
  6
CONTINUOUS
 62
     6
 10
97.056232
 20
154.415258
 11
98.056232
 21
154.415258
  0
LINE
  8
CSLAYER1
  6
CONTINUOUS
 62
     6
 10
97.056232
 20
154.915258
 11
97.056232
 21
155.915258
  0
LINE
  8
CSLAYER1
  6
CONTINUOUS
 62
     6
 10
96.556232
 20
154.915258
 11
96.556232
 21
155.915258
  0
ARC
  8
CSLAYER1
  6
CONTINUOUS
 62
     6
 10
68.806232
 20
155.915258
 40
0.250000
 50
0.000000
 51
180.000000
  0
ARC
  8
CSLAYER1
  6
CONTINUOUS
 62
     6
 10
68.806232
 20
153.415258
 40
0.250000
 50
180.000000
 51
360.000000
  0
LINE
  8
CSLAYER1
  6
CONTINUOUS
 62
     6
 10
68.556232
 20
153.415258
 11
68.556232
 21
155.915258
  0
LINE
  8
CSLAYER1
  6
CONTINUOUS
 62
     6
 10
69.056232
 20
153.415258
 11
69.056232
 21
155.915258
  0
ARC
  8
CSLAYER1
  6
CONTINUOUS
 62
     6
 10
82.806232
 20
154.665258
 40
19.000000
 50
20.487315
 51
159.512649
  0
ARC
  8
CSLAYER1
  6
CONTINUOUS
 62
     6
 10
82.806232
 20
154.665258
 40
20.000000
 50
17.457603
 51
162.542361
  0
LINE
  8
CSLAYER1
  6
CONTINUOUS
 62
     6
 10
93.806227
 20
157.665258
 11
99.306227
 21
157.665258
  0
LINE
  8
CSLAYER1
  6
CONTINUOUS
 62
     6
 10
93.806227
 20
151.665258
 11
99.306227
 21
151.665258
  0
LINE
  8
CSLAYER1
  6
CONTINUOUS
 62
     6
 10
104.306227
 20
160.665258
 11
101.541226
 21
160.665258
  0
LINE
  8
CSLAYER1
  6
CONTINUOUS
 62
     6
 10
104.306227
 20
148.665258
 11
101.541226
 21
148.665258
  0
LINE
  8
CSLAYER1
  6
CONTINUOUS
 62
     6
 10
92.806227
 20
159.665258
 11
92.806227
 21
149.665258
  0
ARC
  8
CSLAYER1
  6
CONTINUOUS
 62
     6
 10
93.806227
 20
159.665258
 40
1.000000
 50
90.000000
 51
180.000000
  0
ARC
  8
CSLAYER1
  6
CONTINUOUS
 62
     6
 10
93.806227
 20
149.665258
 40
1.000000
 50
180.000000
 51
270.000000
  0
ARC
  8
CSLAYER1
  6
CONTINUOUS
 62
     6
 10
93.806227
 20
156.665258
 40
1.000000
 50
90.000000
 51
180.000000
  0
ARC
  8
CSLAYER1
  6
CONTINUOUS
 62
     6
 10
93.806227
 20
152.665258
 40
1.000000
 50
180.000000
 51
270.000000
  0
LINE
  8
CSLAYER1
  6
CONTINUOUS
 62
     6
 10
65.306234
 20
149.665258
 11
65.306240
 21
159.665258
  0
LINE
  8
CSLAYER1
  6
CONTINUOUS
 62
     6
 10
71.806239
 20
157.665265
 11
66.306239
 21
157.665269
  0
LINE
  8
CSLAYER1
  6
CONTINUOUS
 62
     6
 10
71.806235
 20
151.665265
 11
66.306235
 21
151.665269
  0
LINE
  8
CSLAYER1
  6
CONTINUOUS
 62
     6
 10
72.806240
 20
159.665264
 11
72.806234
 21
149.665264
  0
ARC
  8
CSLAYER1
  6
CONTINUOUS
 62
     6
 10
71.806240
 20
159.665265
 40
1.000000
 50
-0.000037
 51
89.999963
  0
ARC
  8
CSLAYER1
  6
CONTINUOUS
 62
     6
 10
71.806234
 20
149.665265
 40
1.000000
 50
269.999963
 51
359.999963
  0
ARC
  8
CSLAYER1
  6
CONTINUOUS
 62
     6
 10
71.806239
 20
156.665265
 40
1.000000
 50
-0.000037
 51
89.999963
  0
ARC
  8
CSLAYER1
  6
CONTINUOUS
 62
     6
 10
71.806236
 20
152.665265
 40
1.000000
 50
269.999963
 51
359.999963
  0
ARC
  8
CSLAYER1
  6
CONTINUOUS
 62
     6
 10
66.306236
 20
152.665269
 40
1.000000
 50
179.999963
 51
269.999963
  0
ARC
  8
CSLAYER1
  6
CONTINUOUS
 62
     6
 10
66.306239
 20
156.665269
 40
1.000000
 50
89.999963
 51
179.999963
  0
ARC
  8
CSLAYER1
  6
CONTINUOUS
 62
     6
 10
82.806232
 20
154.665258
 40
19.000000
 50
200.487279
 51
339.512685
  0
ARC
  8
CSLAYER1
  6
CONTINUOUS
 62
     6
 10
82.806232
 20
154.665258
 40
20.000000
 50
197.457567
 51
342.542397
  0
LINE
  8
CSLAYER1
  6
CONTINUOUS
 62
     6
 10
71.806241
 20
160.665265
 11
65.571235
 21
160.665269
  0
LINE
  8
CSLAYER1
  6
CONTINUOUS
 62
     6
 10
71.806233
 20
148.665265
 11
65.571235
 21
148.665269
  0
LINE
  8
CSLAYER1
  6
CONTINUOUS
 62
     6
 10
100.306227
 20
149.665258
 11
100.306227
 21
159.665258
  0
ARC
  8
CSLAYER1
  6
CONTINUOUS
 62
     6
 10
99.306227
 20
152.665258
 40
1.000000
 50
-90.000000
 51
0.000000
  0
ARC
  8
CSLAYER1
  6
CONTINUOUS
 62
     6
 10
99.306227
 20
156.665258
 40
1.000000
 50
-0.000000
 51
90.000000
  0
LINE
  8
CSLAYER1
  6
CONTINUOUS
 62
     6
 10
102.306227
 20
150.392530
 11
103.906227
 21
150.392530
  0
LINE
  8
CSLAYER1
  6
CONTINUOUS
 62
     6
 10
103.906227
 20
150.392530
 11
103.906227
 21
151.210712
  0
LINE
  8
CSLAYER1
  6
CONTINUOUS
 62
     6
 10
102.306227
 20
151.210712
 11
103.106227
 21
151.210712
  0
LINE
  8
CSLAYER1
  6
CONTINUOUS
 62
     6
 10
102.306227
 20
150.392530
 11
102.306227
 21
158.937986
  0
LINE
  8
CSLAYER1
  6
CONTINUOUS
 62
     6
 10
105.306227
 20
149.665258
 11
105.306227
 21
159.665258
  0
LINE
  8
CSLAYER1
  6
CONTINUOUS
 62
     6
 10
102.306227
 20
158.937986
 11
103.906227
 21
158.937986
  0
LINE
  8
CSLAYER1
  6
CONTINUOUS
 62
     6
 10
103.906227
 20
158.937986
 11
103.906227
 21
158.119804
  0
LINE
  8
CSLAYER1
  6
CONTINUOUS
 62
     6
 10
102.306227
 20
158.119804
 11
103.106227
 21
158.119804
  0
LINE
  8
CSLAYER1
  6
CONTINUOUS
 62
     6
 10
104.306227
 20
160.665258
 11
105.306227
 21
159.665258
  0
LINE
  8
CSLAYER1
  6
CONTINUOUS
 62
     6
 10
105.306227
 20
149.665258
 11
104.306227
 21
148.665258
  0
LINE
  8
CSLAYER1
  6
CONTINUOUS
 62
     6
 10
103.906227
 20
158.119804
 11
105.306227
 21
158.119804
  0
LINE
  8
CSLAYER1
  6
CONTINUOUS
 62
     6
 10
103.906227
 20
151.210712
 11
105.306227
 21
151.210712
  0
LINE
  8
CSLAYER1
  6
CONTINUOUS
 62
     6
 10
103.106227
 20
150.392530
 11
103.106227
 21
158.937986
  0
ARC
  8
CSLAYER1
  6
CONTINUOUS
 62
     6
 10
64.071243
 20
161.665270
 40
1.000000
 50
269.999963
 51
339.512649
  0
ARC
  8
CSLAYER1
  6
CONTINUOUS
 62
     6
 10
64.071234
 20
147.665270
 40
1.000000
 50
20.487279
 51
89.999963
  0
ARC
  8
CSLAYER1
  6
CONTINUOUS
 62
     6
 10
101.541226
 20
147.665258
 40
1.000000
 50
90.000000
 51
159.512685
  0
ARC
  8
CSLAYER1
  6
CONTINUOUS
 62
     6
 10
101.541226
 20
161.665258
 40
1.000000
 50
200.487315
 51
270.000000
  0
LINE
  8
CSLAYER1
  6
CONTINUOUS
 62
     6
 10
63.306235
 20
150.392542
 11
61.706235
 21
150.392543
  0
LINE
  8
CSLAYER1
  6
CONTINUOUS
 62
     6
 10
61.706235
 20
150.392543
 11
61.706235
 21
151.210725
  0
LINE
  8
CSLAYER1
  6
CONTINUOUS
 62
     6
 10
63.306235
 20
151.210724
 11
62.506235
 21
151.210725
  0
LINE
  8
CSLAYER1
  6
CONTINUOUS
 62
     6
 10
63.306235
 20
150.392542
 11
63.306240
 21
158.937999
  0
LINE
  8
CSLAYER1
  6
CONTINUOUS
 62
     6
 10
60.306234
 20
149.665272
 11
60.306240
 21
159.665272
  0
LINE
  8
CSLAYER1
  6
CONTINUOUS
 62
     6
 10
63.306240
 20
158.937999
 11
61.706240
 21
158.938000
  0
LINE
  8
CSLAYER1
  6
CONTINUOUS
 62
     6
 10
61.706240
 20
158.938000
 11
61.706239
 21
158.119818
  0
LINE
  8
CSLAYER1
  6
CONTINUOUS
 62
     6
 10
63.306239
 20
158.119817
 11
62.506239
 21
158.119817
  0
LINE
  8
CSLAYER1
  6
CONTINUOUS
 62
     6
 10
61.306241
 20
160.665272
 11
60.306240
 21
159.665272
  0
LINE
  8
CSLAYER1
  6
CONTINUOUS
 62
     6
 10
60.306234
 20
149.665272
 11
61.306233
 21
148.665272
  0
LINE
  8
CSLAYER1
  6
CONTINUOUS
 62
     6
 10
61.706239
 20
158.119818
 11
60.306239
 21
158.119819
  0
LINE
  8
CSLAYER1
  6
CONTINUOUS
 62
     6
 10
61.706235
 20
151.210725
 11
60.306235
 21
151.210726
  0
LINE
  8
CSLAYER1
  6
CONTINUOUS
 62
     6
 10
62.506235
 20
150.392543
 11
62.506240
 21
158.937999
  0
LINE
  8
CSLAYER1
  6
CONTINUOUS
 62
     6
 10
100.041226
 20
160.665258
 11
93.806227
 21
160.665258
  0
LINE
  8
CSLAYER1
  6
CONTINUOUS
 62
     6
 10
100.041226
 20
148.665258
 11
93.806227
 21
148.665258
  0
LINE
  8
CSLAYER1
  6
CONTINUOUS
 62
     6
 10
64.071242
 20
160.665270
 11
61.306241
 21
160.665272
  0
LINE
  8
CSLAYER1
  6
CONTINUOUS
 62
     6
 10
64.071235
 20
148.665270
 11
61.306233
 21
148.665272
  0
ENDSEC
  0
EOF
