  0
SECTION
  2
HEADER
  9
$ACADVER
  1
AC1006
  9
$INSBASE
 10
0.000000
 20
0.000000
 30
0.0
  9
$EXTMIN
 10
0.000000
 20
0.000000
  9
$EXTMAX
 10
420.000000
 20
297.000000
  9
$LIMMIN
 10
0.000000
 20
0.000000
  9
$LIMMAX
 10
420.000000
 20
297.000000
  9
$VIEWCTR
 10
210.000000
 20
148.500000
  9
$VIEWSIZE
 40
297.000000
  9
$SNAPMODE
 70
     0
  9
$SNAPUNIT
 10
1.0
 20
1.0
  9
$SNAPBASE
 10
0.0
 20
0.0
  9
$SNAPANG
 50
0.0
  9
$SNAPSTYLE
 70
     0
  9
$SNAPISOPAIR
 70
     0
  9
$GRIDMODE
 70
     0
  9
$GRIDUNIT
 10
0.0
 20
0.0
  9
$ORTHOMODE
 70
     0
  9
$REGENMODE
 70
     1
  9
$FILLMODE
 70
     1
  9
$QTEXTMODE
 70
     0
  9
$DRAGMODE
 70
     2
  9
$LTSCALE
 40
15.000000
  9
$OSMODE
 70
     0
  9
$ATTMODE
 70
     1
  9
$TEXTSIZE
 40
0.2
  9
$TRACEWID
 40
0.05
  9
$TEXTSTYLE
  7
STANDARD
  9
$CLAYER
  8
CSLAYER1
  9
$CELTYPE
  6
BYLAYER
  9
$CECOLOR
 62
   256
  9
$DIMSCALE
 40
1.0
  9
$DIMASZ
 40
0.18
  9
$DIMEXO
 40
0.0625
  9
$DIMDLI
 40
0.38
  9
$DIMRND
 40
0.0
  9
$DIMDLE
 40
0.0
  9
$DIMEXE
 40
0.18
  9
$DIMTP
 40
0.0
  9
$DIMTM
 40
0.0
  9
$DIMTXT
 40
0.18
  9
$DIMCEN
 40
0.09
  9
$DIMTSZ
 40
0.0
  9
$DIMTOL
 70
     0
  9
$DIMLIM
 70
     0
  9
$DIMTIH
 70
     1
  9
$DIMTOH
 70
     1
  9
$DIMSE1
 70
     0
  9
$DIMSE2
 70
     0
  9
$DIMTAD
 70
     0
  9
$DIMZIN
 70
     0
  9
$DIMBLK
  1

  9
$LUNITS
 70
     2
  9
$LUPREC
 70
     4
  9
$AXISMODE
 70
     0
  9
$AXISUNIT
 10
0.0
 20
0.0
  9
$SKETCHINC
 40
0.1
  9
$FILLETRAD
 40
0.0
  9
$AUNITS
 70
     0
  9
$AUPREC
 70
     0
  9
$MENU
  1
ACAD
  9
$ELEVATION
 40
0.0
  9
$THICKNESS
 40
0.0
  9
$VIEWDIR
 10
0.0
 20
0.0
 30
1.0
  9
$LIMCHECK
 70
     0
  9
$BLIPMODE
 70
     1
  9
$CHAMFERA
 40
0.0
  9
$CHAMFERB
 40
0.0
  9
$FASTZOOM
 70
     1
  9
$SKPOLY
 70
     0
  9
$TDCREATE
 40
0.000000
  9
$TDUPDATE
 40
0.000000
  9
$TDINDWG
 40
0.0
  9
$TDUSRTIMER
 40
0.0
  9
$USRTIMER
 70
     1
  9
$ANGBASE
 50
0.0
  9
$ANGDIR
 70
     0
  9
$PDMODE
 70
     0
  9
$PDSIZE
 40
0.0
  9
$PLINEWID
 40
0.0
  9
$COORDS
 70
     0
  9
$USERI1
 70
     0
  9
$USERI2
 70
     0
  9
$USERI3
 70
     0
  9
$USERI4
 70
     0
  9
$USERI5
 70
     0
  9
$USERR1
 40
0.0
  9
$USERR2
 40
0.0
  9
$USERR3
 40
0.0
  9
$USERR4
 40
0.0
  9
$USERR5
 40
0.0
  0
ENDSEC
  0
SECTION
  2
TABLES
  0
TABLE
  2
LTYPE
 70
     9
  0
LTYPE
  2
CONTINUOUS
 70
    64
  3
Solid line
 72
    65
 73
     0
 40
0.0
  0
LTYPE
  2
DASHED
 70
    64
  3
__ __ __ __ __ __ __ __ __ __ __ __ __ __ __
 72
    65
 73
     2
 40
0.75
 49
0.5
 49
-0.25
  0
LTYPE
  2
HIDDEN
 70
    64
  3
_ _ _ _ _ _ _ _ _ _ _ _ _ _ _ _ _ _ _ _ _ _ _
 72
    65
 73
     2
 40
0.375
 49
0.25
 49
-0.125
  0
LTYPE
  2
DOT
 70
    64
  3
...............................................
 72
    65
 73
     2
 40
0.25
 49
0.0
 49
-0.25
  0
LTYPE
  2
DASHDOT
 70
    64
  3
__ . __ . __ . __ . __ . __ . __ . __ . __ . __
 72
    65
 73
     4
 40
1.0
 49
0.5
 49
-0.25
 49
0.0
 49
-0.25
  0
LTYPE
  2
DIVIDE
 70
    64
  3
__ . . __ . . __ . . __ . . __ . . __ . . __
 72
    65
 73
     6
 40
1.25
 49
0.5
 49
-0.25
 49
0.0
 49
-0.25
 49
0.0
 49
-0.25
  0
LTYPE
  2
CENTER
 70
    64
  3
____ _ ____ _ ____ _ ____ _ ____ _ ____ _ ____ 
 72
    65
 73
     4
 40
2.0
 49
1.25
 49
-0.25
 49
0.25
 49
-0.25
  0
LTYPE
  2
PHANTOM
 70
    64
  3
______  __  __  ______  __  __  ______  __  __ 
 72
    65
 73
     6
 40
2.5
 49
1.25
 49
-0.25
 49
0.25
 49
-0.25
 49
0.25
 49
-0.25
  0
LTYPE
  2
BORDER
 70
    64
  3
__ __ . __ __ . __ __ . __ __ . __ __ . __ __ .
 72
    65
 73
     6
 40
1.75
 49
0.5
 49
-0.25
 49
0.5
 49
-0.25
 49
0.0
 49
-0.25
  0
ENDTAB
  0
TABLE
  2
LAYER
 70
    16
  0
LAYER
  2
CSLAYER1
 70
    64
 62
     7
  6
CONTINUOUS
  0
LAYER
  2
CSLAYER2
 70
    64
 62
     7
  6
CONTINUOUS
  0
LAYER
  2
CSLAYER3
 70
    64
 62
     7
  6
CONTINUOUS
  0
LAYER
  2
CSLAYER4
 70
    64
 62
     7
  6
CONTINUOUS
  0
LAYER
  2
CSLAYER5
 70
    64
 62
     7
  6
CONTINUOUS
  0
LAYER
  2
CSLAYER6
 70
    64
 62
     7
  6
CONTINUOUS
  0
LAYER
  2
CSLAYER7
 70
    64
 62
     7
  6
CONTINUOUS
  0
LAYER
  2
CSLAYER8
 70
    64
 62
     7
  6
CONTINUOUS
  0
LAYER
  2
CSLAYER9
 70
    64
 62
     7
  6
CONTINUOUS
  0
LAYER
  2
CSLAYER10
 70
    64
 62
     7
  6
CONTINUOUS
  0
LAYER
  2
CSLAYER11
 70
    64
 62
     7
  6
CONTINUOUS
  0
LAYER
  2
CSLAYER12
 70
    64
 62
     7
  6
CONTINUOUS
  0
LAYER
  2
CSLAYER13
 70
    64
 62
     7
  6
CONTINUOUS
  0
LAYER
  2
CSLAYER14
 70
    64
 62
     7
  6
CONTINUOUS
  0
LAYER
  2
CSLAYER15
 70
    64
 62
     7
  6
CONTINUOUS
  0
LAYER
  2
CSLAYER16
 70
    64
 62
     7
  6
CONTINUOUS
  0
ENDTAB
  0
TABLE
  2
STYLE
 70
     1
  0
STYLE
  2
JX_FONT
 70
     0
 40
1.0
 41
1.0
 50
0.0
 71
     0
 42
1.0
  3
monotxt
  4
bigfont
  0
ENDTAB
  0
TABLE
  2
VIEW
 70
     0
  0
ENDTAB
  0
ENDSEC
  0
SECTION
  2
BLOCKS
  0
ENDSEC
  0
SECTION
  2
ENTITIES
  0
LINE
  8
CSLAYER1
  6
CENTER
 62
     3
 10
277.960634
 20
227.613519
 11
146.048607
 21
227.613519
  0
LINE
  8
CSLAYER1
  6
CENTER
 62
     3
 10
277.960634
 20
148.656719
 11
146.048607
 21
148.656719
  0
LINE
  8
CSLAYER1
  6
CENTER
 62
     3
 10
277.960634
 20
69.699919
 11
146.048607
 21
69.699919
  0
LINE
  8
CSLAYER1
  6
CONTINUOUS
 62
     3
 10
232.917450
 20
215.613519
 11
222.179763
 21
215.613519
  0
LINE
  8
CSLAYER1
  6
CONTINUOUS
 62
     3
 10
232.917450
 20
239.613519
 11
222.179763
 21
239.613519
  0
LINE
  8
CSLAYER1
  6
CONTINUOUS
 62
     3
 10
233.917450
 20
216.613519
 11
233.917450
 21
238.613519
  0
LINE
  8
CSLAYER1
  6
CONTINUOUS
 62
     3
 10
221.179763
 20
216.613519
 11
221.179763
 21
238.613519
  0
ARC
  8
CSLAYER1
  6
CONTINUOUS
 62
     3
 10
232.917450
 20
238.613519
 40
1.000000
 50
0.000000
 51
90.000000
  0
ARC
  8
CSLAYER1
  6
CONTINUOUS
 62
     3
 10
222.179763
 20
238.613519
 40
1.000000
 50
90.000000
 51
180.000000
  0
ARC
  8
CSLAYER1
  6
CONTINUOUS
 62
     3
 10
222.179763
 20
216.613519
 40
1.000000
 50
180.000000
 51
270.000000
  0
ARC
  8
CSLAYER1
  6
CONTINUOUS
 62
     3
 10
232.917450
 20
216.613519
 40
1.000000
 50
270.000000
 51
360.000000
  0
ARC
  8
CSLAYER1
  6
CONTINUOUS
 62
     6
 10
213.083102
 20
210.613500
 40
8.448294
 50
163.742984
 51
196.257006
  0
LINE
  8
CSLAYER1
  6
CONTINUOUS
 62
     6
 10
206.786144
 20
207.317492
 11
206.026013
 21
207.383992
  0
ARC
  8
CSLAYER1
  6
CONTINUOUS
 62
     6
 10
206.131204
 20
208.586305
 40
1.206899
 50
196.257389
 51
264.999889
  0
ARC
  8
CSLAYER1
  6
CONTINUOUS
 62
     6
 10
206.807212
 20
207.557948
 40
0.241380
 50
264.999848
 51
360.000000
  0
LINE
  8
CSLAYER1
  6
CONTINUOUS
 62
     6
 10
206.786144
 20
213.909508
 11
206.026013
 21
213.843009
  0
ARC
  8
CSLAYER1
  6
CONTINUOUS
 62
     6
 10
206.131204
 20
212.640695
 40
1.206899
 50
95.000108
 51
163.742601
  0
ARC
  8
CSLAYER1
  6
CONTINUOUS
 62
     6
 10
206.807212
 20
213.669053
 40
0.241380
 50
0.057309
 51
95.000135
  0
ARC
  8
CSLAYER1
  6
CONTINUOUS
 62
     6
 10
213.083102
 20
244.613537
 40
8.448294
 50
163.742994
 51
196.257016
  0
LINE
  8
CSLAYER1
  6
CONTINUOUS
 62
     6
 10
206.786144
 20
247.909545
 11
206.026013
 21
247.843045
  0
ARC
  8
CSLAYER1
  6
CONTINUOUS
 62
     6
 10
206.131204
 20
246.640732
 40
1.206899
 50
95.000111
 51
163.742611
  0
ARC
  8
CSLAYER1
  6
CONTINUOUS
 62
     6
 10
206.807212
 20
247.669089
 40
0.241380
 50
0.000000
 51
95.000152
  0
LINE
  8
CSLAYER1
  6
CONTINUOUS
 62
     6
 10
206.786144
 20
241.317529
 11
206.026013
 21
241.384028
  0
ARC
  8
CSLAYER1
  6
CONTINUOUS
 62
     6
 10
206.131204
 20
242.586342
 40
1.206899
 50
196.257399
 51
264.999892
  0
ARC
  8
CSLAYER1
  6
CONTINUOUS
 62
     6
 10
206.807212
 20
241.557984
 40
0.241380
 50
264.999865
 51
359.942691
  0
LINE
  8
CSLAYER1
  6
CENTER
 62
     3
 10
260.048607
 20
244.613519
 11
202.634808
 21
244.613519
  0
LINE
  8
CSLAYER1
  6
CONTINUOUS
 62
     6
 10
257.048607
 20
246.113498
 11
257.048607
 21
243.113539
  0
LINE
  8
CSLAYER1
  6
CONTINUOUS
 62
     6
 10
256.548607
 20
246.613498
 11
249.248607
 21
246.613498
  0
LINE
  8
CSLAYER1
  6
CONTINUOUS
 62
     3
 10
256.888607
 20
246.273498
 11
249.248607
 21
246.273498
  0
LINE
  8
CSLAYER1
  6
CONTINUOUS
 62
     6
 10
256.548607
 20
242.613539
 11
249.248607
 21
242.613539
  0
LINE
  8
CSLAYER1
  6
CONTINUOUS
 62
     3
 10
256.888607
 20
242.953539
 11
249.248607
 21
242.953539
  0
LINE
  8
CSLAYER1
  6
CONTINUOUS
 62
     6
 10
256.548607
 20
242.613539
 11
257.048607
 21
243.113539
  0
LINE
  8
CSLAYER1
  6
CONTINUOUS
 62
     6
 10
257.048607
 20
246.113498
 11
256.548607
 21
246.613498
  0
LINE
  8
CSLAYER1
  6
CONTINUOUS
 62
     6
 10
256.548607
 20
242.613539
 11
256.548607
 21
246.613498
  0
LINE
  8
CSLAYER1
  6
CENTER
 62
     3
 10
260.048607
 20
210.613519
 11
202.895860
 21
210.613519
  0
LINE
  8
CSLAYER1
  6
CONTINUOUS
 62
     6
 10
257.048607
 20
212.113498
 11
257.048607
 21
209.113539
  0
LINE
  8
CSLAYER1
  6
CONTINUOUS
 62
     6
 10
256.548607
 20
212.613498
 11
249.248607
 21
212.613498
  0
LINE
  8
CSLAYER1
  6
CONTINUOUS
 62
     3
 10
256.888607
 20
212.273498
 11
249.248607
 21
212.273498
  0
LINE
  8
CSLAYER1
  6
CONTINUOUS
 62
     6
 10
256.548607
 20
208.613539
 11
249.248607
 21
208.613539
  0
LINE
  8
CSLAYER1
  6
CONTINUOUS
 62
     3
 10
256.888607
 20
208.953539
 11
249.248607
 21
208.953539
  0
LINE
  8
CSLAYER1
  6
CONTINUOUS
 62
     6
 10
256.548607
 20
208.613539
 11
257.048607
 21
209.113539
  0
LINE
  8
CSLAYER1
  6
CONTINUOUS
 62
     6
 10
257.048607
 20
212.113498
 11
256.548607
 21
212.613498
  0
LINE
  8
CSLAYER1
  6
CONTINUOUS
 62
     6
 10
256.548607
 20
208.613539
 11
256.548607
 21
212.613498
  0
LINE
  8
CSLAYER1
  6
CONTINUOUS
 62
     6
 10
212.048607
 20
205.613519
 11
212.048607
 21
249.613519
  0
LINE
  8
CSLAYER1
  6
CONTINUOUS
 62
     6
 10
207.048607
 20
206.363519
 11
207.048607
 21
248.863519
  0
LINE
  8
CSLAYER1
  6
CONTINUOUS
 62
     6
 10
212.048607
 20
205.613519
 11
207.798607
 21
205.613519
  0
ARC
  8
CSLAYER1
  6
CONTINUOUS
 62
     6
 10
207.798607
 20
206.363519
 40
0.750000
 50
180.000000
 51
270.000000
  0
LINE
  8
CSLAYER1
  6
CONTINUOUS
 62
     6
 10
212.048607
 20
249.613519
 11
207.798607
 21
249.613519
  0
ARC
  8
CSLAYER1
  6
CONTINUOUS
 62
     6
 10
207.798607
 20
248.863519
 40
0.750000
 50
90.000000
 51
180.000000
  0
LINE
  8
CSLAYER1
  6
CONTINUOUS
 62
     6
 10
244.298607
 20
206.113519
 11
212.048607
 21
206.113519
  0
LINE
  8
CSLAYER1
  6
CONTINUOUS
 62
     6
 10
244.298607
 20
249.113519
 11
212.048607
 21
249.113519
  0
LINE
  8
CSLAYER1
  6
CONTINUOUS
 62
     6
 10
240.048607
 20
206.113519
 11
240.048607
 21
249.113519
  0
LINE
  8
CSLAYER1
  6
CONTINUOUS
 62
     6
 10
245.048607
 20
248.413519
 11
245.048607
 21
206.813519
  0
ARC
  8
CSLAYER1
  6
CONTINUOUS
 62
     6
 10
244.298607
 20
248.363519
 40
0.750000
 50
0.000000
 51
90.000000
  0
ARC
  8
CSLAYER1
  6
CONTINUOUS
 62
     6
 10
244.298607
 20
206.863519
 40
0.750000
 50
270.000000
 51
360.000000
  0
LINE
  8
CSLAYER1
  6
CONTINUOUS
 62
     6
 10
215.048607
 20
206.113519
 11
215.048607
 21
249.113519
  0
TEXT
  8
CSLAYER1
 62
     3
 10
225.765335
 20
235.465439
 40
3.500000
 41
1.200000
  1
ギヤ
 50
270.000000
 51
10.000000
  7
JX_FONT
 72
     5
 11
225.765335
 21
228.465439
  0
TEXT
  8
CSLAYER1
 62
     3
 10
225.765335
 20
226.761673
 40
3.500000
 41
1.500000
  1
比
 50
270.000000
 51
10.000000
  7
JX_FONT
 72
     5
 11
225.765335
 21
223.261673
  0
ARC
  8
CSLAYER1
  6
CONTINUOUS
 62
     6
 10
213.083102
 20
131.656700
 40
8.448294
 50
163.742984
 51
196.257006
  0
LINE
  8
CSLAYER1
  6
CONTINUOUS
 62
     6
 10
206.786144
 20
128.360692
 11
206.026013
 21
128.427192
  0
ARC
  8
CSLAYER1
  6
CONTINUOUS
 62
     6
 10
206.131204
 20
129.629505
 40
1.206899
 50
196.257389
 51
264.999889
  0
ARC
  8
CSLAYER1
  6
CONTINUOUS
 62
     6
 10
206.807212
 20
128.601148
 40
0.241380
 50
264.999848
 51
360.000000
  0
LINE
  8
CSLAYER1
  6
CONTINUOUS
 62
     6
 10
206.786144
 20
134.952708
 11
206.026013
 21
134.886209
  0
ARC
  8
CSLAYER1
  6
CONTINUOUS
 62
     6
 10
206.131204
 20
133.683895
 40
1.206899
 50
95.000108
 51
163.742601
  0
ARC
  8
CSLAYER1
  6
CONTINUOUS
 62
     6
 10
206.807212
 20
134.712253
 40
0.241380
 50
0.057309
 51
95.000135
  0
ARC
  8
CSLAYER1
  6
CONTINUOUS
 62
     6
 10
213.083102
 20
165.656737
 40
8.448294
 50
163.742994
 51
196.257016
  0
LINE
  8
CSLAYER1
  6
CONTINUOUS
 62
     6
 10
206.786144
 20
168.952745
 11
206.026013
 21
168.886245
  0
ARC
  8
CSLAYER1
  6
CONTINUOUS
 62
     6
 10
206.131204
 20
167.683932
 40
1.206899
 50
95.000111
 51
163.742611
  0
ARC
  8
CSLAYER1
  6
CONTINUOUS
 62
     6
 10
206.807212
 20
168.712289
 40
0.241380
 50
0.000000
 51
95.000152
  0
LINE
  8
CSLAYER1
  6
CONTINUOUS
 62
     6
 10
206.786144
 20
162.360729
 11
206.026013
 21
162.427228
  0
ARC
  8
CSLAYER1
  6
CONTINUOUS
 62
     6
 10
206.131204
 20
163.629542
 40
1.206899
 50
196.257399
 51
264.999892
  0
ARC
  8
CSLAYER1
  6
CONTINUOUS
 62
     6
 10
206.807212
 20
162.601184
 40
0.241380
 50
264.999865
 51
359.942691
  0
LINE
  8
CSLAYER1
  6
CENTER
 62
     3
 10
260.048607
 20
165.656719
 11
202.634808
 21
165.656719
  0
ARC
  8
CSLAYER1
  6
CONTINUOUS
 62
     6
 10
247.227881
 20
162.625630
 40
2.020726
 50
-15.446648
 51
30.000000
  0
ARC
  8
CSLAYER1
  6
CONTINUOUS
 62
     6
 10
241.571792
 20
165.656719
 40
7.676815
 50
-15.261480
 51
15.261480
  0
ARC
  8
CSLAYER1
  6
CONTINUOUS
 62
     6
 10
247.227881
 20
168.687807
 40
2.020726
 50
-30.000000
 51
15.446648
  0
LINE
  8
CSLAYER1
  6
CONTINUOUS
 62
     6
 10
248.977881
 20
161.615267
 11
246.048607
 21
161.615267
  0
LINE
  8
CSLAYER1
  6
CONTINUOUS
 62
     6
 10
248.977881
 20
163.635993
 11
246.048607
 21
163.635993
  0
LINE
  8
CSLAYER1
  6
CONTINUOUS
 62
     6
 10
248.977881
 20
167.677445
 11
246.048607
 21
167.677445
  0
LINE
  8
CSLAYER1
  6
CONTINUOUS
 62
     6
 10
248.977881
 20
169.698170
 11
246.048607
 21
169.698170
  0
LINE
  8
CSLAYER1
  6
CONTINUOUS
 62
     6
 10
249.248607
 20
162.261719
 11
249.248607
 21
169.051719
  0
LINE
  8
CSLAYER1
  6
CONTINUOUS
 62
     6
 10
246.048607
 20
161.615267
 11
246.048607
 21
169.698170
  0
LINE
  8
CSLAYER1
  6
CONTINUOUS
 62
     6
 10
249.248607
 20
162.261719
 11
248.977881
 21
161.615267
  0
LINE
  8
CSLAYER1
  6
CONTINUOUS
 62
     6
 10
249.248607
 20
169.051719
 11
248.977881
 21
169.698170
  0
LINE
  8
CSLAYER1
  6
CONTINUOUS
 62
     6
 10
246.048607
 20
161.856719
 11
245.048607
 21
161.856719
  0
LINE
  8
CSLAYER1
  6
CONTINUOUS
 62
     6
 10
245.048607
 20
169.456719
 11
246.048607
 21
169.456719
  0
LINE
  8
CSLAYER1
  6
CONTINUOUS
 62
     6
 10
246.048607
 20
166.264719
 11
245.048607
 21
165.960719
  0
LINE
  8
CSLAYER1
  6
CONTINUOUS
 62
     6
 10
246.048607
 20
165.352719
 11
245.048607
 21
165.048719
  0
LINE
  8
CSLAYER1
  6
CONTINUOUS
 62
     6
 10
257.048607
 20
167.156698
 11
257.048607
 21
164.156739
  0
LINE
  8
CSLAYER1
  6
CONTINUOUS
 62
     6
 10
256.548607
 20
167.656698
 11
249.248607
 21
167.656698
  0
LINE
  8
CSLAYER1
  6
CONTINUOUS
 62
     3
 10
256.888607
 20
167.316698
 11
249.248607
 21
167.316698
  0
LINE
  8
CSLAYER1
  6
CONTINUOUS
 62
     6
 10
256.548607
 20
163.656739
 11
249.248607
 21
163.656739
  0
LINE
  8
CSLAYER1
  6
CONTINUOUS
 62
     3
 10
256.888607
 20
163.996739
 11
249.248607
 21
163.996739
  0
LINE
  8
CSLAYER1
  6
CONTINUOUS
 62
     6
 10
256.548607
 20
163.656739
 11
257.048607
 21
164.156739
  0
LINE
  8
CSLAYER1
  6
CONTINUOUS
 62
     6
 10
257.048607
 20
167.156698
 11
256.548607
 21
167.656698
  0
LINE
  8
CSLAYER1
  6
CONTINUOUS
 62
     6
 10
256.548607
 20
163.656739
 11
256.548607
 21
167.656698
  0
LINE
  8
CSLAYER1
  6
CENTER
 62
     3
 10
260.048607
 20
131.656719
 11
202.895860
 21
131.656719
  0
ARC
  8
CSLAYER1
  6
CONTINUOUS
 62
     6
 10
247.227881
 20
128.625630
 40
2.020726
 50
-15.446648
 51
30.000000
  0
ARC
  8
CSLAYER1
  6
CONTINUOUS
 62
     6
 10
241.571792
 20
131.656719
 40
7.676815
 50
-15.261480
 51
15.261480
  0
ARC
  8
CSLAYER1
  6
CONTINUOUS
 62
     6
 10
247.227881
 20
134.687807
 40
2.020726
 50
-30.000000
 51
15.446648
  0
LINE
  8
CSLAYER1
  6
CONTINUOUS
 62
     6
 10
248.977881
 20
127.615267
 11
246.048607
 21
127.615267
  0
LINE
  8
CSLAYER1
  6
CONTINUOUS
 62
     6
 10
248.977881
 20
129.635993
 11
246.048607
 21
129.635993
  0
LINE
  8
CSLAYER1
  6
CONTINUOUS
 62
     6
 10
248.977881
 20
133.677445
 11
246.048607
 21
133.677445
  0
LINE
  8
CSLAYER1
  6
CONTINUOUS
 62
     6
 10
248.977881
 20
135.698170
 11
246.048607
 21
135.698170
  0
LINE
  8
CSLAYER1
  6
CONTINUOUS
 62
     6
 10
249.248607
 20
128.261719
 11
249.248607
 21
135.051719
  0
LINE
  8
CSLAYER1
  6
CONTINUOUS
 62
     6
 10
246.048607
 20
127.615267
 11
246.048607
 21
135.698170
  0
LINE
  8
CSLAYER1
  6
CONTINUOUS
 62
     6
 10
249.248607
 20
128.261719
 11
248.977881
 21
127.615267
  0
LINE
  8
CSLAYER1
  6
CONTINUOUS
 62
     6
 10
249.248607
 20
135.051719
 11
248.977881
 21
135.698170
  0
LINE
  8
CSLAYER1
  6
CONTINUOUS
 62
     6
 10
246.048607
 20
127.856719
 11
245.048607
 21
127.856719
  0
LINE
  8
CSLAYER1
  6
CONTINUOUS
 62
     6
 10
245.048607
 20
135.456719
 11
246.048607
 21
135.456719
  0
LINE
  8
CSLAYER1
  6
CONTINUOUS
 62
     6
 10
246.048607
 20
132.264719
 11
245.048607
 21
131.960719
  0
LINE
  8
CSLAYER1
  6
CONTINUOUS
 62
     6
 10
246.048607
 20
131.352719
 11
245.048607
 21
131.048719
  0
LINE
  8
CSLAYER1
  6
CONTINUOUS
 62
     6
 10
257.048607
 20
133.156698
 11
257.048607
 21
130.156739
  0
LINE
  8
CSLAYER1
  6
CONTINUOUS
 62
     6
 10
256.548607
 20
133.656698
 11
249.248607
 21
133.656698
  0
LINE
  8
CSLAYER1
  6
CONTINUOUS
 62
     3
 10
256.888607
 20
133.316698
 11
249.248607
 21
133.316698
  0
LINE
  8
CSLAYER1
  6
CONTINUOUS
 62
     6
 10
256.548607
 20
129.656739
 11
249.248607
 21
129.656739
  0
LINE
  8
CSLAYER1
  6
CONTINUOUS
 62
     3
 10
256.888607
 20
129.996739
 11
249.248607
 21
129.996739
  0
LINE
  8
CSLAYER1
  6
CONTINUOUS
 62
     6
 10
256.548607
 20
129.656739
 11
257.048607
 21
130.156739
  0
LINE
  8
CSLAYER1
  6
CONTINUOUS
 62
     6
 10
257.048607
 20
133.156698
 11
256.548607
 21
133.656698
  0
LINE
  8
CSLAYER1
  6
CONTINUOUS
 62
     6
 10
256.548607
 20
129.656739
 11
256.548607
 21
133.656698
  0
LINE
  8
CSLAYER1
  6
CONTINUOUS
 62
     6
 10
212.048607
 20
126.656719
 11
212.048607
 21
170.656719
  0
LINE
  8
CSLAYER1
  6
CONTINUOUS
 62
     6
 10
207.048607
 20
127.406719
 11
207.048607
 21
169.906719
  0
LINE
  8
CSLAYER1
  6
CONTINUOUS
 62
     6
 10
212.048607
 20
126.656719
 11
207.798607
 21
126.656719
  0
ARC
  8
CSLAYER1
  6
CONTINUOUS
 62
     6
 10
207.798607
 20
127.406719
 40
0.750000
 50
180.000000
 51
270.000000
  0
LINE
  8
CSLAYER1
  6
CONTINUOUS
 62
     6
 10
212.048607
 20
170.656719
 11
207.798607
 21
170.656719
  0
ARC
  8
CSLAYER1
  6
CONTINUOUS
 62
     6
 10
207.798607
 20
169.906719
 40
0.750000
 50
90.000000
 51
180.000000
  0
LINE
  8
CSLAYER1
  6
CONTINUOUS
 62
     6
 10
244.298607
 20
127.156719
 11
212.048607
 21
127.156719
  0
LINE
  8
CSLAYER1
  6
CONTINUOUS
 62
     6
 10
244.298607
 20
170.156719
 11
212.048607
 21
170.156719
  0
LINE
  8
CSLAYER1
  6
CONTINUOUS
 62
     6
 10
240.048607
 20
127.156719
 11
240.048607
 21
170.156719
  0
LINE
  8
CSLAYER1
  6
CONTINUOUS
 62
     6
 10
245.048607
 20
169.406719
 11
245.048607
 21
127.906719
  0
ARC
  8
CSLAYER1
  6
CONTINUOUS
 62
     6
 10
244.298607
 20
169.406719
 40
0.750000
 50
0.000000
 51
90.000000
  0
ARC
  8
CSLAYER1
  6
CONTINUOUS
 62
     6
 10
244.298607
 20
127.906719
 40
0.750000
 50
270.000000
 51
360.000000
  0
LINE
  8
CSLAYER1
  6
CONTINUOUS
 62
     6
 10
215.048607
 20
127.156719
 11
215.048607
 21
170.156719
  0
LINE
  8
CSLAYER1
  6
CONTINUOUS
 62
     6
 10
274.048607
 20
144.656719
 11
274.048607
 21
152.656719
  0
LINE
  8
CSLAYER1
  6
CONTINUOUS
 62
     6
 10
274.048607
 20
152.656719
 11
259.048607
 21
152.656719
  0
LINE
  8
CSLAYER1
  6
CONTINUOUS
 62
     6
 10
274.048607
 20
144.656719
 11
259.048607
 21
144.656719
  0
LINE
  8
CSLAYER1
  6
CONTINUOUS
 62
     6
 10
274.048607
 20
151.302473
 11
262.048607
 21
151.302473
  0
LINE
  8
CSLAYER1
  6
CONTINUOUS
 62
     6
 10
274.048607
 20
146.010965
 11
262.048607
 21
146.010965
  0
LINE
  8
CSLAYER1
  6
CONTINUOUS
 62
     6
 10
262.048607
 20
151.302473
 11
262.048607
 21
146.010965
  0
LINE
  8
CSLAYER1
  6
CONTINUOUS
 62
     3
 10
274.048607
 20
151.302473
 11
262.048607
 21
146.010965
  0
LINE
  8
CSLAYER1
  6
CONTINUOUS
 62
     3
 10
262.048607
 20
151.302473
 11
274.048607
 21
146.010965
  0
ARC
  8
CSLAYER1
  6
CONTINUOUS
 62
     6
 10
213.083102
 20
52.699900
 40
8.448294
 50
163.742984
 51
196.257006
  0
LINE
  8
CSLAYER1
  6
CONTINUOUS
 62
     6
 10
206.786144
 20
49.403892
 11
206.026013
 21
49.470392
  0
ARC
  8
CSLAYER1
  6
CONTINUOUS
 62
     6
 10
206.131204
 20
50.672705
 40
1.206899
 50
196.257389
 51
264.999889
  0
ARC
  8
CSLAYER1
  6
CONTINUOUS
 62
     6
 10
206.807212
 20
49.644348
 40
0.241380
 50
264.999848
 51
360.000000
  0
LINE
  8
CSLAYER1
  6
CONTINUOUS
 62
     6
 10
206.786144
 20
55.995908
 11
206.026013
 21
55.929409
  0
ARC
  8
CSLAYER1
  6
CONTINUOUS
 62
     6
 10
206.131204
 20
54.727095
 40
1.206899
 50
95.000108
 51
163.742601
  0
ARC
  8
CSLAYER1
  6
CONTINUOUS
 62
     6
 10
206.807212
 20
55.755453
 40
0.241380
 50
0.057309
 51
95.000135
  0
ARC
  8
CSLAYER1
  6
CONTINUOUS
 62
     6
 10
213.083102
 20
86.699937
 40
8.448294
 50
163.742994
 51
196.257016
  0
LINE
  8
CSLAYER1
  6
CONTINUOUS
 62
     6
 10
206.786144
 20
89.995945
 11
206.026013
 21
89.929445
  0
ARC
  8
CSLAYER1
  6
CONTINUOUS
 62
     6
 10
206.131204
 20
88.727132
 40
1.206899
 50
95.000111
 51
163.742611
  0
ARC
  8
CSLAYER1
  6
CONTINUOUS
 62
     6
 10
206.807212
 20
89.755489
 40
0.241380
 50
0.000000
 51
95.000152
  0
LINE
  8
CSLAYER1
  6
CONTINUOUS
 62
     6
 10
206.786144
 20
83.403929
 11
206.026013
 21
83.470428
  0
ARC
  8
CSLAYER1
  6
CONTINUOUS
 62
     6
 10
206.131204
 20
84.672742
 40
1.206899
 50
196.257399
 51
264.999892
  0
ARC
  8
CSLAYER1
  6
CONTINUOUS
 62
     6
 10
206.807212
 20
83.644384
 40
0.241380
 50
264.999865
 51
359.942691
  0
LINE
  8
CSLAYER1
  6
CENTER
 62
     3
 10
260.048607
 20
86.699919
 11
202.634808
 21
86.699919
  0
LINE
  8
CSLAYER1
  6
CONTINUOUS
 62
     6
 10
257.048607
 20
88.199898
 11
257.048607
 21
85.199939
  0
LINE
  8
CSLAYER1
  6
CONTINUOUS
 62
     6
 10
256.548607
 20
88.699898
 11
249.248607
 21
88.699898
  0
LINE
  8
CSLAYER1
  6
CONTINUOUS
 62
     3
 10
256.888607
 20
88.359898
 11
249.248607
 21
88.359898
  0
LINE
  8
CSLAYER1
  6
CONTINUOUS
 62
     6
 10
256.548607
 20
84.699939
 11
249.248607
 21
84.699939
  0
LINE
  8
CSLAYER1
  6
CONTINUOUS
 62
     3
 10
256.888607
 20
85.039939
 11
249.248607
 21
85.039939
  0
LINE
  8
CSLAYER1
  6
CONTINUOUS
 62
     6
 10
256.548607
 20
84.699939
 11
257.048607
 21
85.199939
  0
LINE
  8
CSLAYER1
  6
CONTINUOUS
 62
     6
 10
257.048607
 20
88.199898
 11
256.548607
 21
88.699898
  0
LINE
  8
CSLAYER1
  6
CONTINUOUS
 62
     6
 10
256.548607
 20
84.699939
 11
256.548607
 21
88.699898
  0
LINE
  8
CSLAYER1
  6
CENTER
 62
     3
 10
260.048607
 20
52.699919
 11
202.895860
 21
52.699919
  0
LINE
  8
CSLAYER1
  6
CONTINUOUS
 62
     6
 10
257.048607
 20
54.199898
 11
257.048607
 21
51.199939
  0
LINE
  8
CSLAYER1
  6
CONTINUOUS
 62
     6
 10
256.548607
 20
54.699898
 11
249.248607
 21
54.699898
  0
LINE
  8
CSLAYER1
  6
CONTINUOUS
 62
     3
 10
256.888607
 20
54.359898
 11
249.248607
 21
54.359898
  0
LINE
  8
CSLAYER1
  6
CONTINUOUS
 62
     6
 10
256.548607
 20
50.699939
 11
249.248607
 21
50.699939
  0
LINE
  8
CSLAYER1
  6
CONTINUOUS
 62
     3
 10
256.888607
 20
51.039939
 11
249.248607
 21
51.039939
  0
LINE
  8
CSLAYER1
  6
CONTINUOUS
 62
     6
 10
256.548607
 20
50.699939
 11
257.048607
 21
51.199939
  0
LINE
  8
CSLAYER1
  6
CONTINUOUS
 62
     6
 10
257.048607
 20
54.199898
 11
256.548607
 21
54.699898
  0
LINE
  8
CSLAYER1
  6
CONTINUOUS
 62
     6
 10
256.548607
 20
50.699939
 11
256.548607
 21
54.699898
  0
LINE
  8
CSLAYER1
  6
CONTINUOUS
 62
     6
 10
212.048607
 20
47.699919
 11
212.048607
 21
91.699919
  0
LINE
  8
CSLAYER1
  6
CONTINUOUS
 62
     6
 10
207.048607
 20
48.449919
 11
207.048607
 21
90.949919
  0
LINE
  8
CSLAYER1
  6
CONTINUOUS
 62
     6
 10
212.048607
 20
47.699919
 11
207.798607
 21
47.699919
  0
ARC
  8
CSLAYER1
  6
CONTINUOUS
 62
     6
 10
207.798607
 20
48.449919
 40
0.750000
 50
180.000000
 51
270.000000
  0
LINE
  8
CSLAYER1
  6
CONTINUOUS
 62
     6
 10
212.048607
 20
91.699919
 11
207.798607
 21
91.699919
  0
ARC
  8
CSLAYER1
  6
CONTINUOUS
 62
     6
 10
207.798607
 20
90.949919
 40
0.750000
 50
90.000000
 51
180.000000
  0
LINE
  8
CSLAYER1
  6
CONTINUOUS
 62
     6
 10
244.298607
 20
48.199919
 11
212.048607
 21
48.199919
  0
LINE
  8
CSLAYER1
  6
CONTINUOUS
 62
     6
 10
244.298607
 20
91.199919
 11
212.048607
 21
91.199919
  0
LINE
  8
CSLAYER1
  6
CONTINUOUS
 62
     6
 10
240.048607
 20
48.199919
 11
240.048607
 21
91.199919
  0
LINE
  8
CSLAYER1
  6
CONTINUOUS
 62
     6
 10
245.048607
 20
90.499919
 11
245.048607
 21
48.899919
  0
ARC
  8
CSLAYER1
  6
CONTINUOUS
 62
     6
 10
244.298607
 20
90.449919
 40
0.750000
 50
0.000000
 51
90.000000
  0
ARC
  8
CSLAYER1
  6
CONTINUOUS
 62
     6
 10
244.298607
 20
48.949919
 40
0.750000
 50
270.000000
 51
360.000000
  0
LINE
  8
CSLAYER1
  6
CONTINUOUS
 62
     6
 10
215.048607
 20
48.199919
 11
215.048607
 21
91.199919
  0
LINE
  8
CSLAYER1
  6
CONTINUOUS
 62
     6
 10
274.048607
 20
72.699919
 11
262.048607
 21
72.699919
  0
LINE
  8
CSLAYER1
  6
CONTINUOUS
 62
     6
 10
274.048607
 20
72.699919
 11
274.048607
 21
65.699919
  0
LINE
  8
CSLAYER1
  6
CONTINUOUS
 62
     6
 10
274.048607
 20
65.699919
 11
259.048607
 21
65.699919
  0
LINE
  8
CSLAYER1
  6
CONTINUOUS
 62
     6
 10
262.048607
 20
73.699919
 11
259.048607
 21
73.699919
  0
LINE
  8
CSLAYER1
  6
CONTINUOUS
 62
     6
 10
262.048607
 20
73.699919
 11
262.048607
 21
72.699919
  0
ARC
  8
CSLAYER1
  6
CONTINUOUS
 62
     6
 10
243.457155
 20
242.863519
 40
5.791452
 50
-17.587954
 51
17.587954
  0
ARC
  8
CSLAYER1
  6
CONTINUOUS
 62
     6
 10
243.457155
 20
246.363519
 40
5.791452
 50
-17.587954
 51
17.587954
  0
LINE
  8
CSLAYER1
  6
CONTINUOUS
 62
     6
 10
249.248607
 20
241.113519
 11
246.048607
 21
241.113519
  0
LINE
  8
CSLAYER1
  6
CONTINUOUS
 62
     6
 10
248.977881
 20
244.613519
 11
246.048607
 21
244.613519
  0
LINE
  8
CSLAYER1
  6
CONTINUOUS
 62
     6
 10
249.248607
 20
248.113519
 11
246.048607
 21
248.113519
  0
LINE
  8
CSLAYER1
  6
CONTINUOUS
 62
     6
 10
249.248607
 20
241.113519
 11
249.248607
 21
248.113519
  0
LINE
  8
CSLAYER1
  6
CONTINUOUS
 62
     6
 10
246.048607
 20
248.413519
 11
246.048607
 21
240.813519
  0
LINE
  8
CSLAYER1
  6
CONTINUOUS
 62
     6
 10
246.048607
 20
240.813519
 11
245.048607
 21
240.813519
  0
LINE
  8
CSLAYER1
  6
CONTINUOUS
 62
     6
 10
245.048607
 20
248.413519
 11
246.048607
 21
248.413519
  0
LINE
  8
CSLAYER1
  6
CONTINUOUS
 62
     6
 10
246.048607
 20
245.221519
 11
245.048607
 21
244.917519
  0
LINE
  8
CSLAYER1
  6
CONTINUOUS
 62
     6
 10
246.048607
 20
244.309519
 11
245.048607
 21
244.005519
  0
ARC
  8
CSLAYER1
  6
CONTINUOUS
 62
     6
 10
243.457155
 20
208.863519
 40
5.791452
 50
-17.587954
 51
17.587954
  0
ARC
  8
CSLAYER1
  6
CONTINUOUS
 62
     6
 10
243.457155
 20
212.363519
 40
5.791452
 50
-17.587954
 51
17.587954
  0
LINE
  8
CSLAYER1
  6
CONTINUOUS
 62
     6
 10
249.248607
 20
207.113519
 11
246.048607
 21
207.113519
  0
LINE
  8
CSLAYER1
  6
CONTINUOUS
 62
     6
 10
248.977881
 20
210.613519
 11
246.048607
 21
210.613519
  0
LINE
  8
CSLAYER1
  6
CONTINUOUS
 62
     6
 10
249.248607
 20
214.113519
 11
246.048607
 21
214.113519
  0
LINE
  8
CSLAYER1
  6
CONTINUOUS
 62
     6
 10
249.248607
 20
207.113519
 11
249.248607
 21
214.113519
  0
LINE
  8
CSLAYER1
  6
CONTINUOUS
 62
     6
 10
246.048607
 20
214.413519
 11
246.048607
 21
206.813519
  0
LINE
  8
CSLAYER1
  6
CONTINUOUS
 62
     6
 10
246.048607
 20
206.813519
 11
245.048607
 21
206.813519
  0
LINE
  8
CSLAYER1
  6
CONTINUOUS
 62
     6
 10
245.048607
 20
214.413519
 11
246.048607
 21
214.413519
  0
LINE
  8
CSLAYER1
  6
CONTINUOUS
 62
     6
 10
246.048607
 20
211.221519
 11
245.048607
 21
210.917519
  0
LINE
  8
CSLAYER1
  6
CONTINUOUS
 62
     6
 10
246.048607
 20
210.309519
 11
245.048607
 21
210.005519
  0
ARC
  8
CSLAYER1
  6
CONTINUOUS
 62
     6
 10
243.457155
 20
84.949919
 40
5.791452
 50
-17.587954
 51
17.587954
  0
ARC
  8
CSLAYER1
  6
CONTINUOUS
 62
     6
 10
243.457155
 20
88.449919
 40
5.791452
 50
-17.587954
 51
17.587954
  0
LINE
  8
CSLAYER1
  6
CONTINUOUS
 62
     6
 10
249.248607
 20
83.199919
 11
246.048607
 21
83.199919
  0
LINE
  8
CSLAYER1
  6
CONTINUOUS
 62
     6
 10
248.977881
 20
86.699919
 11
246.048607
 21
86.699919
  0
LINE
  8
CSLAYER1
  6
CONTINUOUS
 62
     6
 10
249.248607
 20
90.199919
 11
246.048607
 21
90.199919
  0
LINE
  8
CSLAYER1
  6
CONTINUOUS
 62
     6
 10
249.248607
 20
83.199919
 11
249.248607
 21
90.199919
  0
LINE
  8
CSLAYER1
  6
CONTINUOUS
 62
     6
 10
246.048607
 20
90.499919
 11
246.048607
 21
82.899919
  0
LINE
  8
CSLAYER1
  6
CONTINUOUS
 62
     6
 10
246.048607
 20
82.899919
 11
245.048607
 21
82.899919
  0
LINE
  8
CSLAYER1
  6
CONTINUOUS
 62
     6
 10
245.048607
 20
90.499919
 11
246.048607
 21
90.499919
  0
LINE
  8
CSLAYER1
  6
CONTINUOUS
 62
     6
 10
246.048607
 20
87.307919
 11
245.048607
 21
87.003919
  0
LINE
  8
CSLAYER1
  6
CONTINUOUS
 62
     6
 10
246.048607
 20
86.395919
 11
245.048607
 21
86.091919
  0
ARC
  8
CSLAYER1
  6
CONTINUOUS
 62
     6
 10
243.457155
 20
50.949919
 40
5.791452
 50
-17.587954
 51
17.587954
  0
ARC
  8
CSLAYER1
  6
CONTINUOUS
 62
     6
 10
243.457155
 20
54.449919
 40
5.791452
 50
-17.587954
 51
17.587954
  0
LINE
  8
CSLAYER1
  6
CONTINUOUS
 62
     6
 10
249.248607
 20
49.199919
 11
246.048607
 21
49.199919
  0
LINE
  8
CSLAYER1
  6
CONTINUOUS
 62
     6
 10
248.977881
 20
52.699919
 11
246.048607
 21
52.699919
  0
LINE
  8
CSLAYER1
  6
CONTINUOUS
 62
     6
 10
249.248607
 20
56.199919
 11
246.048607
 21
56.199919
  0
LINE
  8
CSLAYER1
  6
CONTINUOUS
 62
     6
 10
249.248607
 20
49.199919
 11
249.248607
 21
56.199919
  0
LINE
  8
CSLAYER1
  6
CONTINUOUS
 62
     6
 10
246.048607
 20
56.499919
 11
246.048607
 21
48.899919
  0
LINE
  8
CSLAYER1
  6
CONTINUOUS
 62
     6
 10
246.048607
 20
48.899919
 11
245.048607
 21
48.899919
  0
LINE
  8
CSLAYER1
  6
CONTINUOUS
 62
     6
 10
245.048607
 20
56.499919
 11
246.048607
 21
56.499919
  0
LINE
  8
CSLAYER1
  6
CONTINUOUS
 62
     6
 10
246.048607
 20
53.307919
 11
245.048607
 21
53.003919
  0
LINE
  8
CSLAYER1
  6
CONTINUOUS
 62
     6
 10
246.048607
 20
52.395919
 11
245.048607
 21
52.091919
  0
LINE
  8
CSLAYER1
  6
CONTINUOUS
 62
     6
 10
154.048607
 20
130.656719
 11
154.048607
 21
146.156719
  0
LINE
  8
CSLAYER1
  6
CONTINUOUS
 62
     6
 10
205.416858
 20
168.656719
 11
169.048607
 21
168.656719
  0
LINE
  8
CSLAYER1
  6
CONTINUOUS
 62
     6
 10
205.416858
 20
128.656719
 11
169.048607
 21
128.656719
  0
LINE
  8
CSLAYER1
  6
CONTINUOUS
 62
     6
 10
168.048607
 20
129.656719
 11
168.048607
 21
167.656719
  0
LINE
  8
CSLAYER1
  6
CONTINUOUS
 62
     6
 10
169.048607
 20
128.656719
 11
168.048607
 21
129.656719
  0
LINE
  8
CSLAYER1
  6
CONTINUOUS
 62
     6
 10
169.048607
 20
168.656719
 11
168.048607
 21
167.656719
  0
LINE
  8
CSLAYER1
  6
CONTINUOUS
 62
     6
 10
169.048607
 20
128.656719
 11
169.048607
 21
168.656719
  0
ARC
  8
CSLAYER1
  6
CONTINUOUS
 62
     6
 10
155.048607
 20
130.656719
 40
1.000000
 50
180.000000
 51
270.000000
  0
ARC
  8
CSLAYER1
  6
CONTINUOUS
 62
     6
 10
155.048607
 20
166.656719
 40
1.000000
 50
90.000000
 51
180.000000
  0
LINE
  8
CSLAYER1
  6
CONTINUOUS
 62
     6
 10
168.048607
 20
167.656719
 11
155.048607
 21
167.656719
  0
LINE
  8
CSLAYER1
  6
CONTINUOUS
 62
     6
 10
168.048607
 20
129.656719
 11
155.048607
 21
129.656719
  0
LINE
  8
CSLAYER1
  6
CONTINUOUS
 62
     3
 10
203.048607
 20
153.036614
 11
173.048607
 21
153.036614
  0
LINE
  8
CSLAYER1
  6
CONTINUOUS
 62
     3
 10
204.048607
 20
154.036614
 11
204.048607
 21
168.656719
  0
LINE
  8
CSLAYER1
  6
CONTINUOUS
 62
     3
 10
172.048607
 20
154.036614
 11
172.048607
 21
168.656719
  0
ARC
  8
CSLAYER1
  6
CONTINUOUS
 62
     3
 10
173.048607
 20
154.036614
 40
1.000000
 50
180.000000
 51
270.000000
  0
ARC
  8
CSLAYER1
  6
CONTINUOUS
 62
     3
 10
203.048607
 20
154.036614
 40
1.000000
 50
270.000000
 51
360.000000
  0
LINE
  8
CSLAYER1
  6
CONTINUOUS
 62
     6
 10
168.048607
 20
154.656719
 11
156.048607
 21
154.656719
  0
LINE
  8
CSLAYER1
  6
CONTINUOUS
 62
     6
 10
156.048607
 20
154.656719
 11
156.048607
 21
142.656719
  0
LINE
  8
CSLAYER1
  6
CONTINUOUS
 62
     6
 10
156.048607
 20
153.656719
 11
168.048607
 21
153.656719
  0
LINE
  8
CSLAYER1
  6
CONTINUOUS
 62
     6
 10
166.048607
 20
151.656719
 11
155.048607
 21
151.656719
  0
LINE
  8
CSLAYER1
  6
CONTINUOUS
 62
     6
 10
168.048607
 20
142.656719
 11
156.048607
 21
142.656719
  0
LINE
  8
CSLAYER1
  6
CONTINUOUS
 62
     6
 10
156.048607
 20
143.656719
 11
168.048607
 21
143.656719
  0
LINE
  8
CSLAYER1
  6
CONTINUOUS
 62
     6
 10
166.048607
 20
145.656719
 11
155.048607
 21
145.656719
  0
LINE
  8
CSLAYER1
  6
CONTINUOUS
 62
     6
 10
149.048607
 20
141.156719
 11
149.048607
 21
156.156719
  0
LINE
  8
CSLAYER1
  6
CONTINUOUS
 62
     6
 10
154.048607
 20
151.156719
 11
154.048607
 21
166.656719
  0
LINE
  8
CSLAYER1
  6
CONTINUOUS
 62
     6
 10
155.048607
 20
151.156719
 11
149.048607
 21
151.156719
  0
LINE
  8
CSLAYER1
  6
CONTINUOUS
 62
     6
 10
155.048607
 20
146.156719
 11
149.048607
 21
146.156719
  0
LINE
  8
CSLAYER1
  6
CONTINUOUS
 62
     6
 10
155.048607
 20
151.656719
 11
155.048607
 21
151.156719
  0
LINE
  8
CSLAYER1
  6
CONTINUOUS
 62
     6
 10
155.048607
 20
146.156719
 11
155.048607
 21
145.656719
  0
LINE
  8
CSLAYER1
  6
CONTINUOUS
 62
     6
 10
156.048607
 20
153.656719
 11
154.048607
 21
155.656719
  0
LINE
  8
CSLAYER1
  6
CONTINUOUS
 62
     6
 10
156.048607
 20
143.656719
 11
154.048607
 21
141.656719
  0
CIRCLE
  8
CSLAYER1
  6
CONTINUOUS
 62
     6
 10
151.048607
 20
148.656719
 40
1.000000
  0
LINE
  8
CSLAYER1
  6
CENTER
 62
     3
 10
151.048607
 20
150.656719
 11
151.048607
 21
146.656719
  0
LINE
  8
CSLAYER1
  6
CONTINUOUS
 62
     6
 10
166.048607
 20
145.656719
 11
166.048607
 21
151.656719
  0
LINE
  8
CSLAYER1
  6
CONTINUOUS
 62
     6
 10
152.048607
 20
158.156719
 11
151.048607
 21
158.156719
  0
LINE
  8
CSLAYER1
  6
CONTINUOUS
 62
     6
 10
152.048607
 20
139.156719
 11
151.048607
 21
139.156719
  0
ARC
  8
CSLAYER1
  6
CONTINUOUS
 62
     6
 10
151.048607
 20
141.156719
 40
2.000000
 50
180.000000
 51
270.000000
  0
ARC
  8
CSLAYER1
  6
CONTINUOUS
 62
     6
 10
151.048607
 20
156.156719
 40
2.000000
 50
90.000000
 51
180.000000
  0
ARC
  8
CSLAYER1
  6
CONTINUOUS
 62
     6
 10
152.048607
 20
137.156719
 40
2.000000
 50
0.000000
 51
90.000000
  0
ARC
  8
CSLAYER1
  6
CONTINUOUS
 62
     6
 10
152.048607
 20
160.156719
 40
2.000000
 50
270.000000
 51
360.000000
  0
LINE
  8
CSLAYER1
  6
CONTINUOUS
 62
     6
 10
149.048607
 20
77.199919
 11
149.048607
 21
62.199919
  0
LINE
  8
CSLAYER1
  6
CONTINUOUS
 62
     6
 10
154.048607
 20
87.699919
 11
154.048607
 21
51.699919
  0
LINE
  8
CSLAYER1
  6
CONTINUOUS
 62
     6
 10
205.185395
 20
49.699919
 11
169.048607
 21
49.699919
  0
LINE
  8
CSLAYER1
  6
CONTINUOUS
 62
     6
 10
205.416858
 20
89.699919
 11
169.048607
 21
89.699919
  0
LINE
  8
CSLAYER1
  6
CONTINUOUS
 62
     6
 10
168.048607
 20
92.199919
 11
168.048607
 21
47.199919
  0
LINE
  8
CSLAYER1
  6
CONTINUOUS
 62
     6
 10
169.048607
 20
89.699919
 11
168.048607
 21
88.699919
  0
LINE
  8
CSLAYER1
  6
CONTINUOUS
 62
     6
 10
169.048607
 20
49.699919
 11
168.048607
 21
50.699919
  0
LINE
  8
CSLAYER1
  6
CONTINUOUS
 62
     6
 10
169.048607
 20
89.699919
 11
169.048607
 21
49.699919
  0
LINE
  8
CSLAYER1
  6
CONTINUOUS
 62
     6
 10
152.048607
 20
60.199919
 11
151.048607
 21
60.199919
  0
LINE
  8
CSLAYER1
  6
CONTINUOUS
 62
     6
 10
152.048607
 20
79.199919
 11
151.048607
 21
79.199919
  0
ARC
  8
CSLAYER1
  6
CONTINUOUS
 62
     6
 10
151.048607
 20
77.199919
 40
2.000000
 50
90.000000
 51
180.000000
  0
ARC
  8
CSLAYER1
  6
CONTINUOUS
 62
     6
 10
151.048607
 20
62.199919
 40
2.000000
 50
180.000000
 51
270.000000
  0
ARC
  8
CSLAYER1
  6
CONTINUOUS
 62
     6
 10
152.048607
 20
81.199919
 40
2.000000
 50
270.000000
 51
360.000000
  0
ARC
  8
CSLAYER1
  6
CONTINUOUS
 62
     6
 10
152.048607
 20
58.199919
 40
2.000000
 50
0.000000
 51
90.000000
  0
ARC
  8
CSLAYER1
  6
CONTINUOUS
 62
     6
 10
155.048607
 20
87.699919
 40
1.000000
 50
90.000000
 51
180.000000
  0
ARC
  8
CSLAYER1
  6
CONTINUOUS
 62
     6
 10
155.048607
 20
51.699919
 40
1.000000
 50
180.000000
 51
270.000000
  0
LINE
  8
CSLAYER1
  6
CONTINUOUS
 62
     6
 10
156.048607
 20
50.699919
 11
155.048607
 21
50.699919
  0
LINE
  8
CSLAYER1
  6
CONTINUOUS
 62
     6
 10
156.048607
 20
88.699919
 11
155.048607
 21
88.699919
  0
LINE
  8
CSLAYER1
  6
CONTINUOUS
 62
     6
 10
168.048607
 20
47.199919
 11
156.048607
 21
47.199919
  0
LINE
  8
CSLAYER1
  6
CONTINUOUS
 62
     6
 10
168.048607
 20
92.199919
 11
156.048607
 21
92.199919
  0
LINE
  8
CSLAYER1
  6
CONTINUOUS
 62
     6
 10
168.048607
 20
88.199919
 11
156.048607
 21
88.199919
  0
LINE
  8
CSLAYER1
  6
CONTINUOUS
 62
     6
 10
168.048607
 20
51.199919
 11
156.048607
 21
51.199919
  0
LINE
  8
CSLAYER1
  6
CONTINUOUS
 62
     6
 10
156.048607
 20
51.199919
 11
156.048607
 21
47.199919
  0
LINE
  8
CSLAYER1
  6
CONTINUOUS
 62
     6
 10
156.048607
 20
92.199919
 11
156.048607
 21
88.199919
  0
LINE
  8
CSLAYER1
  6
CONTINUOUS
 62
     6
 10
168.048607
 20
48.199919
 11
156.048607
 21
48.199919
  0
LINE
  8
CSLAYER1
  6
CONTINUOUS
 62
     6
 10
168.048607
 20
91.199919
 11
156.048607
 21
91.199919
  0
LINE
  8
CSLAYER1
  6
CONTINUOUS
 62
     6
 10
156.048607
 20
90.699919
 11
149.048607
 21
90.699919
  0
LINE
  8
CSLAYER1
  6
CONTINUOUS
 62
     6
 10
149.048607
 20
48.699919
 11
156.048607
 21
48.699919
  0
LINE
  8
CSLAYER1
  6
CONTINUOUS
 62
     6
 10
156.048607
 20
90.199919
 11
149.048607
 21
90.199919
  0
LINE
  8
CSLAYER1
  6
CONTINUOUS
 62
     6
 10
149.048607
 20
49.199919
 11
156.048607
 21
49.199919
  0
LINE
  8
CSLAYER1
  6
CONTINUOUS
 62
     6
 10
149.048607
 20
90.699919
 11
149.048607
 21
90.199919
  0
LINE
  8
CSLAYER1
  6
CONTINUOUS
 62
     6
 10
149.048607
 20
49.199919
 11
149.048607
 21
48.699919
  0
LINE
  8
CSLAYER1
  6
CONTINUOUS
 62
     6
 10
149.048607
 20
220.113519
 11
149.048607
 21
235.113519
  0
LINE
  8
CSLAYER1
  6
CONTINUOUS
 62
     6
 10
154.048607
 20
209.613519
 11
154.048607
 21
245.613519
  0
LINE
  8
CSLAYER1
  6
CONTINUOUS
 62
     6
 10
205.416858
 20
247.613519
 11
169.048607
 21
247.613519
  0
LINE
  8
CSLAYER1
  6
CONTINUOUS
 62
     6
 10
205.416858
 20
207.613519
 11
169.048607
 21
207.613519
  0
LINE
  8
CSLAYER1
  6
CONTINUOUS
 62
     6
 10
168.048607
 20
205.113519
 11
168.048607
 21
250.113519
  0
LINE
  8
CSLAYER1
  6
CONTINUOUS
 62
     6
 10
169.048607
 20
207.613519
 11
168.048607
 21
208.613519
  0
LINE
  8
CSLAYER1
  6
CONTINUOUS
 62
     6
 10
169.048607
 20
247.613519
 11
168.048607
 21
246.613519
  0
LINE
  8
CSLAYER1
  6
CONTINUOUS
 62
     6
 10
169.048607
 20
207.613519
 11
169.048607
 21
247.613519
  0
LINE
  8
CSLAYER1
  6
CONTINUOUS
 62
     6
 10
152.048607
 20
237.113519
 11
151.048607
 21
237.113519
  0
LINE
  8
CSLAYER1
  6
CONTINUOUS
 62
     6
 10
152.048607
 20
218.113519
 11
151.048607
 21
218.113519
  0
ARC
  8
CSLAYER1
  6
CONTINUOUS
 62
     6
 10
151.048607
 20
220.113519
 40
2.000000
 50
180.000000
 51
270.000000
  0
ARC
  8
CSLAYER1
  6
CONTINUOUS
 62
     6
 10
151.048607
 20
235.113519
 40
2.000000
 50
90.000000
 51
180.000000
  0
ARC
  8
CSLAYER1
  6
CONTINUOUS
 62
     6
 10
152.048607
 20
216.113519
 40
2.000000
 50
0.000000
 51
90.000000
  0
ARC
  8
CSLAYER1
  6
CONTINUOUS
 62
     6
 10
152.048607
 20
239.113519
 40
2.000000
 50
270.000000
 51
360.000000
  0
ARC
  8
CSLAYER1
  6
CONTINUOUS
 62
     6
 10
155.048607
 20
209.613519
 40
1.000000
 50
180.000000
 51
270.000000
  0
ARC
  8
CSLAYER1
  6
CONTINUOUS
 62
     6
 10
155.048607
 20
245.613519
 40
1.000000
 50
90.000000
 51
180.000000
  0
LINE
  8
CSLAYER1
  6
CONTINUOUS
 62
     6
 10
156.048607
 20
246.613519
 11
155.048607
 21
246.613519
  0
LINE
  8
CSLAYER1
  6
CONTINUOUS
 62
     6
 10
156.048607
 20
208.613519
 11
155.048607
 21
208.613519
  0
LINE
  8
CSLAYER1
  6
CONTINUOUS
 62
     6
 10
168.048607
 20
250.113519
 11
156.048607
 21
250.113519
  0
LINE
  8
CSLAYER1
  6
CONTINUOUS
 62
     6
 10
168.048607
 20
205.113519
 11
156.048607
 21
205.113519
  0
LINE
  8
CSLAYER1
  6
CONTINUOUS
 62
     6
 10
168.048607
 20
209.113519
 11
156.048607
 21
209.113519
  0
LINE
  8
CSLAYER1
  6
CONTINUOUS
 62
     6
 10
168.048607
 20
246.113519
 11
156.048607
 21
246.113519
  0
LINE
  8
CSLAYER1
  6
CONTINUOUS
 62
     6
 10
156.048607
 20
246.113519
 11
156.048607
 21
250.113519
  0
LINE
  8
CSLAYER1
  6
CONTINUOUS
 62
     6
 10
156.048607
 20
205.113519
 11
156.048607
 21
209.113519
  0
LINE
  8
CSLAYER1
  6
CONTINUOUS
 62
     6
 10
168.048607
 20
249.113519
 11
156.048607
 21
249.113519
  0
LINE
  8
CSLAYER1
  6
CONTINUOUS
 62
     6
 10
168.048607
 20
206.113519
 11
156.048607
 21
206.113519
  0
LINE
  8
CSLAYER1
  6
CONTINUOUS
 62
     6
 10
156.048607
 20
206.613519
 11
149.048607
 21
206.613519
  0
LINE
  8
CSLAYER1
  6
CONTINUOUS
 62
     6
 10
149.048607
 20
248.613519
 11
156.048607
 21
248.613519
  0
LINE
  8
CSLAYER1
  6
CONTINUOUS
 62
     6
 10
156.048607
 20
207.113519
 11
149.048607
 21
207.113519
  0
LINE
  8
CSLAYER1
  6
CONTINUOUS
 62
     6
 10
149.048607
 20
248.113519
 11
156.048607
 21
248.113519
  0
LINE
  8
CSLAYER1
  6
CONTINUOUS
 62
     6
 10
149.048607
 20
206.613519
 11
149.048607
 21
207.113519
  0
LINE
  8
CSLAYER1
  6
CONTINUOUS
 62
     6
 10
149.048607
 20
248.113519
 11
149.048607
 21
248.613519
  0
LINE
  8
CSLAYER1
  6
CONTINUOUS
 62
     3
 10
203.048607
 20
208.098998
 11
173.048607
 21
208.098998
  0
LINE
  8
CSLAYER1
  6
CONTINUOUS
 62
     3
 10
203.048607
 20
247.128039
 11
173.048607
 21
247.128039
  0
LINE
  8
CSLAYER1
  6
CONTINUOUS
 62
     3
 10
204.048607
 20
209.098998
 11
204.048607
 21
246.128039
  0
LINE
  8
CSLAYER1
  6
CONTINUOUS
 62
     3
 10
172.048607
 20
209.098998
 11
172.048607
 21
246.128039
  0
ARC
  8
CSLAYER1
  6
CONTINUOUS
 62
     3
 10
203.048607
 20
246.128039
 40
1.000000
 50
0.000000
 51
90.000000
  0
ARC
  8
CSLAYER1
  6
CONTINUOUS
 62
     3
 10
173.048607
 20
246.128039
 40
1.000000
 50
90.000000
 51
180.000000
  0
ARC
  8
CSLAYER1
  6
CONTINUOUS
 62
     3
 10
173.048607
 20
209.098998
 40
1.000000
 50
180.000000
 51
270.000000
  0
ARC
  8
CSLAYER1
  6
CONTINUOUS
 62
     3
 10
203.048607
 20
209.098998
 40
1.000000
 50
270.000000
 51
360.000000
  0
TEXT
  8
CSLAYER1
 62
     3
 10
185.972763
 20
232.852570
 40
3.500000
 41
1.125000
  1
N P
 50
270.000000
 51
10.000000
  7
JX_FONT
 72
     5
 11
185.972763
 21
222.352570
  0
CIRCLE
  8
CSLAYER1
  6
PHANTOM
 62
     7
 10
204.320381
 20
227.613519
 40
0.098712
  0
LINE
  8
CSLAYER1
  6
CENTER
 62
     3
 10
332.069766
 20
162.632173
 11
332.069769
 21
171.498476
  0
LINE
  8
CSLAYER1
  6
CENTER
 62
     3
 10
335.510692
 20
167.156714
 11
327.932232
 21
167.156717
  0
LINE
  8
CSLAYER1
  6
CENTER
 62
     3
 10
310.069757
 20
134.681265
 11
310.069755
 21
125.814962
  0
LINE
  8
CSLAYER1
  6
CENTER
 62
     3
 10
306.628832
 20
130.156724
 11
314.207292
 21
130.156721
  0
LINE
  8
CSLAYER1
  6
CENTER
 62
     3
 10
321.069754
 20
124.156719
 11
321.069770
 21
173.156719
  0
LINE
  8
CSLAYER1
  6
CENTER
 62
     3
 10
345.569762
 20
148.656719
 11
296.569762
 21
148.656719
  0
LINE
  8
CSLAYER1
  6
CONTINUOUS
 62
     6
 10
274.048607
 20
224.613519
 11
262.048607
 21
224.613519
  0
LINE
  8
CSLAYER1
  6
CONTINUOUS
 62
     6
 10
274.048607
 20
224.613519
 11
274.048607
 21
231.113519
  0
LINE
  8
CSLAYER1
  6
CONTINUOUS
 62
     6
 10
273.548607
 20
231.613519
 11
259.048607
 21
231.613519
  0
LINE
  8
CSLAYER1
  6
CONTINUOUS
 62
     6
 10
262.048607
 20
223.613519
 11
259.048607
 21
223.613519
  0
LINE
  8
CSLAYER1
  6
CONTINUOUS
 62
     6
 10
262.048607
 20
223.613519
 11
262.048607
 21
224.613519
  0
LINE
  8
CSLAYER1
  6
CONTINUOUS
 62
     6
 10
274.048607
 20
231.113519
 11
273.548607
 21
231.613519
  0
LINE
  8
CSLAYER1
  6
CONTINUOUS
 62
     6
 10
273.548607
 20
224.613519
 11
273.548607
 21
231.613519
  0
LINE
  8
CSLAYER1
  6
CONTINUOUS
 62
     6
 10
257.548607
 20
220.113519
 11
257.548607
 21
235.113519
  0
LINE
  8
CSLAYER1
  6
CONTINUOUS
 62
     6
 10
256.548607
 20
236.113519
 11
245.048607
 21
236.113519
  0
LINE
  8
CSLAYER1
  6
CONTINUOUS
 62
     6
 10
256.548607
 20
219.113519
 11
245.048607
 21
219.113519
  0
ARC
  8
CSLAYER1
  6
CONTINUOUS
 62
     6
 10
256.548607
 20
235.113519
 40
1.000000
 50
0.000000
 51
90.000000
  0
ARC
  8
CSLAYER1
  6
CONTINUOUS
 62
     6
 10
256.548607
 20
220.113519
 40
1.000000
 50
270.000000
 51
360.000000
  0
LINE
  8
CSLAYER1
  6
CONTINUOUS
 62
     6
 10
258.248607
 20
221.613519
 11
257.548607
 21
221.613519
  0
LINE
  8
CSLAYER1
  6
CONTINUOUS
 62
     6
 10
258.248607
 20
233.613519
 11
257.548607
 21
233.613519
  0
LINE
  8
CSLAYER1
  6
CONTINUOUS
 62
     6
 10
259.048607
 20
220.613519
 11
259.048607
 21
234.613519
  0
LINE
  8
CSLAYER1
  6
CONTINUOUS
 62
     6
 10
258.248607
 20
220.613519
 11
258.248607
 21
234.613519
  0
LINE
  8
CSLAYER1
  6
CONTINUOUS
 62
     6
 10
259.048607
 20
234.613519
 11
258.248607
 21
234.613519
  0
LINE
  8
CSLAYER1
  6
CONTINUOUS
 62
     6
 10
259.048607
 20
220.613519
 11
258.248607
 21
220.613519
  0
LINE
  8
CSLAYER1
  6
CENTER
 62
     3
 10
247.136566
 20
238.613526
 11
240.692764
 21
238.613526
  0
LINE
  8
CSLAYER1
  6
CONTINUOUS
 62
     6
 10
242.048607
 20
241.863525
 11
242.048607
 21
235.363528
  0
LINE
  8
CSLAYER1
  6
CONTINUOUS
 62
     6
 10
245.048607
 20
241.863525
 11
242.048607
 21
241.863525
  0
LINE
  8
CSLAYER1
  6
CONTINUOUS
 62
     6
 10
245.048607
 20
235.363528
 11
242.048607
 21
235.363528
  0
LINE
  8
CSLAYER1
  6
CENTER
 62
     3
 10
210.048607
 20
238.613526
 11
217.953646
 21
238.613526
  0
LINE
  8
CSLAYER1
  6
CONTINUOUS
 62
     6
 10
214.548607
 20
235.363528
 11
214.548607
 21
241.863525
  0
LINE
  8
CSLAYER1
  6
CONTINUOUS
 62
     6
 10
212.048607
 20
235.363528
 11
214.548607
 21
235.363528
  0
LINE
  8
CSLAYER1
  6
CONTINUOUS
 62
     6
 10
212.048607
 20
241.863525
 11
214.548607
 21
241.863525
  0
LINE
  8
CSLAYER1
  6
CONTINUOUS
 62
     6
 10
214.314954
 20
241.508717
 11
213.633594
 21
241.449976
  0
ARC
  8
CSLAYER1
  6
CONTINUOUS
 62
     6
 10
213.727876
 20
240.387804
 40
1.074023
 50
95.000118
 51
163.742789
  0
ARC
  8
CSLAYER1
  6
CONTINUOUS
 62
     6
 10
214.333798
 20
241.296293
 40
0.214808
 50
-0.000017
 51
94.999718
  0
LINE
  8
CSLAYER1
  6
CONTINUOUS
 62
     6
 10
214.314954
 20
235.718335
 11
213.633594
 21
235.777076
  0
ARC
  8
CSLAYER1
  6
CONTINUOUS
 62
     6
 10
213.727876
 20
236.839249
 40
1.074023
 50
196.257211
 51
264.999882
  0
ARC
  8
CSLAYER1
  6
CONTINUOUS
 62
     6
 10
214.333798
 20
235.930760
 40
0.214808
 50
-94.999718
 51
0.000017
  0
ARC
  8
CSLAYER1
  6
CONTINUOUS
 62
     6
 10
219.959304
 20
238.596894
 40
7.572785
 50
163.933744
 51
195.823637
  0
LINE
  8
CSLAYER1
  6
CONTINUOUS
 62
     6
 10
242.282259
 20
235.718335
 11
242.963619
 21
235.777076
  0
ARC
  8
CSLAYER1
  6
CONTINUOUS
 62
     6
 10
242.869337
 20
236.839249
 40
1.074023
 50
275.000118
 51
343.742789
  0
ARC
  8
CSLAYER1
  6
CONTINUOUS
 62
     6
 10
242.263415
 20
235.930760
 40
0.214808
 50
179.999983
 51
274.999718
  0
LINE
  8
CSLAYER1
  6
CONTINUOUS
 62
     6
 10
242.282259
 20
241.508717
 11
242.963619
 21
241.449976
  0
ARC
  8
CSLAYER1
  6
CONTINUOUS
 62
     6
 10
242.869337
 20
240.387804
 40
1.074023
 50
16.257211
 51
84.999882
  0
ARC
  8
CSLAYER1
  6
CONTINUOUS
 62
     6
 10
242.263415
 20
241.296293
 40
0.214808
 50
85.000282
 51
180.000017
  0
ARC
  8
CSLAYER1
  6
CONTINUOUS
 62
     6
 10
236.637909
 20
238.630158
 40
7.572785
 50
-16.066256
 51
15.823637
  0
LINE
  8
CSLAYER1
  6
CONTINUOUS
 62
     6
 10
257.548607
 20
141.156719
 11
257.548607
 21
156.156719
  0
LINE
  8
CSLAYER1
  6
CONTINUOUS
 62
     6
 10
256.548607
 20
157.156719
 11
245.048607
 21
157.156719
  0
LINE
  8
CSLAYER1
  6
CONTINUOUS
 62
     6
 10
256.548607
 20
140.156719
 11
245.048607
 21
140.156719
  0
ARC
  8
CSLAYER1
  6
CONTINUOUS
 62
     6
 10
256.548607
 20
156.156719
 40
1.000000
 50
0.000000
 51
90.000000
  0
ARC
  8
CSLAYER1
  6
CONTINUOUS
 62
     6
 10
256.548607
 20
141.156719
 40
1.000000
 50
270.000000
 51
360.000000
  0
LINE
  8
CSLAYER1
  6
CONTINUOUS
 62
     6
 10
258.248607
 20
142.656719
 11
257.548607
 21
142.656719
  0
LINE
  8
CSLAYER1
  6
CONTINUOUS
 62
     6
 10
258.248607
 20
154.656719
 11
257.548607
 21
154.656719
  0
LINE
  8
CSLAYER1
  6
CONTINUOUS
 62
     6
 10
259.048607
 20
141.656719
 11
259.048607
 21
155.656719
  0
LINE
  8
CSLAYER1
  6
CONTINUOUS
 62
     6
 10
258.248607
 20
141.656719
 11
258.248607
 21
155.656719
  0
LINE
  8
CSLAYER1
  6
CONTINUOUS
 62
     6
 10
259.048607
 20
155.656719
 11
258.248607
 21
155.656719
  0
LINE
  8
CSLAYER1
  6
CONTINUOUS
 62
     6
 10
259.048607
 20
141.656719
 11
258.248607
 21
141.656719
  0
LINE
  8
CSLAYER1
  6
CENTER
 62
     3
 10
247.136566
 20
80.699926
 11
240.692764
 21
80.699926
  0
LINE
  8
CSLAYER1
  6
CONTINUOUS
 62
     6
 10
242.048607
 20
83.949925
 11
242.048607
 21
77.449928
  0
LINE
  8
CSLAYER1
  6
CONTINUOUS
 62
     6
 10
245.048607
 20
83.949925
 11
242.048607
 21
83.949925
  0
LINE
  8
CSLAYER1
  6
CONTINUOUS
 62
     6
 10
245.048607
 20
77.449928
 11
242.048607
 21
77.449928
  0
LINE
  8
CSLAYER1
  6
CENTER
 62
     3
 10
210.048607
 20
80.699926
 11
217.953646
 21
80.699926
  0
LINE
  8
CSLAYER1
  6
CONTINUOUS
 62
     6
 10
214.548607
 20
77.449928
 11
214.548607
 21
83.949925
  0
LINE
  8
CSLAYER1
  6
CONTINUOUS
 62
     6
 10
212.048607
 20
77.449928
 11
214.548607
 21
77.449928
  0
LINE
  8
CSLAYER1
  6
CONTINUOUS
 62
     6
 10
212.048607
 20
83.949925
 11
214.548607
 21
83.949925
  0
LINE
  8
CSLAYER1
  6
CONTINUOUS
 62
     6
 10
214.314954
 20
83.595117
 11
213.633594
 21
83.536376
  0
ARC
  8
CSLAYER1
  6
CONTINUOUS
 62
     6
 10
213.727876
 20
82.474204
 40
1.074023
 50
95.000118
 51
163.742789
  0
ARC
  8
CSLAYER1
  6
CONTINUOUS
 62
     6
 10
214.333798
 20
83.382693
 40
0.214808
 50
-0.000017
 51
94.999718
  0
LINE
  8
CSLAYER1
  6
CONTINUOUS
 62
     6
 10
214.314954
 20
77.804735
 11
213.633594
 21
77.863476
  0
ARC
  8
CSLAYER1
  6
CONTINUOUS
 62
     6
 10
213.727876
 20
78.925649
 40
1.074023
 50
196.257211
 51
264.999882
  0
ARC
  8
CSLAYER1
  6
CONTINUOUS
 62
     6
 10
214.333798
 20
78.017160
 40
0.214808
 50
-94.999718
 51
0.000017
  0
ARC
  8
CSLAYER1
  6
CONTINUOUS
 62
     6
 10
219.959304
 20
80.683294
 40
7.572785
 50
163.933744
 51
195.823637
  0
LINE
  8
CSLAYER1
  6
CONTINUOUS
 62
     6
 10
242.282259
 20
77.804735
 11
242.963619
 21
77.863476
  0
ARC
  8
CSLAYER1
  6
CONTINUOUS
 62
     6
 10
242.869337
 20
78.925649
 40
1.074023
 50
275.000118
 51
343.742789
  0
ARC
  8
CSLAYER1
  6
CONTINUOUS
 62
     6
 10
242.263415
 20
78.017160
 40
0.214808
 50
179.999983
 51
274.999718
  0
LINE
  8
CSLAYER1
  6
CONTINUOUS
 62
     6
 10
242.282259
 20
83.595117
 11
242.963619
 21
83.536376
  0
ARC
  8
CSLAYER1
  6
CONTINUOUS
 62
     6
 10
242.869337
 20
82.474204
 40
1.074023
 50
16.257211
 51
84.999882
  0
ARC
  8
CSLAYER1
  6
CONTINUOUS
 62
     6
 10
242.263415
 20
83.382693
 40
0.214808
 50
85.000282
 51
180.000017
  0
ARC
  8
CSLAYER1
  6
CONTINUOUS
 62
     6
 10
236.637909
 20
80.716558
 40
7.572785
 50
-16.066256
 51
15.823637
  0
LINE
  8
CSLAYER1
  6
CONTINUOUS
 62
     6
 10
257.548607
 20
62.199919
 11
257.548607
 21
77.199919
  0
LINE
  8
CSLAYER1
  6
CONTINUOUS
 62
     6
 10
256.548607
 20
78.199919
 11
245.048607
 21
78.199919
  0
LINE
  8
CSLAYER1
  6
CONTINUOUS
 62
     6
 10
256.548607
 20
61.199919
 11
245.048607
 21
61.199919
  0
ARC
  8
CSLAYER1
  6
CONTINUOUS
 62
     6
 10
256.548607
 20
77.199919
 40
1.000000
 50
0.000000
 51
90.000000
  0
ARC
  8
CSLAYER1
  6
CONTINUOUS
 62
     6
 10
256.548607
 20
62.199919
 40
1.000000
 50
270.000000
 51
360.000000
  0
LINE
  8
CSLAYER1
  6
CONTINUOUS
 62
     6
 10
258.248607
 20
63.699919
 11
257.548607
 21
63.699919
  0
LINE
  8
CSLAYER1
  6
CONTINUOUS
 62
     6
 10
258.248607
 20
75.699919
 11
257.548607
 21
75.699919
  0
LINE
  8
CSLAYER1
  6
CONTINUOUS
 62
     6
 10
259.048607
 20
62.699919
 11
259.048607
 21
76.699919
  0
LINE
  8
CSLAYER1
  6
CONTINUOUS
 62
     6
 10
258.248607
 20
62.699919
 11
258.248607
 21
76.699919
  0
LINE
  8
CSLAYER1
  6
CONTINUOUS
 62
     6
 10
259.048607
 20
76.699919
 11
258.248607
 21
76.699919
  0
LINE
  8
CSLAYER1
  6
CONTINUOUS
 62
     6
 10
259.048607
 20
62.699919
 11
258.248607
 21
62.699919
  0
ARC
  8
CSLAYER1
  6
CONTINUOUS
 62
     6
 10
332.069756
 20
167.156722
 40
2.750000
 50
13.108600
 51
335.378824
  0
ARC
  8
CSLAYER1
  6
CONTINUOUS
 62
     6
 10
332.069756
 20
167.156712
 40
1.527778
 50
253.398416
 51
286.601577
  0
ARC
  8
CSLAYER1
  6
CONTINUOUS
 62
     6
 10
332.069756
 20
167.156712
 40
1.527778
 50
-16.601578
 51
16.601583
  0
ARC
  8
CSLAYER1
  6
CONTINUOUS
 62
     6
 10
332.069756
 20
167.156712
 40
1.527778
 50
73.398438
 51
106.601572
  0
ARC
  8
CSLAYER1
  6
CONTINUOUS
 62
     6
 10
332.069756
 20
167.156712
 40
1.527778
 50
163.398406
 51
196.601595
  0
LINE
  8
CSLAYER1
  6
CONTINUOUS
 62
     6
 10
332.506269
 20
168.029738
 11
332.506269
 21
168.620797
  0
LINE
  8
CSLAYER1
  6
CONTINUOUS
 62
     6
 10
332.506269
 20
166.283685
 11
332.506269
 21
165.692626
  0
LINE
  8
CSLAYER1
  6
CONTINUOUS
 62
     6
 10
331.633242
 20
168.029738
 11
331.633242
 21
168.620797
  0
LINE
  8
CSLAYER1
  6
CONTINUOUS
 62
     6
 10
331.633242
 20
166.283685
 11
331.633242
 21
165.692626
  0
LINE
  8
CSLAYER1
  6
CONTINUOUS
 62
     6
 10
332.942759
 20
166.720198
 11
333.533864
 21
166.720198
  0
LINE
  8
CSLAYER1
  6
CONTINUOUS
 62
     6
 10
331.196752
 20
166.720198
 11
330.605647
 21
166.720198
  0
LINE
  8
CSLAYER1
  6
CONTINUOUS
 62
     6
 10
332.942759
 20
167.593225
 11
333.533864
 21
167.593225
  0
LINE
  8
CSLAYER1
  6
CONTINUOUS
 62
     6
 10
331.196752
 20
167.593225
 11
330.605647
 21
167.593225
  0
ARC
  8
CSLAYER1
  6
CONTINUOUS
 62
     6
 10
332.942759
 20
168.029738
 40
0.436508
 50
180.000001
 51
269.942691
  0
ARC
  8
CSLAYER1
  6
CONTINUOUS
 62
     6
 10
331.196752
 20
168.029738
 40
0.436508
 50
-89.999990
 51
0.000016
  0
ARC
  8
CSLAYER1
  6
CONTINUOUS
 62
     6
 10
331.196752
 20
166.283685
 40
0.436508
 50
0.000016
 51
90.000005
  0
ARC
  8
CSLAYER1
  6
CONTINUOUS
 62
     6
 10
332.942759
 20
166.283685
 40
0.436508
 50
90.000005
 51
179.942654
  0
ARC
  8
CSLAYER1
  6
CONTINUOUS
 62
     6
 10
310.069768
 20
130.156716
 40
2.750000
 50
-166.891612
 51
155.379921
  0
ARC
  8
CSLAYER1
  6
CONTINUOUS
 62
     6
 10
310.069768
 20
130.156726
 40
1.527778
 50
73.398416
 51
106.601577
  0
ARC
  8
CSLAYER1
  6
CONTINUOUS
 62
     6
 10
310.069768
 20
130.156726
 40
1.527778
 50
163.398422
 51
196.601583
  0
ARC
  8
CSLAYER1
  6
CONTINUOUS
 62
     6
 10
310.069768
 20
130.156726
 40
1.527778
 50
253.398438
 51
286.601572
  0
ARC
  8
CSLAYER1
  6
CONTINUOUS
 62
     6
 10
310.069768
 20
130.156726
 40
1.527778
 50
-16.601594
 51
16.601595
  0
LINE
  8
CSLAYER1
  6
CONTINUOUS
 62
     6
 10
309.633255
 20
129.283699
 11
309.633255
 21
128.692641
  0
LINE
  8
CSLAYER1
  6
CONTINUOUS
 62
     6
 10
309.633255
 20
131.029753
 11
309.633255
 21
131.620811
  0
LINE
  8
CSLAYER1
  6
CONTINUOUS
 62
     6
 10
310.506282
 20
129.283699
 11
310.506282
 21
128.692641
  0
LINE
  8
CSLAYER1
  6
CONTINUOUS
 62
     6
 10
310.506282
 20
131.029753
 11
310.506282
 21
131.620811
  0
LINE
  8
CSLAYER1
  6
CONTINUOUS
 62
     6
 10
309.196764
 20
130.593239
 11
308.605660
 21
130.593239
  0
LINE
  8
CSLAYER1
  6
CONTINUOUS
 62
     6
 10
310.942772
 20
130.593239
 11
311.533876
 21
130.593239
  0
LINE
  8
CSLAYER1
  6
CONTINUOUS
 62
     6
 10
309.196764
 20
129.720213
 11
308.605660
 21
129.720213
  0
LINE
  8
CSLAYER1
  6
CONTINUOUS
 62
     6
 10
310.942772
 20
129.720213
 11
311.533876
 21
129.720213
  0
ARC
  8
CSLAYER1
  6
CONTINUOUS
 62
     6
 10
309.196764
 20
129.283699
 40
0.436508
 50
0.000001
 51
89.942691
  0
ARC
  8
CSLAYER1
  6
CONTINUOUS
 62
     6
 10
310.942772
 20
129.283699
 40
0.436508
 50
90.000010
 51
180.000016
  0
ARC
  8
CSLAYER1
  6
CONTINUOUS
 62
     6
 10
310.942772
 20
131.029753
 40
0.436508
 50
180.000016
 51
270.000005
  0
ARC
  8
CSLAYER1
  6
CONTINUOUS
 62
     6
 10
309.196764
 20
131.029753
 40
0.436508
 50
270.000005
 51
359.942654
  0
CIRCLE
  8
CSLAYER1
  6
CONTINUOUS
 62
     6
 10
321.069762
 20
148.656719
 40
8.500000
  0
ARC
  8
CSLAYER1
  6
CONTINUOUS
 62
     6
 10
321.069762
 20
148.656719
 40
7.000000
 50
-129.735468
 51
129.735468
  0
LINE
  8
CSLAYER1
  6
CONTINUOUS
 62
     6
 10
318.481809
 20
145.606719
 11
316.706449
 21
144.581714
  0
LINE
  8
CSLAYER1
  6
CONTINUOUS
 62
     6
 10
318.481809
 20
151.706719
 11
316.706449
 21
152.731723
  0
ARC
  8
CSLAYER1
  6
CONTINUOUS
 62
     6
 10
321.069762
 20
148.656719
 40
6.000000
 50
137.022592
 51
222.983062
  0
ARC
  8
CSLAYER1
  6
CONTINUOUS
 62
     6
 10
317.106449
 20
143.888894
 40
0.800000
 50
120.000000
 51
230.264532
  0
ARC
  8
CSLAYER1
  6
CONTINUOUS
 62
     6
 10
317.106449
 20
153.424544
 40
0.800000
 50
129.735468
 51
240.000000
  0
LINE
  8
CSLAYER1
  6
CONTINUOUS
 62
     6
 10
321.069761
 20
144.656719
 11
321.069761
 21
143.256719
  0
LINE
  8
CSLAYER1
  6
CONTINUOUS
 62
     6
 10
324.777861
 20
147.156719
 11
325.590525
 21
146.687527
  0
ARC
  8
CSLAYER1
  6
CONTINUOUS
 62
     6
 10
321.069762
 20
148.656719
 40
5.400000
 50
269.999986
 51
330.643264
  0
ARC
  8
CSLAYER1
  6
CONTINUOUS
 62
     6
 10
325.340525
 20
146.254515
 40
0.500000
 50
-29.356736
 51
60.000000
  0
LINE
  8
CSLAYER1
  6
CONTINUOUS
 62
     6
 10
324.777861
 20
150.156719
 11
325.590525
 21
150.625910
  0
ARC
  8
CSLAYER1
  6
CONTINUOUS
 62
     6
 10
321.069762
 20
148.656719
 40
5.400000
 50
29.356736
 51
90.000014
  0
ARC
  8
CSLAYER1
  6
CONTINUOUS
 62
     6
 10
325.340525
 20
151.058923
 40
0.500000
 50
-60.000000
 51
29.356736
  0
LINE
  8
CSLAYER1
  6
CONTINUOUS
 62
     6
 10
321.069761
 20
152.656719
 11
321.069761
 21
154.056719
  0
ARC
  8
CSLAYER1
  6
CONTINUOUS
 62
     6
 10
338.069753
 20
131.656717
 40
4.500003
 50
269.999963
 51
360.000000
  0
ARC
  8
CSLAYER1
  6
CONTINUOUS
 62
     6
 10
338.069764
 20
165.656710
 40
4.500003
 50
-0.000037
 51
90.000000
  0
ARC
  8
CSLAYER1
  6
CONTINUOUS
 62
     6
 10
304.069760
 20
131.656728
 40
4.500003
 50
179.999963
 51
270.000000
  0
LINE
  8
CSLAYER1
  6
CONTINUOUS
 62
     6
 10
328.819768
 20
167.156716
 11
328.819769
 21
170.156716
  0
ARC
  8
CSLAYER1
  6
CONTINUOUS
 62
     6
 10
332.069768
 20
167.156715
 40
3.250000
 50
179.999982
 51
320.283876
  0
LINE
  8
CSLAYER1
  6
CONTINUOUS
 62
     6
 10
335.319768
 20
168.110470
 11
335.319768
 21
170.156714
  0
CIRCLE
  8
CSLAYER1
  6
CONTINUOUS
 62
     6
 10
321.069762
 20
148.656719
 40
17.000000
  0
ARC
  8
CSLAYER1
  6
CONTINUOUS
 62
     6
 10
304.069760
 20
165.656710
 40
4.500003
 50
90.000000
 51
180.000037
  0
LINE
  8
CSLAYER1
  6
CONTINUOUS
 62
     6
 10
313.319756
 20
130.156722
 11
313.319755
 21
127.156722
  0
ARC
  8
CSLAYER1
  6
CONTINUOUS
 62
     6
 10
310.069756
 20
130.156723
 40
3.250000
 50
-0.000018
 51
140.284465
  0
LINE
  8
CSLAYER1
  6
CONTINUOUS
 62
     6
 10
306.819756
 20
129.202980
 11
306.819756
 21
127.156724
  0
LINE
  8
CSLAYER1
  6
CONTINUOUS
 62
     6
 10
299.569757
 20
131.656717
 11
299.569767
 21
165.656735
  0
LINE
  8
CSLAYER1
  6
CONTINUOUS
 62
     6
 10
342.569757
 20
131.656717
 11
342.569767
 21
165.656707
  0
LINE
  8
CSLAYER1
  6
CONTINUOUS
 62
     6
 10
338.069750
 20
127.156713
 11
304.077846
 21
127.156724
  0
LINE
  8
CSLAYER1
  6
CONTINUOUS
 62
     6
 10
338.069778
 20
170.156713
 11
304.061240
 21
170.156724
  0
LINE
  8
CSLAYER1
  6
CENTER
 62
     3
 10
344.569732
 20
165.656710
 11
331.569732
 21
165.656710
  0
LINE
  8
CSLAYER1
  6
CONTINUOUS
 62
     6
 10
341.569732
 20
163.635984
 11
338.069732
 21
161.615258
  0
LINE
  8
CSLAYER1
  6
CONTINUOUS
 62
     6
 10
338.069732
 20
161.615258
 11
334.569732
 21
163.635984
  0
LINE
  8
CSLAYER1
  6
CONTINUOUS
 62
     6
 10
334.569732
 20
163.635984
 11
334.569732
 21
167.677436
  0
LINE
  8
CSLAYER1
  6
CONTINUOUS
 62
     6
 10
334.569732
 20
167.677436
 11
338.069732
 21
169.698162
  0
LINE
  8
CSLAYER1
  6
CONTINUOUS
 62
     6
 10
338.069732
 20
169.698162
 11
341.569732
 21
167.677436
  0
LINE
  8
CSLAYER1
  6
CONTINUOUS
 62
     6
 10
341.569732
 20
167.677436
 11
341.569732
 21
163.635984
  0
CIRCLE
  8
CSLAYER1
  6
CONTINUOUS
 62
     6
 10
338.069732
 20
165.656710
 40
3.395000
  0
CIRCLE
  8
CSLAYER1
  6
CONTINUOUS
 62
     3
 10
338.069732
 20
165.656710
 40
2.000000
  0
CIRCLE
  8
CSLAYER1
  6
CONTINUOUS
 62
     6
 10
338.069732
 20
165.656710
 40
1.660000
  0
LINE
  8
CSLAYER1
  6
CENTER
 62
     3
 10
338.069780
 20
172.647344
 11
338.069771
 21
158.615237
  0
LINE
  8
CSLAYER1
  6
CONTINUOUS
 62
     6
 10
300.569803
 20
163.636006
 11
304.069803
 21
161.615280
  0
LINE
  8
CSLAYER1
  6
CONTINUOUS
 62
     6
 10
304.069803
 20
161.615280
 11
307.569803
 21
163.636006
  0
LINE
  8
CSLAYER1
  6
CONTINUOUS
 62
     6
 10
307.569803
 20
163.636006
 11
307.569803
 21
167.677458
  0
LINE
  8
CSLAYER1
  6
CONTINUOUS
 62
     6
 10
307.569803
 20
167.677458
 11
304.069803
 21
169.698184
  0
LINE
  8
CSLAYER1
  6
CONTINUOUS
 62
     6
 10
304.069803
 20
169.698184
 11
300.569803
 21
167.677458
  0
LINE
  8
CSLAYER1
  6
CONTINUOUS
 62
     6
 10
300.569803
 20
167.677458
 11
300.569803
 21
163.636006
  0
CIRCLE
  8
CSLAYER1
  6
CONTINUOUS
 62
     6
 10
304.069803
 20
165.656732
 40
3.395000
  0
CIRCLE
  8
CSLAYER1
  6
CONTINUOUS
 62
     3
 10
304.069803
 20
165.656732
 40
2.000000
  0
CIRCLE
  8
CSLAYER1
  6
CONTINUOUS
 62
     6
 10
304.069803
 20
165.656732
 40
1.660000
  0
LINE
  8
CSLAYER1
  6
CENTER
 62
     3
 10
304.069771
 20
172.698184
 11
304.069771
 21
158.615280
  0
LINE
  8
CSLAYER1
  6
CENTER
 62
     3
 10
310.569803
 20
165.656732
 11
297.569803
 21
165.656732
  0
LINE
  8
CSLAYER1
  6
CONTINUOUS
 62
     6
 10
300.569771
 20
133.677456
 11
304.069773
 21
135.698179
  0
LINE
  8
CSLAYER1
  6
CONTINUOUS
 62
     6
 10
304.069773
 20
135.698179
 11
307.569771
 21
133.677451
  0
LINE
  8
CSLAYER1
  6
CONTINUOUS
 62
     6
 10
307.569771
 20
133.677451
 11
307.569769
 21
129.635999
  0
LINE
  8
CSLAYER1
  6
CONTINUOUS
 62
     6
 10
307.569769
 20
129.635999
 11
304.069768
 21
127.615276
  0
LINE
  8
CSLAYER1
  6
CONTINUOUS
 62
     6
 10
304.069768
 20
127.615276
 11
300.569769
 21
129.636004
  0
LINE
  8
CSLAYER1
  6
CONTINUOUS
 62
     6
 10
300.569769
 20
129.636004
 11
300.569771
 21
133.677456
  0
CIRCLE
  8
CSLAYER1
  6
CONTINUOUS
 62
     6
 10
304.069770
 20
131.656728
 40
3.395000
  0
CIRCLE
  8
CSLAYER1
  6
CONTINUOUS
 62
     3
 10
304.069770
 20
131.656728
 40
2.000000
  0
CIRCLE
  8
CSLAYER1
  6
CONTINUOUS
 62
     6
 10
304.069770
 20
131.656728
 40
1.660000
  0
LINE
  8
CSLAYER1
  6
CENTER
 62
     3
 10
310.569759
 20
131.656723
 11
297.569759
 21
131.656732
  0
LINE
  8
CSLAYER1
  6
CENTER
 62
     3
 10
304.069749
 20
138.698179
 11
304.069749
 21
124.615276
  0
LINE
  8
CSLAYER1
  6
CONTINUOUS
 62
     6
 10
341.569742
 20
133.677456
 11
338.069740
 21
135.698179
  0
LINE
  8
CSLAYER1
  6
CONTINUOUS
 62
     6
 10
338.069740
 20
135.698179
 11
334.569742
 21
133.677451
  0
LINE
  8
CSLAYER1
  6
CONTINUOUS
 62
     6
 10
334.569742
 20
133.677451
 11
334.569744
 21
129.635999
  0
LINE
  8
CSLAYER1
  6
CONTINUOUS
 62
     6
 10
334.569744
 20
129.635999
 11
338.069746
 21
127.615276
  0
LINE
  8
CSLAYER1
  6
CONTINUOUS
 62
     6
 10
338.069746
 20
127.615276
 11
341.569744
 21
129.636004
  0
LINE
  8
CSLAYER1
  6
CONTINUOUS
 62
     6
 10
341.569744
 20
129.636004
 11
341.569742
 21
133.677456
  0
CIRCLE
  8
CSLAYER1
  6
CONTINUOUS
 62
     6
 10
338.069743
 20
131.656728
 40
3.395000
  0
CIRCLE
  8
CSLAYER1
  6
CONTINUOUS
 62
     3
 10
338.069743
 20
131.656728
 40
2.000000
  0
CIRCLE
  8
CSLAYER1
  6
CONTINUOUS
 62
     6
 10
338.069743
 20
131.656728
 40
1.660000
  0
LINE
  8
CSLAYER1
  6
CENTER
 62
     3
 10
344.569710
 20
131.656702
 11
331.569710
 21
131.656710
  0
LINE
  8
CSLAYER1
  6
CENTER
 62
     3
 10
338.069758
 20
138.698158
 11
338.069749
 21
124.615276
  0
CIRCLE
  8
CSLAYER1
  6
CONTINUOUS
 62
     6
 10
321.069762
 20
148.656719
 40
4.000000
  0
LINE
  8
CSLAYER1
  6
CONTINUOUS
 62
     6
 10
318.069766
 20
151.302475
 11
318.069762
 21
146.010967
  0
LINE
  8
CSLAYER1
  6
CONTINUOUS
 62
     6
 10
116.364875
 20
126.656719
 11
81.364874
 21
126.656719
  0
LINE
  8
CSLAYER1
  6
CONTINUOUS
 62
     6
 10
120.864875
 20
166.156719
 11
120.864875
 21
154.156713
  0
LINE
  8
CSLAYER1
  6
CONTINUOUS
 62
     6
 10
81.364874
 20
170.656719
 11
116.364875
 21
170.656719
  0
LINE
  8
CSLAYER1
  6
CONTINUOUS
 62
     6
 10
76.864874
 20
131.156719
 11
76.864874
 21
143.156734
  0
ARC
  8
CSLAYER1
  6
CONTINUOUS
 62
     6
 10
81.364874
 20
131.156719
 40
4.500000
 50
180.000000
 51
270.000000
  0
ARC
  8
CSLAYER1
  6
CONTINUOUS
 62
     6
 10
116.364875
 20
131.156719
 40
4.500000
 50
270.000000
 51
360.000000
  0
ARC
  8
CSLAYER1
  6
CONTINUOUS
 62
     6
 10
116.364875
 20
166.156719
 40
4.500000
 50
0.000000
 51
90.000000
  0
ARC
  8
CSLAYER1
  6
CONTINUOUS
 62
     6
 10
81.364874
 20
166.156719
 40
4.500000
 50
90.000000
 51
180.000000
  0
LINE
  8
CSLAYER1
  6
CONTINUOUS
 62
     6
 10
76.864874
 20
154.156724
 11
76.864874
 21
166.156719
  0
LINE
  8
CSLAYER1
  6
CONTINUOUS
 62
     6
 10
120.864875
 20
143.156724
 11
120.864875
 21
131.156719
  0
CIRCLE
  8
CSLAYER1
  6
CONTINUOUS
 62
     6
 10
116.364883
 20
166.156734
 40
3.500000
  0
ARC
  8
CSLAYER1
  6
CONTINUOUS
 62
     6
 10
116.364870
 20
166.156734
 40
1.944444
 50
163.398416
 51
196.601577
  0
ARC
  8
CSLAYER1
  6
CONTINUOUS
 62
     6
 10
116.364870
 20
166.156734
 40
1.944444
 50
253.398422
 51
286.601583
  0
ARC
  8
CSLAYER1
  6
CONTINUOUS
 62
     6
 10
116.364870
 20
166.156734
 40
1.944444
 50
-16.601562
 51
16.601572
  0
ARC
  8
CSLAYER1
  6
CONTINUOUS
 62
     6
 10
116.364870
 20
166.156734
 40
1.944444
 50
73.398406
 51
106.601595
  0
LINE
  8
CSLAYER1
  6
CONTINUOUS
 62
     6
 10
117.475995
 20
165.601172
 11
118.228251
 21
165.601172
  0
LINE
  8
CSLAYER1
  6
CONTINUOUS
 62
     6
 10
115.253745
 20
165.601172
 11
114.501489
 21
165.601172
  0
LINE
  8
CSLAYER1
  6
CONTINUOUS
 62
     6
 10
117.475995
 20
166.712297
 11
118.228251
 21
166.712297
  0
LINE
  8
CSLAYER1
  6
CONTINUOUS
 62
     6
 10
115.253745
 20
166.712297
 11
114.501489
 21
166.712297
  0
LINE
  8
CSLAYER1
  6
CONTINUOUS
 62
     6
 10
115.809308
 20
165.045638
 11
115.809308
 21
164.293324
  0
LINE
  8
CSLAYER1
  6
CONTINUOUS
 62
     6
 10
115.809308
 20
167.267830
 11
115.809308
 21
168.020145
  0
LINE
  8
CSLAYER1
  6
CONTINUOUS
 62
     6
 10
116.920432
 20
165.045638
 11
116.920432
 21
164.293324
  0
LINE
  8
CSLAYER1
  6
CONTINUOUS
 62
     6
 10
116.920432
 20
167.267830
 11
116.920432
 21
168.020145
  0
ARC
  8
CSLAYER1
  6
CONTINUOUS
 62
     6
 10
117.475995
 20
165.045638
 40
0.555556
 50
90.000001
 51
179.942691
  0
ARC
  8
CSLAYER1
  6
CONTINUOUS
 62
     6
 10
117.475995
 20
167.267830
 40
0.555556
 50
180.000010
 51
270.000016
  0
ARC
  8
CSLAYER1
  6
CONTINUOUS
 62
     6
 10
115.253745
 20
167.267830
 40
0.555556
 50
-89.999984
 51
0.000005
  0
ARC
  8
CSLAYER1
  6
CONTINUOUS
 62
     6
 10
115.253745
 20
165.045638
 40
0.555556
 50
0.000005
 51
89.942654
  0
LINE
  8
CSLAYER1
  6
CENTER
 62
     3
 10
81.364886
 20
171.656738
 11
81.364886
 21
160.656721
  0
CIRCLE
  8
CSLAYER1
  6
CONTINUOUS
 62
     6
 10
81.364894
 20
166.156745
 40
3.500000
  0
ARC
  8
CSLAYER1
  6
CONTINUOUS
 62
     6
 10
81.364881
 20
166.156745
 40
1.944444
 50
163.398416
 51
196.601577
  0
ARC
  8
CSLAYER1
  6
CONTINUOUS
 62
     6
 10
81.364881
 20
166.156745
 40
1.944444
 50
253.398422
 51
286.601583
  0
ARC
  8
CSLAYER1
  6
CONTINUOUS
 62
     6
 10
81.364881
 20
166.156745
 40
1.944444
 50
-16.601562
 51
16.601572
  0
ARC
  8
CSLAYER1
  6
CONTINUOUS
 62
     6
 10
81.364881
 20
166.156745
 40
1.944444
 50
73.398406
 51
106.601595
  0
LINE
  8
CSLAYER1
  6
CONTINUOUS
 62
     6
 10
82.476006
 20
165.601183
 11
83.228263
 21
165.601183
  0
LINE
  8
CSLAYER1
  6
CONTINUOUS
 62
     6
 10
80.253756
 20
165.601183
 11
79.501500
 21
165.601183
  0
LINE
  8
CSLAYER1
  6
CONTINUOUS
 62
     6
 10
82.476006
 20
166.712308
 11
83.228263
 21
166.712308
  0
LINE
  8
CSLAYER1
  6
CONTINUOUS
 62
     6
 10
80.253756
 20
166.712308
 11
79.501500
 21
166.712308
  0
LINE
  8
CSLAYER1
  6
CONTINUOUS
 62
     6
 10
80.809319
 20
165.045650
 11
80.809319
 21
164.293335
  0
LINE
  8
CSLAYER1
  6
CONTINUOUS
 62
     6
 10
80.809319
 20
167.267841
 11
80.809319
 21
168.020156
  0
LINE
  8
CSLAYER1
  6
CONTINUOUS
 62
     6
 10
81.920444
 20
165.045650
 11
81.920444
 21
164.293335
  0
LINE
  8
CSLAYER1
  6
CONTINUOUS
 62
     6
 10
81.920444
 20
167.267841
 11
81.920444
 21
168.020156
  0
ARC
  8
CSLAYER1
  6
CONTINUOUS
 62
     6
 10
82.476006
 20
165.045650
 40
0.555556
 50
90.000001
 51
179.942691
  0
ARC
  8
CSLAYER1
  6
CONTINUOUS
 62
     6
 10
82.476006
 20
167.267841
 40
0.555556
 50
180.000010
 51
270.000016
  0
ARC
  8
CSLAYER1
  6
CONTINUOUS
 62
     6
 10
80.253756
 20
167.267841
 40
0.555556
 50
-89.999984
 51
0.000005
  0
ARC
  8
CSLAYER1
  6
CONTINUOUS
 62
     6
 10
80.253756
 20
165.045650
 40
0.555556
 50
0.000005
 51
89.942654
  0
LINE
  8
CSLAYER1
  6
CENTER
 62
     3
 10
75.864877
 20
166.156730
 11
86.864894
 21
166.156730
  0
CIRCLE
  8
CSLAYER1
  6
CONTINUOUS
 62
     6
 10
81.364894
 20
131.156722
 40
3.500000
  0
ARC
  8
CSLAYER1
  6
CONTINUOUS
 62
     6
 10
81.364881
 20
131.156723
 40
1.944444
 50
163.398416
 51
196.601577
  0
ARC
  8
CSLAYER1
  6
CONTINUOUS
 62
     6
 10
81.364881
 20
131.156723
 40
1.944444
 50
253.398422
 51
286.601583
  0
ARC
  8
CSLAYER1
  6
CONTINUOUS
 62
     6
 10
81.364881
 20
131.156723
 40
1.944444
 50
-16.601562
 51
16.601572
  0
ARC
  8
CSLAYER1
  6
CONTINUOUS
 62
     6
 10
81.364881
 20
131.156723
 40
1.944444
 50
73.398406
 51
106.601595
  0
LINE
  8
CSLAYER1
  6
CONTINUOUS
 62
     6
 10
82.476006
 20
130.601161
 11
83.228263
 21
130.601161
  0
LINE
  8
CSLAYER1
  6
CONTINUOUS
 62
     6
 10
80.253756
 20
130.601161
 11
79.501500
 21
130.601161
  0
LINE
  8
CSLAYER1
  6
CONTINUOUS
 62
     6
 10
82.476006
 20
131.712285
 11
83.228263
 21
131.712285
  0
LINE
  8
CSLAYER1
  6
CONTINUOUS
 62
     6
 10
80.253756
 20
131.712285
 11
79.501500
 21
131.712285
  0
LINE
  8
CSLAYER1
  6
CONTINUOUS
 62
     6
 10
80.809319
 20
130.045627
 11
80.809319
 21
129.293313
  0
LINE
  8
CSLAYER1
  6
CONTINUOUS
 62
     6
 10
80.809319
 20
132.267819
 11
80.809319
 21
133.020133
  0
LINE
  8
CSLAYER1
  6
CONTINUOUS
 62
     6
 10
81.920444
 20
130.045627
 11
81.920444
 21
129.293313
  0
LINE
  8
CSLAYER1
  6
CONTINUOUS
 62
     6
 10
81.920444
 20
132.267819
 11
81.920444
 21
133.020133
  0
ARC
  8
CSLAYER1
  6
CONTINUOUS
 62
     6
 10
82.476006
 20
130.045627
 40
0.555556
 50
90.000001
 51
179.942691
  0
ARC
  8
CSLAYER1
  6
CONTINUOUS
 62
     6
 10
82.476006
 20
132.267819
 40
0.555556
 50
180.000010
 51
270.000016
  0
ARC
  8
CSLAYER1
  6
CONTINUOUS
 62
     6
 10
80.253756
 20
132.267819
 40
0.555556
 50
-89.999984
 51
0.000005
  0
ARC
  8
CSLAYER1
  6
CONTINUOUS
 62
     6
 10
80.253756
 20
130.045627
 40
0.555556
 50
0.000005
 51
89.942654
  0
CIRCLE
  8
CSLAYER1
  6
CONTINUOUS
 62
     6
 10
116.364883
 20
131.156734
 40
3.500000
  0
ARC
  8
CSLAYER1
  6
CONTINUOUS
 62
     6
 10
116.364870
 20
131.156734
 40
1.944444
 50
163.398416
 51
196.601577
  0
ARC
  8
CSLAYER1
  6
CONTINUOUS
 62
     6
 10
116.364870
 20
131.156734
 40
1.944444
 50
253.398422
 51
286.601583
  0
ARC
  8
CSLAYER1
  6
CONTINUOUS
 62
     6
 10
116.364870
 20
131.156734
 40
1.944444
 50
-16.601562
 51
16.601572
  0
ARC
  8
CSLAYER1
  6
CONTINUOUS
 62
     6
 10
116.364870
 20
131.156734
 40
1.944444
 50
73.398406
 51
106.601595
  0
LINE
  8
CSLAYER1
  6
CONTINUOUS
 62
     6
 10
117.475995
 20
130.601172
 11
118.228251
 21
130.601172
  0
LINE
  8
CSLAYER1
  6
CONTINUOUS
 62
     6
 10
115.253745
 20
130.601172
 11
114.501489
 21
130.601172
  0
LINE
  8
CSLAYER1
  6
CONTINUOUS
 62
     6
 10
117.475995
 20
131.712297
 11
118.228251
 21
131.712297
  0
LINE
  8
CSLAYER1
  6
CONTINUOUS
 62
     6
 10
115.253745
 20
131.712297
 11
114.501489
 21
131.712297
  0
LINE
  8
CSLAYER1
  6
CONTINUOUS
 62
     6
 10
115.809308
 20
130.045638
 11
115.809308
 21
129.293324
  0
LINE
  8
CSLAYER1
  6
CONTINUOUS
 62
     6
 10
115.809308
 20
132.267830
 11
115.809308
 21
133.020145
  0
LINE
  8
CSLAYER1
  6
CONTINUOUS
 62
     6
 10
116.920432
 20
130.045638
 11
116.920432
 21
129.293324
  0
LINE
  8
CSLAYER1
  6
CONTINUOUS
 62
     6
 10
116.920432
 20
132.267830
 11
116.920432
 21
133.020145
  0
ARC
  8
CSLAYER1
  6
CONTINUOUS
 62
     6
 10
117.475995
 20
130.045638
 40
0.555556
 50
90.000001
 51
179.942691
  0
ARC
  8
CSLAYER1
  6
CONTINUOUS
 62
     6
 10
117.475995
 20
132.267830
 40
0.555556
 50
180.000010
 51
270.000016
  0
ARC
  8
CSLAYER1
  6
CONTINUOUS
 62
     6
 10
115.253745
 20
132.267830
 40
0.555556
 50
-89.999984
 51
0.000005
  0
ARC
  8
CSLAYER1
  6
CONTINUOUS
 62
     6
 10
115.253745
 20
130.045638
 40
0.555556
 50
0.000005
 51
89.942654
  0
LINE
  8
CSLAYER1
  6
CENTER
 62
     3
 10
116.364875
 20
171.656727
 11
116.364875
 21
160.656710
  0
LINE
  8
CSLAYER1
  6
CENTER
 62
     3
 10
110.864866
 20
166.156719
 11
121.864883
 21
166.156719
  0
LINE
  8
CSLAYER1
  6
CENTER
 62
     3
 10
116.364875
 20
136.656727
 11
116.364875
 21
125.656710
  0
LINE
  8
CSLAYER1
  6
CENTER
 62
     3
 10
110.864866
 20
131.156719
 11
121.864883
 21
131.156719
  0
LINE
  8
CSLAYER1
  6
CENTER
 62
     3
 10
81.364886
 20
136.656716
 11
81.364886
 21
125.656699
  0
LINE
  8
CSLAYER1
  6
CENTER
 62
     3
 10
75.864877
 20
131.156707
 11
86.864894
 21
131.156707
  0
LINE
  8
CSLAYER1
  6
CENTER
 62
     3
 10
98.864882
 20
173.202180
 11
98.864867
 21
124.111257
  0
LINE
  8
CSLAYER1
  6
CENTER
 62
     3
 10
73.910323
 20
148.656719
 11
123.819416
 21
148.656719
  0
TEXT
  8
CSLAYER1
 62
     3
 10
91.316811
 20
145.712158
 40
1.472728
 41
1.260000
  1
S
 50
290.000000
 51
0.000000
  7
JX_FONT
 72
     5
 11
91.739921
 21
144.549673
  0
TEXT
  8
CSLAYER1
 62
     3
 10
91.883675
 20
144.411865
 40
1.472728
 41
1.260000
  1
A
 50
300.000000
 51
0.000000
  7
JX_FONT
 72
     5
 11
92.502220
 21
143.340513
  0
TEXT
  8
CSLAYER1
 62
     3
 10
92.779182
 20
143.308487
 40
1.472728
 41
1.675800
  1
W
 50
310.000000
 51
0.000000
  7
JX_FONT
 72
     5
 11
93.836781
 21
142.048090
  0
TEXT
  8
CSLAYER1
 62
     3
 10
93.800423
 20
142.332855
 40
1.472728
 41
1.260000
  1
A
 50
320.000000
 51
0.000000
  7
JX_FONT
 72
     5
 11
94.748089
 21
141.537668
  0
TEXT
  8
CSLAYER1
 62
     3
 10
94.973610
 20
141.546005
 40
1.472728
 41
1.260000
  1
M
 50
330.000000
 51
0.000000
  7
JX_FONT
 72
     5
 11
96.044962
 21
140.927460
  0
TEXT
  8
CSLAYER1
 62
     3
 10
96.268867
 20
140.982224
 40
1.472728
 41
1.260000
  1
U
 50
340.000000
 51
0.000000
  7
JX_FONT
 72
     5
 11
97.431353
 21
140.559113
  0
TEXT
  8
CSLAYER1
 62
     3
 10
97.624321
 20
140.552979
 40
1.472728
 41
1.260000
  1
R
 50
350.000000
 51
0.000000
  7
JX_FONT
 72
     5
 11
98.842618
 21
140.338160
  0
TEXT
  8
CSLAYER1
 62
     3
 10
99.050339
 20
140.557373
 40
1.472728
 41
1.260000
  1
A
 50
360.000000
 51
0.000000
  7
JX_FONT
 72
     5
 11
100.287430
 21
140.557373
  0
TEXT
  8
CSLAYER1
 62
     3
 10
101.809601
 20
141.109146
 40
1.472728
 41
1.260000
  1
D
 50
20.000000
 51
0.000000
  7
JX_FONT
 72
     5
 11
102.972086
 21
141.532256
  0
TEXT
  8
CSLAYER1
 62
     3
 10
103.075592
 20
141.734909
 40
1.472728
 41
1.260000
  1
E
 50
30.000000
 51
0.000000
  7
JX_FONT
 72
     5
 11
104.146944
 21
142.353455
  0
TEXT
  8
CSLAYER1
 62
     3
 10
104.213638
 20
142.571411
 40
1.472728
 41
1.260000
  1
N
 50
40.000000
 51
0.000000
  7
JX_FONT
 72
     5
 11
105.161305
 21
143.366598
  0
TEXT
  8
CSLAYER1
 62
     3
 10
105.189133
 20
143.592804
 40
1.472728
 41
1.260000
  1
K
 50
50.000000
 51
0.000000
  7
JX_FONT
 72
     5
 11
105.984320
 21
144.540471
  0
TEXT
  8
CSLAYER1
 62
     3
 10
105.972488
 20
144.767426
 40
1.472728
 41
0.831600
  1
I
 50
60.000000
 51
0.000000
  7
JX_FONT
 72
     5
 11
106.380729
 21
145.474518
  0
CIRCLE
  8
CSLAYER1
  6
CONTINUOUS
 62
     6
 10
98.864875
 20
148.656719
 40
9.500000
  0
LINE
  8
CSLAYER1
  6
CONTINUOUS
 62
     6
 10
100.452593
 20
167.361268
 11
97.277166
 21
167.361268
  0
LINE
  8
CSLAYER1
  6
CONTINUOUS
 62
     6
 10
97.277166
 20
167.361268
 11
95.689453
 21
164.611268
  0
LINE
  8
CSLAYER1
  6
CONTINUOUS
 62
     6
 10
95.689453
 20
164.611268
 11
97.277166
 21
161.861268
  0
LINE
  8
CSLAYER1
  6
CONTINUOUS
 62
     6
 10
97.277166
 20
161.861268
 11
100.452593
 21
161.861268
  0
LINE
  8
CSLAYER1
  6
CONTINUOUS
 62
     6
 10
100.452593
 20
161.861268
 11
102.040306
 21
164.611268
  0
LINE
  8
CSLAYER1
  6
CONTINUOUS
 62
     6
 10
102.040306
 20
164.611268
 11
100.452593
 21
167.361268
  0
CIRCLE
  8
CSLAYER1
  6
CONTINUOUS
 62
     6
 10
98.864880
 20
164.611268
 40
2.667500
  0
CIRCLE
  8
CSLAYER1
  6
CONTINUOUS
 62
     3
 10
98.864880
 20
164.611268
 40
1.500000
  0
CIRCLE
  8
CSLAYER1
  6
CONTINUOUS
 62
     6
 10
98.864880
 20
164.611268
 40
1.245000
  0
LINE
  8
CSLAYER1
  6
CENTER
 62
     3
 10
103.773956
 20
164.611268
 11
93.955771
 21
164.611268
  0
LINE
  8
CSLAYER1
  6
CONTINUOUS
 62
     6
 10
100.452593
 20
129.952169
 11
97.277166
 21
129.952169
  0
LINE
  8
CSLAYER1
  6
CONTINUOUS
 62
     6
 10
97.277166
 20
129.952169
 11
95.689453
 21
132.702169
  0
LINE
  8
CSLAYER1
  6
CONTINUOUS
 62
     6
 10
95.689453
 20
132.702169
 11
97.277166
 21
135.452169
  0
LINE
  8
CSLAYER1
  6
CONTINUOUS
 62
     6
 10
97.277166
 20
135.452169
 11
100.452593
 21
135.452169
  0
LINE
  8
CSLAYER1
  6
CONTINUOUS
 62
     6
 10
100.452593
 20
135.452169
 11
102.040306
 21
132.702169
  0
LINE
  8
CSLAYER1
  6
CONTINUOUS
 62
     6
 10
102.040306
 20
132.702169
 11
100.452593
 21
129.952169
  0
CIRCLE
  8
CSLAYER1
  6
CONTINUOUS
 62
     6
 10
98.864880
 20
132.702169
 40
2.667500
  0
CIRCLE
  8
CSLAYER1
  6
CONTINUOUS
 62
     3
 10
98.864880
 20
132.702169
 40
1.500000
  0
CIRCLE
  8
CSLAYER1
  6
CONTINUOUS
 62
     6
 10
98.864880
 20
132.702169
 40
1.245000
  0
LINE
  8
CSLAYER1
  6
CENTER
 62
     3
 10
103.773956
 20
132.702169
 11
93.955771
 21
132.702169
  0
LINE
  8
CSLAYER1
  6
CONTINUOUS
 62
     6
 10
111.614875
 20
148.906719
 11
112.614875
 21
148.906719
  0
LINE
  8
CSLAYER1
  6
CONTINUOUS
 62
     6
 10
111.614875
 20
148.406719
 11
112.614875
 21
148.406719
  0
ARC
  8
CSLAYER1
  6
CONTINUOUS
 62
     6
 10
114.114875
 20
148.656719
 40
0.250000
 50
-90.000000
 51
90.000000
  0
ARC
  8
CSLAYER1
  6
CONTINUOUS
 62
     6
 10
111.614875
 20
148.656719
 40
0.250000
 50
90.000000
 51
270.000000
  0
LINE
  8
CSLAYER1
  6
CONTINUOUS
 62
     6
 10
112.614875
 20
147.406719
 11
112.614875
 21
148.406719
  0
LINE
  8
CSLAYER1
  6
CONTINUOUS
 62
     6
 10
113.114875
 20
147.406719
 11
113.114875
 21
148.406719
  0
ARC
  8
CSLAYER1
  6
CONTINUOUS
 62
     6
 10
112.864875
 20
149.906719
 40
0.250000
 50
0.000000
 51
180.000000
  0
ARC
  8
CSLAYER1
  6
CONTINUOUS
 62
     6
 10
112.864875
 20
147.406719
 40
0.250000
 50
180.000000
 51
360.000000
  0
LINE
  8
CSLAYER1
  6
CONTINUOUS
 62
     6
 10
113.114875
 20
148.906719
 11
114.114875
 21
148.906719
  0
LINE
  8
CSLAYER1
  6
CONTINUOUS
 62
     6
 10
113.114875
 20
148.406719
 11
114.114875
 21
148.406719
  0
LINE
  8
CSLAYER1
  6
CONTINUOUS
 62
     6
 10
113.114875
 20
148.906719
 11
113.114875
 21
149.906719
  0
LINE
  8
CSLAYER1
  6
CONTINUOUS
 62
     6
 10
112.614875
 20
148.906719
 11
112.614875
 21
149.906719
  0
ARC
  8
CSLAYER1
  6
CONTINUOUS
 62
     6
 10
84.864875
 20
149.906719
 40
0.250000
 50
0.000000
 51
180.000000
  0
ARC
  8
CSLAYER1
  6
CONTINUOUS
 62
     6
 10
84.864875
 20
147.406719
 40
0.250000
 50
180.000000
 51
360.000000
  0
LINE
  8
CSLAYER1
  6
CONTINUOUS
 62
     6
 10
84.614875
 20
147.406719
 11
84.614875
 21
149.906719
  0
LINE
  8
CSLAYER1
  6
CONTINUOUS
 62
     6
 10
85.114875
 20
147.406719
 11
85.114875
 21
149.906719
  0
ARC
  8
CSLAYER1
  6
CONTINUOUS
 62
     6
 10
98.864875
 20
148.656719
 40
19.000000
 50
20.487315
 51
159.512649
  0
ARC
  8
CSLAYER1
  6
CONTINUOUS
 62
     6
 10
98.864875
 20
148.656719
 40
20.000000
 50
17.457603
 51
162.542361
  0
LINE
  8
CSLAYER1
  6
CONTINUOUS
 62
     6
 10
109.864870
 20
151.656719
 11
115.364870
 21
151.656719
  0
LINE
  8
CSLAYER1
  6
CONTINUOUS
 62
     6
 10
109.864870
 20
145.656719
 11
115.364870
 21
145.656719
  0
LINE
  8
CSLAYER1
  6
CONTINUOUS
 62
     6
 10
120.364870
 20
154.656719
 11
117.599869
 21
154.656719
  0
LINE
  8
CSLAYER1
  6
CONTINUOUS
 62
     6
 10
120.364870
 20
142.656719
 11
117.599869
 21
142.656719
  0
LINE
  8
CSLAYER1
  6
CONTINUOUS
 62
     6
 10
108.864870
 20
153.656719
 11
108.864870
 21
143.656719
  0
ARC
  8
CSLAYER1
  6
CONTINUOUS
 62
     6
 10
109.864870
 20
153.656719
 40
1.000000
 50
90.000000
 51
180.000000
  0
ARC
  8
CSLAYER1
  6
CONTINUOUS
 62
     6
 10
109.864870
 20
143.656719
 40
1.000000
 50
180.000000
 51
270.000000
  0
ARC
  8
CSLAYER1
  6
CONTINUOUS
 62
     6
 10
109.864870
 20
150.656719
 40
1.000000
 50
90.000000
 51
180.000000
  0
ARC
  8
CSLAYER1
  6
CONTINUOUS
 62
     6
 10
109.864870
 20
146.656719
 40
1.000000
 50
180.000000
 51
270.000000
  0
LINE
  8
CSLAYER1
  6
CONTINUOUS
 62
     6
 10
81.364876
 20
143.656719
 11
81.364883
 21
153.656719
  0
LINE
  8
CSLAYER1
  6
CONTINUOUS
 62
     6
 10
87.864881
 20
151.656726
 11
82.364881
 21
151.656729
  0
LINE
  8
CSLAYER1
  6
CONTINUOUS
 62
     6
 10
87.864878
 20
145.656726
 11
82.364878
 21
145.656729
  0
LINE
  8
CSLAYER1
  6
CONTINUOUS
 62
     6
 10
88.864883
 20
153.656725
 11
88.864876
 21
143.656725
  0
ARC
  8
CSLAYER1
  6
CONTINUOUS
 62
     6
 10
87.864883
 20
153.656726
 40
1.000000
 50
-0.000037
 51
89.999963
  0
ARC
  8
CSLAYER1
  6
CONTINUOUS
 62
     6
 10
87.864876
 20
143.656726
 40
1.000000
 50
269.999963
 51
359.999963
  0
ARC
  8
CSLAYER1
  6
CONTINUOUS
 62
     6
 10
87.864881
 20
150.656726
 40
1.000000
 50
-0.000037
 51
89.999963
  0
ARC
  8
CSLAYER1
  6
CONTINUOUS
 62
     6
 10
87.864878
 20
146.656726
 40
1.000000
 50
269.999963
 51
359.999963
  0
ARC
  8
CSLAYER1
  6
CONTINUOUS
 62
     6
 10
82.364878
 20
146.656729
 40
1.000000
 50
179.999963
 51
269.999963
  0
ARC
  8
CSLAYER1
  6
CONTINUOUS
 62
     6
 10
82.364881
 20
150.656729
 40
1.000000
 50
89.999963
 51
179.999963
  0
ARC
  8
CSLAYER1
  6
CONTINUOUS
 62
     6
 10
98.864875
 20
148.656719
 40
19.000000
 50
200.487279
 51
339.512685
  0
ARC
  8
CSLAYER1
  6
CONTINUOUS
 62
     6
 10
98.864875
 20
148.656719
 40
20.000000
 50
197.457567
 51
342.542397
  0
LINE
  8
CSLAYER1
  6
CONTINUOUS
 62
     6
 10
87.864883
 20
154.656726
 11
81.629877
 21
154.656730
  0
LINE
  8
CSLAYER1
  6
CONTINUOUS
 62
     6
 10
87.864876
 20
142.656726
 11
81.629877
 21
142.656730
  0
LINE
  8
CSLAYER1
  6
CONTINUOUS
 62
     6
 10
116.364870
 20
143.656719
 11
116.364870
 21
153.656719
  0
ARC
  8
CSLAYER1
  6
CONTINUOUS
 62
     6
 10
115.364870
 20
146.656719
 40
1.000000
 50
-90.000000
 51
0.000000
  0
ARC
  8
CSLAYER1
  6
CONTINUOUS
 62
     6
 10
115.364870
 20
150.656719
 40
1.000000
 50
-0.000000
 51
90.000000
  0
LINE
  8
CSLAYER1
  6
CONTINUOUS
 62
     6
 10
118.364870
 20
144.383990
 11
119.964870
 21
144.383990
  0
LINE
  8
CSLAYER1
  6
CONTINUOUS
 62
     6
 10
119.964870
 20
144.383990
 11
119.964870
 21
145.202172
  0
LINE
  8
CSLAYER1
  6
CONTINUOUS
 62
     6
 10
118.364870
 20
145.202172
 11
119.164870
 21
145.202172
  0
LINE
  8
CSLAYER1
  6
CONTINUOUS
 62
     6
 10
118.364870
 20
144.383990
 11
118.364870
 21
152.929447
  0
LINE
  8
CSLAYER1
  6
CONTINUOUS
 62
     6
 10
121.364870
 20
143.656719
 11
121.364870
 21
153.656719
  0
LINE
  8
CSLAYER1
  6
CONTINUOUS
 62
     6
 10
118.364870
 20
152.929447
 11
119.964870
 21
152.929447
  0
LINE
  8
CSLAYER1
  6
CONTINUOUS
 62
     6
 10
119.964870
 20
152.929447
 11
119.964870
 21
152.111265
  0
LINE
  8
CSLAYER1
  6
CONTINUOUS
 62
     6
 10
118.364870
 20
152.111265
 11
119.164870
 21
152.111265
  0
LINE
  8
CSLAYER1
  6
CONTINUOUS
 62
     6
 10
120.364870
 20
154.656719
 11
121.364870
 21
153.656719
  0
LINE
  8
CSLAYER1
  6
CONTINUOUS
 62
     6
 10
121.364870
 20
143.656719
 11
120.364870
 21
142.656719
  0
LINE
  8
CSLAYER1
  6
CONTINUOUS
 62
     6
 10
119.964870
 20
152.111265
 11
121.364870
 21
152.111265
  0
LINE
  8
CSLAYER1
  6
CONTINUOUS
 62
     6
 10
119.964870
 20
145.202172
 11
121.364870
 21
145.202172
  0
LINE
  8
CSLAYER1
  6
CONTINUOUS
 62
     6
 10
119.164870
 20
144.383990
 11
119.164870
 21
152.929447
  0
ARC
  8
CSLAYER1
  6
CONTINUOUS
 62
     6
 10
80.129885
 20
155.656731
 40
1.000000
 50
269.999963
 51
339.512649
  0
ARC
  8
CSLAYER1
  6
CONTINUOUS
 62
     6
 10
80.129876
 20
141.656731
 40
1.000000
 50
20.487279
 51
89.999963
  0
ARC
  8
CSLAYER1
  6
CONTINUOUS
 62
     6
 10
117.599869
 20
141.656719
 40
1.000000
 50
90.000000
 51
159.512685
  0
ARC
  8
CSLAYER1
  6
CONTINUOUS
 62
     6
 10
117.599869
 20
155.656719
 40
1.000000
 50
200.487315
 51
270.000000
  0
LINE
  8
CSLAYER1
  6
CONTINUOUS
 62
     6
 10
79.364877
 20
144.384003
 11
77.764877
 21
144.384004
  0
LINE
  8
CSLAYER1
  6
CONTINUOUS
 62
     6
 10
77.764877
 20
144.384004
 11
77.764877
 21
145.202186
  0
LINE
  8
CSLAYER1
  6
CONTINUOUS
 62
     6
 10
79.364877
 20
145.202185
 11
78.564877
 21
145.202185
  0
LINE
  8
CSLAYER1
  6
CONTINUOUS
 62
     6
 10
79.364877
 20
144.384003
 11
79.364882
 21
152.929459
  0
LINE
  8
CSLAYER1
  6
CONTINUOUS
 62
     6
 10
76.364876
 20
143.656733
 11
76.364883
 21
153.656733
  0
LINE
  8
CSLAYER1
  6
CONTINUOUS
 62
     6
 10
79.364882
 20
152.929459
 11
77.764882
 21
152.929460
  0
LINE
  8
CSLAYER1
  6
CONTINUOUS
 62
     6
 10
77.764882
 20
152.929460
 11
77.764882
 21
152.111278
  0
LINE
  8
CSLAYER1
  6
CONTINUOUS
 62
     6
 10
79.364882
 20
152.111277
 11
78.564882
 21
152.111278
  0
LINE
  8
CSLAYER1
  6
CONTINUOUS
 62
     6
 10
77.364883
 20
154.656732
 11
76.364883
 21
153.656733
  0
LINE
  8
CSLAYER1
  6
CONTINUOUS
 62
     6
 10
76.364876
 20
143.656733
 11
77.364876
 21
142.656732
  0
LINE
  8
CSLAYER1
  6
CONTINUOUS
 62
     6
 10
77.764882
 20
152.111278
 11
76.364882
 21
152.111279
  0
LINE
  8
CSLAYER1
  6
CONTINUOUS
 62
     6
 10
77.764877
 20
145.202186
 11
76.364877
 21
145.202187
  0
LINE
  8
CSLAYER1
  6
CONTINUOUS
 62
     6
 10
78.564877
 20
144.384003
 11
78.564882
 21
152.929460
  0
LINE
  8
CSLAYER1
  6
CONTINUOUS
 62
     6
 10
116.099869
 20
154.656719
 11
109.864870
 21
154.656719
  0
LINE
  8
CSLAYER1
  6
CONTINUOUS
 62
     6
 10
116.099869
 20
142.656719
 11
109.864870
 21
142.656719
  0
LINE
  8
CSLAYER1
  6
CONTINUOUS
 62
     6
 10
80.129884
 20
154.656731
 11
77.364883
 21
154.656732
  0
LINE
  8
CSLAYER1
  6
CONTINUOUS
 62
     6
 10
80.129877
 20
142.656731
 11
77.364876
 21
142.656732
  0
ENDSEC
  0
EOF
