  0
SECTION
  2
HEADER
  9
$ACADVER
  1
AC1006
  9
$INSBASE
 10
0.000000
 20
0.000000
 30
0.0
  9
$EXTMIN
 10
0.000000
 20
0.000000
  9
$EXTMAX
 10
420.000000
 20
297.000000
  9
$LIMMIN
 10
0.000000
 20
0.000000
  9
$LIMMAX
 10
420.000000
 20
297.000000
  9
$VIEWCTR
 10
210.000000
 20
148.500000
  9
$VIEWSIZE
 40
297.000000
  9
$SNAPMODE
 70
     0
  9
$SNAPUNIT
 10
1.0
 20
1.0
  9
$SNAPBASE
 10
0.0
 20
0.0
  9
$SNAPANG
 50
0.0
  9
$SNAPSTYLE
 70
     0
  9
$SNAPISOPAIR
 70
     0
  9
$GRIDMODE
 70
     0
  9
$GRIDUNIT
 10
0.0
 20
0.0
  9
$ORTHOMODE
 70
     0
  9
$REGENMODE
 70
     1
  9
$FILLMODE
 70
     1
  9
$QTEXTMODE
 70
     0
  9
$DRAGMODE
 70
     2
  9
$LTSCALE
 40
15.000000
  9
$OSMODE
 70
     0
  9
$ATTMODE
 70
     1
  9
$TEXTSIZE
 40
0.2
  9
$TRACEWID
 40
0.05
  9
$TEXTSTYLE
  7
STANDARD
  9
$CLAYER
  8
CSLAYER1
  9
$CELTYPE
  6
BYLAYER
  9
$CECOLOR
 62
   256
  9
$DIMSCALE
 40
1.0
  9
$DIMASZ
 40
0.18
  9
$DIMEXO
 40
0.0625
  9
$DIMDLI
 40
0.38
  9
$DIMRND
 40
0.0
  9
$DIMDLE
 40
0.0
  9
$DIMEXE
 40
0.18
  9
$DIMTP
 40
0.0
  9
$DIMTM
 40
0.0
  9
$DIMTXT
 40
0.18
  9
$DIMCEN
 40
0.09
  9
$DIMTSZ
 40
0.0
  9
$DIMTOL
 70
     0
  9
$DIMLIM
 70
     0
  9
$DIMTIH
 70
     1
  9
$DIMTOH
 70
     1
  9
$DIMSE1
 70
     0
  9
$DIMSE2
 70
     0
  9
$DIMTAD
 70
     0
  9
$DIMZIN
 70
     0
  9
$DIMBLK
  1

  9
$LUNITS
 70
     2
  9
$LUPREC
 70
     4
  9
$AXISMODE
 70
     0
  9
$AXISUNIT
 10
0.0
 20
0.0
  9
$SKETCHINC
 40
0.1
  9
$FILLETRAD
 40
0.0
  9
$AUNITS
 70
     0
  9
$AUPREC
 70
     0
  9
$MENU
  1
ACAD
  9
$ELEVATION
 40
0.0
  9
$THICKNESS
 40
0.0
  9
$VIEWDIR
 10
0.0
 20
0.0
 30
1.0
  9
$LIMCHECK
 70
     0
  9
$BLIPMODE
 70
     1
  9
$CHAMFERA
 40
0.0
  9
$CHAMFERB
 40
0.0
  9
$FASTZOOM
 70
     1
  9
$SKPOLY
 70
     0
  9
$TDCREATE
 40
0.000000
  9
$TDUPDATE
 40
0.000000
  9
$TDINDWG
 40
0.0
  9
$TDUSRTIMER
 40
0.0
  9
$USRTIMER
 70
     1
  9
$ANGBASE
 50
0.0
  9
$ANGDIR
 70
     0
  9
$PDMODE
 70
     0
  9
$PDSIZE
 40
0.0
  9
$PLINEWID
 40
0.0
  9
$COORDS
 70
     0
  9
$USERI1
 70
     0
  9
$USERI2
 70
     0
  9
$USERI3
 70
     0
  9
$USERI4
 70
     0
  9
$USERI5
 70
     0
  9
$USERR1
 40
0.0
  9
$USERR2
 40
0.0
  9
$USERR3
 40
0.0
  9
$USERR4
 40
0.0
  9
$USERR5
 40
0.0
  0
ENDSEC
  0
SECTION
  2
TABLES
  0
TABLE
  2
LTYPE
 70
     9
  0
LTYPE
  2
CONTINUOUS
 70
    64
  3
Solid line
 72
    65
 73
     0
 40
0.0
  0
LTYPE
  2
DASHED
 70
    64
  3
__ __ __ __ __ __ __ __ __ __ __ __ __ __ __
 72
    65
 73
     2
 40
0.75
 49
0.5
 49
-0.25
  0
LTYPE
  2
HIDDEN
 70
    64
  3
_ _ _ _ _ _ _ _ _ _ _ _ _ _ _ _ _ _ _ _ _ _ _
 72
    65
 73
     2
 40
0.375
 49
0.25
 49
-0.125
  0
LTYPE
  2
DOT
 70
    64
  3
...............................................
 72
    65
 73
     2
 40
0.25
 49
0.0
 49
-0.25
  0
LTYPE
  2
DASHDOT
 70
    64
  3
__ . __ . __ . __ . __ . __ . __ . __ . __ . __
 72
    65
 73
     4
 40
1.0
 49
0.5
 49
-0.25
 49
0.0
 49
-0.25
  0
LTYPE
  2
DIVIDE
 70
    64
  3
__ . . __ . . __ . . __ . . __ . . __ . . __
 72
    65
 73
     6
 40
1.25
 49
0.5
 49
-0.25
 49
0.0
 49
-0.25
 49
0.0
 49
-0.25
  0
LTYPE
  2
CENTER
 70
    64
  3
____ _ ____ _ ____ _ ____ _ ____ _ ____ _ ____ 
 72
    65
 73
     4
 40
2.0
 49
1.25
 49
-0.25
 49
0.25
 49
-0.25
  0
LTYPE
  2
PHANTOM
 70
    64
  3
______  __  __  ______  __  __  ______  __  __ 
 72
    65
 73
     6
 40
2.5
 49
1.25
 49
-0.25
 49
0.25
 49
-0.25
 49
0.25
 49
-0.25
  0
LTYPE
  2
BORDER
 70
    64
  3
__ __ . __ __ . __ __ . __ __ . __ __ . __ __ .
 72
    65
 73
     6
 40
1.75
 49
0.5
 49
-0.25
 49
0.5
 49
-0.25
 49
0.0
 49
-0.25
  0
ENDTAB
  0
TABLE
  2
LAYER
 70
    16
  0
LAYER
  2
CSLAYER1
 70
    64
 62
     7
  6
CONTINUOUS
  0
LAYER
  2
CSLAYER2
 70
    64
 62
     7
  6
CONTINUOUS
  0
LAYER
  2
CSLAYER3
 70
    64
 62
     7
  6
CONTINUOUS
  0
LAYER
  2
CSLAYER4
 70
    64
 62
     7
  6
CONTINUOUS
  0
LAYER
  2
CSLAYER5
 70
    64
 62
     7
  6
CONTINUOUS
  0
LAYER
  2
CSLAYER6
 70
    64
 62
     7
  6
CONTINUOUS
  0
LAYER
  2
CSLAYER7
 70
    64
 62
     7
  6
CONTINUOUS
  0
LAYER
  2
CSLAYER8
 70
    64
 62
     7
  6
CONTINUOUS
  0
LAYER
  2
CSLAYER9
 70
    64
 62
     7
  6
CONTINUOUS
  0
LAYER
  2
CSLAYER10
 70
    64
 62
     7
  6
CONTINUOUS
  0
LAYER
  2
CSLAYER11
 70
    64
 62
     7
  6
CONTINUOUS
  0
LAYER
  2
CSLAYER12
 70
    64
 62
     7
  6
CONTINUOUS
  0
LAYER
  2
CSLAYER13
 70
    64
 62
     7
  6
CONTINUOUS
  0
LAYER
  2
CSLAYER14
 70
    64
 62
     7
  6
CONTINUOUS
  0
LAYER
  2
CSLAYER15
 70
    64
 62
     7
  6
CONTINUOUS
  0
LAYER
  2
CSLAYER16
 70
    64
 62
     7
  6
CONTINUOUS
  0
ENDTAB
  0
TABLE
  2
STYLE
 70
     1
  0
STYLE
  2
JX_FONT
 70
     0
 40
1.0
 41
1.0
 50
0.0
 71
     0
 42
1.0
  3
monotxt
  4
bigfont
  0
ENDTAB
  0
TABLE
  2
VIEW
 70
     0
  0
ENDTAB
  0
ENDSEC
  0
SECTION
  2
BLOCKS
  0
ENDSEC
  0
SECTION
  2
ENTITIES
  0
LINE
  8
CSLAYER1
  6
CONTINUOUS
 62
     6
 10
216.094109
 20
254.275833
 11
181.048607
 21
254.275833
  0
LINE
  8
CSLAYER1
  6
CONTINUOUS
 62
     6
 10
216.094110
 20
214.275833
 11
181.048607
 21
214.275833
  0
LINE
  8
CSLAYER1
  6
CONTINUOUS
 62
     6
 10
181.048607
 20
214.275833
 11
180.048607
 21
215.275833
  0
LINE
  8
CSLAYER1
  6
CONTINUOUS
 62
     6
 10
181.048607
 20
254.275833
 11
180.048607
 21
253.275833
  0
LINE
  8
CSLAYER1
  6
CONTINUOUS
 62
     6
 10
181.048607
 20
214.275833
 11
181.048607
 21
254.275833
  0
LINE
  8
CSLAYER1
  6
CENTER
 62
     3
 10
265.548607
 20
234.275833
 11
158.048607
 21
234.275833
  0
LINE
  8
CSLAYER1
  6
CENTER
 62
     3
 10
265.548607
 20
61.522358
 11
158.048637
 21
61.522328
  0
LINE
  8
CSLAYER1
  6
CONTINUOUS
 62
     6
 10
219.048607
 20
87.522347
 11
219.048607
 21
35.522343
  0
LINE
  8
CSLAYER1
  6
CONTINUOUS
 62
     6
 10
225.048607
 20
88.522347
 11
225.048607
 21
34.522347
  0
LINE
  8
CSLAYER1
  6
CONTINUOUS
 62
     6
 10
225.048607
 20
88.522347
 11
220.048607
 21
88.522347
  0
ARC
  8
CSLAYER1
  6
CONTINUOUS
 62
     6
 10
220.048607
 20
87.522347
 40
1.000000
 50
90.000000
 51
180.000000
  0
LINE
  8
CSLAYER1
  6
CONTINUOUS
 62
     6
 10
253.048606
 20
88.522355
 11
225.048607
 21
88.522347
  0
LINE
  8
CSLAYER1
  6
CENTER
 62
     3
 10
234.548607
 20
83.522349
 11
212.849372
 21
83.522343
  0
LINE
  8
CSLAYER1
  6
CENTER
 62
     3
 10
234.548607
 20
39.522349
 11
212.849372
 21
39.522343
  0
LINE
  8
CSLAYER1
  6
CONTINUOUS
 62
     6
 10
225.048622
 20
34.522347
 11
220.048622
 21
34.522344
  0
ARC
  8
CSLAYER1
  6
CONTINUOUS
 62
     6
 10
220.048621
 20
35.522344
 40
1.000000
 50
180.000032
 51
270.000032
  0
LINE
  8
CSLAYER1
  6
CONTINUOUS
 62
     6
 10
231.048607
 20
34.522348
 11
225.048622
 21
34.522347
  0
LINE
  8
CSLAYER1
  6
CONTINUOUS
 62
     6
 10
233.048607
 20
86.522348
 11
233.048607
 21
76.522349
  0
LINE
  8
CSLAYER1
  6
CONTINUOUS
 62
     6
 10
254.048607
 20
87.522355
 11
254.048607
 21
77.846910
  0
ARC
  8
CSLAYER1
  6
CONTINUOUS
 62
     6
 10
231.048607
 20
86.522348
 40
2.000000
 50
0.000000
 51
90.000016
  0
ARC
  8
CSLAYER1
  6
CONTINUOUS
 62
     6
 10
231.048607
 20
36.522348
 40
2.000000
 50
270.000016
 51
360.000000
  0
ARC
  8
CSLAYER1
  6
CONTINUOUS
 62
     6
 10
253.048607
 20
87.522355
 40
1.000000
 50
0.000000
 51
90.000016
  0
LINE
  8
CSLAYER1
  6
CONTINUOUS
 62
     6
 10
228.048607
 20
64.522348
 11
228.048607
 21
58.522348
  0
LINE
  8
CSLAYER1
  6
CONTINUOUS
 62
     6
 10
253.048605
 20
76.522355
 11
230.048605
 21
76.522348
  0
LINE
  8
CSLAYER1
  6
CONTINUOUS
 62
     6
 10
253.048608
 20
46.522355
 11
230.048608
 21
46.522348
  0
LINE
  8
CSLAYER1
  6
CONTINUOUS
 62
     6
 10
233.048607
 20
46.522349
 11
233.048607
 21
36.522348
  0
LINE
  8
CSLAYER1
  6
CONTINUOUS
 62
     6
 10
258.048607
 20
71.522355
 11
258.048607
 21
51.522355
  0
ARC
  8
CSLAYER1
  6
CONTINUOUS
 62
     6
 10
230.048607
 20
71.522348
 40
5.000000
 50
90.000016
 51
180.000000
  0
ARC
  8
CSLAYER1
  6
CONTINUOUS
 62
     6
 10
230.048607
 20
51.522348
 40
5.000000
 50
180.000000
 51
270.000016
  0
ARC
  8
CSLAYER1
  6
CONTINUOUS
 62
     6
 10
253.048607
 20
71.522355
 40
5.000000
 50
0.000000
 51
90.000016
  0
ARC
  8
CSLAYER1
  6
CONTINUOUS
 62
     6
 10
253.048607
 20
51.522355
 40
5.000000
 50
270.000016
 51
360.000000
  0
LINE
  8
CSLAYER1
  6
CONTINUOUS
 62
     6
 10
255.048607
 20
64.522355
 11
255.048607
 21
58.522355
  0
LINE
  8
CSLAYER1
  6
CONTINUOUS
 62
     6
 10
254.048607
 20
45.197799
 11
254.048607
 21
38.522355
  0
LINE
  8
CSLAYER1
  6
CENTER
 62
     3
 10
244.048639
 20
4.522352
 11
244.048575
 21
118.522352
  0
LINE
  8
CSLAYER1
  6
CONTINUOUS
 62
     6
 10
246.048606
 20
73.522353
 11
237.048606
 21
73.522350
  0
LINE
  8
CSLAYER1
  6
CONTINUOUS
 62
     6
 10
246.048607
 20
49.522353
 11
237.048607
 21
49.522350
  0
LINE
  8
CSLAYER1
  6
CONTINUOUS
 62
     6
 10
253.048607
 20
37.522355
 11
234.780658
 21
37.522350
  0
ARC
  8
CSLAYER1
  6
CONTINUOUS
 62
     6
 10
253.048607
 20
38.522355
 40
1.000000
 50
270.000016
 51
360.000000
  0
ARC
  8
CSLAYER1
  6
CONTINUOUS
 62
     6
 10
230.048607
 20
71.522348
 40
5.000000
 50
-90.000000
 51
0.000016
  0
ARC
  8
CSLAYER1
  6
CONTINUOUS
 62
     6
 10
237.048607
 20
71.522350
 40
2.000000
 50
90.000016
 51
180.000016
  0
ARC
  8
CSLAYER1
  6
CONTINUOUS
 62
     6
 10
230.048607
 20
64.522348
 40
2.000000
 50
90.000000
 51
180.000000
  0
ARC
  8
CSLAYER1
  6
CONTINUOUS
 62
     6
 10
253.048607
 20
71.522355
 40
5.000000
 50
180.000016
 51
270.000000
  0
ARC
  8
CSLAYER1
  6
CONTINUOUS
 62
     6
 10
253.048607
 20
51.522355
 40
5.000000
 50
90.000000
 51
180.000016
  0
ARC
  8
CSLAYER1
  6
CONTINUOUS
 62
     6
 10
230.048607
 20
51.522348
 40
5.000000
 50
0.000016
 51
90.000000
  0
ARC
  8
CSLAYER1
  6
CONTINUOUS
 62
     6
 10
230.048607
 20
58.522348
 40
2.000000
 50
180.000000
 51
270.000000
  0
ARC
  8
CSLAYER1
  6
CONTINUOUS
 62
     6
 10
237.048607
 20
51.522350
 40
2.000000
 50
180.000016
 51
270.000016
  0
ARC
  8
CSLAYER1
  6
CONTINUOUS
 62
     6
 10
246.048607
 20
51.522353
 40
2.000000
 50
-89.999984
 51
0.000016
  0
ARC
  8
CSLAYER1
  6
CONTINUOUS
 62
     6
 10
253.048607
 20
58.522355
 40
2.000000
 50
270.000000
 51
360.000000
  0
ARC
  8
CSLAYER1
  6
CONTINUOUS
 62
     6
 10
253.048607
 20
64.522355
 40
2.000000
 50
0.000000
 51
90.000000
  0
ARC
  8
CSLAYER1
  6
CONTINUOUS
 62
     6
 10
246.048607
 20
71.522353
 40
2.000000
 50
0.000016
 51
90.000016
  0
LINE
  8
CSLAYER1
  6
CONTINUOUS
 62
     6
 10
262.548607
 20
69.522356
 11
262.548607
 21
53.522356
  0
ARC
  8
CSLAYER1
  6
CONTINUOUS
 62
     6
 10
257.548607
 20
69.522356
 40
5.000000
 50
0.000000
 51
86.631648
  0
ARC
  8
CSLAYER1
  6
CONTINUOUS
 62
     6
 10
257.548607
 20
53.522356
 40
5.000000
 50
273.368421
 51
360.000000
  0
ARC
  8
CSLAYER1
  6
CONTINUOUS
 62
     6
 10
234.780658
 20
35.522350
 40
2.000000
 50
90.000016
 51
150.000037
  0
LINE
  8
CSLAYER1
  6
CONTINUOUS
 62
     6
 10
248.013591
 20
88.522353
 11
248.013576
 21
115.522353
  0
LINE
  8
CSLAYER1
  6
CONTINUOUS
 62
     6
 10
240.083591
 20
88.522351
 11
240.083576
 21
115.522351
  0
LINE
  8
CSLAYER1
  6
CONTINUOUS
 62
     6
 10
248.013576
 20
115.522353
 11
240.083576
 21
115.522351
  0
LINE
  8
CSLAYER1
  6
CONTINUOUS
 62
     6
 10
245.976024
 20
90.522352
 11
242.121157
 21
90.522351
  0
LINE
  8
CSLAYER1
  6
CONTINUOUS
 62
     6
 10
242.121143
 20
115.522351
 11
242.121157
 21
90.522351
  0
LINE
  8
CSLAYER1
  6
CONTINUOUS
 62
     6
 10
245.976010
 20
115.522352
 11
245.976024
 21
90.522352
  0
LINE
  8
CSLAYER1
  6
CONTINUOUS
 62
     3
 10
242.121157
 20
90.522351
 11
245.976010
 21
115.522352
  0
LINE
  8
CSLAYER1
  6
CONTINUOUS
 62
     3
 10
245.976024
 20
90.522352
 11
242.121143
 21
115.522351
  0
ARC
  8
CSLAYER1
  6
CONTINUOUS
 62
     6
 10
257.959900
 20
46.534449
 40
2.000000
 50
93.368421
 51
134.556584
  0
ARC
  8
CSLAYER1
  6
CONTINUOUS
 62
     6
 10
256.048607
 20
45.197799
 40
2.000000
 50
115.376934
 51
180.000000
  0
ARC
  8
CSLAYER1
  6
CONTINUOUS
 62
     6
 10
257.959891
 20
76.510263
 40
2.000000
 50
225.443448
 51
266.631612
  0
ARC
  8
CSLAYER1
  6
CONTINUOUS
 62
     6
 10
256.048597
 20
77.846912
 40
2.000000
 50
180.000032
 51
244.623099
  0
LINE
  8
CSLAYER1
  6
CONTINUOUS
 62
     6
 10
166.048607
 20
43.522323
 11
166.048607
 21
79.522337
  0
LINE
  8
CSLAYER1
  6
CONTINUOUS
 62
     6
 10
216.094110
 20
81.522337
 11
181.048607
 21
81.522337
  0
LINE
  8
CSLAYER1
  6
CONTINUOUS
 62
     6
 10
216.094110
 20
41.522337
 11
181.048607
 21
41.522337
  0
LINE
  8
CSLAYER1
  6
CONTINUOUS
 62
     6
 10
180.048607
 20
39.022334
 11
180.048607
 21
84.022334
  0
LINE
  8
CSLAYER1
  6
CONTINUOUS
 62
     6
 10
181.048607
 20
41.522337
 11
180.048607
 21
42.522337
  0
LINE
  8
CSLAYER1
  6
CONTINUOUS
 62
     6
 10
181.048607
 20
81.522337
 11
180.048607
 21
80.522337
  0
LINE
  8
CSLAYER1
  6
CONTINUOUS
 62
     6
 10
181.048607
 20
41.522337
 11
181.048607
 21
81.522337
  0
ARC
  8
CSLAYER1
  6
CONTINUOUS
 62
     6
 10
167.048607
 20
79.522337
 40
1.000000
 50
90.000000
 51
180.000000
  0
LINE
  8
CSLAYER1
  6
CONTINUOUS
 62
     6
 10
168.048607
 20
80.522337
 11
167.048607
 21
80.522337
  0
LINE
  8
CSLAYER1
  6
CONTINUOUS
 62
     6
 10
164.548607
 20
71.022337
 11
162.548607
 21
71.022337
  0
ARC
  8
CSLAYER1
  6
CONTINUOUS
 62
     6
 10
162.548607
 20
69.522337
 40
1.500000
 50
90.000000
 51
180.000000
  0
ARC
  8
CSLAYER1
  6
CONTINUOUS
 62
     6
 10
164.548607
 20
72.522337
 40
1.500000
 50
270.000000
 51
360.000000
  0
LINE
  8
CSLAYER1
  6
CONTINUOUS
 62
     6
 10
164.548607
 20
52.022337
 11
162.548607
 21
52.022337
  0
ARC
  8
CSLAYER1
  6
CONTINUOUS
 62
     6
 10
162.548607
 20
53.522337
 40
1.500000
 50
180.000000
 51
270.000000
  0
ARC
  8
CSLAYER1
  6
CONTINUOUS
 62
     6
 10
164.548607
 20
50.522337
 40
1.500000
 50
0.000000
 51
90.000000
  0
LINE
  8
CSLAYER1
  6
CONTINUOUS
 62
     6
 10
161.048607
 20
69.522337
 11
161.048607
 21
53.522337
  0
LINE
  8
CSLAYER1
  6
CONTINUOUS
 62
     6
 10
180.048607
 20
84.022334
 11
168.048607
 21
84.022331
  0
LINE
  8
CSLAYER1
  6
CONTINUOUS
 62
     6
 10
168.048607
 20
80.022331
 11
168.048607
 21
84.022331
  0
LINE
  8
CSLAYER1
  6
CONTINUOUS
 62
     6
 10
180.048607
 20
83.022334
 11
168.048607
 21
83.022331
  0
LINE
  8
CSLAYER1
  6
CONTINUOUS
 62
     6
 10
180.048607
 20
80.022334
 11
168.048607
 21
80.022331
  0
LINE
  8
CSLAYER1
  6
CONTINUOUS
 62
     6
 10
168.048607
 20
81.022331
 11
161.048607
 21
81.022329
  0
LINE
  8
CSLAYER1
  6
CONTINUOUS
 62
     6
 10
180.048619
 20
39.022334
 11
168.048619
 21
39.022331
  0
LINE
  8
CSLAYER1
  6
CONTINUOUS
 62
     6
 10
168.048617
 20
43.022331
 11
168.048619
 21
39.022331
  0
LINE
  8
CSLAYER1
  6
CONTINUOUS
 62
     6
 10
180.048619
 20
40.022334
 11
168.048619
 21
40.022331
  0
LINE
  8
CSLAYER1
  6
CONTINUOUS
 62
     6
 10
180.048617
 20
43.022334
 11
168.048617
 21
43.022331
  0
ARC
  8
CSLAYER1
  6
CONTINUOUS
 62
     6
 10
167.048617
 20
43.522324
 40
1.000000
 50
180.000032
 51
270.000032
  0
LINE
  8
CSLAYER1
  6
CONTINUOUS
 62
     6
 10
168.048617
 20
42.522324
 11
167.048617
 21
42.522324
  0
LINE
  8
CSLAYER1
  6
CONTINUOUS
 62
     6
 10
168.048607
 20
81.522331
 11
161.048607
 21
81.522329
  0
LINE
  8
CSLAYER1
  6
CONTINUOUS
 62
     6
 10
161.048607
 20
81.522329
 11
161.048607
 21
81.022329
  0
LINE
  8
CSLAYER1
  6
CONTINUOUS
 62
     6
 10
168.048618
 20
42.022331
 11
161.048618
 21
42.022329
  0
LINE
  8
CSLAYER1
  6
CONTINUOUS
 62
     6
 10
168.048618
 20
41.522331
 11
161.048618
 21
41.522329
  0
LINE
  8
CSLAYER1
  6
CONTINUOUS
 62
     6
 10
161.048618
 20
41.522329
 11
161.048618
 21
42.022329
  0
LINE
  8
CSLAYER1
  6
CENTER
 62
     3
 10
261.048607
 20
160.319010
 11
158.048607
 21
160.319040
  0
LINE
  8
CSLAYER1
  6
CONTINUOUS
 62
     6
 10
219.048607
 20
134.319020
 11
219.048607
 21
186.319024
  0
LINE
  8
CSLAYER1
  6
CONTINUOUS
 62
     6
 10
225.048607
 20
187.319020
 11
225.048607
 21
125.319020
  0
LINE
  8
CSLAYER1
  6
CONTINUOUS
 62
     6
 10
225.048607
 20
133.319020
 11
220.048607
 21
133.319020
  0
ARC
  8
CSLAYER1
  6
CONTINUOUS
 62
     6
 10
220.048607
 20
134.319020
 40
1.000000
 50
180.000000
 51
270.000000
  0
LINE
  8
CSLAYER1
  6
CENTER
 62
     3
 10
230.048607
 20
138.319019
 11
212.849372
 21
138.319024
  0
LINE
  8
CSLAYER1
  6
CENTER
 62
     3
 10
236.048607
 20
182.319017
 11
212.849372
 21
182.319024
  0
LINE
  8
CSLAYER1
  6
CONTINUOUS
 62
     6
 10
225.048622
 20
187.319020
 11
220.048622
 21
187.319023
  0
ARC
  8
CSLAYER1
  6
CONTINUOUS
 62
     6
 10
220.048621
 20
186.319023
 40
1.000000
 50
89.999968
 51
179.999968
  0
LINE
  8
CSLAYER1
  6
CONTINUOUS
 62
     6
 10
231.048607
 20
187.319019
 11
225.048622
 21
187.319020
  0
ARC
  8
CSLAYER1
  6
CONTINUOUS
 62
     6
 10
231.048607
 20
185.319019
 40
2.000000
 50
0.000000
 51
89.999984
  0
LINE
  8
CSLAYER1
  6
CONTINUOUS
 62
     6
 10
233.048607
 20
135.319018
 11
233.048607
 21
185.319019
  0
LINE
  8
CSLAYER1
  6
CONTINUOUS
 62
     6
 10
231.048592
 20
133.319019
 11
225.048607
 21
133.319021
  0
ARC
  8
CSLAYER1
  6
CONTINUOUS
 62
     6
 10
231.048593
 20
135.319019
 40
2.000000
 50
269.999984
 51
359.999968
  0
LINE
  8
CSLAYER1
  6
CENTER
 62
     3
 10
244.048587
 20
163.319015
 11
244.048587
 21
122.319077
  0
LINE
  8
CSLAYER1
  6
CENTER
 62
     3
 10
265.548607
 20
145.319009
 11
230.048607
 21
145.319019
  0
CIRCLE
  8
CSLAYER1
  6
CONTINUOUS
 62
     6
 10
244.048587
 20
145.319015
 40
3.965000
  0
CIRCLE
  8
CSLAYER1
  6
CONTINUOUS
 62
     6
 10
244.048587
 20
145.319015
 40
5.500000
  0
LINE
  8
CSLAYER1
  6
CONTINUOUS
 62
     6
 10
244.048587
 20
135.319015
 11
233.048607
 21
135.319015
  0
LINE
  8
CSLAYER1
  6
CONTINUOUS
 62
     6
 10
244.048593
 20
155.319015
 11
235.048606
 21
155.319020
  0
LINE
  8
CSLAYER1
  6
CONTINUOUS
 62
     6
 10
225.048607
 20
125.319020
 11
258.048607
 21
125.319011
  0
LINE
  8
CSLAYER1
  6
CONTINUOUS
 62
     6
 10
256.048606
 20
135.319012
 11
256.048607
 21
135.319012
  0
LINE
  8
CSLAYER1
  6
CONTINUOUS
 62
     6
 10
258.048607
 20
125.319011
 11
258.048607
 21
133.319012
  0
ARC
  8
CSLAYER1
  6
CONTINUOUS
 62
     6
 10
256.048607
 20
133.319012
 40
2.000000
 50
-0.000000
 51
89.999984
  0
LINE
  8
CSLAYER1
  6
CONTINUOUS
 62
     6
 10
254.048607
 20
145.319012
 11
254.048607
 21
137.319012
  0
ARC
  8
CSLAYER1
  6
CONTINUOUS
 62
     6
 10
256.048607
 20
137.319012
 40
2.000000
 50
180.000000
 51
269.999984
  0
LINE
  8
CSLAYER1
  6
CONTINUOUS
 62
     6
 10
258.048607
 20
159.148338
 11
258.048607
 21
167.663416
  0
ARC
  8
CSLAYER1
  6
CONTINUOUS
 62
     6
 10
235.048607
 20
175.707327
 40
2.000000
 50
180.000000
 51
265.914373
  0
ARC
  8
CSLAYER1
  6
CONTINUOUS
 62
     6
 10
244.048587
 20
145.319015
 40
18.500019
 50
-36.049314
 51
36.049314
  0
ARC
  8
CSLAYER1
  6
CONTINUOUS
 62
     6
 10
263.048607
 20
159.148338
 40
5.000000
 50
180.000000
 51
216.049314
  0
ARC
  8
CSLAYER1
  6
CONTINUOUS
 62
     6
 10
263.048607
 20
131.489692
 40
5.000000
 50
143.950686
 51
180.000000
  0
ARC
  8
CSLAYER1
  6
CONTINUOUS
 62
     6
 10
253.048607
 20
167.663416
 40
5.000000
 50
0.000000
 51
85.914373
  0
LINE
  8
CSLAYER1
  6
CONTINUOUS
 62
     6
 10
253.404843
 20
172.650709
 11
234.906112
 21
173.712410
  0
LINE
  8
CSLAYER1
  6
CONTINUOUS
 62
     6
 10
166.048607
 20
142.319022
 11
166.048607
 21
157.819022
  0
LINE
  8
CSLAYER1
  6
CONTINUOUS
 62
     6
 10
216.094110
 20
180.319022
 11
181.048607
 21
180.319022
  0
LINE
  8
CSLAYER1
  6
CONTINUOUS
 62
     6
 10
216.094110
 20
140.319022
 11
181.048607
 21
140.319022
  0
LINE
  8
CSLAYER1
  6
CONTINUOUS
 62
     6
 10
180.048607
 20
141.319022
 11
180.048607
 21
179.319022
  0
LINE
  8
CSLAYER1
  6
CONTINUOUS
 62
     6
 10
181.048607
 20
140.319022
 11
180.048607
 21
141.319022
  0
LINE
  8
CSLAYER1
  6
CONTINUOUS
 62
     6
 10
181.048607
 20
180.319022
 11
180.048607
 21
179.319022
  0
LINE
  8
CSLAYER1
  6
CONTINUOUS
 62
     6
 10
181.048607
 20
140.319022
 11
181.048607
 21
180.319022
  0
ARC
  8
CSLAYER1
  6
CONTINUOUS
 62
     6
 10
167.048607
 20
142.319022
 40
1.000000
 50
180.000000
 51
270.000000
  0
ARC
  8
CSLAYER1
  6
CONTINUOUS
 62
     6
 10
167.048607
 20
178.319022
 40
1.000000
 50
90.000000
 51
180.000000
  0
LINE
  8
CSLAYER1
  6
CONTINUOUS
 62
     6
 10
180.048607
 20
179.319022
 11
167.048607
 21
179.319022
  0
LINE
  8
CSLAYER1
  6
CONTINUOUS
 62
     6
 10
180.048607
 20
141.319022
 11
167.048607
 21
141.319022
  0
LINE
  8
CSLAYER1
  6
CONTINUOUS
 62
     6
 10
180.048607
 20
166.319022
 11
168.048607
 21
166.319022
  0
LINE
  8
CSLAYER1
  6
CONTINUOUS
 62
     6
 10
168.048607
 20
166.319022
 11
168.048607
 21
154.319022
  0
LINE
  8
CSLAYER1
  6
CONTINUOUS
 62
     6
 10
168.048607
 20
165.319022
 11
180.048607
 21
165.319022
  0
LINE
  8
CSLAYER1
  6
CONTINUOUS
 62
     6
 10
178.048607
 20
163.319022
 11
167.048607
 21
163.319022
  0
LINE
  8
CSLAYER1
  6
CONTINUOUS
 62
     6
 10
180.048607
 20
154.319022
 11
168.048607
 21
154.319022
  0
LINE
  8
CSLAYER1
  6
CONTINUOUS
 62
     6
 10
168.048607
 20
155.319022
 11
180.048607
 21
155.319022
  0
LINE
  8
CSLAYER1
  6
CONTINUOUS
 62
     6
 10
178.048607
 20
157.319022
 11
167.048607
 21
157.319022
  0
LINE
  8
CSLAYER1
  6
CONTINUOUS
 62
     6
 10
161.048607
 20
168.319022
 11
161.048607
 21
152.319022
  0
LINE
  8
CSLAYER1
  6
CONTINUOUS
 62
     6
 10
166.048607
 20
162.819022
 11
166.048607
 21
178.319022
  0
LINE
  8
CSLAYER1
  6
CONTINUOUS
 62
     6
 10
167.048607
 20
162.819022
 11
161.048607
 21
162.819022
  0
LINE
  8
CSLAYER1
  6
CONTINUOUS
 62
     6
 10
167.048607
 20
157.819022
 11
161.048607
 21
157.819022
  0
LINE
  8
CSLAYER1
  6
CONTINUOUS
 62
     6
 10
167.048607
 20
163.319022
 11
167.048607
 21
162.819022
  0
LINE
  8
CSLAYER1
  6
CONTINUOUS
 62
     6
 10
167.048607
 20
157.819022
 11
167.048607
 21
157.319022
  0
LINE
  8
CSLAYER1
  6
CONTINUOUS
 62
     6
 10
168.048607
 20
165.319022
 11
166.048607
 21
167.319022
  0
LINE
  8
CSLAYER1
  6
CONTINUOUS
 62
     6
 10
168.048607
 20
155.319022
 11
166.048607
 21
153.319022
  0
CIRCLE
  8
CSLAYER1
  6
CONTINUOUS
 62
     3
 10
163.048607
 20
160.319022
 40
1.000000
  0
LINE
  8
CSLAYER1
  6
CENTER
 62
     3
 10
163.048607
 20
162.319022
 11
163.048607
 21
158.319022
  0
LINE
  8
CSLAYER1
  6
CONTINUOUS
 62
     6
 10
178.048607
 20
157.319022
 11
178.048607
 21
163.319022
  0
LINE
  8
CSLAYER1
  6
CONTINUOUS
 62
     6
 10
164.548607
 20
169.819022
 11
162.548607
 21
169.819022
  0
ARC
  8
CSLAYER1
  6
CONTINUOUS
 62
     6
 10
162.548607
 20
168.319022
 40
1.500000
 50
90.000000
 51
180.000000
  0
ARC
  8
CSLAYER1
  6
CONTINUOUS
 62
     6
 10
164.548607
 20
171.319022
 40
1.500000
 50
270.000000
 51
360.000000
  0
LINE
  8
CSLAYER1
  6
CONTINUOUS
 62
     6
 10
164.548607
 20
150.819022
 11
162.548607
 21
150.819022
  0
ARC
  8
CSLAYER1
  6
CONTINUOUS
 62
     6
 10
162.548607
 20
152.319022
 40
1.500000
 50
180.000000
 51
270.000000
  0
ARC
  8
CSLAYER1
  6
CONTINUOUS
 62
     6
 10
164.548607
 20
149.319022
 40
1.500000
 50
0.000000
 51
90.000000
  0
ARC
  8
CSLAYER1
  6
CONTINUOUS
 62
     6
 10
235.048607
 20
157.319020
 40
2.000000
 50
180.000000
 51
269.999968
  0
LINE
  8
CSLAYER1
  6
CENTER
 62
     3
 10
371.548604
 20
155.319073
 11
311.308202
 21
155.319073
  0
LINE
  8
CSLAYER1
  6
CENTER
 62
     3
 10
341.548604
 20
117.319073
 11
341.548604
 21
185.319073
  0
LINE
  8
CSLAYER1
  6
CENTER
 62
     3
 10
398.548601
 20
140.319073
 11
284.548606
 21
140.319073
  0
LINE
  8
CSLAYER1
  6
CONTINUOUS
 62
     6
 10
319.548604
 20
182.319073
 11
363.548604
 21
182.319073
  0
LINE
  8
CSLAYER1
  6
CONTINUOUS
 62
     6
 10
319.548604
 20
128.319073
 11
324.548604
 21
128.319073
  0
LINE
  8
CSLAYER1
  6
CONTINUOUS
 62
     6
 10
326.548604
 20
120.319073
 11
356.548604
 21
120.319073
  0
LINE
  8
CSLAYER1
  6
CONTINUOUS
 62
     6
 10
314.548604
 20
133.319073
 11
314.548604
 21
177.319073
  0
LINE
  8
CSLAYER1
  6
CONTINUOUS
 62
     6
 10
287.548607
 20
136.854073
 11
287.548607
 21
144.284073
  0
LINE
  8
CSLAYER1
  6
CONTINUOUS
 62
     6
 10
314.548604
 20
144.284073
 11
287.548608
 21
144.284073
  0
LINE
  8
CSLAYER1
  6
CONTINUOUS
 62
     6
 10
314.548604
 20
136.354073
 11
312.548607
 21
136.354073
  0
LINE
  8
CSLAYER1
  6
CONTINUOUS
 62
     6
 10
312.548607
 20
136.854073
 11
287.548606
 21
136.854073
  0
LINE
  8
CSLAYER1
  6
CONTINUOUS
 62
     6
 10
312.548607
 20
136.354073
 11
312.548607
 21
136.854073
  0
LINE
  8
CSLAYER1
  6
CONTINUOUS
 62
     6
 10
356.539971
 20
150.319073
 11
364.548602
 21
150.319073
  0
LINE
  8
CSLAYER1
  6
CONTINUOUS
 62
     6
 10
365.548602
 20
149.319073
 11
365.548607
 21
131.319073
  0
ARC
  8
CSLAYER1
  6
CONTINUOUS
 62
     6
 10
364.548602
 20
149.319073
 40
1.000000
 50
0.000016
 51
90.000000
  0
LINE
  8
CSLAYER1
  6
CONTINUOUS
 62
     6
 10
358.548604
 20
130.319073
 11
364.548602
 21
130.319073
  0
ARC
  8
CSLAYER1
  6
CONTINUOUS
 62
     6
 10
364.548602
 20
131.319073
 40
1.000000
 50
270.000000
 51
359.999984
  0
ARC
  8
CSLAYER1
  6
CONTINUOUS
 62
     6
 10
319.548604
 20
177.319073
 40
5.000000
 50
90.000000
 51
180.000000
  0
ARC
  8
CSLAYER1
  6
CONTINUOUS
 62
     6
 10
363.548604
 20
177.319073
 40
5.000000
 50
0.000000
 51
90.000000
  0
ARC
  8
CSLAYER1
  6
CONTINUOUS
 62
     6
 10
363.548604
 20
133.319073
 40
5.000000
 50
270.000000
 51
360.000000
  0
ARC
  8
CSLAYER1
  6
CONTINUOUS
 62
     6
 10
319.548604
 20
133.319073
 40
5.000000
 50
180.000000
 51
270.000000
  0
LINE
  8
CSLAYER1
  6
CONTINUOUS
 62
     6
 10
356.548604
 20
120.319073
 11
356.548604
 21
135.319073
  0
LINE
  8
CSLAYER1
  6
CONTINUOUS
 62
     6
 10
326.548604
 20
120.319073
 11
326.548604
 21
135.319073
  0
LINE
  8
CSLAYER1
  6
CONTINUOUS
 62
     6
 10
358.548604
 20
128.319073
 11
363.548604
 21
128.319073
  0
ARC
  8
CSLAYER1
  6
CONTINUOUS
 62
     6
 10
358.548604
 20
128.319073
 40
2.000000
 50
90.000000
 51
180.000000
  0
ARC
  8
CSLAYER1
  6
CONTINUOUS
 62
     6
 10
358.548604
 20
126.319073
 40
2.000000
 50
90.000000
 51
180.000000
  0
LINE
  8
CSLAYER1
  6
CONTINUOUS
 62
     6
 10
332.548604
 20
128.319073
 11
350.548604
 21
128.319073
  0
LINE
  8
CSLAYER1
  6
CONTINUOUS
 62
     6
 10
332.548604
 20
148.319073
 11
350.548604
 21
148.319073
  0
LINE
  8
CSLAYER1
  6
CONTINUOUS
 62
     6
 10
326.557236
 20
150.319073
 11
315.548606
 21
150.319073
  0
ARC
  8
CSLAYER1
  6
CONTINUOUS
 62
     6
 10
315.548606
 20
149.319073
 40
1.000000
 50
90.000000
 51
179.999984
  0
LINE
  8
CSLAYER1
  6
CONTINUOUS
 62
     6
 10
325.048604
 20
130.319073
 11
315.548606
 21
130.319073
  0
LINE
  8
CSLAYER1
  6
CONTINUOUS
 62
     6
 10
328.557236
 20
130.319073
 11
328.557236
 21
155.319073
  0
LINE
  8
CSLAYER1
  6
CONTINUOUS
 62
     6
 10
354.539971
 20
130.319073
 11
354.539971
 21
155.319073
  0
ARC
  8
CSLAYER1
  6
CONTINUOUS
 62
     6
 10
341.548604
 20
155.319073
 40
13.000000
 50
-0.000000
 51
180.000000
  0
ARC
  8
CSLAYER1
  6
CONTINUOUS
 62
     6
 10
326.557236
 20
152.319073
 40
2.000000
 50
270.000000
 51
360.000000
  0
ARC
  8
CSLAYER1
  6
CONTINUOUS
 62
     6
 10
356.539971
 20
152.319073
 40
2.000000
 50
180.000000
 51
270.000000
  0
ARC
  8
CSLAYER1
  6
CONTINUOUS
 62
     6
 10
324.548604
 20
126.319073
 40
2.000000
 50
0.000000
 51
90.000000
  0
LINE
  8
CSLAYER1
  6
CONTINUOUS
 62
     6
 10
368.548604
 20
133.319073
 11
368.548604
 21
177.319073
  0
LINE
  8
CSLAYER1
  6
CENTER
 62
     3
 10
58.864875
 20
155.319073
 11
119.105276
 21
155.319073
  0
LINE
  8
CSLAYER1
  6
CENTER
 62
     3
 10
88.864875
 20
117.319073
 11
88.864875
 21
185.319073
  0
LINE
  8
CSLAYER1
  6
CENTER
 62
     3
 10
31.864878
 20
140.319073
 11
145.864873
 21
140.319073
  0
LINE
  8
CSLAYER1
  6
CONTINUOUS
 62
     6
 10
110.864875
 20
182.319073
 11
66.864875
 21
182.319073
  0
LINE
  8
CSLAYER1
  6
CONTINUOUS
 62
     6
 10
103.864875
 20
120.319073
 11
73.864875
 21
120.319073
  0
LINE
  8
CSLAYER1
  6
CONTINUOUS
 62
     6
 10
115.864875
 20
133.319073
 11
115.864875
 21
177.319073
  0
LINE
  8
CSLAYER1
  6
CONTINUOUS
 62
     6
 10
142.864871
 20
136.854073
 11
142.864871
 21
144.284073
  0
LINE
  8
CSLAYER1
  6
CONTINUOUS
 62
     6
 10
115.864875
 20
144.284073
 11
142.864870
 21
144.284073
  0
LINE
  8
CSLAYER1
  6
CONTINUOUS
 62
     6
 10
115.864875
 20
136.354073
 11
117.864871
 21
136.354073
  0
LINE
  8
CSLAYER1
  6
CONTINUOUS
 62
     6
 10
117.864871
 20
136.854073
 11
142.864873
 21
136.854073
  0
LINE
  8
CSLAYER1
  6
CONTINUOUS
 62
     6
 10
117.864871
 20
136.354073
 11
117.864871
 21
136.854073
  0
ARC
  8
CSLAYER1
  6
CONTINUOUS
 62
     6
 10
110.864875
 20
177.319073
 40
5.000000
 50
0.000000
 51
90.000000
  0
ARC
  8
CSLAYER1
  6
CONTINUOUS
 62
     6
 10
66.864875
 20
177.319073
 40
5.000000
 50
90.000000
 51
180.000000
  0
ARC
  8
CSLAYER1
  6
CONTINUOUS
 62
     6
 10
66.864875
 20
133.319073
 40
5.000000
 50
180.000000
 51
270.000000
  0
ARC
  8
CSLAYER1
  6
CONTINUOUS
 62
     6
 10
110.864875
 20
133.319073
 40
5.000000
 50
270.000000
 51
360.000000
  0
LINE
  8
CSLAYER1
  6
CONTINUOUS
 62
     6
 10
73.864875
 20
120.319073
 11
73.864875
 21
126.319073
  0
LINE
  8
CSLAYER1
  6
CONTINUOUS
 62
     6
 10
103.864875
 20
120.319073
 11
103.864875
 21
126.319073
  0
ARC
  8
CSLAYER1
  6
CONTINUOUS
 62
     6
 10
71.864875
 20
126.319073
 40
2.000000
 50
0.000000
 51
90.000000
  0
ARC
  8
CSLAYER1
  6
CONTINUOUS
 62
     6
 10
105.864875
 20
126.319073
 40
2.000000
 50
90.000000
 51
180.000000
  0
LINE
  8
CSLAYER1
  6
CONTINUOUS
 62
     6
 10
61.864875
 20
133.319073
 11
61.864875
 21
177.319073
  0
LINE
  8
CSLAYER1
  6
CONTINUOUS
 62
     6
 10
110.864875
 20
128.319073
 11
66.864875
 21
128.319073
  0
LINE
  8
CSLAYER1
  6
CENTER
 62
     3
 10
110.864875
 20
183.819081
 11
110.864875
 21
170.885824
  0
CIRCLE
  8
CSLAYER1
  6
CONTINUOUS
 62
     6
 10
110.864883
 20
177.319088
 40
3.500000
  0
ARC
  8
CSLAYER1
  6
CONTINUOUS
 62
     6
 10
110.864870
 20
177.319089
 40
1.944444
 50
163.398416
 51
196.601577
  0
ARC
  8
CSLAYER1
  6
CONTINUOUS
 62
     6
 10
110.864870
 20
177.319089
 40
1.944444
 50
253.398422
 51
286.601583
  0
ARC
  8
CSLAYER1
  6
CONTINUOUS
 62
     6
 10
110.864870
 20
177.319089
 40
1.944444
 50
-16.601562
 51
16.601572
  0
ARC
  8
CSLAYER1
  6
CONTINUOUS
 62
     6
 10
110.864870
 20
177.319089
 40
1.944444
 50
73.398406
 51
106.601595
  0
LINE
  8
CSLAYER1
  6
CONTINUOUS
 62
     6
 10
111.975995
 20
176.763526
 11
112.728251
 21
176.763526
  0
LINE
  8
CSLAYER1
  6
CONTINUOUS
 62
     6
 10
109.753745
 20
176.763526
 11
109.001489
 21
176.763526
  0
LINE
  8
CSLAYER1
  6
CONTINUOUS
 62
     6
 10
111.975995
 20
177.874651
 11
112.728251
 21
177.874651
  0
LINE
  8
CSLAYER1
  6
CONTINUOUS
 62
     6
 10
109.753745
 20
177.874651
 11
109.001489
 21
177.874651
  0
LINE
  8
CSLAYER1
  6
CONTINUOUS
 62
     6
 10
110.309308
 20
176.207993
 11
110.309308
 21
175.455678
  0
LINE
  8
CSLAYER1
  6
CONTINUOUS
 62
     6
 10
110.309308
 20
178.430185
 11
110.309308
 21
179.182499
  0
LINE
  8
CSLAYER1
  6
CONTINUOUS
 62
     6
 10
111.420432
 20
176.207993
 11
111.420432
 21
175.455678
  0
LINE
  8
CSLAYER1
  6
CONTINUOUS
 62
     6
 10
111.420432
 20
178.430185
 11
111.420432
 21
179.182499
  0
ARC
  8
CSLAYER1
  6
CONTINUOUS
 62
     6
 10
111.975995
 20
176.207993
 40
0.555556
 50
90.000001
 51
179.942691
  0
ARC
  8
CSLAYER1
  6
CONTINUOUS
 62
     6
 10
111.975995
 20
178.430185
 40
0.555556
 50
180.000010
 51
270.000016
  0
ARC
  8
CSLAYER1
  6
CONTINUOUS
 62
     6
 10
109.753745
 20
178.430185
 40
0.555556
 50
-89.999984
 51
0.000005
  0
ARC
  8
CSLAYER1
  6
CONTINUOUS
 62
     6
 10
109.753745
 20
176.207993
 40
0.555556
 50
0.000005
 51
89.942654
  0
LINE
  8
CSLAYER1
  6
CENTER
 62
     3
 10
104.364866
 20
177.319073
 11
117.364883
 21
177.319073
  0
LINE
  8
CSLAYER1
  6
CENTER
 62
     3
 10
66.864875
 20
183.819081
 11
66.864875
 21
170.885824
  0
CIRCLE
  8
CSLAYER1
  6
CONTINUOUS
 62
     6
 10
66.864883
 20
177.319088
 40
3.500000
  0
ARC
  8
CSLAYER1
  6
CONTINUOUS
 62
     6
 10
66.864870
 20
177.319089
 40
1.944444
 50
163.398416
 51
196.601577
  0
ARC
  8
CSLAYER1
  6
CONTINUOUS
 62
     6
 10
66.864870
 20
177.319089
 40
1.944444
 50
253.398422
 51
286.601583
  0
ARC
  8
CSLAYER1
  6
CONTINUOUS
 62
     6
 10
66.864870
 20
177.319089
 40
1.944444
 50
-16.601562
 51
16.601572
  0
ARC
  8
CSLAYER1
  6
CONTINUOUS
 62
     6
 10
66.864870
 20
177.319089
 40
1.944444
 50
73.398406
 51
106.601595
  0
LINE
  8
CSLAYER1
  6
CONTINUOUS
 62
     6
 10
67.975995
 20
176.763526
 11
68.728251
 21
176.763526
  0
LINE
  8
CSLAYER1
  6
CONTINUOUS
 62
     6
 10
65.753745
 20
176.763526
 11
65.001489
 21
176.763526
  0
LINE
  8
CSLAYER1
  6
CONTINUOUS
 62
     6
 10
67.975995
 20
177.874651
 11
68.728251
 21
177.874651
  0
LINE
  8
CSLAYER1
  6
CONTINUOUS
 62
     6
 10
65.753745
 20
177.874651
 11
65.001489
 21
177.874651
  0
LINE
  8
CSLAYER1
  6
CONTINUOUS
 62
     6
 10
66.309308
 20
176.207993
 11
66.309308
 21
175.455678
  0
LINE
  8
CSLAYER1
  6
CONTINUOUS
 62
     6
 10
66.309308
 20
178.430185
 11
66.309308
 21
179.182499
  0
LINE
  8
CSLAYER1
  6
CONTINUOUS
 62
     6
 10
67.420432
 20
176.207993
 11
67.420432
 21
175.455678
  0
LINE
  8
CSLAYER1
  6
CONTINUOUS
 62
     6
 10
67.420432
 20
178.430185
 11
67.420432
 21
179.182499
  0
ARC
  8
CSLAYER1
  6
CONTINUOUS
 62
     6
 10
67.975995
 20
176.207993
 40
0.555556
 50
90.000001
 51
179.942691
  0
ARC
  8
CSLAYER1
  6
CONTINUOUS
 62
     6
 10
67.975995
 20
178.430185
 40
0.555556
 50
180.000010
 51
270.000016
  0
ARC
  8
CSLAYER1
  6
CONTINUOUS
 62
     6
 10
65.753745
 20
178.430185
 40
0.555556
 50
-89.999984
 51
0.000005
  0
ARC
  8
CSLAYER1
  6
CONTINUOUS
 62
     6
 10
65.753745
 20
176.207993
 40
0.555556
 50
0.000005
 51
89.942654
  0
LINE
  8
CSLAYER1
  6
CENTER
 62
     3
 10
60.364866
 20
177.319073
 11
73.364883
 21
177.319073
  0
LINE
  8
CSLAYER1
  6
CENTER
 62
     3
 10
66.864875
 20
139.819081
 11
66.864875
 21
126.885824
  0
CIRCLE
  8
CSLAYER1
  6
CONTINUOUS
 62
     6
 10
66.864883
 20
133.319088
 40
3.500000
  0
ARC
  8
CSLAYER1
  6
CONTINUOUS
 62
     6
 10
66.864870
 20
133.319089
 40
1.944444
 50
163.398416
 51
196.601577
  0
ARC
  8
CSLAYER1
  6
CONTINUOUS
 62
     6
 10
66.864870
 20
133.319089
 40
1.944444
 50
253.398422
 51
286.601583
  0
ARC
  8
CSLAYER1
  6
CONTINUOUS
 62
     6
 10
66.864870
 20
133.319089
 40
1.944444
 50
-16.601562
 51
16.601572
  0
ARC
  8
CSLAYER1
  6
CONTINUOUS
 62
     6
 10
66.864870
 20
133.319089
 40
1.944444
 50
73.398406
 51
106.601595
  0
LINE
  8
CSLAYER1
  6
CONTINUOUS
 62
     6
 10
67.975995
 20
132.763526
 11
68.728251
 21
132.763526
  0
LINE
  8
CSLAYER1
  6
CONTINUOUS
 62
     6
 10
65.753745
 20
132.763526
 11
65.001489
 21
132.763526
  0
LINE
  8
CSLAYER1
  6
CONTINUOUS
 62
     6
 10
67.975995
 20
133.874651
 11
68.728251
 21
133.874651
  0
LINE
  8
CSLAYER1
  6
CONTINUOUS
 62
     6
 10
65.753745
 20
133.874651
 11
65.001489
 21
133.874651
  0
LINE
  8
CSLAYER1
  6
CONTINUOUS
 62
     6
 10
66.309308
 20
132.207993
 11
66.309308
 21
131.455678
  0
LINE
  8
CSLAYER1
  6
CONTINUOUS
 62
     6
 10
66.309308
 20
134.430185
 11
66.309308
 21
135.182499
  0
LINE
  8
CSLAYER1
  6
CONTINUOUS
 62
     6
 10
67.420432
 20
132.207993
 11
67.420432
 21
131.455678
  0
LINE
  8
CSLAYER1
  6
CONTINUOUS
 62
     6
 10
67.420432
 20
134.430185
 11
67.420432
 21
135.182499
  0
ARC
  8
CSLAYER1
  6
CONTINUOUS
 62
     6
 10
67.975995
 20
132.207993
 40
0.555556
 50
90.000001
 51
179.942691
  0
ARC
  8
CSLAYER1
  6
CONTINUOUS
 62
     6
 10
67.975995
 20
134.430185
 40
0.555556
 50
180.000010
 51
270.000016
  0
ARC
  8
CSLAYER1
  6
CONTINUOUS
 62
     6
 10
65.753745
 20
134.430185
 40
0.555556
 50
-89.999984
 51
0.000005
  0
ARC
  8
CSLAYER1
  6
CONTINUOUS
 62
     6
 10
65.753745
 20
132.207993
 40
0.555556
 50
0.000005
 51
89.942654
  0
LINE
  8
CSLAYER1
  6
CENTER
 62
     3
 10
60.364866
 20
133.319073
 11
73.364883
 21
133.319073
  0
LINE
  8
CSLAYER1
  6
CENTER
 62
     3
 10
110.864875
 20
139.819081
 11
110.864875
 21
126.885824
  0
CIRCLE
  8
CSLAYER1
  6
CONTINUOUS
 62
     6
 10
110.864883
 20
133.319088
 40
3.500000
  0
ARC
  8
CSLAYER1
  6
CONTINUOUS
 62
     6
 10
110.864870
 20
133.319089
 40
1.944444
 50
163.398416
 51
196.601577
  0
ARC
  8
CSLAYER1
  6
CONTINUOUS
 62
     6
 10
110.864870
 20
133.319089
 40
1.944444
 50
253.398422
 51
286.601583
  0
ARC
  8
CSLAYER1
  6
CONTINUOUS
 62
     6
 10
110.864870
 20
133.319089
 40
1.944444
 50
-16.601562
 51
16.601572
  0
ARC
  8
CSLAYER1
  6
CONTINUOUS
 62
     6
 10
110.864870
 20
133.319089
 40
1.944444
 50
73.398406
 51
106.601595
  0
LINE
  8
CSLAYER1
  6
CONTINUOUS
 62
     6
 10
111.975995
 20
132.763526
 11
112.728251
 21
132.763526
  0
LINE
  8
CSLAYER1
  6
CONTINUOUS
 62
     6
 10
109.753745
 20
132.763526
 11
109.001489
 21
132.763526
  0
LINE
  8
CSLAYER1
  6
CONTINUOUS
 62
     6
 10
111.975995
 20
133.874651
 11
112.728251
 21
133.874651
  0
LINE
  8
CSLAYER1
  6
CONTINUOUS
 62
     6
 10
109.753745
 20
133.874651
 11
109.001489
 21
133.874651
  0
LINE
  8
CSLAYER1
  6
CONTINUOUS
 62
     6
 10
110.309308
 20
132.207993
 11
110.309308
 21
131.455678
  0
LINE
  8
CSLAYER1
  6
CONTINUOUS
 62
     6
 10
110.309308
 20
134.430185
 11
110.309308
 21
135.182499
  0
LINE
  8
CSLAYER1
  6
CONTINUOUS
 62
     6
 10
111.420432
 20
132.207993
 11
111.420432
 21
131.455678
  0
LINE
  8
CSLAYER1
  6
CONTINUOUS
 62
     6
 10
111.420432
 20
134.430185
 11
111.420432
 21
135.182499
  0
ARC
  8
CSLAYER1
  6
CONTINUOUS
 62
     6
 10
111.975995
 20
132.207993
 40
0.555556
 50
90.000001
 51
179.942691
  0
ARC
  8
CSLAYER1
  6
CONTINUOUS
 62
     6
 10
111.975995
 20
134.430185
 40
0.555556
 50
180.000010
 51
270.000016
  0
ARC
  8
CSLAYER1
  6
CONTINUOUS
 62
     6
 10
109.753745
 20
134.430185
 40
0.555556
 50
-89.999984
 51
0.000005
  0
ARC
  8
CSLAYER1
  6
CONTINUOUS
 62
     6
 10
109.753745
 20
132.207993
 40
0.555556
 50
0.000005
 51
89.942654
  0
LINE
  8
CSLAYER1
  6
CENTER
 62
     3
 10
104.364866
 20
133.319073
 11
117.364883
 21
133.319073
  0
LINE
  8
CSLAYER1
  6
CONTINUOUS
 62
     6
 10
219.048607
 20
208.275831
 11
219.048607
 21
260.275835
  0
LINE
  8
CSLAYER1
  6
CONTINUOUS
 62
     6
 10
225.048607
 20
207.275831
 11
225.048607
 21
261.275831
  0
LINE
  8
CSLAYER1
  6
CONTINUOUS
 62
     6
 10
225.048607
 20
207.275831
 11
220.048607
 21
207.275831
  0
ARC
  8
CSLAYER1
  6
CONTINUOUS
 62
     6
 10
220.048607
 20
208.275831
 40
1.000000
 50
180.000000
 51
270.000000
  0
LINE
  8
CSLAYER1
  6
CENTER
 62
     3
 10
234.548607
 20
212.275829
 11
212.849372
 21
212.275835
  0
LINE
  8
CSLAYER1
  6
CENTER
 62
     3
 10
234.548607
 20
256.275829
 11
212.849372
 21
256.275835
  0
LINE
  8
CSLAYER1
  6
CONTINUOUS
 62
     6
 10
225.048622
 20
261.275831
 11
220.048622
 21
261.275834
  0
ARC
  8
CSLAYER1
  6
CONTINUOUS
 62
     6
 10
220.048621
 20
260.275834
 40
1.000000
 50
89.999968
 51
179.999968
  0
LINE
  8
CSLAYER1
  6
CENTER
 62
     3
 10
253.048607
 20
122.319013
 11
253.048607
 21
128.319013
  0
LINE
  8
CSLAYER1
  6
CENTER
 62
     3
 10
230.048607
 20
122.319013
 11
230.048607
 21
128.319013
  0
LINE
  8
CSLAYER1
  6
CENTER
 62
     3
 10
351.548604
 20
117.319013
 11
351.548604
 21
123.319013
  0
LINE
  8
CSLAYER1
  6
CENTER
 62
     3
 10
331.548604
 20
117.319013
 11
331.548604
 21
123.319013
  0
LINE
  8
CSLAYER1
  6
CENTER
 62
     3
 10
98.864875
 20
117.319013
 11
98.864875
 21
123.319013
  0
LINE
  8
CSLAYER1
  6
CENTER
 62
     3
 10
78.864875
 20
117.319013
 11
78.864875
 21
123.319013
  0
LINE
  8
CSLAYER1
  6
CONTINUOUS
 62
     6
 10
253.048606
 20
207.275830
 11
225.048607
 21
207.275838
  0
LINE
  8
CSLAYER1
  6
CONTINUOUS
 62
     6
 10
231.048607
 20
261.275837
 11
225.048622
 21
261.275838
  0
LINE
  8
CSLAYER1
  6
CONTINUOUS
 62
     6
 10
254.048607
 20
208.275830
 11
254.048607
 21
219.284467
  0
ARC
  8
CSLAYER1
  6
CONTINUOUS
 62
     6
 10
231.048607
 20
209.275837
 40
2.000000
 50
269.999984
 51
360.000000
  0
ARC
  8
CSLAYER1
  6
CONTINUOUS
 62
     6
 10
231.048607
 20
259.275837
 40
2.000000
 50
0.000000
 51
89.999984
  0
ARC
  8
CSLAYER1
  6
CONTINUOUS
 62
     6
 10
253.048607
 20
208.275830
 40
1.000000
 50
269.999984
 51
360.000000
  0
LINE
  8
CSLAYER1
  6
CONTINUOUS
 62
     6
 10
233.048607
 20
209.275837
 11
233.048607
 21
259.275837
  0
ARC
  8
CSLAYER1
  6
CONTINUOUS
 62
     6
 10
253.048607
 20
224.275830
 40
5.000000
 50
281.562167
 51
314.595185
  0
LINE
  8
CSLAYER1
  6
CONTINUOUS
 62
     6
 10
254.048607
 20
249.267199
 11
254.048607
 21
257.275830
  0
LINE
  8
CSLAYER1
  6
CENTER
 62
     3
 10
244.048607
 20
291.275833
 11
244.048607
 21
177.275833
  0
LINE
  8
CSLAYER1
  6
CONTINUOUS
 62
     6
 10
253.048607
 20
258.275830
 11
234.780658
 21
258.275835
  0
ARC
  8
CSLAYER1
  6
CONTINUOUS
 62
     6
 10
253.048607
 20
257.275830
 40
1.000000
 50
0.000000
 51
89.999984
  0
LINE
  8
CSLAYER1
  6
CONTINUOUS
 62
     6
 10
262.548607
 20
226.275829
 11
262.548607
 21
242.275829
  0
ARC
  8
CSLAYER1
  6
CONTINUOUS
 62
     6
 10
257.548607
 20
226.275829
 40
5.000000
 50
273.368352
 51
360.000000
  0
ARC
  8
CSLAYER1
  6
CONTINUOUS
 62
     6
 10
257.548607
 20
242.275829
 40
5.000000
 50
0.000000
 51
86.631579
  0
ARC
  8
CSLAYER1
  6
CONTINUOUS
 62
     6
 10
234.780658
 20
260.275835
 40
2.000000
 50
209.999963
 51
269.999984
  0
LINE
  8
CSLAYER1
  6
CONTINUOUS
 62
     6
 10
248.013607
 20
207.275832
 11
248.013607
 21
180.275834
  0
LINE
  8
CSLAYER1
  6
CONTINUOUS
 62
     6
 10
240.083607
 20
207.275834
 11
240.083607
 21
180.275832
  0
LINE
  8
CSLAYER1
  6
CONTINUOUS
 62
     6
 10
248.013607
 20
180.275834
 11
240.083607
 21
180.275832
  0
ARC
  8
CSLAYER1
  6
CONTINUOUS
 62
     6
 10
257.959891
 20
219.287922
 40
2.000000
 50
93.368388
 51
134.556552
  0
LINE
  8
CSLAYER1
  6
CONTINUOUS
 62
     6
 10
258.582677
 20
247.267191
 11
235.048607
 21
247.267191
  0
LINE
  8
CSLAYER1
  6
CONTINUOUS
 62
     6
 10
257.842381
 20
221.284467
 11
235.048607
 21
221.284467
  0
ARC
  8
CSLAYER1
  6
CONTINUOUS
 62
     6
 10
256.048607
 20
219.284467
 40
2.000000
 50
90.000000
 51
180.000000
  0
ARC
  8
CSLAYER1
  6
CONTINUOUS
 62
     6
 10
253.048607
 20
244.275836
 40
5.000000
 50
45.404815
 51
78.437833
  0
ARC
  8
CSLAYER1
  6
CONTINUOUS
 62
     6
 10
257.959891
 20
249.263744
 40
2.000000
 50
225.443448
 51
266.631612
  0
ARC
  8
CSLAYER1
  6
CONTINUOUS
 62
     6
 10
256.048607
 20
249.267199
 40
2.000000
 50
180.000000
 51
270.000000
  0
ARC
  8
CSLAYER1
  6
CONTINUOUS
 62
     6
 10
235.048607
 20
219.284467
 40
2.000000
 50
90.000000
 51
180.000000
  0
ARC
  8
CSLAYER1
  6
CONTINUOUS
 62
     6
 10
235.048607
 20
249.267191
 40
2.000000
 50
180.000000
 51
270.000000
  0
LINE
  8
CSLAYER1
  6
CONTINUOUS
 62
     6
 10
258.048607
 20
226.284467
 11
258.048607
 21
242.267191
  0
ARC
  8
CSLAYER1
  6
CONTINUOUS
 62
     6
 10
253.048607
 20
226.284467
 40
5.000000
 50
270.000000
 51
360.000000
  0
ARC
  8
CSLAYER1
  6
CONTINUOUS
 62
     6
 10
253.048607
 20
242.267191
 40
5.000000
 50
0.000000
 51
90.000000
  0
LINE
  8
CSLAYER1
  6
CONTINUOUS
 62
     6
 10
218.219191
 20
80.204612
 11
218.219191
 21
86.840078
  0
ARC
  8
CSLAYER1
  6
CONTINUOUS
 62
     6
 10
224.143740
 20
83.522345
 40
8.294369
 50
163.742994
 51
196.257016
  0
LINE
  8
CSLAYER1
  6
CONTINUOUS
 62
     6
 10
217.961511
 20
86.758301
 11
217.215229
 21
86.693013
  0
ARC
  8
CSLAYER1
  6
CONTINUOUS
 62
     6
 10
217.318504
 20
85.512605
 40
1.184910
 50
95.000111
 51
163.742611
  0
ARC
  8
CSLAYER1
  6
CONTINUOUS
 62
     6
 10
217.982195
 20
86.522227
 40
0.236982
 50
0.000000
 51
95.000152
  0
LINE
  8
CSLAYER1
  6
CONTINUOUS
 62
     6
 10
218.337654
 20
86.958576
 11
218.930108
 21
86.958576
  0
ARC
  8
CSLAYER1
  6
CONTINUOUS
 62
     6
 10
218.337654
 20
86.840078
 40
0.118491
 50
90.000003
 51
180.000005
  0
ARC
  8
CSLAYER1
  6
CONTINUOUS
 62
     6
 10
218.930108
 20
86.840078
 40
0.118491
 50
0.000000
 51
90.000003
  0
LINE
  8
CSLAYER1
  6
CONTINUOUS
 62
     6
 10
217.961511
 20
80.286389
 11
217.215229
 21
80.351677
  0
ARC
  8
CSLAYER1
  6
CONTINUOUS
 62
     6
 10
217.318504
 20
81.532085
 40
1.184910
 50
196.257399
 51
264.999892
  0
ARC
  8
CSLAYER1
  6
CONTINUOUS
 62
     6
 10
217.982195
 20
80.522464
 40
0.236982
 50
264.999865
 51
359.942691
  0
ARC
  8
CSLAYER1
  6
CONTINUOUS
 62
     6
 10
218.337654
 20
80.204612
 40
0.118491
 50
180.000005
 51
270.000001
  0
LINE
  8
CSLAYER1
  6
CONTINUOUS
 62
     6
 10
218.337654
 20
80.086114
 11
218.930108
 21
80.086114
  0
ARC
  8
CSLAYER1
  6
CONTINUOUS
 62
     6
 10
218.930108
 20
80.204612
 40
0.118491
 50
270.000001
 51
359.942691
  0
LINE
  8
CSLAYER1
  6
CONTINUOUS
 62
     6
 10
218.219191
 20
82.816219
 11
219.048607
 21
83.342157
  0
LINE
  8
CSLAYER1
  6
CONTINUOUS
 62
     6
 10
218.219191
 20
83.408674
 11
219.048607
 21
83.934612
  0
LINE
  8
CSLAYER1
  6
CONTINUOUS
 62
     6
 10
218.219191
 20
36.204612
 11
218.219191
 21
42.840078
  0
ARC
  8
CSLAYER1
  6
CONTINUOUS
 62
     6
 10
224.143740
 20
39.522345
 40
8.294369
 50
163.742994
 51
196.257016
  0
LINE
  8
CSLAYER1
  6
CONTINUOUS
 62
     6
 10
217.961511
 20
42.758301
 11
217.215229
 21
42.693013
  0
ARC
  8
CSLAYER1
  6
CONTINUOUS
 62
     6
 10
217.318504
 20
41.512605
 40
1.184910
 50
95.000111
 51
163.742611
  0
ARC
  8
CSLAYER1
  6
CONTINUOUS
 62
     6
 10
217.982195
 20
42.522227
 40
0.236982
 50
0.000000
 51
95.000152
  0
LINE
  8
CSLAYER1
  6
CONTINUOUS
 62
     6
 10
218.337654
 20
42.958576
 11
218.930108
 21
42.958576
  0
ARC
  8
CSLAYER1
  6
CONTINUOUS
 62
     6
 10
218.337654
 20
42.840078
 40
0.118491
 50
90.000003
 51
180.000005
  0
ARC
  8
CSLAYER1
  6
CONTINUOUS
 62
     6
 10
218.930108
 20
42.840078
 40
0.118491
 50
0.000000
 51
90.000003
  0
LINE
  8
CSLAYER1
  6
CONTINUOUS
 62
     6
 10
217.961511
 20
36.286389
 11
217.215229
 21
36.351677
  0
ARC
  8
CSLAYER1
  6
CONTINUOUS
 62
     6
 10
217.318504
 20
37.532085
 40
1.184910
 50
196.257399
 51
264.999892
  0
ARC
  8
CSLAYER1
  6
CONTINUOUS
 62
     6
 10
217.982195
 20
36.522464
 40
0.236982
 50
264.999865
 51
359.942691
  0
ARC
  8
CSLAYER1
  6
CONTINUOUS
 62
     6
 10
218.337654
 20
36.204612
 40
0.118491
 50
180.000005
 51
270.000001
  0
LINE
  8
CSLAYER1
  6
CONTINUOUS
 62
     6
 10
218.337654
 20
36.086114
 11
218.930108
 21
36.086114
  0
ARC
  8
CSLAYER1
  6
CONTINUOUS
 62
     6
 10
218.930108
 20
36.204612
 40
0.118491
 50
270.000001
 51
359.942691
  0
LINE
  8
CSLAYER1
  6
CONTINUOUS
 62
     6
 10
218.219191
 20
38.816219
 11
219.048607
 21
39.342157
  0
LINE
  8
CSLAYER1
  6
CONTINUOUS
 62
     6
 10
218.219191
 20
39.408674
 11
219.048607
 21
39.934612
  0
CIRCLE
  8
CSLAYER1
  6
CONTINUOUS
 62
     3
 10
230.048607
 20
71.522348
 40
2.000000
  0
CIRCLE
  8
CSLAYER1
  6
CONTINUOUS
 62
     6
 10
230.048607
 20
71.522348
 40
1.600000
  0
LINE
  8
CSLAYER1
  6
CENTER
 62
     3
 10
226.048607
 20
71.522348
 11
234.048607
 21
71.522348
  0
LINE
  8
CSLAYER1
  6
CENTER
 62
     3
 10
230.048607
 20
75.522348
 11
230.048607
 21
67.522348
  0
CIRCLE
  8
CSLAYER1
  6
CONTINUOUS
 62
     3
 10
253.048607
 20
71.522355
 40
2.000000
  0
CIRCLE
  8
CSLAYER1
  6
CONTINUOUS
 62
     6
 10
253.048607
 20
71.522355
 40
1.600000
  0
LINE
  8
CSLAYER1
  6
CENTER
 62
     3
 10
249.048607
 20
71.522355
 11
257.048607
 21
71.522355
  0
LINE
  8
CSLAYER1
  6
CENTER
 62
     3
 10
253.048607
 20
75.522355
 11
253.048607
 21
67.522355
  0
CIRCLE
  8
CSLAYER1
  6
CONTINUOUS
 62
     3
 10
253.048607
 20
51.522355
 40
2.000000
  0
CIRCLE
  8
CSLAYER1
  6
CONTINUOUS
 62
     6
 10
253.048607
 20
51.522355
 40
1.600000
  0
LINE
  8
CSLAYER1
  6
CENTER
 62
     3
 10
249.048607
 20
51.522355
 11
257.048607
 21
51.522355
  0
LINE
  8
CSLAYER1
  6
CENTER
 62
     3
 10
253.048607
 20
55.522355
 11
253.048607
 21
47.522355
  0
CIRCLE
  8
CSLAYER1
  6
CONTINUOUS
 62
     3
 10
230.048607
 20
51.522348
 40
2.000000
  0
CIRCLE
  8
CSLAYER1
  6
CONTINUOUS
 62
     6
 10
230.048607
 20
51.522348
 40
1.600000
  0
LINE
  8
CSLAYER1
  6
CENTER
 62
     3
 10
226.048607
 20
51.522348
 11
234.048607
 21
51.522348
  0
LINE
  8
CSLAYER1
  6
CENTER
 62
     3
 10
230.048607
 20
55.522348
 11
230.048607
 21
47.522348
  0
LINE
  8
CSLAYER1
  6
CONTINUOUS
 62
     6
 10
218.219191
 20
141.636755
 11
218.219191
 21
135.001289
  0
ARC
  8
CSLAYER1
  6
CONTINUOUS
 62
     6
 10
224.143740
 20
138.319022
 40
8.294369
 50
163.742984
 51
196.257006
  0
LINE
  8
CSLAYER1
  6
CONTINUOUS
 62
     6
 10
217.961511
 20
135.083066
 11
217.215229
 21
135.148354
  0
ARC
  8
CSLAYER1
  6
CONTINUOUS
 62
     6
 10
217.318504
 20
136.328762
 40
1.184910
 50
196.257389
 51
264.999889
  0
ARC
  8
CSLAYER1
  6
CONTINUOUS
 62
     6
 10
217.982195
 20
135.319141
 40
0.236982
 50
264.999848
 51
360.000000
  0
LINE
  8
CSLAYER1
  6
CONTINUOUS
 62
     6
 10
218.337654
 20
134.882791
 11
218.930108
 21
134.882791
  0
ARC
  8
CSLAYER1
  6
CONTINUOUS
 62
     6
 10
218.337654
 20
135.001289
 40
0.118491
 50
179.999995
 51
269.999997
  0
ARC
  8
CSLAYER1
  6
CONTINUOUS
 62
     6
 10
218.930108
 20
135.001289
 40
0.118491
 50
269.999997
 51
360.000000
  0
LINE
  8
CSLAYER1
  6
CONTINUOUS
 62
     6
 10
217.961511
 20
141.554978
 11
217.215229
 21
141.489690
  0
ARC
  8
CSLAYER1
  6
CONTINUOUS
 62
     6
 10
217.318504
 20
140.309282
 40
1.184910
 50
95.000108
 51
163.742601
  0
ARC
  8
CSLAYER1
  6
CONTINUOUS
 62
     6
 10
217.982195
 20
141.318904
 40
0.236982
 50
0.057309
 51
95.007231
  0
ARC
  8
CSLAYER1
  6
CONTINUOUS
 62
     6
 10
218.337654
 20
141.636755
 40
0.118491
 50
89.999999
 51
179.999995
  0
LINE
  8
CSLAYER1
  6
CONTINUOUS
 62
     6
 10
218.337654
 20
141.755253
 11
218.930108
 21
141.755253
  0
ARC
  8
CSLAYER1
  6
CONTINUOUS
 62
     6
 10
218.930108
 20
141.636755
 40
0.118491
 50
0.057309
 51
89.999999
  0
LINE
  8
CSLAYER1
  6
CONTINUOUS
 62
     6
 10
219.048607
 20
139.025147
 11
218.219191
 21
138.499210
  0
LINE
  8
CSLAYER1
  6
CONTINUOUS
 62
     6
 10
219.048607
 20
138.432693
 11
218.219191
 21
137.906755
  0
LINE
  8
CSLAYER1
  6
CONTINUOUS
 62
     6
 10
218.219191
 20
185.636755
 11
218.219191
 21
179.001289
  0
ARC
  8
CSLAYER1
  6
CONTINUOUS
 62
     6
 10
224.143740
 20
182.319022
 40
8.294369
 50
163.742984
 51
196.257006
  0
LINE
  8
CSLAYER1
  6
CONTINUOUS
 62
     6
 10
217.961511
 20
179.083066
 11
217.215229
 21
179.148354
  0
ARC
  8
CSLAYER1
  6
CONTINUOUS
 62
     6
 10
217.318504
 20
180.328762
 40
1.184910
 50
196.257389
 51
264.999889
  0
ARC
  8
CSLAYER1
  6
CONTINUOUS
 62
     6
 10
217.982195
 20
179.319141
 40
0.236982
 50
264.999848
 51
360.000000
  0
LINE
  8
CSLAYER1
  6
CONTINUOUS
 62
     6
 10
218.337654
 20
178.882791
 11
218.930108
 21
178.882791
  0
ARC
  8
CSLAYER1
  6
CONTINUOUS
 62
     6
 10
218.337654
 20
179.001289
 40
0.118491
 50
179.999995
 51
269.999997
  0
ARC
  8
CSLAYER1
  6
CONTINUOUS
 62
     6
 10
218.930108
 20
179.001289
 40
0.118491
 50
269.999997
 51
360.000000
  0
LINE
  8
CSLAYER1
  6
CONTINUOUS
 62
     6
 10
217.961511
 20
185.554978
 11
217.215229
 21
185.489690
  0
ARC
  8
CSLAYER1
  6
CONTINUOUS
 62
     6
 10
217.318504
 20
184.309282
 40
1.184910
 50
95.000108
 51
163.742601
  0
ARC
  8
CSLAYER1
  6
CONTINUOUS
 62
     6
 10
217.982195
 20
185.318904
 40
0.236982
 50
0.057309
 51
95.000135
  0
ARC
  8
CSLAYER1
  6
CONTINUOUS
 62
     6
 10
218.337654
 20
185.636755
 40
0.118491
 50
89.999999
 51
179.999995
  0
LINE
  8
CSLAYER1
  6
CONTINUOUS
 62
     6
 10
218.337654
 20
185.755253
 11
218.930108
 21
185.755253
  0
ARC
  8
CSLAYER1
  6
CONTINUOUS
 62
     6
 10
218.930108
 20
185.636755
 40
0.118491
 50
0.057309
 51
89.999999
  0
LINE
  8
CSLAYER1
  6
CONTINUOUS
 62
     6
 10
219.048607
 20
183.025147
 11
218.219191
 21
182.499210
  0
LINE
  8
CSLAYER1
  6
CONTINUOUS
 62
     6
 10
219.048607
 20
182.432693
 11
218.219191
 21
181.906755
  0
CIRCLE
  8
CSLAYER1
  6
CONTINUOUS
 62
     3
 10
319.548604
 20
177.319073
 40
2.000000
  0
CIRCLE
  8
CSLAYER1
  6
CONTINUOUS
 62
     6
 10
319.548604
 20
177.319073
 40
1.600000
  0
LINE
  8
CSLAYER1
  6
CENTER
 62
     3
 10
319.548604
 20
173.319073
 11
319.548604
 21
181.319073
  0
LINE
  8
CSLAYER1
  6
CENTER
 62
     3
 10
315.548604
 20
177.319073
 11
323.548604
 21
177.319073
  0
CIRCLE
  8
CSLAYER1
  6
CONTINUOUS
 62
     3
 10
363.548604
 20
177.319073
 40
2.000000
  0
CIRCLE
  8
CSLAYER1
  6
CONTINUOUS
 62
     6
 10
363.548604
 20
177.319073
 40
1.600000
  0
LINE
  8
CSLAYER1
  6
CENTER
 62
     3
 10
363.548604
 20
173.319073
 11
363.548604
 21
181.319073
  0
LINE
  8
CSLAYER1
  6
CENTER
 62
     3
 10
367.548604
 20
177.319073
 11
359.548604
 21
177.319073
  0
LINE
  8
CSLAYER1
  6
CONTINUOUS
 62
     6
 10
242.121154
 20
141.854015
 11
245.976021
 21
141.854015
  0
LINE
  8
CSLAYER1
  6
CONTINUOUS
 62
     6
 10
218.219190
 20
208.958100
 11
218.219193
 21
215.593566
  0
ARC
  8
CSLAYER1
  6
CONTINUOUS
 62
     6
 10
224.143740
 20
212.275830
 40
8.294369
 50
163.742962
 51
196.256984
  0
LINE
  8
CSLAYER1
  6
CONTINUOUS
 62
     6
 10
217.961513
 20
215.511789
 11
217.215231
 21
215.446502
  0
ARC
  8
CSLAYER1
  6
CONTINUOUS
 62
     6
 10
217.318505
 20
214.266094
 40
1.184910
 50
95.000079
 51
163.742579
  0
ARC
  8
CSLAYER1
  6
CONTINUOUS
 62
     6
 10
217.982197
 20
215.275715
 40
0.236982
 50
-0.000032
 51
95.000120
  0
LINE
  8
CSLAYER1
  6
CONTINUOUS
 62
     6
 10
218.337655
 20
215.712064
 11
218.930110
 21
215.712064
  0
ARC
  8
CSLAYER1
  6
CONTINUOUS
 62
     6
 10
218.337655
 20
215.593566
 40
0.118491
 50
89.999970
 51
179.999973
  0
ARC
  8
CSLAYER1
  6
CONTINUOUS
 62
     6
 10
218.930110
 20
215.593566
 40
0.118491
 50
-0.000032
 51
89.999970
  0
LINE
  8
CSLAYER1
  6
CONTINUOUS
 62
     6
 10
217.961509
 20
209.039878
 11
217.215227
 21
209.105166
  0
ARC
  8
CSLAYER1
  6
CONTINUOUS
 62
     6
 10
217.318503
 20
210.285574
 40
1.184910
 50
196.257367
 51
264.999860
  0
ARC
  8
CSLAYER1
  6
CONTINUOUS
 62
     6
 10
217.982193
 20
209.275952
 40
0.236982
 50
264.999833
 51
359.942659
  0
ARC
  8
CSLAYER1
  6
CONTINUOUS
 62
     6
 10
218.337652
 20
208.958100
 40
0.118491
 50
179.999973
 51
269.999969
  0
LINE
  8
CSLAYER1
  6
CONTINUOUS
 62
     6
 10
218.337652
 20
208.839602
 11
218.930107
 21
208.839602
  0
ARC
  8
CSLAYER1
  6
CONTINUOUS
 62
     6
 10
218.930107
 20
208.958100
 40
0.118491
 50
269.999969
 51
359.942659
  0
LINE
  8
CSLAYER1
  6
CONTINUOUS
 62
     6
 10
218.219191
 20
211.569708
 11
219.048607
 21
212.095645
  0
LINE
  8
CSLAYER1
  6
CONTINUOUS
 62
     6
 10
218.219191
 20
212.162163
 11
219.048607
 21
212.688100
  0
LINE
  8
CSLAYER1
  6
CONTINUOUS
 62
     6
 10
218.219190
 20
252.958100
 11
218.219193
 21
259.593566
  0
ARC
  8
CSLAYER1
  6
CONTINUOUS
 62
     6
 10
224.143740
 20
256.275830
 40
8.294369
 50
163.742962
 51
196.256984
  0
LINE
  8
CSLAYER1
  6
CONTINUOUS
 62
     6
 10
217.961513
 20
259.511789
 11
217.215231
 21
259.446502
  0
ARC
  8
CSLAYER1
  6
CONTINUOUS
 62
     6
 10
217.318505
 20
258.266094
 40
1.184910
 50
95.000079
 51
163.742579
  0
ARC
  8
CSLAYER1
  6
CONTINUOUS
 62
     6
 10
217.982197
 20
259.275715
 40
0.236982
 50
-0.000032
 51
95.000120
  0
LINE
  8
CSLAYER1
  6
CONTINUOUS
 62
     6
 10
218.337655
 20
259.712064
 11
218.930110
 21
259.712064
  0
ARC
  8
CSLAYER1
  6
CONTINUOUS
 62
     6
 10
218.337655
 20
259.593566
 40
0.118491
 50
89.999970
 51
179.999973
  0
ARC
  8
CSLAYER1
  6
CONTINUOUS
 62
     6
 10
218.930110
 20
259.593566
 40
0.118491
 50
-0.000032
 51
89.999970
  0
LINE
  8
CSLAYER1
  6
CONTINUOUS
 62
     6
 10
217.961509
 20
253.039878
 11
217.215227
 21
253.105166
  0
ARC
  8
CSLAYER1
  6
CONTINUOUS
 62
     6
 10
217.318503
 20
254.285574
 40
1.184910
 50
196.257367
 51
264.999860
  0
ARC
  8
CSLAYER1
  6
CONTINUOUS
 62
     6
 10
217.982193
 20
253.275952
 40
0.236982
 50
264.999833
 51
359.942659
  0
ARC
  8
CSLAYER1
  6
CONTINUOUS
 62
     6
 10
218.337652
 20
252.958100
 40
0.118491
 50
179.999973
 51
269.999969
  0
LINE
  8
CSLAYER1
  6
CONTINUOUS
 62
     6
 10
218.337652
 20
252.839602
 11
218.930107
 21
252.839602
  0
ARC
  8
CSLAYER1
  6
CONTINUOUS
 62
     6
 10
218.930107
 20
252.958100
 40
0.118491
 50
269.999969
 51
359.942659
  0
LINE
  8
CSLAYER1
  6
CONTINUOUS
 62
     6
 10
218.219191
 20
255.569708
 11
219.048607
 21
256.095645
  0
LINE
  8
CSLAYER1
  6
CONTINUOUS
 62
     6
 10
218.219191
 20
256.162163
 11
219.048607
 21
256.688100
  0
LINE
  8
CSLAYER1
  6
CONTINUOUS
 62
     6
 10
248.013607
 20
258.275832
 11
248.013607
 21
288.275832
  0
LINE
  8
CSLAYER1
  6
CONTINUOUS
 62
     6
 10
240.083607
 20
258.275834
 11
240.083607
 21
288.275834
  0
LINE
  8
CSLAYER1
  6
CONTINUOUS
 62
     6
 10
248.013607
 20
288.275832
 11
240.083607
 21
288.275834
  0
LINE
  8
CSLAYER1
  6
CONTINUOUS
 62
     6
 10
248.013607
 20
37.522353
 11
248.013607
 21
7.522353
  0
LINE
  8
CSLAYER1
  6
CONTINUOUS
 62
     6
 10
240.083607
 20
37.522351
 11
240.083607
 21
7.522351
  0
LINE
  8
CSLAYER1
  6
CONTINUOUS
 62
     6
 10
248.013607
 20
7.522353
 11
240.083607
 21
7.522351
  0
LINE
  8
CSLAYER1
  6
CONTINUOUS
 62
     6
 10
245.976040
 20
32.522353
 11
242.121173
 21
32.522352
  0
LINE
  8
CSLAYER1
  6
CONTINUOUS
 62
     6
 10
242.121173
 20
7.522352
 11
242.121173
 21
32.522352
  0
LINE
  8
CSLAYER1
  6
CONTINUOUS
 62
     6
 10
245.976040
 20
7.522353
 11
245.976040
 21
32.522353
  0
LINE
  8
CSLAYER1
  6
CONTINUOUS
 62
     3
 10
242.121173
 20
32.522352
 11
245.976040
 21
7.522353
  0
LINE
  8
CSLAYER1
  6
CONTINUOUS
 62
     3
 10
245.976040
 20
32.522353
 11
242.121173
 21
7.522352
  0
LINE
  8
CSLAYER1
  6
CONTINUOUS
 62
     6
 10
395.548601
 20
136.854073
 11
395.548601
 21
144.284073
  0
LINE
  8
CSLAYER1
  6
CONTINUOUS
 62
     6
 10
368.548604
 20
144.284073
 11
395.548599
 21
144.284073
  0
LINE
  8
CSLAYER1
  6
CONTINUOUS
 62
     6
 10
368.548604
 20
136.354073
 11
370.548601
 21
136.354073
  0
LINE
  8
CSLAYER1
  6
CONTINUOUS
 62
     6
 10
370.548601
 20
136.854073
 11
395.548602
 21
136.854073
  0
LINE
  8
CSLAYER1
  6
CONTINUOUS
 62
     6
 10
370.548601
 20
136.354073
 11
370.548601
 21
136.854073
  0
LINE
  8
CSLAYER1
  6
CONTINUOUS
 62
     6
 10
34.864878
 20
136.854073
 11
34.864878
 21
144.284073
  0
LINE
  8
CSLAYER1
  6
CONTINUOUS
 62
     6
 10
61.864875
 20
144.284073
 11
34.864879
 21
144.284073
  0
LINE
  8
CSLAYER1
  6
CONTINUOUS
 62
     6
 10
61.864875
 20
136.354073
 11
59.864878
 21
136.354073
  0
LINE
  8
CSLAYER1
  6
CONTINUOUS
 62
     6
 10
59.864878
 20
136.854073
 11
34.864877
 21
136.854073
  0
LINE
  8
CSLAYER1
  6
CONTINUOUS
 62
     6
 10
59.864878
 20
136.354073
 11
59.864878
 21
136.854073
  0
LINE
  8
CSLAYER1
  6
CONTINUOUS
 62
     3
 10
214.548607
 20
253.790354
 11
184.548607
 21
253.790354
  0
LINE
  8
CSLAYER1
  6
CONTINUOUS
 62
     3
 10
214.548607
 20
214.761313
 11
184.548607
 21
214.761313
  0
LINE
  8
CSLAYER1
  6
CONTINUOUS
 62
     3
 10
215.548607
 20
252.790354
 11
215.548607
 21
215.761313
  0
LINE
  8
CSLAYER1
  6
CONTINUOUS
 62
     3
 10
183.548607
 20
252.790354
 11
183.548607
 21
215.761313
  0
ARC
  8
CSLAYER1
  6
CONTINUOUS
 62
     3
 10
214.548607
 20
215.761313
 40
1.000000
 50
270.000000
 51
360.000000
  0
ARC
  8
CSLAYER1
  6
CONTINUOUS
 62
     3
 10
184.548607
 20
215.761313
 40
1.000000
 50
180.000000
 51
270.000000
  0
ARC
  8
CSLAYER1
  6
CONTINUOUS
 62
     3
 10
184.548607
 20
252.790354
 40
1.000000
 50
90.000000
 51
180.000000
  0
ARC
  8
CSLAYER1
  6
CONTINUOUS
 62
     3
 10
214.548607
 20
252.790354
 40
1.000000
 50
0.000000
 51
90.000000
  0
TEXT
  8
CSLAYER1
 62
     3
 10
197.472763
 20
239.536789
 40
3.500000
 41
1.125000
  1
N P
 50
270.000000
 51
10.000000
  7
JX_FONT
 72
     5
 11
197.472763
 21
229.036789
  0
LINE
  8
CSLAYER1
  6
CONTINUOUS
 62
     3
 10
214.548604
 20
164.698936
 11
184.548604
 21
164.698919
  0
LINE
  8
CSLAYER1
  6
CONTINUOUS
 62
     3
 10
215.548604
 20
165.698937
 11
215.548595
 21
180.319042
  0
LINE
  8
CSLAYER1
  6
CONTINUOUS
 62
     3
 10
183.548604
 20
165.698919
 11
183.548595
 21
180.319024
  0
ARC
  8
CSLAYER1
  6
CONTINUOUS
 62
     3
 10
184.548604
 20
165.698919
 40
1.000000
 50
180.000033
 51
270.000033
  0
ARC
  8
CSLAYER1
  6
CONTINUOUS
 62
     3
 10
214.548604
 20
165.698936
 40
1.000000
 50
-89.999967
 51
0.000033
  0
LINE
  8
CSLAYER1
  6
CONTINUOUS
 62
     6
 10
161.048607
 20
241.775833
 11
161.048607
 21
226.775833
  0
LINE
  8
CSLAYER1
  6
CONTINUOUS
 62
     6
 10
166.048607
 20
252.275833
 11
166.048607
 21
216.275833
  0
LINE
  8
CSLAYER1
  6
CONTINUOUS
 62
     6
 10
180.048607
 20
256.775833
 11
180.048607
 21
211.775833
  0
LINE
  8
CSLAYER1
  6
CONTINUOUS
 62
     6
 10
164.048607
 20
224.775833
 11
163.048607
 21
224.775833
  0
LINE
  8
CSLAYER1
  6
CONTINUOUS
 62
     6
 10
164.048607
 20
243.775833
 11
163.048607
 21
243.775833
  0
ARC
  8
CSLAYER1
  6
CONTINUOUS
 62
     6
 10
163.048607
 20
241.775833
 40
2.000000
 50
90.000000
 51
180.000000
  0
ARC
  8
CSLAYER1
  6
CONTINUOUS
 62
     6
 10
163.048607
 20
226.775833
 40
2.000000
 50
180.000000
 51
270.000000
  0
ARC
  8
CSLAYER1
  6
CONTINUOUS
 62
     6
 10
164.048607
 20
245.775833
 40
2.000000
 50
270.000000
 51
360.000000
  0
ARC
  8
CSLAYER1
  6
CONTINUOUS
 62
     6
 10
164.048607
 20
222.775833
 40
2.000000
 50
0.000000
 51
90.000000
  0
ARC
  8
CSLAYER1
  6
CONTINUOUS
 62
     6
 10
167.048607
 20
252.275833
 40
1.000000
 50
90.000000
 51
180.000000
  0
ARC
  8
CSLAYER1
  6
CONTINUOUS
 62
     6
 10
167.048607
 20
216.275833
 40
1.000000
 50
180.000000
 51
270.000000
  0
LINE
  8
CSLAYER1
  6
CONTINUOUS
 62
     6
 10
168.048607
 20
215.275833
 11
167.048607
 21
215.275833
  0
LINE
  8
CSLAYER1
  6
CONTINUOUS
 62
     6
 10
168.048607
 20
253.275833
 11
167.048607
 21
253.275833
  0
LINE
  8
CSLAYER1
  6
CONTINUOUS
 62
     6
 10
180.048607
 20
211.775833
 11
168.048607
 21
211.775833
  0
LINE
  8
CSLAYER1
  6
CONTINUOUS
 62
     6
 10
180.048607
 20
256.775833
 11
168.048607
 21
256.775833
  0
LINE
  8
CSLAYER1
  6
CONTINUOUS
 62
     6
 10
180.048607
 20
252.775833
 11
168.048607
 21
252.775833
  0
LINE
  8
CSLAYER1
  6
CONTINUOUS
 62
     6
 10
180.048607
 20
215.775833
 11
168.048607
 21
215.775833
  0
LINE
  8
CSLAYER1
  6
CONTINUOUS
 62
     6
 10
168.048607
 20
215.775833
 11
168.048607
 21
211.775833
  0
LINE
  8
CSLAYER1
  6
CONTINUOUS
 62
     6
 10
168.048607
 20
256.775833
 11
168.048607
 21
252.775833
  0
LINE
  8
CSLAYER1
  6
CONTINUOUS
 62
     6
 10
180.048607
 20
212.775833
 11
168.048607
 21
212.775833
  0
LINE
  8
CSLAYER1
  6
CONTINUOUS
 62
     6
 10
180.048607
 20
255.775833
 11
168.048607
 21
255.775833
  0
LINE
  8
CSLAYER1
  6
CONTINUOUS
 62
     6
 10
168.048607
 20
255.275833
 11
161.048607
 21
255.275833
  0
LINE
  8
CSLAYER1
  6
CONTINUOUS
 62
     6
 10
161.048607
 20
213.275833
 11
168.048607
 21
213.275833
  0
LINE
  8
CSLAYER1
  6
CONTINUOUS
 62
     6
 10
168.048607
 20
254.775833
 11
161.048607
 21
254.775833
  0
LINE
  8
CSLAYER1
  6
CONTINUOUS
 62
     6
 10
161.048607
 20
213.775833
 11
168.048607
 21
213.775833
  0
LINE
  8
CSLAYER1
  6
CONTINUOUS
 62
     6
 10
161.048607
 20
255.275833
 11
161.048607
 21
254.775833
  0
LINE
  8
CSLAYER1
  6
CONTINUOUS
 62
     6
 10
161.048607
 20
213.775833
 11
161.048607
 21
213.275833
  0
ARC
  8
CSLAYER1
  6
CONTINUOUS
 62
     6
 10
244.048587
 20
145.319015
 40
10.000000
 50
-90.000000
 51
89.999968
  0
TEXT
  8
CSLAYER1
 62
     3
 10
81.316811
 20
152.374512
 40
1.472728
 41
1.260000
  1
S
 50
290.000000
 51
0.000000
  7
JX_FONT
 72
     5
 11
81.739921
 21
151.212026
  0
TEXT
  8
CSLAYER1
 62
     3
 10
81.883675
 20
151.074219
 40
1.472728
 41
1.260000
  1
A
 50
300.000000
 51
0.000000
  7
JX_FONT
 72
     5
 11
82.502220
 21
150.002866
  0
TEXT
  8
CSLAYER1
 62
     3
 10
82.779182
 20
149.970840
 40
1.472728
 41
1.675800
  1
W
 50
310.000000
 51
0.000000
  7
JX_FONT
 72
     5
 11
83.836781
 21
148.710443
  0
TEXT
  8
CSLAYER1
 62
     3
 10
83.800423
 20
148.995209
 40
1.472728
 41
1.260000
  1
A
 50
320.000000
 51
0.000000
  7
JX_FONT
 72
     5
 11
84.748089
 21
148.200022
  0
TEXT
  8
CSLAYER1
 62
     3
 10
84.973610
 20
148.208359
 40
1.472728
 41
1.260000
  1
M
 50
330.000000
 51
0.000000
  7
JX_FONT
 72
     5
 11
86.044962
 21
147.589813
  0
TEXT
  8
CSLAYER1
 62
     3
 10
86.268867
 20
147.644577
 40
1.472728
 41
1.260000
  1
U
 50
340.000000
 51
0.000000
  7
JX_FONT
 72
     5
 11
87.431353
 21
147.221467
  0
TEXT
  8
CSLAYER1
 62
     3
 10
87.624321
 20
147.215332
 40
1.472728
 41
1.260000
  1
R
 50
350.000000
 51
0.000000
  7
JX_FONT
 72
     5
 11
88.842618
 21
147.000513
  0
TEXT
  8
CSLAYER1
 62
     3
 10
89.050339
 20
147.219727
 40
1.472728
 41
1.260000
  1
A
 50
360.000000
 51
0.000000
  7
JX_FONT
 72
     5
 11
90.287430
 21
147.219727
  0
TEXT
  8
CSLAYER1
 62
     3
 10
91.809601
 20
147.771500
 40
1.472728
 41
1.260000
  1
D
 50
20.000000
 51
0.000000
  7
JX_FONT
 72
     5
 11
92.972086
 21
148.194610
  0
TEXT
  8
CSLAYER1
 62
     3
 10
93.075592
 20
148.397263
 40
1.472728
 41
1.260000
  1
E
 50
30.000000
 51
0.000000
  7
JX_FONT
 72
     5
 11
94.146944
 21
149.015808
  0
TEXT
  8
CSLAYER1
 62
     3
 10
94.213638
 20
149.233765
 40
1.472728
 41
1.260000
  1
N
 50
40.000000
 51
0.000000
  7
JX_FONT
 72
     5
 11
95.161305
 21
150.028952
  0
TEXT
  8
CSLAYER1
 62
     3
 10
95.189133
 20
150.255157
 40
1.472728
 41
1.260000
  1
K
 50
50.000000
 51
0.000000
  7
JX_FONT
 72
     5
 11
95.984320
 21
151.202824
  0
TEXT
  8
CSLAYER1
 62
     3
 10
95.972488
 20
151.429779
 40
1.472728
 41
0.831600
  1
I
 50
60.000000
 51
0.000000
  7
JX_FONT
 72
     5
 11
96.380729
 21
152.136872
  0
CIRCLE
  8
CSLAYER1
  6
CONTINUOUS
 62
     6
 10
88.864875
 20
155.319073
 40
9.500000
  0
LINE
  8
CSLAYER1
  6
CONTINUOUS
 62
     6
 10
90.452593
 20
174.023623
 11
87.277166
 21
174.023623
  0
LINE
  8
CSLAYER1
  6
CONTINUOUS
 62
     6
 10
87.277166
 20
174.023623
 11
85.689453
 21
171.273623
  0
LINE
  8
CSLAYER1
  6
CONTINUOUS
 62
     6
 10
85.689453
 20
171.273623
 11
87.277166
 21
168.523623
  0
LINE
  8
CSLAYER1
  6
CONTINUOUS
 62
     6
 10
87.277166
 20
168.523623
 11
90.452593
 21
168.523623
  0
LINE
  8
CSLAYER1
  6
CONTINUOUS
 62
     6
 10
90.452593
 20
168.523623
 11
92.040306
 21
171.273623
  0
LINE
  8
CSLAYER1
  6
CONTINUOUS
 62
     6
 10
92.040306
 20
171.273623
 11
90.452593
 21
174.023623
  0
CIRCLE
  8
CSLAYER1
  6
CONTINUOUS
 62
     6
 10
88.864880
 20
171.273623
 40
2.667500
  0
CIRCLE
  8
CSLAYER1
  6
CONTINUOUS
 62
     3
 10
88.864880
 20
171.273623
 40
1.500000
  0
CIRCLE
  8
CSLAYER1
  6
CONTINUOUS
 62
     6
 10
88.864880
 20
171.273623
 40
1.245000
  0
LINE
  8
CSLAYER1
  6
CENTER
 62
     3
 10
93.773956
 20
171.273623
 11
83.955771
 21
171.273623
  0
LINE
  8
CSLAYER1
  6
CONTINUOUS
 62
     6
 10
90.452593
 20
136.614523
 11
87.277166
 21
136.614523
  0
LINE
  8
CSLAYER1
  6
CONTINUOUS
 62
     6
 10
87.277166
 20
136.614523
 11
85.689453
 21
139.364523
  0
LINE
  8
CSLAYER1
  6
CONTINUOUS
 62
     6
 10
85.689453
 20
139.364523
 11
87.277166
 21
142.114523
  0
LINE
  8
CSLAYER1
  6
CONTINUOUS
 62
     6
 10
87.277166
 20
142.114523
 11
90.452593
 21
142.114523
  0
LINE
  8
CSLAYER1
  6
CONTINUOUS
 62
     6
 10
90.452593
 20
142.114523
 11
92.040306
 21
139.364523
  0
LINE
  8
CSLAYER1
  6
CONTINUOUS
 62
     6
 10
92.040306
 20
139.364523
 11
90.452593
 21
136.614523
  0
CIRCLE
  8
CSLAYER1
  6
CONTINUOUS
 62
     6
 10
88.864880
 20
139.364523
 40
2.667500
  0
CIRCLE
  8
CSLAYER1
  6
CONTINUOUS
 62
     3
 10
88.864880
 20
139.364523
 40
1.500000
  0
CIRCLE
  8
CSLAYER1
  6
CONTINUOUS
 62
     6
 10
88.864880
 20
139.364523
 40
1.245000
  0
LINE
  8
CSLAYER1
  6
CENTER
 62
     3
 10
93.773956
 20
139.364523
 11
83.955771
 21
139.364523
  0
LINE
  8
CSLAYER1
  6
CONTINUOUS
 62
     6
 10
101.614875
 20
155.569073
 11
102.614875
 21
155.569073
  0
LINE
  8
CSLAYER1
  6
CONTINUOUS
 62
     6
 10
101.614875
 20
155.069073
 11
102.614875
 21
155.069073
  0
ARC
  8
CSLAYER1
  6
CONTINUOUS
 62
     6
 10
104.114875
 20
155.319073
 40
0.250000
 50
-90.000000
 51
90.000000
  0
ARC
  8
CSLAYER1
  6
CONTINUOUS
 62
     6
 10
101.614875
 20
155.319073
 40
0.250000
 50
90.000000
 51
270.000000
  0
LINE
  8
CSLAYER1
  6
CONTINUOUS
 62
     6
 10
102.614875
 20
154.069073
 11
102.614875
 21
155.069073
  0
LINE
  8
CSLAYER1
  6
CONTINUOUS
 62
     6
 10
103.114875
 20
154.069073
 11
103.114875
 21
155.069073
  0
ARC
  8
CSLAYER1
  6
CONTINUOUS
 62
     6
 10
102.864875
 20
156.569073
 40
0.250000
 50
0.000000
 51
180.000000
  0
ARC
  8
CSLAYER1
  6
CONTINUOUS
 62
     6
 10
102.864875
 20
154.069073
 40
0.250000
 50
180.000000
 51
360.000000
  0
LINE
  8
CSLAYER1
  6
CONTINUOUS
 62
     6
 10
103.114875
 20
155.569073
 11
104.114875
 21
155.569073
  0
LINE
  8
CSLAYER1
  6
CONTINUOUS
 62
     6
 10
103.114875
 20
155.069073
 11
104.114875
 21
155.069073
  0
LINE
  8
CSLAYER1
  6
CONTINUOUS
 62
     6
 10
103.114875
 20
155.569073
 11
103.114875
 21
156.569073
  0
LINE
  8
CSLAYER1
  6
CONTINUOUS
 62
     6
 10
102.614875
 20
155.569073
 11
102.614875
 21
156.569073
  0
ARC
  8
CSLAYER1
  6
CONTINUOUS
 62
     6
 10
74.864875
 20
156.569073
 40
0.250000
 50
0.000000
 51
180.000000
  0
ARC
  8
CSLAYER1
  6
CONTINUOUS
 62
     6
 10
74.864875
 20
154.069073
 40
0.250000
 50
180.000000
 51
360.000000
  0
LINE
  8
CSLAYER1
  6
CONTINUOUS
 62
     6
 10
74.614875
 20
154.069073
 11
74.614875
 21
156.569073
  0
LINE
  8
CSLAYER1
  6
CONTINUOUS
 62
     6
 10
75.114875
 20
154.069073
 11
75.114875
 21
156.569073
  0
ARC
  8
CSLAYER1
  6
CONTINUOUS
 62
     6
 10
88.864875
 20
155.319073
 40
19.000000
 50
20.487315
 51
159.512649
  0
ARC
  8
CSLAYER1
  6
CONTINUOUS
 62
     6
 10
88.864875
 20
155.319073
 40
20.000000
 50
17.457603
 51
162.542361
  0
LINE
  8
CSLAYER1
  6
CONTINUOUS
 62
     6
 10
99.864870
 20
158.319073
 11
105.364870
 21
158.319073
  0
LINE
  8
CSLAYER1
  6
CONTINUOUS
 62
     6
 10
99.864870
 20
152.319073
 11
105.364870
 21
152.319073
  0
LINE
  8
CSLAYER1
  6
CONTINUOUS
 62
     6
 10
110.364870
 20
161.319073
 11
107.599869
 21
161.319073
  0
LINE
  8
CSLAYER1
  6
CONTINUOUS
 62
     6
 10
110.364870
 20
149.319073
 11
107.599869
 21
149.319073
  0
LINE
  8
CSLAYER1
  6
CONTINUOUS
 62
     6
 10
98.864870
 20
160.319073
 11
98.864870
 21
150.319073
  0
ARC
  8
CSLAYER1
  6
CONTINUOUS
 62
     6
 10
99.864870
 20
160.319073
 40
1.000000
 50
90.000000
 51
180.000000
  0
ARC
  8
CSLAYER1
  6
CONTINUOUS
 62
     6
 10
99.864870
 20
150.319073
 40
1.000000
 50
180.000000
 51
270.000000
  0
ARC
  8
CSLAYER1
  6
CONTINUOUS
 62
     6
 10
99.864870
 20
157.319073
 40
1.000000
 50
90.000000
 51
180.000000
  0
ARC
  8
CSLAYER1
  6
CONTINUOUS
 62
     6
 10
99.864870
 20
153.319073
 40
1.000000
 50
180.000000
 51
270.000000
  0
LINE
  8
CSLAYER1
  6
CONTINUOUS
 62
     6
 10
71.364876
 20
150.319073
 11
71.364883
 21
160.319073
  0
LINE
  8
CSLAYER1
  6
CONTINUOUS
 62
     6
 10
77.864881
 20
158.319080
 11
72.364881
 21
158.319084
  0
LINE
  8
CSLAYER1
  6
CONTINUOUS
 62
     6
 10
77.864878
 20
152.319080
 11
72.364878
 21
152.319084
  0
LINE
  8
CSLAYER1
  6
CONTINUOUS
 62
     6
 10
78.864883
 20
160.319079
 11
78.864876
 21
150.319079
  0
ARC
  8
CSLAYER1
  6
CONTINUOUS
 62
     6
 10
77.864883
 20
160.319080
 40
1.000000
 50
-0.000037
 51
89.999963
  0
ARC
  8
CSLAYER1
  6
CONTINUOUS
 62
     6
 10
77.864876
 20
150.319080
 40
1.000000
 50
269.999963
 51
359.999963
  0
ARC
  8
CSLAYER1
  6
CONTINUOUS
 62
     6
 10
77.864881
 20
157.319080
 40
1.000000
 50
-0.000037
 51
89.999963
  0
ARC
  8
CSLAYER1
  6
CONTINUOUS
 62
     6
 10
77.864878
 20
153.319080
 40
1.000000
 50
269.999963
 51
359.999963
  0
ARC
  8
CSLAYER1
  6
CONTINUOUS
 62
     6
 10
72.364878
 20
153.319084
 40
1.000000
 50
179.999963
 51
269.999963
  0
ARC
  8
CSLAYER1
  6
CONTINUOUS
 62
     6
 10
72.364881
 20
157.319084
 40
1.000000
 50
89.999963
 51
179.999963
  0
ARC
  8
CSLAYER1
  6
CONTINUOUS
 62
     6
 10
88.864875
 20
155.319073
 40
19.000000
 50
200.487279
 51
339.512685
  0
ARC
  8
CSLAYER1
  6
CONTINUOUS
 62
     6
 10
88.864875
 20
155.319073
 40
20.000000
 50
197.457567
 51
342.542397
  0
LINE
  8
CSLAYER1
  6
CONTINUOUS
 62
     6
 10
77.864883
 20
161.319080
 11
71.629877
 21
161.319084
  0
LINE
  8
CSLAYER1
  6
CONTINUOUS
 62
     6
 10
77.864876
 20
149.319080
 11
71.629877
 21
149.319084
  0
LINE
  8
CSLAYER1
  6
CONTINUOUS
 62
     6
 10
106.364870
 20
150.319073
 11
106.364870
 21
160.319073
  0
ARC
  8
CSLAYER1
  6
CONTINUOUS
 62
     6
 10
105.364870
 20
153.319073
 40
1.000000
 50
-90.000000
 51
0.000000
  0
ARC
  8
CSLAYER1
  6
CONTINUOUS
 62
     6
 10
105.364870
 20
157.319073
 40
1.000000
 50
-0.000000
 51
90.000000
  0
LINE
  8
CSLAYER1
  6
CONTINUOUS
 62
     6
 10
108.364870
 20
151.046345
 11
109.964870
 21
151.046345
  0
LINE
  8
CSLAYER1
  6
CONTINUOUS
 62
     6
 10
109.964870
 20
151.046345
 11
109.964870
 21
151.864527
  0
LINE
  8
CSLAYER1
  6
CONTINUOUS
 62
     6
 10
108.364870
 20
151.864527
 11
109.164870
 21
151.864527
  0
LINE
  8
CSLAYER1
  6
CONTINUOUS
 62
     6
 10
108.364870
 20
151.046345
 11
108.364870
 21
159.591801
  0
LINE
  8
CSLAYER1
  6
CONTINUOUS
 62
     6
 10
111.364870
 20
150.319073
 11
111.364870
 21
160.319073
  0
LINE
  8
CSLAYER1
  6
CONTINUOUS
 62
     6
 10
108.364870
 20
159.591801
 11
109.964870
 21
159.591801
  0
LINE
  8
CSLAYER1
  6
CONTINUOUS
 62
     6
 10
109.964870
 20
159.591801
 11
109.964870
 21
158.773619
  0
LINE
  8
CSLAYER1
  6
CONTINUOUS
 62
     6
 10
108.364870
 20
158.773619
 11
109.164870
 21
158.773619
  0
LINE
  8
CSLAYER1
  6
CONTINUOUS
 62
     6
 10
110.364870
 20
161.319073
 11
111.364870
 21
160.319073
  0
LINE
  8
CSLAYER1
  6
CONTINUOUS
 62
     6
 10
111.364870
 20
150.319073
 11
110.364870
 21
149.319073
  0
LINE
  8
CSLAYER1
  6
CONTINUOUS
 62
     6
 10
109.964870
 20
158.773619
 11
111.364870
 21
158.773619
  0
LINE
  8
CSLAYER1
  6
CONTINUOUS
 62
     6
 10
109.964870
 20
151.864527
 11
111.364870
 21
151.864527
  0
LINE
  8
CSLAYER1
  6
CONTINUOUS
 62
     6
 10
109.164870
 20
151.046345
 11
109.164870
 21
159.591801
  0
ARC
  8
CSLAYER1
  6
CONTINUOUS
 62
     6
 10
70.129885
 20
162.319085
 40
1.000000
 50
269.999963
 51
339.512649
  0
ARC
  8
CSLAYER1
  6
CONTINUOUS
 62
     6
 10
70.129876
 20
148.319085
 40
1.000000
 50
20.487279
 51
89.999963
  0
ARC
  8
CSLAYER1
  6
CONTINUOUS
 62
     6
 10
107.599869
 20
148.319073
 40
1.000000
 50
90.000000
 51
159.512685
  0
ARC
  8
CSLAYER1
  6
CONTINUOUS
 62
     6
 10
107.599869
 20
162.319073
 40
1.000000
 50
200.487315
 51
270.000000
  0
LINE
  8
CSLAYER1
  6
CONTINUOUS
 62
     6
 10
69.364877
 20
151.046357
 11
67.764877
 21
151.046358
  0
LINE
  8
CSLAYER1
  6
CONTINUOUS
 62
     6
 10
67.764877
 20
151.046358
 11
67.764877
 21
151.864540
  0
LINE
  8
CSLAYER1
  6
CONTINUOUS
 62
     6
 10
69.364877
 20
151.864539
 11
68.564877
 21
151.864540
  0
LINE
  8
CSLAYER1
  6
CONTINUOUS
 62
     6
 10
69.364877
 20
151.046357
 11
69.364882
 21
159.591814
  0
LINE
  8
CSLAYER1
  6
CONTINUOUS
 62
     6
 10
66.364876
 20
150.319087
 11
66.364883
 21
160.319087
  0
LINE
  8
CSLAYER1
  6
CONTINUOUS
 62
     6
 10
69.364882
 20
159.591814
 11
67.764882
 21
159.591815
  0
LINE
  8
CSLAYER1
  6
CONTINUOUS
 62
     6
 10
67.764882
 20
159.591815
 11
67.764882
 21
158.773633
  0
LINE
  8
CSLAYER1
  6
CONTINUOUS
 62
     6
 10
69.364882
 20
158.773632
 11
68.564882
 21
158.773632
  0
LINE
  8
CSLAYER1
  6
CONTINUOUS
 62
     6
 10
67.364883
 20
161.319087
 11
66.364883
 21
160.319087
  0
LINE
  8
CSLAYER1
  6
CONTINUOUS
 62
     6
 10
66.364876
 20
150.319087
 11
67.364876
 21
149.319087
  0
LINE
  8
CSLAYER1
  6
CONTINUOUS
 62
     6
 10
67.764882
 20
158.773633
 11
66.364882
 21
158.773634
  0
LINE
  8
CSLAYER1
  6
CONTINUOUS
 62
     6
 10
67.764877
 20
151.864540
 11
66.364877
 21
151.864541
  0
LINE
  8
CSLAYER1
  6
CONTINUOUS
 62
     6
 10
68.564877
 20
151.046358
 11
68.564882
 21
159.591814
  0
LINE
  8
CSLAYER1
  6
CONTINUOUS
 62
     6
 10
106.099869
 20
161.319073
 11
99.864870
 21
161.319073
  0
LINE
  8
CSLAYER1
  6
CONTINUOUS
 62
     6
 10
106.099869
 20
149.319073
 11
99.864870
 21
149.319073
  0
LINE
  8
CSLAYER1
  6
CONTINUOUS
 62
     6
 10
70.129884
 20
161.319085
 11
67.364883
 21
161.319087
  0
LINE
  8
CSLAYER1
  6
CONTINUOUS
 62
     6
 10
70.129877
 20
149.319085
 11
67.364876
 21
149.319087
  0
LINE
  8
CSLAYER1
  6
CONTINUOUS
 62
     6
 10
93.864875
 20
122.319073
 11
83.864875
 21
122.319073
  0
LINE
  8
CSLAYER1
  6
CONTINUOUS
 62
     6
 10
95.864875
 20
124.319073
 11
95.864875
 21
128.319073
  0
LINE
  8
CSLAYER1
  6
CONTINUOUS
 62
     6
 10
81.864875
 20
124.319073
 11
81.864875
 21
128.319073
  0
ARC
  8
CSLAYER1
  6
CONTINUOUS
 62
     6
 10
83.864875
 20
124.319073
 40
2.000000
 50
180.000000
 51
270.000000
  0
ARC
  8
CSLAYER1
  6
CONTINUOUS
 62
     6
 10
93.864875
 20
124.319073
 40
2.000000
 50
270.000000
 51
360.000000
  0
ENDSEC
  0
EOF
