  0
SECTION
  2
HEADER
  9
$ACADVER
  1
AC1006
  9
$INSBASE
 10
0.000000
 20
0.000000
 30
0.0
  9
$EXTMIN
 10
0.000000
 20
0.000000
  9
$EXTMAX
 10
420.000000
 20
297.000000
  9
$LIMMIN
 10
0.000000
 20
0.000000
  9
$LIMMAX
 10
420.000000
 20
297.000000
  9
$VIEWCTR
 10
210.000000
 20
148.500000
  9
$VIEWSIZE
 40
297.000000
  9
$SNAPMODE
 70
     0
  9
$SNAPUNIT
 10
1.0
 20
1.0
  9
$SNAPBASE
 10
0.0
 20
0.0
  9
$SNAPANG
 50
0.0
  9
$SNAPSTYLE
 70
     0
  9
$SNAPISOPAIR
 70
     0
  9
$GRIDMODE
 70
     0
  9
$GRIDUNIT
 10
0.0
 20
0.0
  9
$ORTHOMODE
 70
     0
  9
$REGENMODE
 70
     1
  9
$FILLMODE
 70
     1
  9
$QTEXTMODE
 70
     0
  9
$DRAGMODE
 70
     2
  9
$LTSCALE
 40
15.000000
  9
$OSMODE
 70
     0
  9
$ATTMODE
 70
     1
  9
$TEXTSIZE
 40
0.2
  9
$TRACEWID
 40
0.05
  9
$TEXTSTYLE
  7
STANDARD
  9
$CLAYER
  8
CSLAYER1
  9
$CELTYPE
  6
BYLAYER
  9
$CECOLOR
 62
   256
  9
$DIMSCALE
 40
1.0
  9
$DIMASZ
 40
0.18
  9
$DIMEXO
 40
0.0625
  9
$DIMDLI
 40
0.38
  9
$DIMRND
 40
0.0
  9
$DIMDLE
 40
0.0
  9
$DIMEXE
 40
0.18
  9
$DIMTP
 40
0.0
  9
$DIMTM
 40
0.0
  9
$DIMTXT
 40
0.18
  9
$DIMCEN
 40
0.09
  9
$DIMTSZ
 40
0.0
  9
$DIMTOL
 70
     0
  9
$DIMLIM
 70
     0
  9
$DIMTIH
 70
     1
  9
$DIMTOH
 70
     1
  9
$DIMSE1
 70
     0
  9
$DIMSE2
 70
     0
  9
$DIMTAD
 70
     0
  9
$DIMZIN
 70
     0
  9
$DIMBLK
  1

  9
$LUNITS
 70
     2
  9
$LUPREC
 70
     4
  9
$AXISMODE
 70
     0
  9
$AXISUNIT
 10
0.0
 20
0.0
  9
$SKETCHINC
 40
0.1
  9
$FILLETRAD
 40
0.0
  9
$AUNITS
 70
     0
  9
$AUPREC
 70
     0
  9
$MENU
  1
ACAD
  9
$ELEVATION
 40
0.0
  9
$THICKNESS
 40
0.0
  9
$VIEWDIR
 10
0.0
 20
0.0
 30
1.0
  9
$LIMCHECK
 70
     0
  9
$BLIPMODE
 70
     1
  9
$CHAMFERA
 40
0.0
  9
$CHAMFERB
 40
0.0
  9
$FASTZOOM
 70
     1
  9
$SKPOLY
 70
     0
  9
$TDCREATE
 40
0.000000
  9
$TDUPDATE
 40
0.000000
  9
$TDINDWG
 40
0.0
  9
$TDUSRTIMER
 40
0.0
  9
$USRTIMER
 70
     1
  9
$ANGBASE
 50
0.0
  9
$ANGDIR
 70
     0
  9
$PDMODE
 70
     0
  9
$PDSIZE
 40
0.0
  9
$PLINEWID
 40
0.0
  9
$COORDS
 70
     0
  9
$USERI1
 70
     0
  9
$USERI2
 70
     0
  9
$USERI3
 70
     0
  9
$USERI4
 70
     0
  9
$USERI5
 70
     0
  9
$USERR1
 40
0.0
  9
$USERR2
 40
0.0
  9
$USERR3
 40
0.0
  9
$USERR4
 40
0.0
  9
$USERR5
 40
0.0
  0
ENDSEC
  0
SECTION
  2
TABLES
  0
TABLE
  2
LTYPE
 70
     9
  0
LTYPE
  2
CONTINUOUS
 70
    64
  3
Solid line
 72
    65
 73
     0
 40
0.0
  0
LTYPE
  2
DASHED
 70
    64
  3
__ __ __ __ __ __ __ __ __ __ __ __ __ __ __
 72
    65
 73
     2
 40
0.75
 49
0.5
 49
-0.25
  0
LTYPE
  2
HIDDEN
 70
    64
  3
_ _ _ _ _ _ _ _ _ _ _ _ _ _ _ _ _ _ _ _ _ _ _
 72
    65
 73
     2
 40
0.375
 49
0.25
 49
-0.125
  0
LTYPE
  2
DOT
 70
    64
  3
...............................................
 72
    65
 73
     2
 40
0.25
 49
0.0
 49
-0.25
  0
LTYPE
  2
DASHDOT
 70
    64
  3
__ . __ . __ . __ . __ . __ . __ . __ . __ . __
 72
    65
 73
     4
 40
1.0
 49
0.5
 49
-0.25
 49
0.0
 49
-0.25
  0
LTYPE
  2
DIVIDE
 70
    64
  3
__ . . __ . . __ . . __ . . __ . . __ . . __
 72
    65
 73
     6
 40
1.25
 49
0.5
 49
-0.25
 49
0.0
 49
-0.25
 49
0.0
 49
-0.25
  0
LTYPE
  2
CENTER
 70
    64
  3
____ _ ____ _ ____ _ ____ _ ____ _ ____ _ ____ 
 72
    65
 73
     4
 40
2.0
 49
1.25
 49
-0.25
 49
0.25
 49
-0.25
  0
LTYPE
  2
PHANTOM
 70
    64
  3
______  __  __  ______  __  __  ______  __  __ 
 72
    65
 73
     6
 40
2.5
 49
1.25
 49
-0.25
 49
0.25
 49
-0.25
 49
0.25
 49
-0.25
  0
LTYPE
  2
BORDER
 70
    64
  3
__ __ . __ __ . __ __ . __ __ . __ __ . __ __ .
 72
    65
 73
     6
 40
1.75
 49
0.5
 49
-0.25
 49
0.5
 49
-0.25
 49
0.0
 49
-0.25
  0
ENDTAB
  0
TABLE
  2
LAYER
 70
    16
  0
LAYER
  2
CSLAYER1
 70
    64
 62
     7
  6
CONTINUOUS
  0
LAYER
  2
CSLAYER2
 70
    64
 62
     7
  6
CONTINUOUS
  0
LAYER
  2
CSLAYER3
 70
    64
 62
     7
  6
CONTINUOUS
  0
LAYER
  2
CSLAYER4
 70
    64
 62
     7
  6
CONTINUOUS
  0
LAYER
  2
CSLAYER5
 70
    64
 62
     7
  6
CONTINUOUS
  0
LAYER
  2
CSLAYER6
 70
    64
 62
     7
  6
CONTINUOUS
  0
LAYER
  2
CSLAYER7
 70
    64
 62
     7
  6
CONTINUOUS
  0
LAYER
  2
CSLAYER8
 70
    64
 62
     7
  6
CONTINUOUS
  0
LAYER
  2
CSLAYER9
 70
    64
 62
     7
  6
CONTINUOUS
  0
LAYER
  2
CSLAYER10
 70
    64
 62
     7
  6
CONTINUOUS
  0
LAYER
  2
CSLAYER11
 70
    64
 62
     7
  6
CONTINUOUS
  0
LAYER
  2
CSLAYER12
 70
    64
 62
     7
  6
CONTINUOUS
  0
LAYER
  2
CSLAYER13
 70
    64
 62
     7
  6
CONTINUOUS
  0
LAYER
  2
CSLAYER14
 70
    64
 62
     7
  6
CONTINUOUS
  0
LAYER
  2
CSLAYER15
 70
    64
 62
     7
  6
CONTINUOUS
  0
LAYER
  2
CSLAYER16
 70
    64
 62
     7
  6
CONTINUOUS
  0
ENDTAB
  0
TABLE
  2
STYLE
 70
     1
  0
STYLE
  2
JX_FONT
 70
     0
 40
1.0
 41
1.0
 50
0.0
 71
     0
 42
1.0
  3
monotxt
  4
bigfont
  0
ENDTAB
  0
TABLE
  2
VIEW
 70
     0
  0
ENDTAB
  0
ENDSEC
  0
SECTION
  2
BLOCKS
  0
ENDSEC
  0
SECTION
  2
ENTITIES
  0
LINE
  8
CSLAYER1
  6
CONTINUOUS
 62
     6
 10
258.048607
 20
246.010222
 11
258.048607
 21
261.010222
  0
LINE
  8
CSLAYER1
  6
CONTINUOUS
 62
     6
 10
253.048607
 20
235.510222
 11
253.048607
 21
271.510222
  0
LINE
  8
CSLAYER1
  6
CONTINUOUS
 62
     6
 10
203.003104
 20
273.510222
 11
238.048607
 21
273.510222
  0
LINE
  8
CSLAYER1
  6
CONTINUOUS
 62
     6
 10
203.003103
 20
233.510222
 11
238.048607
 21
233.510222
  0
LINE
  8
CSLAYER1
  6
CONTINUOUS
 62
     6
 10
239.048607
 20
231.010222
 11
239.048607
 21
276.010222
  0
LINE
  8
CSLAYER1
  6
CONTINUOUS
 62
     6
 10
238.048607
 20
233.510222
 11
239.048607
 21
234.510222
  0
LINE
  8
CSLAYER1
  6
CONTINUOUS
 62
     6
 10
238.048607
 20
273.510222
 11
239.048607
 21
272.510222
  0
LINE
  8
CSLAYER1
  6
CONTINUOUS
 62
     6
 10
238.048607
 20
233.510222
 11
238.048607
 21
273.510222
  0
LINE
  8
CSLAYER1
  6
CONTINUOUS
 62
     6
 10
255.048607
 20
263.010222
 11
256.048607
 21
263.010222
  0
LINE
  8
CSLAYER1
  6
CONTINUOUS
 62
     6
 10
255.048607
 20
244.010222
 11
256.048607
 21
244.010222
  0
ARC
  8
CSLAYER1
  6
CONTINUOUS
 62
     6
 10
256.048607
 20
246.010222
 40
2.000000
 50
270.000000
 51
360.000000
  0
ARC
  8
CSLAYER1
  6
CONTINUOUS
 62
     6
 10
256.048607
 20
261.010222
 40
2.000000
 50
0.000000
 51
90.000000
  0
ARC
  8
CSLAYER1
  6
CONTINUOUS
 62
     6
 10
255.048607
 20
242.010222
 40
2.000000
 50
90.000000
 51
180.000000
  0
ARC
  8
CSLAYER1
  6
CONTINUOUS
 62
     6
 10
255.048607
 20
265.010222
 40
2.000000
 50
180.000000
 51
270.000000
  0
ARC
  8
CSLAYER1
  6
CONTINUOUS
 62
     6
 10
252.048607
 20
235.510222
 40
1.000000
 50
270.000000
 51
360.000000
  0
ARC
  8
CSLAYER1
  6
CONTINUOUS
 62
     6
 10
252.048607
 20
271.510222
 40
1.000000
 50
0.000000
 51
90.000000
  0
LINE
  8
CSLAYER1
  6
CONTINUOUS
 62
     6
 10
251.048607
 20
272.510222
 11
252.048607
 21
272.510222
  0
LINE
  8
CSLAYER1
  6
CONTINUOUS
 62
     6
 10
251.048607
 20
234.510222
 11
252.048607
 21
234.510222
  0
LINE
  8
CSLAYER1
  6
CONTINUOUS
 62
     6
 10
239.048607
 20
276.010222
 11
251.048607
 21
276.010222
  0
LINE
  8
CSLAYER1
  6
CONTINUOUS
 62
     6
 10
239.048607
 20
231.010222
 11
251.048607
 21
231.010222
  0
LINE
  8
CSLAYER1
  6
CONTINUOUS
 62
     6
 10
239.048607
 20
235.010222
 11
251.048607
 21
235.010222
  0
LINE
  8
CSLAYER1
  6
CONTINUOUS
 62
     6
 10
239.048607
 20
272.010222
 11
251.048607
 21
272.010222
  0
LINE
  8
CSLAYER1
  6
CONTINUOUS
 62
     6
 10
251.048607
 20
272.010222
 11
251.048607
 21
276.010222
  0
LINE
  8
CSLAYER1
  6
CONTINUOUS
 62
     6
 10
251.048607
 20
231.010222
 11
251.048607
 21
235.010222
  0
LINE
  8
CSLAYER1
  6
CONTINUOUS
 62
     6
 10
239.048607
 20
275.010222
 11
251.048607
 21
275.010222
  0
LINE
  8
CSLAYER1
  6
CONTINUOUS
 62
     6
 10
239.048607
 20
232.010222
 11
251.048607
 21
232.010222
  0
LINE
  8
CSLAYER1
  6
CONTINUOUS
 62
     6
 10
251.048607
 20
232.510222
 11
258.048607
 21
232.510222
  0
LINE
  8
CSLAYER1
  6
CONTINUOUS
 62
     6
 10
258.048607
 20
274.510222
 11
251.048607
 21
274.510222
  0
LINE
  8
CSLAYER1
  6
CONTINUOUS
 62
     6
 10
251.048607
 20
233.010222
 11
258.048607
 21
233.010222
  0
LINE
  8
CSLAYER1
  6
CONTINUOUS
 62
     6
 10
258.048607
 20
274.010222
 11
251.048607
 21
274.010222
  0
LINE
  8
CSLAYER1
  6
CONTINUOUS
 62
     6
 10
258.048607
 20
232.510222
 11
258.048607
 21
233.010222
  0
LINE
  8
CSLAYER1
  6
CONTINUOUS
 62
     6
 10
258.048607
 20
274.010222
 11
258.048607
 21
274.510222
  0
LINE
  8
CSLAYER1
  6
CENTER
 62
     3
 10
153.548607
 20
253.510222
 11
261.048607
 21
253.510222
  0
LINE
  8
CSLAYER1
  6
CENTER
 62
     3
 10
153.548607
 20
50.522355
 11
261.048576
 21
50.522325
  0
LINE
  8
CSLAYER1
  6
CONTINUOUS
 62
     6
 10
200.048607
 20
76.522344
 11
200.048607
 21
24.522341
  0
LINE
  8
CSLAYER1
  6
CONTINUOUS
 62
     6
 10
194.048607
 20
77.522344
 11
194.048607
 21
23.522344
  0
LINE
  8
CSLAYER1
  6
CONTINUOUS
 62
     6
 10
194.048607
 20
77.522344
 11
199.048607
 21
77.522344
  0
ARC
  8
CSLAYER1
  6
CONTINUOUS
 62
     6
 10
199.048607
 20
76.522344
 40
1.000000
 50
0.000000
 51
90.000000
  0
LINE
  8
CSLAYER1
  6
CONTINUOUS
 62
     6
 10
166.048607
 20
77.522352
 11
194.048607
 21
77.522344
  0
LINE
  8
CSLAYER1
  6
CENTER
 62
     3
 10
184.548607
 20
72.522347
 11
206.247841
 21
72.522341
  0
LINE
  8
CSLAYER1
  6
CENTER
 62
     3
 10
184.548607
 20
28.522347
 11
206.247841
 21
28.522341
  0
LINE
  8
CSLAYER1
  6
CONTINUOUS
 62
     6
 10
194.048592
 20
23.522344
 11
199.048592
 21
23.522341
  0
ARC
  8
CSLAYER1
  6
CONTINUOUS
 62
     6
 10
199.048592
 20
24.522341
 40
1.000000
 50
269.999968
 51
359.999968
  0
LINE
  8
CSLAYER1
  6
CONTINUOUS
 62
     6
 10
188.048606
 20
23.522346
 11
194.048592
 21
23.522344
  0
LINE
  8
CSLAYER1
  6
CONTINUOUS
 62
     6
 10
186.048607
 20
75.522346
 11
186.048607
 21
65.522346
  0
LINE
  8
CSLAYER1
  6
CONTINUOUS
 62
     6
 10
165.048607
 20
76.522352
 11
165.048607
 21
66.846908
  0
ARC
  8
CSLAYER1
  6
CONTINUOUS
 62
     6
 10
188.048607
 20
75.522346
 40
2.000000
 50
89.999984
 51
180.000000
  0
ARC
  8
CSLAYER1
  6
CONTINUOUS
 62
     6
 10
188.048607
 20
25.522346
 40
2.000000
 50
180.000000
 51
269.999984
  0
ARC
  8
CSLAYER1
  6
CONTINUOUS
 62
     6
 10
166.048607
 20
76.522352
 40
1.000000
 50
89.999984
 51
180.000000
  0
LINE
  8
CSLAYER1
  6
CONTINUOUS
 62
     6
 10
191.048607
 20
53.522345
 11
191.048607
 21
47.522345
  0
LINE
  8
CSLAYER1
  6
CONTINUOUS
 62
     6
 10
166.048608
 20
65.522352
 11
189.048608
 21
65.522345
  0
LINE
  8
CSLAYER1
  6
CONTINUOUS
 62
     6
 10
166.048605
 20
35.522352
 11
189.048605
 21
35.522345
  0
LINE
  8
CSLAYER1
  6
CONTINUOUS
 62
     6
 10
186.048607
 20
35.522346
 11
186.048607
 21
25.522346
  0
LINE
  8
CSLAYER1
  6
CONTINUOUS
 62
     6
 10
161.048607
 20
60.522352
 11
161.048607
 21
40.522352
  0
ARC
  8
CSLAYER1
  6
CONTINUOUS
 62
     6
 10
189.048607
 20
60.522345
 40
5.000000
 50
0.000000
 51
89.999984
  0
ARC
  8
CSLAYER1
  6
CONTINUOUS
 62
     6
 10
189.048607
 20
40.522345
 40
5.000000
 50
269.999984
 51
360.000000
  0
ARC
  8
CSLAYER1
  6
CONTINUOUS
 62
     6
 10
166.048607
 20
60.522352
 40
5.000000
 50
89.999984
 51
180.000000
  0
ARC
  8
CSLAYER1
  6
CONTINUOUS
 62
     6
 10
166.048607
 20
40.522352
 40
5.000000
 50
180.000000
 51
269.999984
  0
LINE
  8
CSLAYER1
  6
CONTINUOUS
 62
     6
 10
164.048607
 20
53.522352
 11
164.048607
 21
47.522352
  0
LINE
  8
CSLAYER1
  6
CONTINUOUS
 62
     6
 10
165.048607
 20
34.197797
 11
165.048607
 21
27.522352
  0
LINE
  8
CSLAYER1
  6
CENTER
 62
     3
 10
175.048591
 20
23.522349
 11
175.048639
 21
107.522349
  0
LINE
  8
CSLAYER1
  6
CONTINUOUS
 62
     6
 10
173.048607
 20
62.522350
 11
182.048607
 21
62.522347
  0
LINE
  8
CSLAYER1
  6
CONTINUOUS
 62
     6
 10
173.048606
 20
38.522350
 11
182.048606
 21
38.522347
  0
LINE
  8
CSLAYER1
  6
CONTINUOUS
 62
     6
 10
166.048606
 20
26.522352
 11
184.316556
 21
26.522347
  0
ARC
  8
CSLAYER1
  6
CONTINUOUS
 62
     6
 10
166.048607
 20
27.522352
 40
1.000000
 50
180.000000
 51
269.999984
  0
ARC
  8
CSLAYER1
  6
CONTINUOUS
 62
     6
 10
189.048607
 20
60.522345
 40
5.000000
 50
179.999984
 51
270.000000
  0
ARC
  8
CSLAYER1
  6
CONTINUOUS
 62
     6
 10
182.048607
 20
60.522347
 40
2.000000
 50
-0.000016
 51
89.999984
  0
ARC
  8
CSLAYER1
  6
CONTINUOUS
 62
     6
 10
189.048607
 20
53.522345
 40
2.000000
 50
0.000000
 51
90.000000
  0
ARC
  8
CSLAYER1
  6
CONTINUOUS
 62
     6
 10
166.048607
 20
60.522352
 40
5.000000
 50
270.000000
 51
359.999984
  0
ARC
  8
CSLAYER1
  6
CONTINUOUS
 62
     6
 10
166.048607
 20
40.522352
 40
5.000000
 50
-0.000016
 51
90.000000
  0
ARC
  8
CSLAYER1
  6
CONTINUOUS
 62
     6
 10
189.048607
 20
40.522345
 40
5.000000
 50
90.000000
 51
179.999984
  0
ARC
  8
CSLAYER1
  6
CONTINUOUS
 62
     6
 10
189.048607
 20
47.522345
 40
2.000000
 50
270.000000
 51
360.000000
  0
ARC
  8
CSLAYER1
  6
CONTINUOUS
 62
     6
 10
182.048607
 20
40.522347
 40
2.000000
 50
269.999984
 51
359.999984
  0
ARC
  8
CSLAYER1
  6
CONTINUOUS
 62
     6
 10
173.048607
 20
40.522350
 40
2.000000
 50
179.999984
 51
269.999984
  0
ARC
  8
CSLAYER1
  6
CONTINUOUS
 62
     6
 10
166.048607
 20
47.522352
 40
2.000000
 50
180.000000
 51
270.000000
  0
ARC
  8
CSLAYER1
  6
CONTINUOUS
 62
     6
 10
166.048607
 20
53.522352
 40
2.000000
 50
90.000000
 51
180.000000
  0
ARC
  8
CSLAYER1
  6
CONTINUOUS
 62
     6
 10
173.048607
 20
60.522350
 40
2.000000
 50
89.999984
 51
179.999984
  0
LINE
  8
CSLAYER1
  6
CONTINUOUS
 62
     6
 10
156.548607
 20
58.522353
 11
156.548607
 21
42.522353
  0
ARC
  8
CSLAYER1
  6
CONTINUOUS
 62
     6
 10
161.548607
 20
58.522353
 40
5.000000
 50
93.368352
 51
180.000000
  0
ARC
  8
CSLAYER1
  6
CONTINUOUS
 62
     6
 10
161.548607
 20
42.522353
 40
5.000000
 50
180.000000
 51
266.631579
  0
ARC
  8
CSLAYER1
  6
CONTINUOUS
 62
     6
 10
184.316555
 20
24.522347
 40
2.000000
 50
29.999963
 51
89.999984
  0
LINE
  8
CSLAYER1
  6
CONTINUOUS
 62
     6
 10
171.083622
 20
77.522350
 11
171.083637
 21
104.522350
  0
LINE
  8
CSLAYER1
  6
CONTINUOUS
 62
     6
 10
179.013622
 20
77.522348
 11
179.013637
 21
104.522348
  0
LINE
  8
CSLAYER1
  6
CONTINUOUS
 62
     6
 10
171.083637
 20
104.522350
 11
179.013637
 21
104.522348
  0
LINE
  8
CSLAYER1
  6
CONTINUOUS
 62
     6
 10
173.121189
 20
79.522350
 11
176.976057
 21
79.522349
  0
LINE
  8
CSLAYER1
  6
CONTINUOUS
 62
     6
 10
176.976071
 20
104.522349
 11
176.976057
 21
79.522349
  0
LINE
  8
CSLAYER1
  6
CONTINUOUS
 62
     6
 10
173.121204
 20
104.522350
 11
173.121189
 21
79.522350
  0
LINE
  8
CSLAYER1
  6
CONTINUOUS
 62
     3
 10
176.976057
 20
79.522349
 11
173.121204
 21
104.522350
  0
LINE
  8
CSLAYER1
  6
CONTINUOUS
 62
     3
 10
173.121189
 20
79.522350
 11
176.976071
 21
104.522349
  0
ARC
  8
CSLAYER1
  6
CONTINUOUS
 62
     6
 10
161.137313
 20
35.534447
 40
2.000000
 50
45.443416
 51
86.631579
  0
ARC
  8
CSLAYER1
  6
CONTINUOUS
 62
     6
 10
163.048607
 20
34.197797
 40
2.000000
 50
0.000000
 51
64.623066
  0
ARC
  8
CSLAYER1
  6
CONTINUOUS
 62
     6
 10
161.137322
 20
65.510260
 40
2.000000
 50
273.368388
 51
314.556552
  0
ARC
  8
CSLAYER1
  6
CONTINUOUS
 62
     6
 10
163.048616
 20
66.846909
 40
2.000000
 50
295.376901
 51
359.999968
  0
LINE
  8
CSLAYER1
  6
CONTINUOUS
 62
     6
 10
253.048607
 20
32.522320
 11
253.048607
 21
68.522334
  0
LINE
  8
CSLAYER1
  6
CONTINUOUS
 62
     6
 10
203.003103
 20
70.522334
 11
238.048607
 21
70.522334
  0
LINE
  8
CSLAYER1
  6
CONTINUOUS
 62
     6
 10
203.003103
 20
30.522334
 11
238.048607
 21
30.522334
  0
LINE
  8
CSLAYER1
  6
CONTINUOUS
 62
     6
 10
239.048607
 20
28.022331
 11
239.048607
 21
73.022331
  0
LINE
  8
CSLAYER1
  6
CONTINUOUS
 62
     6
 10
238.048607
 20
30.522334
 11
239.048607
 21
31.522334
  0
LINE
  8
CSLAYER1
  6
CONTINUOUS
 62
     6
 10
238.048607
 20
70.522334
 11
239.048607
 21
69.522334
  0
LINE
  8
CSLAYER1
  6
CONTINUOUS
 62
     6
 10
238.048607
 20
30.522334
 11
238.048607
 21
70.522334
  0
ARC
  8
CSLAYER1
  6
CONTINUOUS
 62
     6
 10
252.048607
 20
68.522334
 40
1.000000
 50
0.000000
 51
90.000000
  0
LINE
  8
CSLAYER1
  6
CONTINUOUS
 62
     6
 10
251.048607
 20
69.522334
 11
252.048607
 21
69.522334
  0
LINE
  8
CSLAYER1
  6
CONTINUOUS
 62
     6
 10
254.548607
 20
60.022334
 11
256.548607
 21
60.022334
  0
ARC
  8
CSLAYER1
  6
CONTINUOUS
 62
     6
 10
256.548607
 20
58.522334
 40
1.500000
 50
0.000000
 51
90.000000
  0
ARC
  8
CSLAYER1
  6
CONTINUOUS
 62
     6
 10
254.548607
 20
61.522334
 40
1.500000
 50
180.000000
 51
270.000000
  0
LINE
  8
CSLAYER1
  6
CONTINUOUS
 62
     6
 10
254.548607
 20
41.022334
 11
256.548607
 21
41.022334
  0
ARC
  8
CSLAYER1
  6
CONTINUOUS
 62
     6
 10
256.548607
 20
42.522334
 40
1.500000
 50
270.000000
 51
360.000000
  0
ARC
  8
CSLAYER1
  6
CONTINUOUS
 62
     6
 10
254.548607
 20
39.522334
 40
1.500000
 50
90.000000
 51
180.000000
  0
LINE
  8
CSLAYER1
  6
CONTINUOUS
 62
     6
 10
258.048607
 20
58.522334
 11
258.048607
 21
42.522334
  0
LINE
  8
CSLAYER1
  6
CONTINUOUS
 62
     6
 10
239.048607
 20
73.022331
 11
251.048607
 21
73.022328
  0
LINE
  8
CSLAYER1
  6
CONTINUOUS
 62
     6
 10
251.048607
 20
69.022328
 11
251.048607
 21
73.022328
  0
LINE
  8
CSLAYER1
  6
CONTINUOUS
 62
     6
 10
239.048607
 20
72.022331
 11
251.048607
 21
72.022328
  0
LINE
  8
CSLAYER1
  6
CONTINUOUS
 62
     6
 10
239.048607
 20
69.022331
 11
251.048607
 21
69.022328
  0
LINE
  8
CSLAYER1
  6
CONTINUOUS
 62
     6
 10
251.048607
 20
70.022328
 11
258.048607
 21
70.022326
  0
LINE
  8
CSLAYER1
  6
CONTINUOUS
 62
     6
 10
239.048594
 20
28.022331
 11
251.048594
 21
28.022328
  0
LINE
  8
CSLAYER1
  6
CONTINUOUS
 62
     6
 10
251.048596
 20
32.022328
 11
251.048594
 21
28.022328
  0
LINE
  8
CSLAYER1
  6
CONTINUOUS
 62
     6
 10
239.048595
 20
29.022331
 11
251.048595
 21
29.022328
  0
LINE
  8
CSLAYER1
  6
CONTINUOUS
 62
     6
 10
239.048596
 20
32.022331
 11
251.048596
 21
32.022328
  0
ARC
  8
CSLAYER1
  6
CONTINUOUS
 62
     6
 10
252.048597
 20
32.522321
 40
1.000000
 50
269.999968
 51
359.999968
  0
LINE
  8
CSLAYER1
  6
CONTINUOUS
 62
     6
 10
251.048596
 20
31.522322
 11
252.048596
 21
31.522321
  0
LINE
  8
CSLAYER1
  6
CONTINUOUS
 62
     6
 10
251.048607
 20
70.522328
 11
258.048607
 21
70.522326
  0
LINE
  8
CSLAYER1
  6
CONTINUOUS
 62
     6
 10
258.048607
 20
70.522326
 11
258.048607
 21
70.022326
  0
LINE
  8
CSLAYER1
  6
CONTINUOUS
 62
     6
 10
251.048596
 20
31.022328
 11
258.048596
 21
31.022326
  0
LINE
  8
CSLAYER1
  6
CONTINUOUS
 62
     6
 10
251.048596
 20
30.522328
 11
258.048596
 21
30.522326
  0
LINE
  8
CSLAYER1
  6
CONTINUOUS
 62
     6
 10
258.048595
 20
30.522326
 11
258.048596
 21
31.022326
  0
LINE
  8
CSLAYER1
  6
CENTER
 62
     3
 10
158.048607
 20
155.319010
 11
261.048607
 21
155.319040
  0
LINE
  8
CSLAYER1
  6
CONTINUOUS
 62
     6
 10
200.048607
 20
129.319020
 11
200.048607
 21
181.319024
  0
LINE
  8
CSLAYER1
  6
CONTINUOUS
 62
     6
 10
194.048607
 20
182.319020
 11
194.048607
 21
120.319020
  0
LINE
  8
CSLAYER1
  6
CONTINUOUS
 62
     6
 10
194.048607
 20
128.319020
 11
199.048607
 21
128.319020
  0
ARC
  8
CSLAYER1
  6
CONTINUOUS
 62
     6
 10
199.048607
 20
129.319020
 40
1.000000
 50
270.000000
 51
360.000000
  0
LINE
  8
CSLAYER1
  6
CENTER
 62
     3
 10
189.048607
 20
133.319019
 11
206.247841
 21
133.319024
  0
LINE
  8
CSLAYER1
  6
CENTER
 62
     3
 10
183.048607
 20
177.319017
 11
206.247841
 21
177.319024
  0
LINE
  8
CSLAYER1
  6
CONTINUOUS
 62
     6
 10
194.048592
 20
182.319020
 11
199.048592
 21
182.319023
  0
ARC
  8
CSLAYER1
  6
CONTINUOUS
 62
     6
 10
199.048592
 20
181.319023
 40
1.000000
 50
0.000032
 51
90.000032
  0
LINE
  8
CSLAYER1
  6
CONTINUOUS
 62
     6
 10
188.048606
 20
182.319019
 11
194.048592
 21
182.319020
  0
ARC
  8
CSLAYER1
  6
CONTINUOUS
 62
     6
 10
188.048607
 20
180.319019
 40
2.000000
 50
90.000016
 51
180.000000
  0
LINE
  8
CSLAYER1
  6
CONTINUOUS
 62
     6
 10
186.048607
 20
130.319018
 11
186.048607
 21
180.319019
  0
LINE
  8
CSLAYER1
  6
CONTINUOUS
 62
     6
 10
188.048621
 20
128.319019
 11
194.048607
 21
128.319021
  0
ARC
  8
CSLAYER1
  6
CONTINUOUS
 62
     6
 10
188.048621
 20
130.319019
 40
2.000000
 50
180.000032
 51
270.000016
  0
LINE
  8
CSLAYER1
  6
CENTER
 62
     3
 10
175.048626
 20
158.319015
 11
175.048626
 21
117.319077
  0
LINE
  8
CSLAYER1
  6
CENTER
 62
     3
 10
153.548607
 20
140.319009
 11
189.048607
 21
140.319019
  0
CIRCLE
  8
CSLAYER1
  6
CONTINUOUS
 62
     6
 10
175.048626
 20
140.319015
 40
3.965000
  0
CIRCLE
  8
CSLAYER1
  6
CONTINUOUS
 62
     6
 10
175.048626
 20
140.319015
 40
5.500000
  0
LINE
  8
CSLAYER1
  6
CONTINUOUS
 62
     6
 10
175.048626
 20
130.319015
 11
186.048607
 21
130.319015
  0
LINE
  8
CSLAYER1
  6
CONTINUOUS
 62
     6
 10
175.048620
 20
150.319015
 11
184.048608
 21
150.319020
  0
LINE
  8
CSLAYER1
  6
CONTINUOUS
 62
     6
 10
194.048607
 20
120.319020
 11
161.048607
 21
120.319011
  0
LINE
  8
CSLAYER1
  6
CONTINUOUS
 62
     6
 10
163.048607
 20
130.319012
 11
163.048606
 21
130.319012
  0
LINE
  8
CSLAYER1
  6
CONTINUOUS
 62
     6
 10
161.048607
 20
120.319011
 11
161.048607
 21
128.319012
  0
ARC
  8
CSLAYER1
  6
CONTINUOUS
 62
     6
 10
163.048607
 20
128.319012
 40
2.000000
 50
90.000016
 51
180.000000
  0
LINE
  8
CSLAYER1
  6
CONTINUOUS
 62
     6
 10
165.048607
 20
140.319012
 11
165.048607
 21
132.319012
  0
ARC
  8
CSLAYER1
  6
CONTINUOUS
 62
     6
 10
163.048607
 20
132.319012
 40
2.000000
 50
270.000016
 51
360.000000
  0
LINE
  8
CSLAYER1
  6
CONTINUOUS
 62
     6
 10
161.048607
 20
154.148338
 11
161.048607
 21
162.663416
  0
ARC
  8
CSLAYER1
  6
CONTINUOUS
 62
     6
 10
184.048607
 20
170.707327
 40
2.000000
 50
274.085627
 51
360.000000
  0
ARC
  8
CSLAYER1
  6
CONTINUOUS
 62
     6
 10
175.048626
 20
140.319015
 40
18.500019
 50
143.950686
 51
216.049314
  0
ARC
  8
CSLAYER1
  6
CONTINUOUS
 62
     6
 10
156.048607
 20
154.148338
 40
5.000000
 50
323.950686
 51
360.000000
  0
ARC
  8
CSLAYER1
  6
CONTINUOUS
 62
     6
 10
156.048607
 20
126.489692
 40
5.000000
 50
-0.000000
 51
36.049314
  0
ARC
  8
CSLAYER1
  6
CONTINUOUS
 62
     6
 10
166.048607
 20
162.663416
 40
5.000000
 50
94.085627
 51
180.000000
  0
LINE
  8
CSLAYER1
  6
CONTINUOUS
 62
     6
 10
165.692370
 20
167.650709
 11
184.191101
 21
168.712410
  0
LINE
  8
CSLAYER1
  6
CONTINUOUS
 62
     6
 10
253.048607
 20
137.319022
 11
253.048607
 21
152.819022
  0
LINE
  8
CSLAYER1
  6
CONTINUOUS
 62
     6
 10
203.003103
 20
175.319022
 11
238.048607
 21
175.319022
  0
LINE
  8
CSLAYER1
  6
CONTINUOUS
 62
     6
 10
203.003103
 20
135.319022
 11
238.048607
 21
135.319022
  0
LINE
  8
CSLAYER1
  6
CONTINUOUS
 62
     6
 10
239.048607
 20
136.319022
 11
239.048607
 21
174.319022
  0
LINE
  8
CSLAYER1
  6
CONTINUOUS
 62
     6
 10
238.048607
 20
135.319022
 11
239.048607
 21
136.319022
  0
LINE
  8
CSLAYER1
  6
CONTINUOUS
 62
     6
 10
238.048607
 20
175.319022
 11
239.048607
 21
174.319022
  0
LINE
  8
CSLAYER1
  6
CONTINUOUS
 62
     6
 10
238.048607
 20
135.319022
 11
238.048607
 21
175.319022
  0
ARC
  8
CSLAYER1
  6
CONTINUOUS
 62
     6
 10
252.048607
 20
137.319022
 40
1.000000
 50
270.000000
 51
360.000000
  0
ARC
  8
CSLAYER1
  6
CONTINUOUS
 62
     6
 10
252.048607
 20
173.319022
 40
1.000000
 50
0.000000
 51
90.000000
  0
LINE
  8
CSLAYER1
  6
CONTINUOUS
 62
     6
 10
239.048607
 20
174.319022
 11
252.048607
 21
174.319022
  0
LINE
  8
CSLAYER1
  6
CONTINUOUS
 62
     6
 10
239.048607
 20
136.319022
 11
252.048607
 21
136.319022
  0
LINE
  8
CSLAYER1
  6
CONTINUOUS
 62
     6
 10
239.048607
 20
161.319022
 11
251.048607
 21
161.319022
  0
LINE
  8
CSLAYER1
  6
CONTINUOUS
 62
     6
 10
251.048607
 20
161.319022
 11
251.048607
 21
149.319022
  0
LINE
  8
CSLAYER1
  6
CONTINUOUS
 62
     6
 10
251.048607
 20
160.319022
 11
239.048607
 21
160.319022
  0
LINE
  8
CSLAYER1
  6
CONTINUOUS
 62
     6
 10
241.048607
 20
158.319022
 11
252.048607
 21
158.319022
  0
LINE
  8
CSLAYER1
  6
CONTINUOUS
 62
     6
 10
239.048607
 20
149.319022
 11
251.048607
 21
149.319022
  0
LINE
  8
CSLAYER1
  6
CONTINUOUS
 62
     6
 10
251.048607
 20
150.319022
 11
239.048607
 21
150.319022
  0
LINE
  8
CSLAYER1
  6
CONTINUOUS
 62
     6
 10
241.048607
 20
152.319022
 11
252.048607
 21
152.319022
  0
LINE
  8
CSLAYER1
  6
CONTINUOUS
 62
     6
 10
258.048607
 20
163.319022
 11
258.048607
 21
147.319022
  0
LINE
  8
CSLAYER1
  6
CONTINUOUS
 62
     6
 10
253.048607
 20
157.819022
 11
253.048607
 21
173.319022
  0
LINE
  8
CSLAYER1
  6
CONTINUOUS
 62
     6
 10
252.048607
 20
157.819022
 11
258.048607
 21
157.819022
  0
LINE
  8
CSLAYER1
  6
CONTINUOUS
 62
     6
 10
252.048607
 20
152.819022
 11
258.048607
 21
152.819022
  0
LINE
  8
CSLAYER1
  6
CONTINUOUS
 62
     6
 10
252.048607
 20
158.319022
 11
252.048607
 21
157.819022
  0
LINE
  8
CSLAYER1
  6
CONTINUOUS
 62
     6
 10
252.048607
 20
152.819022
 11
252.048607
 21
152.319022
  0
LINE
  8
CSLAYER1
  6
CONTINUOUS
 62
     6
 10
251.048607
 20
160.319022
 11
253.048607
 21
162.319022
  0
LINE
  8
CSLAYER1
  6
CONTINUOUS
 62
     6
 10
251.048607
 20
150.319022
 11
253.048607
 21
148.319022
  0
CIRCLE
  8
CSLAYER1
  6
CONTINUOUS
 62
     3
 10
256.048607
 20
155.319022
 40
1.000000
  0
LINE
  8
CSLAYER1
  6
CENTER
 62
     3
 10
256.048607
 20
157.319022
 11
256.048607
 21
153.319022
  0
LINE
  8
CSLAYER1
  6
CONTINUOUS
 62
     6
 10
241.048607
 20
152.319022
 11
241.048607
 21
158.319022
  0
LINE
  8
CSLAYER1
  6
CONTINUOUS
 62
     6
 10
254.548607
 20
164.819022
 11
256.548607
 21
164.819022
  0
ARC
  8
CSLAYER1
  6
CONTINUOUS
 62
     6
 10
256.548607
 20
163.319022
 40
1.500000
 50
0.000000
 51
90.000000
  0
ARC
  8
CSLAYER1
  6
CONTINUOUS
 62
     6
 10
254.548607
 20
166.319022
 40
1.500000
 50
180.000000
 51
270.000000
  0
LINE
  8
CSLAYER1
  6
CONTINUOUS
 62
     6
 10
254.548607
 20
145.819022
 11
256.548607
 21
145.819022
  0
ARC
  8
CSLAYER1
  6
CONTINUOUS
 62
     6
 10
256.548607
 20
147.319022
 40
1.500000
 50
270.000000
 51
360.000000
  0
ARC
  8
CSLAYER1
  6
CONTINUOUS
 62
     6
 10
254.548607
 20
144.319022
 40
1.500000
 50
90.000000
 51
180.000000
  0
ARC
  8
CSLAYER1
  6
CONTINUOUS
 62
     6
 10
184.048607
 20
152.319020
 40
2.000000
 50
270.000032
 51
360.000000
  0
LINE
  8
CSLAYER1
  6
CENTER
 62
     3
 10
97.548607
 20
155.319073
 11
37.308205
 21
155.319073
  0
LINE
  8
CSLAYER1
  6
CENTER
 62
     3
 10
67.548607
 20
117.319073
 11
67.548607
 21
185.319073
  0
LINE
  8
CSLAYER1
  6
CENTER
 62
     3
 10
37.548607
 20
140.319073
 11
124.548605
 21
140.319073
  0
LINE
  8
CSLAYER1
  6
CONTINUOUS
 62
     6
 10
45.548607
 20
182.319073
 11
89.548607
 21
182.319073
  0
LINE
  8
CSLAYER1
  6
CONTINUOUS
 62
     6
 10
45.548607
 20
128.319073
 11
50.548607
 21
128.319073
  0
LINE
  8
CSLAYER1
  6
CONTINUOUS
 62
     6
 10
52.548607
 20
120.319073
 11
82.548607
 21
120.319073
  0
LINE
  8
CSLAYER1
  6
CONTINUOUS
 62
     6
 10
40.548607
 20
133.319073
 11
40.548607
 21
177.319073
  0
LINE
  8
CSLAYER1
  6
CONTINUOUS
 62
     6
 10
94.548607
 20
133.319073
 11
94.548607
 21
136.354073
  0
LINE
  8
CSLAYER1
  6
CONTINUOUS
 62
     6
 10
121.548604
 20
136.854073
 11
121.548604
 21
144.284073
  0
LINE
  8
CSLAYER1
  6
CONTINUOUS
 62
     6
 10
91.548607
 20
144.284073
 11
121.548602
 21
144.284073
  0
LINE
  8
CSLAYER1
  6
CONTINUOUS
 62
     6
 10
91.548609
 20
136.354073
 11
96.548604
 21
136.354073
  0
LINE
  8
CSLAYER1
  6
CONTINUOUS
 62
     6
 10
96.548604
 20
136.854073
 11
121.548605
 21
136.854073
  0
LINE
  8
CSLAYER1
  6
CONTINUOUS
 62
     6
 10
96.548604
 20
136.354073
 11
96.548604
 21
136.854073
  0
LINE
  8
CSLAYER1
  6
CONTINUOUS
 62
     6
 10
82.539975
 20
150.319073
 11
90.548605
 21
150.319073
  0
LINE
  8
CSLAYER1
  6
CONTINUOUS
 62
     6
 10
91.548605
 20
149.319073
 11
91.548610
 21
131.319073
  0
ARC
  8
CSLAYER1
  6
CONTINUOUS
 62
     6
 10
90.548605
 20
149.319073
 40
1.000000
 50
0.000016
 51
90.000000
  0
LINE
  8
CSLAYER1
  6
CONTINUOUS
 62
     6
 10
84.548607
 20
130.319073
 11
90.548605
 21
130.319073
  0
ARC
  8
CSLAYER1
  6
CONTINUOUS
 62
     6
 10
90.548605
 20
131.319073
 40
1.000000
 50
270.000000
 51
359.999984
  0
ARC
  8
CSLAYER1
  6
CONTINUOUS
 62
     6
 10
45.548607
 20
177.319073
 40
5.000000
 50
90.000000
 51
180.000000
  0
ARC
  8
CSLAYER1
  6
CONTINUOUS
 62
     6
 10
89.548607
 20
177.319073
 40
5.000000
 50
0.000000
 51
90.000000
  0
ARC
  8
CSLAYER1
  6
CONTINUOUS
 62
     6
 10
89.548607
 20
133.319073
 40
5.000000
 50
270.000000
 51
360.000000
  0
ARC
  8
CSLAYER1
  6
CONTINUOUS
 62
     6
 10
45.548607
 20
133.319073
 40
5.000000
 50
180.000000
 51
270.000000
  0
LINE
  8
CSLAYER1
  6
CONTINUOUS
 62
     6
 10
82.548607
 20
120.319073
 11
82.548607
 21
135.319073
  0
LINE
  8
CSLAYER1
  6
CONTINUOUS
 62
     6
 10
52.548607
 20
120.319073
 11
52.548607
 21
135.319073
  0
LINE
  8
CSLAYER1
  6
CONTINUOUS
 62
     6
 10
84.548607
 20
128.319073
 11
89.548607
 21
128.319073
  0
ARC
  8
CSLAYER1
  6
CONTINUOUS
 62
     6
 10
84.548607
 20
128.319073
 40
2.000000
 50
90.000000
 51
180.000000
  0
ARC
  8
CSLAYER1
  6
CONTINUOUS
 62
     6
 10
84.548607
 20
126.319073
 40
2.000000
 50
90.000000
 51
180.000000
  0
LINE
  8
CSLAYER1
  6
CONTINUOUS
 62
     6
 10
58.548607
 20
128.319073
 11
76.548607
 21
128.319073
  0
LINE
  8
CSLAYER1
  6
CONTINUOUS
 62
     6
 10
58.548607
 20
148.319073
 11
76.548607
 21
148.319073
  0
LINE
  8
CSLAYER1
  6
CONTINUOUS
 62
     6
 10
52.557239
 20
150.319073
 11
41.548609
 21
150.319073
  0
ARC
  8
CSLAYER1
  6
CONTINUOUS
 62
     6
 10
41.548609
 20
149.319073
 40
1.000000
 50
90.000000
 51
179.999984
  0
LINE
  8
CSLAYER1
  6
CONTINUOUS
 62
     6
 10
51.048607
 20
130.319073
 11
41.548609
 21
130.319073
  0
LINE
  8
CSLAYER1
  6
CONTINUOUS
 62
     6
 10
54.557239
 20
130.319073
 11
54.557239
 21
155.319073
  0
LINE
  8
CSLAYER1
  6
CONTINUOUS
 62
     6
 10
80.539975
 20
130.319073
 11
80.539975
 21
155.319073
  0
ARC
  8
CSLAYER1
  6
CONTINUOUS
 62
     6
 10
67.548607
 20
155.319073
 40
13.000000
 50
-0.000000
 51
180.000000
  0
ARC
  8
CSLAYER1
  6
CONTINUOUS
 62
     6
 10
52.557239
 20
152.319073
 40
2.000000
 50
270.000000
 51
360.000000
  0
ARC
  8
CSLAYER1
  6
CONTINUOUS
 62
     6
 10
82.539975
 20
152.319073
 40
2.000000
 50
180.000000
 51
270.000000
  0
ARC
  8
CSLAYER1
  6
CONTINUOUS
 62
     6
 10
50.548607
 20
126.319073
 40
2.000000
 50
0.000000
 51
90.000000
  0
LINE
  8
CSLAYER1
  6
CONTINUOUS
 62
     6
 10
94.548607
 20
144.284073
 11
94.548607
 21
177.319073
  0
LINE
  8
CSLAYER1
  6
CENTER
 62
     3
 10
315.864875
 20
155.319073
 11
376.105276
 21
155.319073
  0
LINE
  8
CSLAYER1
  6
CENTER
 62
     3
 10
345.864875
 20
117.319073
 11
345.864875
 21
185.319073
  0
LINE
  8
CSLAYER1
  6
CENTER
 62
     3
 10
376.105276
 20
140.319073
 11
288.864877
 21
140.319073
  0
LINE
  8
CSLAYER1
  6
CONTINUOUS
 62
     6
 10
367.864875
 20
182.319073
 11
323.864875
 21
182.319073
  0
LINE
  8
CSLAYER1
  6
CONTINUOUS
 62
     6
 10
360.864875
 20
120.319073
 11
330.864875
 21
120.319073
  0
LINE
  8
CSLAYER1
  6
CONTINUOUS
 62
     6
 10
372.864875
 20
133.319073
 11
372.864875
 21
177.319073
  0
LINE
  8
CSLAYER1
  6
CONTINUOUS
 62
     6
 10
291.864878
 20
136.854073
 11
291.864878
 21
144.284073
  0
LINE
  8
CSLAYER1
  6
CONTINUOUS
 62
     6
 10
318.864875
 20
144.284073
 11
291.864879
 21
144.284073
  0
LINE
  8
CSLAYER1
  6
CONTINUOUS
 62
     6
 10
318.864875
 20
136.354073
 11
316.864878
 21
136.354073
  0
LINE
  8
CSLAYER1
  6
CONTINUOUS
 62
     6
 10
316.864878
 20
136.854073
 11
291.864877
 21
136.854073
  0
LINE
  8
CSLAYER1
  6
CONTINUOUS
 62
     6
 10
316.864878
 20
136.354073
 11
316.864878
 21
136.854073
  0
ARC
  8
CSLAYER1
  6
CONTINUOUS
 62
     6
 10
367.864875
 20
177.319073
 40
5.000000
 50
0.000000
 51
90.000000
  0
ARC
  8
CSLAYER1
  6
CONTINUOUS
 62
     6
 10
323.864875
 20
177.319073
 40
5.000000
 50
90.000000
 51
180.000000
  0
ARC
  8
CSLAYER1
  6
CONTINUOUS
 62
     6
 10
323.864875
 20
133.319073
 40
5.000000
 50
180.000000
 51
270.000000
  0
ARC
  8
CSLAYER1
  6
CONTINUOUS
 62
     6
 10
367.864875
 20
133.319073
 40
5.000000
 50
270.000000
 51
360.000000
  0
LINE
  8
CSLAYER1
  6
CONTINUOUS
 62
     6
 10
330.864875
 20
120.319073
 11
330.864875
 21
126.319073
  0
LINE
  8
CSLAYER1
  6
CONTINUOUS
 62
     6
 10
360.864875
 20
120.319073
 11
360.864875
 21
126.319073
  0
ARC
  8
CSLAYER1
  6
CONTINUOUS
 62
     6
 10
328.864875
 20
126.319073
 40
2.000000
 50
0.000000
 51
90.000000
  0
ARC
  8
CSLAYER1
  6
CONTINUOUS
 62
     6
 10
362.864875
 20
126.319073
 40
2.000000
 50
90.000000
 51
180.000000
  0
LINE
  8
CSLAYER1
  6
CONTINUOUS
 62
     6
 10
318.864875
 20
133.319073
 11
318.864875
 21
177.319073
  0
LINE
  8
CSLAYER1
  6
CONTINUOUS
 62
     6
 10
367.864875
 20
128.319073
 11
323.864875
 21
128.319073
  0
LINE
  8
CSLAYER1
  6
CENTER
 62
     3
 10
367.864875
 20
183.819081
 11
367.864875
 21
170.885824
  0
CIRCLE
  8
CSLAYER1
  6
CONTINUOUS
 62
     6
 10
367.864883
 20
177.319088
 40
3.500000
  0
ARC
  8
CSLAYER1
  6
CONTINUOUS
 62
     6
 10
367.864870
 20
177.319089
 40
1.944444
 50
163.398416
 51
196.601577
  0
ARC
  8
CSLAYER1
  6
CONTINUOUS
 62
     6
 10
367.864870
 20
177.319089
 40
1.944444
 50
253.398422
 51
286.601583
  0
ARC
  8
CSLAYER1
  6
CONTINUOUS
 62
     6
 10
367.864870
 20
177.319089
 40
1.944444
 50
-16.601562
 51
16.601572
  0
ARC
  8
CSLAYER1
  6
CONTINUOUS
 62
     6
 10
367.864870
 20
177.319089
 40
1.944444
 50
73.398406
 51
106.601595
  0
LINE
  8
CSLAYER1
  6
CONTINUOUS
 62
     6
 10
368.975995
 20
176.763526
 11
369.728251
 21
176.763526
  0
LINE
  8
CSLAYER1
  6
CONTINUOUS
 62
     6
 10
366.753745
 20
176.763526
 11
366.001489
 21
176.763526
  0
LINE
  8
CSLAYER1
  6
CONTINUOUS
 62
     6
 10
368.975995
 20
177.874651
 11
369.728251
 21
177.874651
  0
LINE
  8
CSLAYER1
  6
CONTINUOUS
 62
     6
 10
366.753745
 20
177.874651
 11
366.001489
 21
177.874651
  0
LINE
  8
CSLAYER1
  6
CONTINUOUS
 62
     6
 10
367.309308
 20
176.207993
 11
367.309308
 21
175.455678
  0
LINE
  8
CSLAYER1
  6
CONTINUOUS
 62
     6
 10
367.309308
 20
178.430185
 11
367.309308
 21
179.182499
  0
LINE
  8
CSLAYER1
  6
CONTINUOUS
 62
     6
 10
368.420432
 20
176.207993
 11
368.420432
 21
175.455678
  0
LINE
  8
CSLAYER1
  6
CONTINUOUS
 62
     6
 10
368.420432
 20
178.430185
 11
368.420432
 21
179.182499
  0
ARC
  8
CSLAYER1
  6
CONTINUOUS
 62
     6
 10
368.975995
 20
176.207993
 40
0.555556
 50
90.000001
 51
179.942691
  0
ARC
  8
CSLAYER1
  6
CONTINUOUS
 62
     6
 10
368.975995
 20
178.430185
 40
0.555556
 50
180.000010
 51
270.000016
  0
ARC
  8
CSLAYER1
  6
CONTINUOUS
 62
     6
 10
366.753745
 20
178.430185
 40
0.555556
 50
-89.999984
 51
0.000005
  0
ARC
  8
CSLAYER1
  6
CONTINUOUS
 62
     6
 10
366.753745
 20
176.207993
 40
0.555556
 50
0.000005
 51
89.942654
  0
LINE
  8
CSLAYER1
  6
CENTER
 62
     3
 10
361.364866
 20
177.319073
 11
374.364883
 21
177.319073
  0
LINE
  8
CSLAYER1
  6
CENTER
 62
     3
 10
323.864875
 20
183.819081
 11
323.864875
 21
170.885824
  0
CIRCLE
  8
CSLAYER1
  6
CONTINUOUS
 62
     6
 10
323.864883
 20
177.319088
 40
3.500000
  0
ARC
  8
CSLAYER1
  6
CONTINUOUS
 62
     6
 10
323.864870
 20
177.319089
 40
1.944444
 50
163.398416
 51
196.601577
  0
ARC
  8
CSLAYER1
  6
CONTINUOUS
 62
     6
 10
323.864870
 20
177.319089
 40
1.944444
 50
253.398422
 51
286.601583
  0
ARC
  8
CSLAYER1
  6
CONTINUOUS
 62
     6
 10
323.864870
 20
177.319089
 40
1.944444
 50
-16.601562
 51
16.601572
  0
ARC
  8
CSLAYER1
  6
CONTINUOUS
 62
     6
 10
323.864870
 20
177.319089
 40
1.944444
 50
73.398406
 51
106.601595
  0
LINE
  8
CSLAYER1
  6
CONTINUOUS
 62
     6
 10
324.975995
 20
176.763526
 11
325.728251
 21
176.763526
  0
LINE
  8
CSLAYER1
  6
CONTINUOUS
 62
     6
 10
322.753745
 20
176.763526
 11
322.001489
 21
176.763526
  0
LINE
  8
CSLAYER1
  6
CONTINUOUS
 62
     6
 10
324.975995
 20
177.874651
 11
325.728251
 21
177.874651
  0
LINE
  8
CSLAYER1
  6
CONTINUOUS
 62
     6
 10
322.753745
 20
177.874651
 11
322.001489
 21
177.874651
  0
LINE
  8
CSLAYER1
  6
CONTINUOUS
 62
     6
 10
323.309308
 20
176.207993
 11
323.309308
 21
175.455678
  0
LINE
  8
CSLAYER1
  6
CONTINUOUS
 62
     6
 10
323.309308
 20
178.430185
 11
323.309308
 21
179.182499
  0
LINE
  8
CSLAYER1
  6
CONTINUOUS
 62
     6
 10
324.420432
 20
176.207993
 11
324.420432
 21
175.455678
  0
LINE
  8
CSLAYER1
  6
CONTINUOUS
 62
     6
 10
324.420432
 20
178.430185
 11
324.420432
 21
179.182499
  0
ARC
  8
CSLAYER1
  6
CONTINUOUS
 62
     6
 10
324.975995
 20
176.207993
 40
0.555556
 50
90.000001
 51
179.942691
  0
ARC
  8
CSLAYER1
  6
CONTINUOUS
 62
     6
 10
324.975995
 20
178.430185
 40
0.555556
 50
180.000010
 51
270.000016
  0
ARC
  8
CSLAYER1
  6
CONTINUOUS
 62
     6
 10
322.753745
 20
178.430185
 40
0.555556
 50
-89.999984
 51
0.000005
  0
ARC
  8
CSLAYER1
  6
CONTINUOUS
 62
     6
 10
322.753745
 20
176.207993
 40
0.555556
 50
0.000005
 51
89.942654
  0
LINE
  8
CSLAYER1
  6
CENTER
 62
     3
 10
317.364866
 20
177.319073
 11
330.364883
 21
177.319073
  0
LINE
  8
CSLAYER1
  6
CENTER
 62
     3
 10
323.864875
 20
139.819081
 11
323.864875
 21
126.885824
  0
CIRCLE
  8
CSLAYER1
  6
CONTINUOUS
 62
     6
 10
323.864883
 20
133.319088
 40
3.500000
  0
ARC
  8
CSLAYER1
  6
CONTINUOUS
 62
     6
 10
323.864870
 20
133.319089
 40
1.944444
 50
163.398416
 51
196.601577
  0
ARC
  8
CSLAYER1
  6
CONTINUOUS
 62
     6
 10
323.864870
 20
133.319089
 40
1.944444
 50
253.398422
 51
286.601583
  0
ARC
  8
CSLAYER1
  6
CONTINUOUS
 62
     6
 10
323.864870
 20
133.319089
 40
1.944444
 50
-16.601562
 51
16.601572
  0
ARC
  8
CSLAYER1
  6
CONTINUOUS
 62
     6
 10
323.864870
 20
133.319089
 40
1.944444
 50
73.398406
 51
106.601595
  0
LINE
  8
CSLAYER1
  6
CONTINUOUS
 62
     6
 10
324.975995
 20
132.763526
 11
325.728251
 21
132.763526
  0
LINE
  8
CSLAYER1
  6
CONTINUOUS
 62
     6
 10
322.753745
 20
132.763526
 11
322.001489
 21
132.763526
  0
LINE
  8
CSLAYER1
  6
CONTINUOUS
 62
     6
 10
324.975995
 20
133.874651
 11
325.728251
 21
133.874651
  0
LINE
  8
CSLAYER1
  6
CONTINUOUS
 62
     6
 10
322.753745
 20
133.874651
 11
322.001489
 21
133.874651
  0
LINE
  8
CSLAYER1
  6
CONTINUOUS
 62
     6
 10
323.309308
 20
132.207993
 11
323.309308
 21
131.455678
  0
LINE
  8
CSLAYER1
  6
CONTINUOUS
 62
     6
 10
323.309308
 20
134.430185
 11
323.309308
 21
135.182499
  0
LINE
  8
CSLAYER1
  6
CONTINUOUS
 62
     6
 10
324.420432
 20
132.207993
 11
324.420432
 21
131.455678
  0
LINE
  8
CSLAYER1
  6
CONTINUOUS
 62
     6
 10
324.420432
 20
134.430185
 11
324.420432
 21
135.182499
  0
ARC
  8
CSLAYER1
  6
CONTINUOUS
 62
     6
 10
324.975995
 20
132.207993
 40
0.555556
 50
90.000001
 51
179.942691
  0
ARC
  8
CSLAYER1
  6
CONTINUOUS
 62
     6
 10
324.975995
 20
134.430185
 40
0.555556
 50
180.000010
 51
270.000016
  0
ARC
  8
CSLAYER1
  6
CONTINUOUS
 62
     6
 10
322.753745
 20
134.430185
 40
0.555556
 50
-89.999984
 51
0.000005
  0
ARC
  8
CSLAYER1
  6
CONTINUOUS
 62
     6
 10
322.753745
 20
132.207993
 40
0.555556
 50
0.000005
 51
89.942654
  0
LINE
  8
CSLAYER1
  6
CENTER
 62
     3
 10
317.364866
 20
133.319073
 11
330.364883
 21
133.319073
  0
LINE
  8
CSLAYER1
  6
CENTER
 62
     3
 10
367.864875
 20
139.819081
 11
367.864875
 21
126.885824
  0
CIRCLE
  8
CSLAYER1
  6
CONTINUOUS
 62
     6
 10
367.864883
 20
133.319088
 40
3.500000
  0
ARC
  8
CSLAYER1
  6
CONTINUOUS
 62
     6
 10
367.864870
 20
133.319089
 40
1.944444
 50
163.398416
 51
196.601577
  0
ARC
  8
CSLAYER1
  6
CONTINUOUS
 62
     6
 10
367.864870
 20
133.319089
 40
1.944444
 50
253.398422
 51
286.601583
  0
ARC
  8
CSLAYER1
  6
CONTINUOUS
 62
     6
 10
367.864870
 20
133.319089
 40
1.944444
 50
-16.601562
 51
16.601572
  0
ARC
  8
CSLAYER1
  6
CONTINUOUS
 62
     6
 10
367.864870
 20
133.319089
 40
1.944444
 50
73.398406
 51
106.601595
  0
LINE
  8
CSLAYER1
  6
CONTINUOUS
 62
     6
 10
368.975995
 20
132.763526
 11
369.728251
 21
132.763526
  0
LINE
  8
CSLAYER1
  6
CONTINUOUS
 62
     6
 10
366.753745
 20
132.763526
 11
366.001489
 21
132.763526
  0
LINE
  8
CSLAYER1
  6
CONTINUOUS
 62
     6
 10
368.975995
 20
133.874651
 11
369.728251
 21
133.874651
  0
LINE
  8
CSLAYER1
  6
CONTINUOUS
 62
     6
 10
366.753745
 20
133.874651
 11
366.001489
 21
133.874651
  0
LINE
  8
CSLAYER1
  6
CONTINUOUS
 62
     6
 10
367.309308
 20
132.207993
 11
367.309308
 21
131.455678
  0
LINE
  8
CSLAYER1
  6
CONTINUOUS
 62
     6
 10
367.309308
 20
134.430185
 11
367.309308
 21
135.182499
  0
LINE
  8
CSLAYER1
  6
CONTINUOUS
 62
     6
 10
368.420432
 20
132.207993
 11
368.420432
 21
131.455678
  0
LINE
  8
CSLAYER1
  6
CONTINUOUS
 62
     6
 10
368.420432
 20
134.430185
 11
368.420432
 21
135.182499
  0
ARC
  8
CSLAYER1
  6
CONTINUOUS
 62
     6
 10
368.975995
 20
132.207993
 40
0.555556
 50
90.000001
 51
179.942691
  0
ARC
  8
CSLAYER1
  6
CONTINUOUS
 62
     6
 10
368.975995
 20
134.430185
 40
0.555556
 50
180.000010
 51
270.000016
  0
ARC
  8
CSLAYER1
  6
CONTINUOUS
 62
     6
 10
366.753745
 20
134.430185
 40
0.555556
 50
-89.999984
 51
0.000005
  0
ARC
  8
CSLAYER1
  6
CONTINUOUS
 62
     6
 10
366.753745
 20
132.207993
 40
0.555556
 50
0.000005
 51
89.942654
  0
LINE
  8
CSLAYER1
  6
CENTER
 62
     3
 10
361.364866
 20
133.319073
 11
374.364883
 21
133.319073
  0
LINE
  8
CSLAYER1
  6
CONTINUOUS
 62
     6
 10
200.048607
 20
227.510220
 11
200.048607
 21
279.510224
  0
LINE
  8
CSLAYER1
  6
CONTINUOUS
 62
     6
 10
194.048607
 20
226.510220
 11
194.048607
 21
280.510220
  0
LINE
  8
CSLAYER1
  6
CONTINUOUS
 62
     6
 10
194.048607
 20
226.510220
 11
199.048607
 21
226.510220
  0
ARC
  8
CSLAYER1
  6
CONTINUOUS
 62
     6
 10
199.048607
 20
227.510220
 40
1.000000
 50
270.000000
 51
360.000000
  0
LINE
  8
CSLAYER1
  6
CENTER
 62
     3
 10
184.548607
 20
231.510218
 11
206.247841
 21
231.510224
  0
LINE
  8
CSLAYER1
  6
CENTER
 62
     3
 10
184.548607
 20
275.510218
 11
206.247841
 21
275.510224
  0
LINE
  8
CSLAYER1
  6
CONTINUOUS
 62
     6
 10
194.048592
 20
280.510220
 11
199.048592
 21
280.510223
  0
ARC
  8
CSLAYER1
  6
CONTINUOUS
 62
     6
 10
199.048592
 20
279.510223
 40
1.000000
 50
0.000032
 51
90.000032
  0
LINE
  8
CSLAYER1
  6
CENTER
 62
     3
 10
166.048607
 20
117.319013
 11
166.048607
 21
123.319013
  0
LINE
  8
CSLAYER1
  6
CENTER
 62
     3
 10
189.048607
 20
117.319013
 11
189.048607
 21
123.319013
  0
LINE
  8
CSLAYER1
  6
CENTER
 62
     3
 10
77.548607
 20
117.319013
 11
77.548607
 21
123.319013
  0
LINE
  8
CSLAYER1
  6
CENTER
 62
     3
 10
57.548607
 20
117.319013
 11
57.548607
 21
123.319013
  0
LINE
  8
CSLAYER1
  6
CENTER
 62
     3
 10
355.864875
 20
117.319013
 11
355.864875
 21
123.319013
  0
LINE
  8
CSLAYER1
  6
CENTER
 62
     3
 10
335.864875
 20
117.319013
 11
335.864875
 21
123.319013
  0
LINE
  8
CSLAYER1
  6
CONTINUOUS
 62
     6
 10
166.048607
 20
226.510220
 11
194.048607
 21
226.510227
  0
LINE
  8
CSLAYER1
  6
CONTINUOUS
 62
     6
 10
188.048606
 20
280.510226
 11
194.048592
 21
280.510227
  0
LINE
  8
CSLAYER1
  6
CONTINUOUS
 62
     6
 10
165.048607
 20
227.510220
 11
165.048607
 21
238.518856
  0
ARC
  8
CSLAYER1
  6
CONTINUOUS
 62
     6
 10
188.048607
 20
228.510226
 40
2.000000
 50
180.000000
 51
270.000016
  0
ARC
  8
CSLAYER1
  6
CONTINUOUS
 62
     6
 10
188.048607
 20
278.510226
 40
2.000000
 50
90.000016
 51
180.000000
  0
ARC
  8
CSLAYER1
  6
CONTINUOUS
 62
     6
 10
166.048607
 20
227.510220
 40
1.000000
 50
180.000000
 51
270.000016
  0
LINE
  8
CSLAYER1
  6
CONTINUOUS
 62
     6
 10
186.048607
 20
228.510226
 11
186.048607
 21
278.510226
  0
ARC
  8
CSLAYER1
  6
CONTINUOUS
 62
     6
 10
166.048607
 20
243.510220
 40
5.000000
 50
225.404815
 51
258.437833
  0
LINE
  8
CSLAYER1
  6
CONTINUOUS
 62
     6
 10
165.048607
 20
268.501588
 11
165.048607
 21
276.510220
  0
LINE
  8
CSLAYER1
  6
CENTER
 62
     3
 10
175.048607
 20
280.510222
 11
175.048607
 21
196.510222
  0
LINE
  8
CSLAYER1
  6
CONTINUOUS
 62
     6
 10
166.048606
 20
277.510220
 11
184.316556
 21
277.510225
  0
ARC
  8
CSLAYER1
  6
CONTINUOUS
 62
     6
 10
166.048607
 20
276.510220
 40
1.000000
 50
90.000016
 51
180.000000
  0
LINE
  8
CSLAYER1
  6
CONTINUOUS
 62
     6
 10
156.548607
 20
245.510218
 11
156.548607
 21
261.510218
  0
ARC
  8
CSLAYER1
  6
CONTINUOUS
 62
     6
 10
161.548607
 20
245.510218
 40
5.000000
 50
180.000000
 51
266.631648
  0
ARC
  8
CSLAYER1
  6
CONTINUOUS
 62
     6
 10
161.548607
 20
261.510218
 40
5.000000
 50
93.368421
 51
180.000000
  0
ARC
  8
CSLAYER1
  6
CONTINUOUS
 62
     6
 10
184.316555
 20
279.510225
 40
2.000000
 50
270.000016
 51
330.000037
  0
LINE
  8
CSLAYER1
  6
CONTINUOUS
 62
     6
 10
171.083607
 20
226.510221
 11
171.083607
 21
199.510223
  0
LINE
  8
CSLAYER1
  6
CONTINUOUS
 62
     6
 10
179.013607
 20
226.510223
 11
179.013607
 21
199.510221
  0
LINE
  8
CSLAYER1
  6
CONTINUOUS
 62
     6
 10
171.083607
 20
199.510223
 11
179.013607
 21
199.510221
  0
ARC
  8
CSLAYER1
  6
CONTINUOUS
 62
     6
 10
161.137322
 20
238.522312
 40
2.000000
 50
45.443448
 51
86.631612
  0
LINE
  8
CSLAYER1
  6
CONTINUOUS
 62
     6
 10
160.514536
 20
266.501580
 11
184.048607
 21
266.501580
  0
LINE
  8
CSLAYER1
  6
CONTINUOUS
 62
     6
 10
161.254832
 20
240.518856
 11
184.048607
 21
240.518856
  0
ARC
  8
CSLAYER1
  6
CONTINUOUS
 62
     6
 10
163.048607
 20
238.518856
 40
2.000000
 50
0.000000
 51
90.000000
  0
ARC
  8
CSLAYER1
  6
CONTINUOUS
 62
     6
 10
166.048607
 20
263.510225
 40
5.000000
 50
101.562167
 51
134.595185
  0
ARC
  8
CSLAYER1
  6
CONTINUOUS
 62
     6
 10
161.137322
 20
268.498133
 40
2.000000
 50
273.368388
 51
314.556552
  0
ARC
  8
CSLAYER1
  6
CONTINUOUS
 62
     6
 10
163.048607
 20
268.501588
 40
2.000000
 50
270.000000
 51
360.000000
  0
ARC
  8
CSLAYER1
  6
CONTINUOUS
 62
     6
 10
184.048607
 20
238.518856
 40
2.000000
 50
0.000000
 51
90.000000
  0
ARC
  8
CSLAYER1
  6
CONTINUOUS
 62
     6
 10
184.048607
 20
268.501580
 40
2.000000
 50
270.000000
 51
360.000000
  0
LINE
  8
CSLAYER1
  6
CONTINUOUS
 62
     6
 10
161.048607
 20
245.518856
 11
161.048607
 21
261.501580
  0
ARC
  8
CSLAYER1
  6
CONTINUOUS
 62
     6
 10
166.048607
 20
245.518856
 40
5.000000
 50
180.000000
 51
270.000000
  0
ARC
  8
CSLAYER1
  6
CONTINUOUS
 62
     6
 10
166.048607
 20
261.501580
 40
5.000000
 50
90.000000
 51
180.000000
  0
LINE
  8
CSLAYER1
  6
CONTINUOUS
 62
     6
 10
200.878024
 20
75.840075
 11
200.878020
 21
69.204609
  0
ARC
  8
CSLAYER1
  6
CONTINUOUS
 62
     6
 10
194.953473
 20
72.522345
 40
8.294369
 50
-16.257038
 51
16.256984
  0
LINE
  8
CSLAYER1
  6
CONTINUOUS
 62
     6
 10
201.135700
 20
69.286386
 11
201.881982
 21
69.351673
  0
ARC
  8
CSLAYER1
  6
CONTINUOUS
 62
     6
 10
201.778708
 20
70.532081
 40
1.184910
 50
275.000079
 51
343.742579
  0
ARC
  8
CSLAYER1
  6
CONTINUOUS
 62
     6
 10
201.115017
 20
69.522460
 40
0.236982
 50
179.999968
 51
275.000120
  0
LINE
  8
CSLAYER1
  6
CONTINUOUS
 62
     6
 10
200.759558
 20
69.086111
 11
200.167103
 21
69.086111
  0
ARC
  8
CSLAYER1
  6
CONTINUOUS
 62
     6
 10
200.759558
 20
69.204609
 40
0.118491
 50
269.999970
 51
359.999973
  0
ARC
  8
CSLAYER1
  6
CONTINUOUS
 62
     6
 10
200.167103
 20
69.204609
 40
0.118491
 50
179.999968
 51
269.999970
  0
LINE
  8
CSLAYER1
  6
CONTINUOUS
 62
     6
 10
201.135704
 20
75.758298
 11
201.881986
 21
75.693009
  0
ARC
  8
CSLAYER1
  6
CONTINUOUS
 62
     6
 10
201.778711
 20
74.512601
 40
1.184910
 50
16.257367
 51
84.999860
  0
ARC
  8
CSLAYER1
  6
CONTINUOUS
 62
     6
 10
201.115020
 20
75.522223
 40
0.236982
 50
84.999833
 51
179.942659
  0
ARC
  8
CSLAYER1
  6
CONTINUOUS
 62
     6
 10
200.759562
 20
75.840075
 40
0.118491
 50
-0.000027
 51
89.999969
  0
LINE
  8
CSLAYER1
  6
CONTINUOUS
 62
     6
 10
200.759562
 20
75.958573
 11
200.167107
 21
75.958573
  0
ARC
  8
CSLAYER1
  6
CONTINUOUS
 62
     6
 10
200.167107
 20
75.840075
 40
0.118491
 50
89.999969
 51
179.942659
  0
LINE
  8
CSLAYER1
  6
CONTINUOUS
 62
     6
 10
200.878022
 20
73.228468
 11
200.048607
 21
72.702531
  0
LINE
  8
CSLAYER1
  6
CONTINUOUS
 62
     6
 10
200.878022
 20
72.636013
 11
200.048606
 21
72.110076
  0
LINE
  8
CSLAYER1
  6
CONTINUOUS
 62
     6
 10
200.878024
 20
31.840075
 11
200.878020
 21
25.204609
  0
ARC
  8
CSLAYER1
  6
CONTINUOUS
 62
     6
 10
194.953473
 20
28.522345
 40
8.294369
 50
-16.257038
 51
16.256984
  0
LINE
  8
CSLAYER1
  6
CONTINUOUS
 62
     6
 10
201.135700
 20
25.286386
 11
201.881982
 21
25.351673
  0
ARC
  8
CSLAYER1
  6
CONTINUOUS
 62
     6
 10
201.778708
 20
26.532081
 40
1.184910
 50
275.000079
 51
343.742579
  0
ARC
  8
CSLAYER1
  6
CONTINUOUS
 62
     6
 10
201.115017
 20
25.522460
 40
0.236982
 50
179.999968
 51
275.000120
  0
LINE
  8
CSLAYER1
  6
CONTINUOUS
 62
     6
 10
200.759558
 20
25.086111
 11
200.167103
 21
25.086111
  0
ARC
  8
CSLAYER1
  6
CONTINUOUS
 62
     6
 10
200.759558
 20
25.204609
 40
0.118491
 50
269.999970
 51
359.999973
  0
ARC
  8
CSLAYER1
  6
CONTINUOUS
 62
     6
 10
200.167103
 20
25.204609
 40
0.118491
 50
179.999968
 51
269.999970
  0
LINE
  8
CSLAYER1
  6
CONTINUOUS
 62
     6
 10
201.135704
 20
31.758298
 11
201.881986
 21
31.693009
  0
ARC
  8
CSLAYER1
  6
CONTINUOUS
 62
     6
 10
201.778711
 20
30.512601
 40
1.184910
 50
16.257367
 51
84.999860
  0
ARC
  8
CSLAYER1
  6
CONTINUOUS
 62
     6
 10
201.115020
 20
31.522223
 40
0.236982
 50
84.999833
 51
179.942659
  0
ARC
  8
CSLAYER1
  6
CONTINUOUS
 62
     6
 10
200.759562
 20
31.840075
 40
0.118491
 50
-0.000027
 51
89.999969
  0
LINE
  8
CSLAYER1
  6
CONTINUOUS
 62
     6
 10
200.759562
 20
31.958573
 11
200.167107
 21
31.958573
  0
ARC
  8
CSLAYER1
  6
CONTINUOUS
 62
     6
 10
200.167107
 20
31.840075
 40
0.118491
 50
89.999969
 51
179.942659
  0
LINE
  8
CSLAYER1
  6
CONTINUOUS
 62
     6
 10
200.878022
 20
29.228468
 11
200.048607
 21
28.702531
  0
LINE
  8
CSLAYER1
  6
CONTINUOUS
 62
     6
 10
200.878022
 20
28.636013
 11
200.048606
 21
28.110076
  0
CIRCLE
  8
CSLAYER1
  6
CONTINUOUS
 62
     3
 10
189.048607
 20
60.522345
 40
2.000000
  0
CIRCLE
  8
CSLAYER1
  6
CONTINUOUS
 62
     6
 10
189.048607
 20
60.522345
 40
1.600000
  0
LINE
  8
CSLAYER1
  6
CENTER
 62
     3
 10
193.048607
 20
60.522345
 11
185.048607
 21
60.522345
  0
LINE
  8
CSLAYER1
  6
CENTER
 62
     3
 10
189.048607
 20
64.522345
 11
189.048607
 21
56.522345
  0
CIRCLE
  8
CSLAYER1
  6
CONTINUOUS
 62
     3
 10
166.048607
 20
60.522352
 40
2.000000
  0
CIRCLE
  8
CSLAYER1
  6
CONTINUOUS
 62
     6
 10
166.048607
 20
60.522352
 40
1.600000
  0
LINE
  8
CSLAYER1
  6
CENTER
 62
     3
 10
170.048607
 20
60.522352
 11
162.048607
 21
60.522352
  0
LINE
  8
CSLAYER1
  6
CENTER
 62
     3
 10
166.048607
 20
64.522352
 11
166.048607
 21
56.522352
  0
CIRCLE
  8
CSLAYER1
  6
CONTINUOUS
 62
     3
 10
166.048607
 20
40.522352
 40
2.000000
  0
CIRCLE
  8
CSLAYER1
  6
CONTINUOUS
 62
     6
 10
166.048607
 20
40.522352
 40
1.600000
  0
LINE
  8
CSLAYER1
  6
CENTER
 62
     3
 10
170.048607
 20
40.522352
 11
162.048607
 21
40.522352
  0
LINE
  8
CSLAYER1
  6
CENTER
 62
     3
 10
166.048607
 20
44.522352
 11
166.048607
 21
36.522352
  0
CIRCLE
  8
CSLAYER1
  6
CONTINUOUS
 62
     3
 10
189.048607
 20
40.522345
 40
2.000000
  0
CIRCLE
  8
CSLAYER1
  6
CONTINUOUS
 62
     6
 10
189.048607
 20
40.522345
 40
1.600000
  0
LINE
  8
CSLAYER1
  6
CENTER
 62
     3
 10
193.048607
 20
40.522345
 11
185.048607
 21
40.522345
  0
LINE
  8
CSLAYER1
  6
CENTER
 62
     3
 10
189.048607
 20
44.522345
 11
189.048607
 21
36.522345
  0
LINE
  8
CSLAYER1
  6
CONTINUOUS
 62
     6
 10
200.878024
 20
130.001290
 11
200.878020
 21
136.636755
  0
ARC
  8
CSLAYER1
  6
CONTINUOUS
 62
     6
 10
194.953473
 20
133.319019
 40
8.294369
 50
-16.256984
 51
16.257038
  0
LINE
  8
CSLAYER1
  6
CONTINUOUS
 62
     6
 10
201.135700
 20
136.554978
 11
201.881982
 21
136.489691
  0
ARC
  8
CSLAYER1
  6
CONTINUOUS
 62
     6
 10
201.778708
 20
135.309283
 40
1.184910
 50
16.257421
 51
84.999921
  0
ARC
  8
CSLAYER1
  6
CONTINUOUS
 62
     6
 10
201.115017
 20
136.318904
 40
0.236982
 50
84.999880
 51
180.000032
  0
LINE
  8
CSLAYER1
  6
CONTINUOUS
 62
     6
 10
200.759558
 20
136.755254
 11
200.167103
 21
136.755253
  0
ARC
  8
CSLAYER1
  6
CONTINUOUS
 62
     6
 10
200.759558
 20
136.636755
 40
0.118491
 50
0.000027
 51
90.000030
  0
ARC
  8
CSLAYER1
  6
CONTINUOUS
 62
     6
 10
200.167103
 20
136.636755
 40
0.118491
 50
90.000030
 51
180.000032
  0
LINE
  8
CSLAYER1
  6
CONTINUOUS
 62
     6
 10
201.135704
 20
130.083067
 11
201.881986
 21
130.148355
  0
ARC
  8
CSLAYER1
  6
CONTINUOUS
 62
     6
 10
201.778711
 20
131.328763
 40
1.184910
 50
275.000140
 51
343.742633
  0
ARC
  8
CSLAYER1
  6
CONTINUOUS
 62
     6
 10
201.115020
 20
130.319141
 40
0.236982
 50
180.057341
 51
275.007263
  0
ARC
  8
CSLAYER1
  6
CONTINUOUS
 62
     6
 10
200.759562
 20
130.001289
 40
0.118491
 50
-89.999969
 51
0.000027
  0
LINE
  8
CSLAYER1
  6
CONTINUOUS
 62
     6
 10
200.759562
 20
129.882791
 11
200.167107
 21
129.882791
  0
ARC
  8
CSLAYER1
  6
CONTINUOUS
 62
     6
 10
200.167107
 20
130.001289
 40
0.118491
 50
180.057341
 51
270.000031
  0
LINE
  8
CSLAYER1
  6
CONTINUOUS
 62
     6
 10
200.048607
 20
132.612897
 11
200.878022
 21
133.138835
  0
LINE
  8
CSLAYER1
  6
CONTINUOUS
 62
     6
 10
200.048607
 20
133.205351
 11
200.878022
 21
133.731289
  0
LINE
  8
CSLAYER1
  6
CONTINUOUS
 62
     6
 10
200.878024
 20
174.001290
 11
200.878020
 21
180.636755
  0
ARC
  8
CSLAYER1
  6
CONTINUOUS
 62
     6
 10
194.953473
 20
177.319019
 40
8.294369
 50
-16.256984
 51
16.257038
  0
LINE
  8
CSLAYER1
  6
CONTINUOUS
 62
     6
 10
201.135700
 20
180.554978
 11
201.881982
 21
180.489691
  0
ARC
  8
CSLAYER1
  6
CONTINUOUS
 62
     6
 10
201.778708
 20
179.309283
 40
1.184910
 50
16.257421
 51
84.999921
  0
ARC
  8
CSLAYER1
  6
CONTINUOUS
 62
     6
 10
201.115017
 20
180.318904
 40
0.236982
 50
84.999880
 51
180.000032
  0
LINE
  8
CSLAYER1
  6
CONTINUOUS
 62
     6
 10
200.759558
 20
180.755254
 11
200.167103
 21
180.755253
  0
ARC
  8
CSLAYER1
  6
CONTINUOUS
 62
     6
 10
200.759558
 20
180.636755
 40
0.118491
 50
0.000027
 51
90.000030
  0
ARC
  8
CSLAYER1
  6
CONTINUOUS
 62
     6
 10
200.167103
 20
180.636755
 40
0.118491
 50
90.000030
 51
180.000032
  0
LINE
  8
CSLAYER1
  6
CONTINUOUS
 62
     6
 10
201.135704
 20
174.083067
 11
201.881986
 21
174.148355
  0
ARC
  8
CSLAYER1
  6
CONTINUOUS
 62
     6
 10
201.778711
 20
175.328763
 40
1.184910
 50
275.000140
 51
343.742633
  0
ARC
  8
CSLAYER1
  6
CONTINUOUS
 62
     6
 10
201.115020
 20
174.319141
 40
0.236982
 50
180.057341
 51
275.000167
  0
ARC
  8
CSLAYER1
  6
CONTINUOUS
 62
     6
 10
200.759562
 20
174.001289
 40
0.118491
 50
-89.999969
 51
0.000027
  0
LINE
  8
CSLAYER1
  6
CONTINUOUS
 62
     6
 10
200.759562
 20
173.882791
 11
200.167107
 21
173.882791
  0
ARC
  8
CSLAYER1
  6
CONTINUOUS
 62
     6
 10
200.167107
 20
174.001289
 40
0.118491
 50
180.057341
 51
270.000031
  0
LINE
  8
CSLAYER1
  6
CONTINUOUS
 62
     6
 10
200.048607
 20
176.612897
 11
200.878022
 21
177.138835
  0
LINE
  8
CSLAYER1
  6
CONTINUOUS
 62
     6
 10
200.048607
 20
177.205351
 11
200.878022
 21
177.731289
  0
CIRCLE
  8
CSLAYER1
  6
CONTINUOUS
 62
     3
 10
45.548607
 20
177.319073
 40
2.000000
  0
CIRCLE
  8
CSLAYER1
  6
CONTINUOUS
 62
     6
 10
45.548607
 20
177.319073
 40
1.600000
  0
LINE
  8
CSLAYER1
  6
CENTER
 62
     3
 10
45.548607
 20
173.319073
 11
45.548607
 21
181.319073
  0
LINE
  8
CSLAYER1
  6
CENTER
 62
     3
 10
41.548607
 20
177.319073
 11
49.548607
 21
177.319073
  0
CIRCLE
  8
CSLAYER1
  6
CONTINUOUS
 62
     3
 10
89.548607
 20
177.319073
 40
2.000000
  0
CIRCLE
  8
CSLAYER1
  6
CONTINUOUS
 62
     6
 10
89.548607
 20
177.319073
 40
1.600000
  0
LINE
  8
CSLAYER1
  6
CENTER
 62
     3
 10
89.548607
 20
173.319073
 11
89.548607
 21
181.319073
  0
LINE
  8
CSLAYER1
  6
CENTER
 62
     3
 10
93.548607
 20
177.319073
 11
85.548607
 21
177.319073
  0
LINE
  8
CSLAYER1
  6
CONTINUOUS
 62
     6
 10
176.976059
 20
136.854015
 11
173.121192
 21
136.854015
  0
LINE
  8
CSLAYER1
  6
CONTINUOUS
 62
     6
 10
200.878022
 20
234.827955
 11
200.878022
 21
228.192489
  0
ARC
  8
CSLAYER1
  6
CONTINUOUS
 62
     6
 10
194.953473
 20
231.510222
 40
8.294369
 50
-16.257006
 51
16.257016
  0
LINE
  8
CSLAYER1
  6
CONTINUOUS
 62
     6
 10
201.135702
 20
228.274266
 11
201.881984
 21
228.339554
  0
ARC
  8
CSLAYER1
  6
CONTINUOUS
 62
     6
 10
201.778709
 20
229.519962
 40
1.184910
 50
275.000111
 51
343.742611
  0
ARC
  8
CSLAYER1
  6
CONTINUOUS
 62
     6
 10
201.115018
 20
228.510341
 40
0.236982
 50
180.000000
 51
275.000152
  0
LINE
  8
CSLAYER1
  6
CONTINUOUS
 62
     6
 10
200.759560
 20
228.073991
 11
200.167105
 21
228.073991
  0
ARC
  8
CSLAYER1
  6
CONTINUOUS
 62
     6
 10
200.759560
 20
228.192489
 40
0.118491
 50
-89.999997
 51
0.000005
  0
ARC
  8
CSLAYER1
  6
CONTINUOUS
 62
     6
 10
200.167105
 20
228.192489
 40
0.118491
 50
180.000000
 51
270.000003
  0
LINE
  8
CSLAYER1
  6
CONTINUOUS
 62
     6
 10
201.135702
 20
234.746178
 11
201.881984
 21
234.680890
  0
ARC
  8
CSLAYER1
  6
CONTINUOUS
 62
     6
 10
201.778709
 20
233.500482
 40
1.184910
 50
16.257399
 51
84.999892
  0
ARC
  8
CSLAYER1
  6
CONTINUOUS
 62
     6
 10
201.115018
 20
234.510104
 40
0.236982
 50
84.999865
 51
179.942691
  0
ARC
  8
CSLAYER1
  6
CONTINUOUS
 62
     6
 10
200.759560
 20
234.827955
 40
0.118491
 50
0.000005
 51
90.000001
  0
LINE
  8
CSLAYER1
  6
CONTINUOUS
 62
     6
 10
200.759560
 20
234.946453
 11
200.167105
 21
234.946453
  0
ARC
  8
CSLAYER1
  6
CONTINUOUS
 62
     6
 10
200.167105
 20
234.827955
 40
0.118491
 50
90.000001
 51
179.942691
  0
LINE
  8
CSLAYER1
  6
CONTINUOUS
 62
     6
 10
200.878022
 20
232.216348
 11
200.048607
 21
231.690410
  0
LINE
  8
CSLAYER1
  6
CONTINUOUS
 62
     6
 10
200.878022
 20
231.623893
 11
200.048607
 21
231.097955
  0
LINE
  8
CSLAYER1
  6
CONTINUOUS
 62
     6
 10
200.878022
 20
278.827955
 11
200.878022
 21
272.192489
  0
ARC
  8
CSLAYER1
  6
CONTINUOUS
 62
     6
 10
194.953473
 20
275.510222
 40
8.294369
 50
-16.257006
 51
16.257016
  0
LINE
  8
CSLAYER1
  6
CONTINUOUS
 62
     6
 10
201.135702
 20
272.274266
 11
201.881984
 21
272.339554
  0
ARC
  8
CSLAYER1
  6
CONTINUOUS
 62
     6
 10
201.778709
 20
273.519962
 40
1.184910
 50
275.000111
 51
343.742611
  0
ARC
  8
CSLAYER1
  6
CONTINUOUS
 62
     6
 10
201.115018
 20
272.510341
 40
0.236982
 50
180.000000
 51
275.000152
  0
LINE
  8
CSLAYER1
  6
CONTINUOUS
 62
     6
 10
200.759560
 20
272.073991
 11
200.167105
 21
272.073991
  0
ARC
  8
CSLAYER1
  6
CONTINUOUS
 62
     6
 10
200.759560
 20
272.192489
 40
0.118491
 50
-89.999997
 51
0.000005
  0
ARC
  8
CSLAYER1
  6
CONTINUOUS
 62
     6
 10
200.167105
 20
272.192489
 40
0.118491
 50
180.000000
 51
270.000003
  0
LINE
  8
CSLAYER1
  6
CONTINUOUS
 62
     6
 10
201.135702
 20
278.746178
 11
201.881984
 21
278.680890
  0
ARC
  8
CSLAYER1
  6
CONTINUOUS
 62
     6
 10
201.778709
 20
277.500482
 40
1.184910
 50
16.257399
 51
84.999892
  0
ARC
  8
CSLAYER1
  6
CONTINUOUS
 62
     6
 10
201.115018
 20
278.510104
 40
0.236982
 50
84.999865
 51
179.942691
  0
ARC
  8
CSLAYER1
  6
CONTINUOUS
 62
     6
 10
200.759560
 20
278.827955
 40
0.118491
 50
0.000005
 51
90.000001
  0
LINE
  8
CSLAYER1
  6
CONTINUOUS
 62
     6
 10
200.759560
 20
278.946453
 11
200.167105
 21
278.946453
  0
ARC
  8
CSLAYER1
  6
CONTINUOUS
 62
     6
 10
200.167105
 20
278.827955
 40
0.118491
 50
90.000001
 51
179.942691
  0
LINE
  8
CSLAYER1
  6
CONTINUOUS
 62
     6
 10
200.878022
 20
276.216348
 11
200.048607
 21
275.690410
  0
LINE
  8
CSLAYER1
  6
CONTINUOUS
 62
     6
 10
200.878022
 20
275.623893
 11
200.048607
 21
275.097955
  0
ARC
  8
CSLAYER1
  6
CONTINUOUS
 62
     6
 10
175.048626
 20
140.319015
 40
10.000000
 50
90.000032
 51
270.000000
  0
LINE
  8
CSLAYER1
  6
CONTINUOUS
 62
     3
 10
204.548607
 20
233.995702
 11
234.548607
 21
233.995702
  0
LINE
  8
CSLAYER1
  6
CONTINUOUS
 62
     3
 10
204.548607
 20
273.024743
 11
234.548607
 21
273.024743
  0
LINE
  8
CSLAYER1
  6
CONTINUOUS
 62
     3
 10
203.548607
 20
234.995702
 11
203.548607
 21
272.024743
  0
LINE
  8
CSLAYER1
  6
CONTINUOUS
 62
     3
 10
235.548607
 20
234.995702
 11
235.548607
 21
272.024743
  0
ARC
  8
CSLAYER1
  6
CONTINUOUS
 62
     3
 10
204.548607
 20
272.024743
 40
1.000000
 50
90.000000
 51
180.000000
  0
ARC
  8
CSLAYER1
  6
CONTINUOUS
 62
     3
 10
234.548607
 20
272.024743
 40
1.000000
 50
0.000000
 51
90.000000
  0
ARC
  8
CSLAYER1
  6
CONTINUOUS
 62
     3
 10
234.548607
 20
234.995702
 40
1.000000
 50
270.000000
 51
360.000000
  0
ARC
  8
CSLAYER1
  6
CONTINUOUS
 62
     3
 10
204.548607
 20
234.995702
 40
1.000000
 50
180.000000
 51
270.000000
  0
TEXT
  8
CSLAYER1
 62
     3
 10
221.624451
 20
248.249268
 40
3.500000
 41
1.125000
  1
N P
 50
90.000000
 51
10.000000
  7
JX_FONT
 72
     5
 11
221.624451
 21
258.749268
  0
LINE
  8
CSLAYER1
  6
CONTINUOUS
 62
     3
 10
204.548607
 20
159.698917
 11
234.548607
 21
159.698917
  0
LINE
  8
CSLAYER1
  6
CONTINUOUS
 62
     3
 10
203.548607
 20
160.698917
 11
203.548607
 21
175.319022
  0
LINE
  8
CSLAYER1
  6
CONTINUOUS
 62
     3
 10
235.548607
 20
160.698917
 11
235.548607
 21
175.319022
  0
ARC
  8
CSLAYER1
  6
CONTINUOUS
 62
     3
 10
234.548607
 20
160.698917
 40
1.000000
 50
270.000000
 51
360.000000
  0
ARC
  8
CSLAYER1
  6
CONTINUOUS
 62
     3
 10
204.548607
 20
160.698917
 40
1.000000
 50
180.000000
 51
270.000000
  0
CIRCLE
  8
CSLAYER1
  6
PHANTOM
 62
     7
 10
202.776832
 20
253.510222
 40
0.098712
  0
TEXT
  8
CSLAYER1
 62
     3
 10
338.316803
 20
152.374512
 40
1.472728
 41
1.260000
  1
S
 50
290.000000
 51
0.000000
  7
JX_FONT
 72
     5
 11
338.739913
 21
151.212026
  0
TEXT
  8
CSLAYER1
 62
     3
 10
338.883667
 20
151.074219
 40
1.472728
 41
1.260000
  1
A
 50
300.000000
 51
0.000000
  7
JX_FONT
 72
     5
 11
339.502213
 21
150.002866
  0
TEXT
  8
CSLAYER1
 62
     3
 10
339.779175
 20
149.970840
 40
1.472728
 41
1.675800
  1
W
 50
310.000000
 51
0.000000
  7
JX_FONT
 72
     5
 11
340.836773
 21
148.710443
  0
TEXT
  8
CSLAYER1
 62
     3
 10
340.800415
 20
148.995209
 40
1.472728
 41
1.260000
  1
A
 50
320.000000
 51
0.000000
  7
JX_FONT
 72
     5
 11
341.748082
 21
148.200022
  0
TEXT
  8
CSLAYER1
 62
     3
 10
341.973602
 20
148.208359
 40
1.472728
 41
1.260000
  1
M
 50
330.000000
 51
0.000000
  7
JX_FONT
 72
     5
 11
343.044955
 21
147.589813
  0
TEXT
  8
CSLAYER1
 62
     3
 10
343.268860
 20
147.644577
 40
1.472728
 41
1.260000
  1
U
 50
340.000000
 51
0.000000
  7
JX_FONT
 72
     5
 11
344.431345
 21
147.221467
  0
TEXT
  8
CSLAYER1
 62
     3
 10
344.624329
 20
147.215332
 40
1.472728
 41
1.260000
  1
R
 50
350.000000
 51
0.000000
  7
JX_FONT
 72
     5
 11
345.842626
 21
147.000513
  0
TEXT
  8
CSLAYER1
 62
     3
 10
346.050354
 20
147.219727
 40
1.472728
 41
1.260000
  1
A
 50
360.000000
 51
0.000000
  7
JX_FONT
 72
     5
 11
347.287445
 21
147.219727
  0
TEXT
  8
CSLAYER1
 62
     3
 10
348.809601
 20
147.771500
 40
1.472728
 41
1.260000
  1
D
 50
20.000000
 51
0.000000
  7
JX_FONT
 72
     5
 11
349.972086
 21
148.194610
  0
TEXT
  8
CSLAYER1
 62
     3
 10
350.075592
 20
148.397263
 40
1.472728
 41
1.260000
  1
E
 50
30.000000
 51
0.000000
  7
JX_FONT
 72
     5
 11
351.146944
 21
149.015808
  0
TEXT
  8
CSLAYER1
 62
     3
 10
351.213654
 20
149.233765
 40
1.472728
 41
1.260000
  1
N
 50
40.000000
 51
0.000000
  7
JX_FONT
 72
     5
 11
352.161320
 21
150.028952
  0
TEXT
  8
CSLAYER1
 62
     3
 10
352.189148
 20
150.255157
 40
1.472728
 41
1.260000
  1
K
 50
50.000000
 51
0.000000
  7
JX_FONT
 72
     5
 11
352.984335
 21
151.202824
  0
TEXT
  8
CSLAYER1
 62
     3
 10
352.972504
 20
151.429779
 40
1.472728
 41
0.831600
  1
I
 50
60.000000
 51
0.000000
  7
JX_FONT
 72
     5
 11
353.380744
 21
152.136872
  0
CIRCLE
  8
CSLAYER1
  6
CONTINUOUS
 62
     6
 10
345.864875
 20
155.319073
 40
9.500000
  0
LINE
  8
CSLAYER1
  6
CONTINUOUS
 62
     6
 10
347.452593
 20
174.023623
 11
344.277166
 21
174.023623
  0
LINE
  8
CSLAYER1
  6
CONTINUOUS
 62
     6
 10
344.277166
 20
174.023623
 11
342.689453
 21
171.273623
  0
LINE
  8
CSLAYER1
  6
CONTINUOUS
 62
     6
 10
342.689453
 20
171.273623
 11
344.277166
 21
168.523623
  0
LINE
  8
CSLAYER1
  6
CONTINUOUS
 62
     6
 10
344.277166
 20
168.523623
 11
347.452593
 21
168.523623
  0
LINE
  8
CSLAYER1
  6
CONTINUOUS
 62
     6
 10
347.452593
 20
168.523623
 11
349.040306
 21
171.273623
  0
LINE
  8
CSLAYER1
  6
CONTINUOUS
 62
     6
 10
349.040306
 20
171.273623
 11
347.452593
 21
174.023623
  0
CIRCLE
  8
CSLAYER1
  6
CONTINUOUS
 62
     6
 10
345.864880
 20
171.273623
 40
2.667500
  0
CIRCLE
  8
CSLAYER1
  6
CONTINUOUS
 62
     3
 10
345.864880
 20
171.273623
 40
1.500000
  0
CIRCLE
  8
CSLAYER1
  6
CONTINUOUS
 62
     6
 10
345.864880
 20
171.273623
 40
1.245000
  0
LINE
  8
CSLAYER1
  6
CENTER
 62
     3
 10
350.773956
 20
171.273623
 11
340.955771
 21
171.273623
  0
LINE
  8
CSLAYER1
  6
CONTINUOUS
 62
     6
 10
347.452593
 20
136.614523
 11
344.277166
 21
136.614523
  0
LINE
  8
CSLAYER1
  6
CONTINUOUS
 62
     6
 10
344.277166
 20
136.614523
 11
342.689453
 21
139.364523
  0
LINE
  8
CSLAYER1
  6
CONTINUOUS
 62
     6
 10
342.689453
 20
139.364523
 11
344.277166
 21
142.114523
  0
LINE
  8
CSLAYER1
  6
CONTINUOUS
 62
     6
 10
344.277166
 20
142.114523
 11
347.452593
 21
142.114523
  0
LINE
  8
CSLAYER1
  6
CONTINUOUS
 62
     6
 10
347.452593
 20
142.114523
 11
349.040306
 21
139.364523
  0
LINE
  8
CSLAYER1
  6
CONTINUOUS
 62
     6
 10
349.040306
 20
139.364523
 11
347.452593
 21
136.614523
  0
CIRCLE
  8
CSLAYER1
  6
CONTINUOUS
 62
     6
 10
345.864880
 20
139.364523
 40
2.667500
  0
CIRCLE
  8
CSLAYER1
  6
CONTINUOUS
 62
     3
 10
345.864880
 20
139.364523
 40
1.500000
  0
CIRCLE
  8
CSLAYER1
  6
CONTINUOUS
 62
     6
 10
345.864880
 20
139.364523
 40
1.245000
  0
LINE
  8
CSLAYER1
  6
CENTER
 62
     3
 10
350.773956
 20
139.364523
 11
340.955771
 21
139.364523
  0
LINE
  8
CSLAYER1
  6
CONTINUOUS
 62
     6
 10
358.614875
 20
155.569073
 11
359.614875
 21
155.569073
  0
LINE
  8
CSLAYER1
  6
CONTINUOUS
 62
     6
 10
358.614875
 20
155.069073
 11
359.614875
 21
155.069073
  0
ARC
  8
CSLAYER1
  6
CONTINUOUS
 62
     6
 10
361.114875
 20
155.319073
 40
0.250000
 50
-90.000000
 51
90.000000
  0
ARC
  8
CSLAYER1
  6
CONTINUOUS
 62
     6
 10
358.614875
 20
155.319073
 40
0.250000
 50
90.000000
 51
270.000000
  0
LINE
  8
CSLAYER1
  6
CONTINUOUS
 62
     6
 10
359.614875
 20
154.069073
 11
359.614875
 21
155.069073
  0
LINE
  8
CSLAYER1
  6
CONTINUOUS
 62
     6
 10
360.114875
 20
154.069073
 11
360.114875
 21
155.069073
  0
ARC
  8
CSLAYER1
  6
CONTINUOUS
 62
     6
 10
359.864875
 20
156.569073
 40
0.250000
 50
0.000000
 51
180.000000
  0
ARC
  8
CSLAYER1
  6
CONTINUOUS
 62
     6
 10
359.864875
 20
154.069073
 40
0.250000
 50
180.000000
 51
360.000000
  0
LINE
  8
CSLAYER1
  6
CONTINUOUS
 62
     6
 10
360.114875
 20
155.569073
 11
361.114875
 21
155.569073
  0
LINE
  8
CSLAYER1
  6
CONTINUOUS
 62
     6
 10
360.114875
 20
155.069073
 11
361.114875
 21
155.069073
  0
LINE
  8
CSLAYER1
  6
CONTINUOUS
 62
     6
 10
360.114875
 20
155.569073
 11
360.114875
 21
156.569073
  0
LINE
  8
CSLAYER1
  6
CONTINUOUS
 62
     6
 10
359.614875
 20
155.569073
 11
359.614875
 21
156.569073
  0
ARC
  8
CSLAYER1
  6
CONTINUOUS
 62
     6
 10
331.864875
 20
156.569073
 40
0.250000
 50
0.000000
 51
180.000000
  0
ARC
  8
CSLAYER1
  6
CONTINUOUS
 62
     6
 10
331.864875
 20
154.069073
 40
0.250000
 50
180.000000
 51
360.000000
  0
LINE
  8
CSLAYER1
  6
CONTINUOUS
 62
     6
 10
331.614875
 20
154.069073
 11
331.614875
 21
156.569073
  0
LINE
  8
CSLAYER1
  6
CONTINUOUS
 62
     6
 10
332.114875
 20
154.069073
 11
332.114875
 21
156.569073
  0
ARC
  8
CSLAYER1
  6
CONTINUOUS
 62
     6
 10
345.864875
 20
155.319073
 40
19.000000
 50
20.487315
 51
159.512649
  0
ARC
  8
CSLAYER1
  6
CONTINUOUS
 62
     6
 10
345.864875
 20
155.319073
 40
20.000000
 50
17.457603
 51
162.542361
  0
LINE
  8
CSLAYER1
  6
CONTINUOUS
 62
     6
 10
356.864870
 20
158.319073
 11
362.364870
 21
158.319073
  0
LINE
  8
CSLAYER1
  6
CONTINUOUS
 62
     6
 10
356.864870
 20
152.319073
 11
362.364870
 21
152.319073
  0
LINE
  8
CSLAYER1
  6
CONTINUOUS
 62
     6
 10
367.364870
 20
161.319073
 11
364.599869
 21
161.319073
  0
LINE
  8
CSLAYER1
  6
CONTINUOUS
 62
     6
 10
367.364870
 20
149.319073
 11
364.599869
 21
149.319073
  0
LINE
  8
CSLAYER1
  6
CONTINUOUS
 62
     6
 10
355.864870
 20
160.319073
 11
355.864870
 21
150.319073
  0
ARC
  8
CSLAYER1
  6
CONTINUOUS
 62
     6
 10
356.864870
 20
160.319073
 40
1.000000
 50
90.000000
 51
180.000000
  0
ARC
  8
CSLAYER1
  6
CONTINUOUS
 62
     6
 10
356.864870
 20
150.319073
 40
1.000000
 50
180.000000
 51
270.000000
  0
ARC
  8
CSLAYER1
  6
CONTINUOUS
 62
     6
 10
356.864870
 20
157.319073
 40
1.000000
 50
90.000000
 51
180.000000
  0
ARC
  8
CSLAYER1
  6
CONTINUOUS
 62
     6
 10
356.864870
 20
153.319073
 40
1.000000
 50
180.000000
 51
270.000000
  0
LINE
  8
CSLAYER1
  6
CONTINUOUS
 62
     6
 10
328.364876
 20
150.319073
 11
328.364883
 21
160.319073
  0
LINE
  8
CSLAYER1
  6
CONTINUOUS
 62
     6
 10
334.864881
 20
158.319080
 11
329.364881
 21
158.319084
  0
LINE
  8
CSLAYER1
  6
CONTINUOUS
 62
     6
 10
334.864878
 20
152.319080
 11
329.364878
 21
152.319084
  0
LINE
  8
CSLAYER1
  6
CONTINUOUS
 62
     6
 10
335.864883
 20
160.319079
 11
335.864876
 21
150.319079
  0
ARC
  8
CSLAYER1
  6
CONTINUOUS
 62
     6
 10
334.864883
 20
160.319080
 40
1.000000
 50
-0.000037
 51
89.999963
  0
ARC
  8
CSLAYER1
  6
CONTINUOUS
 62
     6
 10
334.864876
 20
150.319080
 40
1.000000
 50
269.999963
 51
359.999963
  0
ARC
  8
CSLAYER1
  6
CONTINUOUS
 62
     6
 10
334.864881
 20
157.319080
 40
1.000000
 50
-0.000037
 51
89.999963
  0
ARC
  8
CSLAYER1
  6
CONTINUOUS
 62
     6
 10
334.864878
 20
153.319080
 40
1.000000
 50
269.999963
 51
359.999963
  0
ARC
  8
CSLAYER1
  6
CONTINUOUS
 62
     6
 10
329.364878
 20
153.319084
 40
1.000000
 50
179.999963
 51
269.999963
  0
ARC
  8
CSLAYER1
  6
CONTINUOUS
 62
     6
 10
329.364881
 20
157.319084
 40
1.000000
 50
89.999963
 51
179.999963
  0
ARC
  8
CSLAYER1
  6
CONTINUOUS
 62
     6
 10
345.864875
 20
155.319073
 40
19.000000
 50
200.487279
 51
339.512685
  0
ARC
  8
CSLAYER1
  6
CONTINUOUS
 62
     6
 10
345.864875
 20
155.319073
 40
20.000000
 50
197.457567
 51
342.542397
  0
LINE
  8
CSLAYER1
  6
CONTINUOUS
 62
     6
 10
334.864883
 20
161.319080
 11
328.629877
 21
161.319084
  0
LINE
  8
CSLAYER1
  6
CONTINUOUS
 62
     6
 10
334.864876
 20
149.319080
 11
328.629877
 21
149.319084
  0
LINE
  8
CSLAYER1
  6
CONTINUOUS
 62
     6
 10
363.364870
 20
150.319073
 11
363.364870
 21
160.319073
  0
ARC
  8
CSLAYER1
  6
CONTINUOUS
 62
     6
 10
362.364870
 20
153.319073
 40
1.000000
 50
-90.000000
 51
0.000000
  0
ARC
  8
CSLAYER1
  6
CONTINUOUS
 62
     6
 10
362.364870
 20
157.319073
 40
1.000000
 50
-0.000000
 51
90.000000
  0
LINE
  8
CSLAYER1
  6
CONTINUOUS
 62
     6
 10
365.364870
 20
151.046345
 11
366.964870
 21
151.046345
  0
LINE
  8
CSLAYER1
  6
CONTINUOUS
 62
     6
 10
366.964870
 20
151.046345
 11
366.964870
 21
151.864527
  0
LINE
  8
CSLAYER1
  6
CONTINUOUS
 62
     6
 10
365.364870
 20
151.864527
 11
366.164870
 21
151.864527
  0
LINE
  8
CSLAYER1
  6
CONTINUOUS
 62
     6
 10
365.364870
 20
151.046345
 11
365.364870
 21
159.591801
  0
LINE
  8
CSLAYER1
  6
CONTINUOUS
 62
     6
 10
368.364870
 20
150.319073
 11
368.364870
 21
160.319073
  0
LINE
  8
CSLAYER1
  6
CONTINUOUS
 62
     6
 10
365.364870
 20
159.591801
 11
366.964870
 21
159.591801
  0
LINE
  8
CSLAYER1
  6
CONTINUOUS
 62
     6
 10
366.964870
 20
159.591801
 11
366.964870
 21
158.773619
  0
LINE
  8
CSLAYER1
  6
CONTINUOUS
 62
     6
 10
365.364870
 20
158.773619
 11
366.164870
 21
158.773619
  0
LINE
  8
CSLAYER1
  6
CONTINUOUS
 62
     6
 10
367.364870
 20
161.319073
 11
368.364870
 21
160.319073
  0
LINE
  8
CSLAYER1
  6
CONTINUOUS
 62
     6
 10
368.364870
 20
150.319073
 11
367.364870
 21
149.319073
  0
LINE
  8
CSLAYER1
  6
CONTINUOUS
 62
     6
 10
366.964870
 20
158.773619
 11
368.364870
 21
158.773619
  0
LINE
  8
CSLAYER1
  6
CONTINUOUS
 62
     6
 10
366.964870
 20
151.864527
 11
368.364870
 21
151.864527
  0
LINE
  8
CSLAYER1
  6
CONTINUOUS
 62
     6
 10
366.164870
 20
151.046345
 11
366.164870
 21
159.591801
  0
ARC
  8
CSLAYER1
  6
CONTINUOUS
 62
     6
 10
327.129885
 20
162.319085
 40
1.000000
 50
269.999963
 51
339.512649
  0
ARC
  8
CSLAYER1
  6
CONTINUOUS
 62
     6
 10
327.129876
 20
148.319085
 40
1.000000
 50
20.487279
 51
89.999963
  0
ARC
  8
CSLAYER1
  6
CONTINUOUS
 62
     6
 10
364.599869
 20
148.319073
 40
1.000000
 50
90.000000
 51
159.512685
  0
ARC
  8
CSLAYER1
  6
CONTINUOUS
 62
     6
 10
364.599869
 20
162.319073
 40
1.000000
 50
200.487315
 51
270.000000
  0
LINE
  8
CSLAYER1
  6
CONTINUOUS
 62
     6
 10
326.364877
 20
151.046357
 11
324.764877
 21
151.046358
  0
LINE
  8
CSLAYER1
  6
CONTINUOUS
 62
     6
 10
324.764877
 20
151.046358
 11
324.764877
 21
151.864540
  0
LINE
  8
CSLAYER1
  6
CONTINUOUS
 62
     6
 10
326.364877
 20
151.864539
 11
325.564877
 21
151.864540
  0
LINE
  8
CSLAYER1
  6
CONTINUOUS
 62
     6
 10
326.364877
 20
151.046357
 11
326.364882
 21
159.591814
  0
LINE
  8
CSLAYER1
  6
CONTINUOUS
 62
     6
 10
323.364876
 20
150.319087
 11
323.364883
 21
160.319087
  0
LINE
  8
CSLAYER1
  6
CONTINUOUS
 62
     6
 10
326.364882
 20
159.591814
 11
324.764882
 21
159.591815
  0
LINE
  8
CSLAYER1
  6
CONTINUOUS
 62
     6
 10
324.764882
 20
159.591815
 11
324.764882
 21
158.773633
  0
LINE
  8
CSLAYER1
  6
CONTINUOUS
 62
     6
 10
326.364882
 20
158.773632
 11
325.564882
 21
158.773632
  0
LINE
  8
CSLAYER1
  6
CONTINUOUS
 62
     6
 10
324.364883
 20
161.319087
 11
323.364883
 21
160.319087
  0
LINE
  8
CSLAYER1
  6
CONTINUOUS
 62
     6
 10
323.364876
 20
150.319087
 11
324.364876
 21
149.319087
  0
LINE
  8
CSLAYER1
  6
CONTINUOUS
 62
     6
 10
324.764882
 20
158.773633
 11
323.364882
 21
158.773634
  0
LINE
  8
CSLAYER1
  6
CONTINUOUS
 62
     6
 10
324.764877
 20
151.864540
 11
323.364877
 21
151.864541
  0
LINE
  8
CSLAYER1
  6
CONTINUOUS
 62
     6
 10
325.564877
 20
151.046358
 11
325.564882
 21
159.591814
  0
LINE
  8
CSLAYER1
  6
CONTINUOUS
 62
     6
 10
363.099869
 20
161.319073
 11
356.864870
 21
161.319073
  0
LINE
  8
CSLAYER1
  6
CONTINUOUS
 62
     6
 10
363.099869
 20
149.319073
 11
356.864870
 21
149.319073
  0
LINE
  8
CSLAYER1
  6
CONTINUOUS
 62
     6
 10
327.129884
 20
161.319085
 11
324.364883
 21
161.319087
  0
LINE
  8
CSLAYER1
  6
CONTINUOUS
 62
     6
 10
327.129877
 20
149.319085
 11
324.364876
 21
149.319087
  0
LINE
  8
CSLAYER1
  6
CONTINUOUS
 62
     6
 10
350.864875
 20
122.319073
 11
340.864875
 21
122.319073
  0
LINE
  8
CSLAYER1
  6
CONTINUOUS
 62
     6
 10
352.864875
 20
124.319073
 11
352.864875
 21
128.319073
  0
LINE
  8
CSLAYER1
  6
CONTINUOUS
 62
     6
 10
338.864875
 20
124.319073
 11
338.864875
 21
128.319073
  0
ARC
  8
CSLAYER1
  6
CONTINUOUS
 62
     6
 10
340.864875
 20
124.319073
 40
2.000000
 50
180.000000
 51
270.000000
  0
ARC
  8
CSLAYER1
  6
CONTINUOUS
 62
     6
 10
350.864875
 20
124.319073
 40
2.000000
 50
270.000000
 51
360.000000
  0
ENDSEC
  0
EOF
