  0
SECTION
  2
HEADER
  9
$ACADVER
  1
AC1006
  9
$INSBASE
 10
0.000000
 20
0.000000
 30
0.0
  9
$EXTMIN
 10
0.000000
 20
0.000000
  9
$EXTMAX
 10
420.000000
 20
297.000000
  9
$LIMMIN
 10
0.000000
 20
0.000000
  9
$LIMMAX
 10
420.000000
 20
297.000000
  9
$VIEWCTR
 10
210.000000
 20
148.500000
  9
$VIEWSIZE
 40
297.000000
  9
$SNAPMODE
 70
     0
  9
$SNAPUNIT
 10
1.0
 20
1.0
  9
$SNAPBASE
 10
0.0
 20
0.0
  9
$SNAPANG
 50
0.0
  9
$SNAPSTYLE
 70
     0
  9
$SNAPISOPAIR
 70
     0
  9
$GRIDMODE
 70
     0
  9
$GRIDUNIT
 10
0.0
 20
0.0
  9
$ORTHOMODE
 70
     0
  9
$REGENMODE
 70
     1
  9
$FILLMODE
 70
     1
  9
$QTEXTMODE
 70
     0
  9
$DRAGMODE
 70
     2
  9
$LTSCALE
 40
15.000000
  9
$OSMODE
 70
     0
  9
$ATTMODE
 70
     1
  9
$TEXTSIZE
 40
0.2
  9
$TRACEWID
 40
0.05
  9
$TEXTSTYLE
  7
STANDARD
  9
$CLAYER
  8
CSLAYER1
  9
$CELTYPE
  6
BYLAYER
  9
$CECOLOR
 62
   256
  9
$DIMSCALE
 40
1.0
  9
$DIMASZ
 40
0.18
  9
$DIMEXO
 40
0.0625
  9
$DIMDLI
 40
0.38
  9
$DIMRND
 40
0.0
  9
$DIMDLE
 40
0.0
  9
$DIMEXE
 40
0.18
  9
$DIMTP
 40
0.0
  9
$DIMTM
 40
0.0
  9
$DIMTXT
 40
0.18
  9
$DIMCEN
 40
0.09
  9
$DIMTSZ
 40
0.0
  9
$DIMTOL
 70
     0
  9
$DIMLIM
 70
     0
  9
$DIMTIH
 70
     1
  9
$DIMTOH
 70
     1
  9
$DIMSE1
 70
     0
  9
$DIMSE2
 70
     0
  9
$DIMTAD
 70
     0
  9
$DIMZIN
 70
     0
  9
$DIMBLK
  1

  9
$LUNITS
 70
     2
  9
$LUPREC
 70
     4
  9
$AXISMODE
 70
     0
  9
$AXISUNIT
 10
0.0
 20
0.0
  9
$SKETCHINC
 40
0.1
  9
$FILLETRAD
 40
0.0
  9
$AUNITS
 70
     0
  9
$AUPREC
 70
     0
  9
$MENU
  1
ACAD
  9
$ELEVATION
 40
0.0
  9
$THICKNESS
 40
0.0
  9
$VIEWDIR
 10
0.0
 20
0.0
 30
1.0
  9
$LIMCHECK
 70
     0
  9
$BLIPMODE
 70
     1
  9
$CHAMFERA
 40
0.0
  9
$CHAMFERB
 40
0.0
  9
$FASTZOOM
 70
     1
  9
$SKPOLY
 70
     0
  9
$TDCREATE
 40
0.000000
  9
$TDUPDATE
 40
0.000000
  9
$TDINDWG
 40
0.0
  9
$TDUSRTIMER
 40
0.0
  9
$USRTIMER
 70
     1
  9
$ANGBASE
 50
0.0
  9
$ANGDIR
 70
     0
  9
$PDMODE
 70
     0
  9
$PDSIZE
 40
0.0
  9
$PLINEWID
 40
0.0
  9
$COORDS
 70
     0
  9
$USERI1
 70
     0
  9
$USERI2
 70
     0
  9
$USERI3
 70
     0
  9
$USERI4
 70
     0
  9
$USERI5
 70
     0
  9
$USERR1
 40
0.0
  9
$USERR2
 40
0.0
  9
$USERR3
 40
0.0
  9
$USERR4
 40
0.0
  9
$USERR5
 40
0.0
  0
ENDSEC
  0
SECTION
  2
TABLES
  0
TABLE
  2
LTYPE
 70
     9
  0
LTYPE
  2
CONTINUOUS
 70
    64
  3
Solid line
 72
    65
 73
     0
 40
0.0
  0
LTYPE
  2
DASHED
 70
    64
  3
__ __ __ __ __ __ __ __ __ __ __ __ __ __ __
 72
    65
 73
     2
 40
0.75
 49
0.5
 49
-0.25
  0
LTYPE
  2
HIDDEN
 70
    64
  3
_ _ _ _ _ _ _ _ _ _ _ _ _ _ _ _ _ _ _ _ _ _ _
 72
    65
 73
     2
 40
0.375
 49
0.25
 49
-0.125
  0
LTYPE
  2
DOT
 70
    64
  3
...............................................
 72
    65
 73
     2
 40
0.25
 49
0.0
 49
-0.25
  0
LTYPE
  2
DASHDOT
 70
    64
  3
__ . __ . __ . __ . __ . __ . __ . __ . __ . __
 72
    65
 73
     4
 40
1.0
 49
0.5
 49
-0.25
 49
0.0
 49
-0.25
  0
LTYPE
  2
DIVIDE
 70
    64
  3
__ . . __ . . __ . . __ . . __ . . __ . . __
 72
    65
 73
     6
 40
1.25
 49
0.5
 49
-0.25
 49
0.0
 49
-0.25
 49
0.0
 49
-0.25
  0
LTYPE
  2
CENTER
 70
    64
  3
____ _ ____ _ ____ _ ____ _ ____ _ ____ _ ____ 
 72
    65
 73
     4
 40
2.0
 49
1.25
 49
-0.25
 49
0.25
 49
-0.25
  0
LTYPE
  2
PHANTOM
 70
    64
  3
______  __  __  ______  __  __  ______  __  __ 
 72
    65
 73
     6
 40
2.5
 49
1.25
 49
-0.25
 49
0.25
 49
-0.25
 49
0.25
 49
-0.25
  0
LTYPE
  2
BORDER
 70
    64
  3
__ __ . __ __ . __ __ . __ __ . __ __ . __ __ .
 72
    65
 73
     6
 40
1.75
 49
0.5
 49
-0.25
 49
0.5
 49
-0.25
 49
0.0
 49
-0.25
  0
ENDTAB
  0
TABLE
  2
LAYER
 70
    16
  0
LAYER
  2
CSLAYER1
 70
    64
 62
     7
  6
CONTINUOUS
  0
LAYER
  2
CSLAYER2
 70
    64
 62
     7
  6
CONTINUOUS
  0
LAYER
  2
CSLAYER3
 70
    64
 62
     7
  6
CONTINUOUS
  0
LAYER
  2
CSLAYER4
 70
    64
 62
     7
  6
CONTINUOUS
  0
LAYER
  2
CSLAYER5
 70
    64
 62
     7
  6
CONTINUOUS
  0
LAYER
  2
CSLAYER6
 70
    64
 62
     7
  6
CONTINUOUS
  0
LAYER
  2
CSLAYER7
 70
    64
 62
     7
  6
CONTINUOUS
  0
LAYER
  2
CSLAYER8
 70
    64
 62
     7
  6
CONTINUOUS
  0
LAYER
  2
CSLAYER9
 70
    64
 62
     7
  6
CONTINUOUS
  0
LAYER
  2
CSLAYER10
 70
    64
 62
     7
  6
CONTINUOUS
  0
LAYER
  2
CSLAYER11
 70
    64
 62
     7
  6
CONTINUOUS
  0
LAYER
  2
CSLAYER12
 70
    64
 62
     7
  6
CONTINUOUS
  0
LAYER
  2
CSLAYER13
 70
    64
 62
     7
  6
CONTINUOUS
  0
LAYER
  2
CSLAYER14
 70
    64
 62
     7
  6
CONTINUOUS
  0
LAYER
  2
CSLAYER15
 70
    64
 62
     7
  6
CONTINUOUS
  0
LAYER
  2
CSLAYER16
 70
    64
 62
     7
  6
CONTINUOUS
  0
ENDTAB
  0
TABLE
  2
STYLE
 70
     1
  0
STYLE
  2
JX_FONT
 70
     0
 40
1.0
 41
1.0
 50
0.0
 71
     0
 42
1.0
  3
monotxt
  4
bigfont
  0
ENDTAB
  0
TABLE
  2
VIEW
 70
     0
  0
ENDTAB
  0
ENDSEC
  0
SECTION
  2
BLOCKS
  0
ENDSEC
  0
SECTION
  2
ENTITIES
  0
LINE
  8
CSLAYER1
  6
CENTER
 62
     3
 10
263.048607
 20
227.613519
 11
152.048607
 21
227.613519
  0
LINE
  8
CSLAYER1
  6
CENTER
 62
     3
 10
263.048607
 20
69.699919
 11
152.048607
 21
69.699919
  0
LINE
  8
CSLAYER1
  6
CENTER
 62
     3
 10
105.615377
 20
179.029940
 11
105.615359
 21
124.202158
  0
LINE
  8
CSLAYER1
  6
CENTER
 62
     3
 10
80.660816
 20
148.656714
 11
130.569908
 21
148.656714
  0
LINE
  8
CSLAYER1
  6
CONTINUOUS
 62
     6
 10
123.115367
 20
126.656714
 11
88.115367
 21
126.656714
  0
LINE
  8
CSLAYER1
  6
CONTINUOUS
 62
     6
 10
127.615367
 20
166.156714
 11
127.615367
 21
154.156709
  0
LINE
  8
CSLAYER1
  6
CONTINUOUS
 62
     6
 10
88.115367
 20
170.656714
 11
90.615367
 21
170.656714
  0
LINE
  8
CSLAYER1
  6
CONTINUOUS
 62
     6
 10
83.615367
 20
131.156714
 11
83.615367
 21
143.156729
  0
LINE
  8
CSLAYER1
  6
CENTER
 62
     3
 10
322.030294
 20
171.406725
 11
322.030294
 21
160.906711
  0
LINE
  8
CSLAYER1
  6
CENTER
 62
     3
 10
263.048607
 20
148.656719
 11
152.048607
 21
148.656719
  0
ARC
  8
CSLAYER1
  6
CONTINUOUS
 62
     6
 10
88.115367
 20
131.156714
 40
4.500000
 50
180.000000
 51
270.000000
  0
ARC
  8
CSLAYER1
  6
CONTINUOUS
 62
     6
 10
123.115367
 20
131.156714
 40
4.500000
 50
270.000000
 51
360.000000
  0
ARC
  8
CSLAYER1
  6
CONTINUOUS
 62
     6
 10
123.115367
 20
166.156714
 40
4.500000
 50
0.000000
 51
90.000000
  0
ARC
  8
CSLAYER1
  6
CONTINUOUS
 62
     6
 10
88.115367
 20
166.156714
 40
4.500000
 50
90.000000
 51
180.000000
  0
CIRCLE
  8
CSLAYER1
  6
CONTINUOUS
 62
     6
 10
123.115374
 20
166.156721
 40
2.250000
  0
LINE
  8
CSLAYER1
  6
CENTER
 62
     3
 10
123.115367
 20
170.406707
 11
123.115367
 21
161.906721
  0
LINE
  8
CSLAYER1
  6
CENTER
 62
     3
 10
127.365360
 20
166.156712
 11
118.865374
 21
166.156715
  0
CIRCLE
  8
CSLAYER1
  6
CONTINUOUS
 62
     6
 10
123.115374
 20
131.156721
 40
2.250000
  0
CIRCLE
  8
CSLAYER1
  6
CONTINUOUS
 62
     6
 10
88.115374
 20
131.156721
 40
2.250000
  0
CIRCLE
  8
CSLAYER1
  6
CONTINUOUS
 62
     6
 10
88.115374
 20
166.156721
 40
2.250000
  0
LINE
  8
CSLAYER1
  6
CONTINUOUS
 62
     6
 10
83.615367
 20
154.156719
 11
83.615367
 21
166.156714
  0
LINE
  8
CSLAYER1
  6
CONTINUOUS
 62
     6
 10
127.615367
 20
143.156719
 11
127.615367
 21
131.156714
  0
LINE
  8
CSLAYER1
  6
CENTER
 62
     3
 10
88.115381
 20
170.406718
 11
88.115376
 21
161.906732
  0
LINE
  8
CSLAYER1
  6
CENTER
 62
     3
 10
83.865385
 20
166.156726
 11
92.365371
 21
166.156724
  0
LINE
  8
CSLAYER1
  6
CENTER
 62
     3
 10
123.115367
 20
126.906721
 11
123.115367
 21
135.406707
  0
LINE
  8
CSLAYER1
  6
CENTER
 62
     3
 10
127.365360
 20
131.156715
 11
118.865374
 21
131.156712
  0
LINE
  8
CSLAYER1
  6
CENTER
 62
     3
 10
88.115381
 20
126.906710
 11
88.115376
 21
135.406696
  0
LINE
  8
CSLAYER1
  6
CENTER
 62
     3
 10
83.865385
 20
131.156701
 11
92.365371
 21
131.156704
  0
LINE
  8
CSLAYER1
  6
CONTINUOUS
 62
     6
 10
88.615367
 20
142.740634
 11
88.615367
 21
154.572794
  0
ARC
  8
CSLAYER1
  6
CONTINUOUS
 62
     6
 10
105.615367
 20
148.656714
 40
18.000000
 50
199.188136
 51
340.811827
  0
ARC
  8
CSLAYER1
  6
CONTINUOUS
 62
     6
 10
105.615367
 20
148.656714
 40
20.000000
 50
197.457567
 51
342.542397
  0
LINE
  8
CSLAYER1
  6
CONTINUOUS
 62
     6
 10
122.615363
 20
142.740623
 11
122.615371
 21
154.572783
  0
ARC
  8
CSLAYER1
  6
CONTINUOUS
 62
     6
 10
105.615367
 20
148.656714
 40
18.000000
 50
19.188100
 51
33.557310
  0
ARC
  8
CSLAYER1
  6
CONTINUOUS
 62
     6
 10
105.615367
 20
148.656714
 40
20.000000
 50
17.457603
 51
41.409622
  0
LINE
  8
CSLAYER1
  6
CONTINUOUS
 62
     6
 10
174.048607
 20
130.656719
 11
174.048607
 21
174.656714
  0
LINE
  8
CSLAYER1
  6
CONTINUOUS
 62
     6
 10
184.048607
 20
166.656719
 11
174.048607
 21
166.656719
  0
LINE
  8
CSLAYER1
  6
CONTINUOUS
 62
     6
 10
184.048607
 20
130.656719
 11
174.048607
 21
130.656719
  0
LINE
  8
CSLAYER1
  6
CONTINUOUS
 62
     6
 10
174.048607
 20
133.656719
 11
157.748607
 21
133.656719
  0
ARC
  8
CSLAYER1
  6
CONTINUOUS
 62
     6
 10
105.615367
 20
148.656714
 40
18.000000
 50
146.442690
 51
160.811864
  0
ARC
  8
CSLAYER1
  6
CONTINUOUS
 62
     6
 10
105.615367
 20
148.656714
 40
20.000000
 50
138.590378
 51
162.542360
  0
LINE
  8
CSLAYER1
  6
CONTINUOUS
 62
     6
 10
114.115367
 20
170.656714
 11
118.615367
 21
170.656714
  0
LINE
  8
CSLAYER1
  6
CONTINUOUS
 62
     6
 10
317.530288
 20
174.656718
 11
291.530288
 21
174.656718
  0
ARC
  8
CSLAYER1
  6
CONTINUOUS
 62
     6
 10
317.530288
 20
172.656718
 40
2.000000
 50
0.000000
 51
90.000000
  0
ARC
  8
CSLAYER1
  6
CONTINUOUS
 62
     6
 10
291.530288
 20
172.656718
 40
2.000000
 50
90.000000
 51
180.000000
  0
LINE
  8
CSLAYER1
  6
CONTINUOUS
 62
     6
 10
304.905288
 20
176.781718
 11
304.530288
 21
177.156718
  0
LINE
  8
CSLAYER1
  6
CONTINUOUS
 62
     6
 10
304.905288
 20
174.656718
 11
304.905288
 21
176.781718
  0
LINE
  8
CSLAYER1
  6
CONTINUOUS
 62
     6
 10
304.155288
 20
176.781718
 11
304.530288
 21
177.156718
  0
LINE
  8
CSLAYER1
  6
CONTINUOUS
 62
     6
 10
304.155288
 20
174.656718
 11
304.155288
 21
176.781718
  0
LINE
  8
CSLAYER1
  6
CONTINUOUS
 62
     6
 10
307.405288
 20
176.781718
 11
307.030288
 21
177.156718
  0
LINE
  8
CSLAYER1
  6
CONTINUOUS
 62
     6
 10
307.405288
 20
174.656718
 11
307.405288
 21
176.781718
  0
LINE
  8
CSLAYER1
  6
CONTINUOUS
 62
     6
 10
306.655288
 20
176.781718
 11
307.030288
 21
177.156718
  0
LINE
  8
CSLAYER1
  6
CONTINUOUS
 62
     6
 10
306.655288
 20
174.656718
 11
306.655288
 21
176.781718
  0
LINE
  8
CSLAYER1
  6
CONTINUOUS
 62
     6
 10
309.905288
 20
176.781718
 11
309.530288
 21
177.156718
  0
LINE
  8
CSLAYER1
  6
CONTINUOUS
 62
     6
 10
309.905288
 20
174.656718
 11
309.905288
 21
176.781718
  0
LINE
  8
CSLAYER1
  6
CONTINUOUS
 62
     6
 10
309.155288
 20
176.781718
 11
309.530288
 21
177.156718
  0
LINE
  8
CSLAYER1
  6
CONTINUOUS
 62
     6
 10
309.155288
 20
174.656718
 11
309.155288
 21
176.781718
  0
LINE
  8
CSLAYER1
  6
CONTINUOUS
 62
     6
 10
301.655288
 20
176.781718
 11
302.030288
 21
177.156718
  0
LINE
  8
CSLAYER1
  6
CONTINUOUS
 62
     6
 10
301.655288
 20
174.656718
 11
301.655288
 21
176.781718
  0
LINE
  8
CSLAYER1
  6
CONTINUOUS
 62
     6
 10
302.405288
 20
176.781718
 11
302.030288
 21
177.156718
  0
LINE
  8
CSLAYER1
  6
CONTINUOUS
 62
     6
 10
302.405288
 20
174.656718
 11
302.405288
 21
176.781718
  0
LINE
  8
CSLAYER1
  6
CONTINUOUS
 62
     6
 10
299.155288
 20
176.781718
 11
299.530288
 21
177.156718
  0
LINE
  8
CSLAYER1
  6
CONTINUOUS
 62
     6
 10
299.155288
 20
174.656718
 11
299.155288
 21
176.781718
  0
LINE
  8
CSLAYER1
  6
CONTINUOUS
 62
     6
 10
299.905288
 20
176.781718
 11
299.530288
 21
177.156718
  0
LINE
  8
CSLAYER1
  6
CONTINUOUS
 62
     6
 10
299.905288
 20
174.656718
 11
299.905288
 21
176.781718
  0
LINE
  8
CSLAYER1
  6
CONTINUOUS
 62
     6
 10
319.530288
 20
172.656718
 11
319.530288
 21
170.656718
  0
LINE
  8
CSLAYER1
  6
CONTINUOUS
 62
     6
 10
289.530288
 20
172.656718
 11
289.530288
 21
170.656718
  0
LINE
  8
CSLAYER1
  6
CONTINUOUS
 62
     6
 10
92.615367
 20
170.656714
 11
97.115367
 21
170.656714
  0
LINE
  8
CSLAYER1
  6
CONTINUOUS
 62
     6
 10
120.615367
 20
170.656714
 11
123.115367
 21
170.656714
  0
LINE
  8
CSLAYER1
  6
CONTINUOUS
 62
     6
 10
155.748607
 20
172.656714
 11
155.748607
 21
135.656719
  0
ARC
  8
CSLAYER1
  6
CONTINUOUS
 62
     6
 10
157.748607
 20
135.656719
 40
2.000000
 50
180.000000
 51
270.000000
  0
LINE
  8
CSLAYER1
  6
CONTINUOUS
 62
     6
 10
157.748607
 20
174.656714
 11
174.048607
 21
174.656714
  0
LINE
  8
CSLAYER1
  6
CONTINUOUS
 62
     6
 10
170.748607
 20
133.656719
 11
170.748607
 21
174.656714
  0
LINE
  8
CSLAYER1
  6
CONTINUOUS
 62
     6
 10
159.748607
 20
144.774428
 11
159.748607
 21
135.062097
  0
LINE
  8
CSLAYER1
  6
CONTINUOUS
 62
     6
 10
155.748607
 20
144.774428
 11
159.748607
 21
144.774428
  0
LINE
  8
CSLAYER1
  6
CONTINUOUS
 62
     6
 10
159.748607
 20
135.062097
 11
155.839045
 21
135.062097
  0
LINE
  8
CSLAYER1
  6
CONTINUOUS
 62
     6
 10
167.748607
 20
174.656714
 11
167.748607
 21
177.156714
  0
LINE
  8
CSLAYER1
  6
CONTINUOUS
 62
     6
 10
166.998607
 20
174.656714
 11
166.998607
 21
177.156714
  0
LINE
  8
CSLAYER1
  6
CONTINUOUS
 62
     6
 10
166.998607
 20
177.156714
 11
167.748607
 21
177.156714
  0
ARC
  8
CSLAYER1
  6
CONTINUOUS
 62
     6
 10
157.748607
 20
172.656714
 40
2.000000
 50
90.000000
 51
180.000000
  0
LINE
  8
CSLAYER1
  6
CENTER
 62
     3
 10
304.530298
 20
178.616104
 11
304.530280
 21
124.111256
  0
LINE
  8
CSLAYER1
  6
CENTER
 62
     3
 10
279.575737
 20
148.656718
 11
329.484829
 21
148.656718
  0
CIRCLE
  8
CSLAYER1
  6
CONTINUOUS
 62
     6
 10
287.030276
 20
131.156711
 40
2.250000
  0
LINE
  8
CSLAYER1
  6
CENTER
 62
     3
 10
287.030283
 20
125.906711
 11
287.030283
 21
136.406725
  0
LINE
  8
CSLAYER1
  6
CENTER
 62
     3
 10
281.780276
 20
131.156719
 11
292.280290
 21
131.156716
  0
LINE
  8
CSLAYER1
  6
CONTINUOUS
 62
     6
 10
322.030288
 20
126.656718
 11
287.030288
 21
126.656718
  0
LINE
  8
CSLAYER1
  6
CONTINUOUS
 62
     6
 10
326.530288
 20
166.156718
 11
326.530288
 21
131.156718
  0
LINE
  8
CSLAYER1
  6
CONTINUOUS
 62
     6
 10
287.030288
 20
170.656718
 11
322.030288
 21
170.656718
  0
LINE
  8
CSLAYER1
  6
CONTINUOUS
 62
     6
 10
282.530288
 20
131.156718
 11
282.530288
 21
166.156718
  0
ARC
  8
CSLAYER1
  6
CONTINUOUS
 62
     6
 10
287.030288
 20
131.156718
 40
4.500000
 50
180.000000
 51
270.000000
  0
CIRCLE
  8
CSLAYER1
  6
CONTINUOUS
 62
     6
 10
322.030295
 20
131.156705
 40
2.250000
  0
LINE
  8
CSLAYER1
  6
CENTER
 62
     3
 10
327.280295
 20
131.156712
 11
316.780281
 21
131.156712
  0
LINE
  8
CSLAYER1
  6
CENTER
 62
     3
 10
322.030287
 20
125.906705
 11
322.030290
 21
136.406719
  0
ARC
  8
CSLAYER1
  6
CONTINUOUS
 62
     6
 10
322.030288
 20
131.156718
 40
4.500000
 50
270.000000
 51
360.000000
  0
CIRCLE
  8
CSLAYER1
  6
CONTINUOUS
 62
     6
 10
322.030301
 20
166.156725
 40
2.250000
  0
LINE
  8
CSLAYER1
  6
CENTER
 62
     3
 10
327.280301
 20
166.156716
 11
316.780287
 21
166.156720
  0
ARC
  8
CSLAYER1
  6
CONTINUOUS
 62
     6
 10
322.030288
 20
166.156718
 40
4.500000
 50
0.000000
 51
90.000000
  0
CIRCLE
  8
CSLAYER1
  6
CONTINUOUS
 62
     6
 10
287.030281
 20
166.156730
 40
2.250000
  0
LINE
  8
CSLAYER1
  6
CENTER
 62
     3
 10
281.780281
 20
166.156723
 11
292.280295
 21
166.156723
  0
LINE
  8
CSLAYER1
  6
CENTER
 62
     3
 10
287.030290
 20
171.406730
 11
287.030286
 21
160.906716
  0
ARC
  8
CSLAYER1
  6
CONTINUOUS
 62
     6
 10
287.030288
 20
166.156718
 40
4.500000
 50
90.000000
 51
180.000000
  0
ARC
  8
CSLAYER1
  6
CONTINUOUS
 62
     6
 10
304.530288
 20
148.656718
 40
17.500000
 50
-79.995029
 51
79.994992
  0
LINE
  8
CSLAYER1
  6
CENTER
 62
     3
 10
299.030283
 20
133.156720
 11
310.030283
 21
133.156716
  0
LINE
  8
CSLAYER1
  6
CENTER
 62
     3
 10
299.030293
 20
164.156720
 11
310.030293
 21
164.156716
  0
CIRCLE
  8
CSLAYER1
  6
CONTINUOUS
 62
     6
 10
304.530288
 20
148.656718
 40
2.500000
  0
CIRCLE
  8
CSLAYER1
  6
CONTINUOUS
 62
     6
 10
304.530288
 20
148.656718
 40
8.000000
  0
CIRCLE
  8
CSLAYER1
  6
CONTINUOUS
 62
     6
 10
304.530277
 20
133.156706
 40
2.750000
  0
ARC
  8
CSLAYER1
  6
CONTINUOUS
 62
     6
 10
304.530287
 20
133.156705
 40
1.527778
 50
-16.601584
 51
16.601577
  0
ARC
  8
CSLAYER1
  6
CONTINUOUS
 62
     6
 10
304.530287
 20
133.156705
 40
1.527778
 50
73.398422
 51
106.601583
  0
ARC
  8
CSLAYER1
  6
CONTINUOUS
 62
     6
 10
304.530287
 20
133.156705
 40
1.527778
 50
163.398438
 51
196.601572
  0
ARC
  8
CSLAYER1
  6
CONTINUOUS
 62
     6
 10
304.530287
 20
133.156705
 40
1.527778
 50
253.398406
 51
286.601595
  0
LINE
  8
CSLAYER1
  6
CONTINUOUS
 62
     6
 10
303.657260
 20
133.593219
 11
303.066201
 21
133.593219
  0
LINE
  8
CSLAYER1
  6
CONTINUOUS
 62
     6
 10
305.403313
 20
133.593219
 11
305.994372
 21
133.593219
  0
LINE
  8
CSLAYER1
  6
CONTINUOUS
 62
     6
 10
303.657260
 20
132.720192
 11
303.066201
 21
132.720192
  0
LINE
  8
CSLAYER1
  6
CONTINUOUS
 62
     6
 10
305.403313
 20
132.720192
 11
305.994372
 21
132.720192
  0
LINE
  8
CSLAYER1
  6
CONTINUOUS
 62
     6
 10
304.966800
 20
134.029709
 11
304.966800
 21
134.620814
  0
LINE
  8
CSLAYER1
  6
CONTINUOUS
 62
     6
 10
304.966800
 20
132.283702
 11
304.966800
 21
131.692597
  0
LINE
  8
CSLAYER1
  6
CONTINUOUS
 62
     6
 10
304.093774
 20
134.029709
 11
304.093774
 21
134.620814
  0
LINE
  8
CSLAYER1
  6
CONTINUOUS
 62
     6
 10
304.093774
 20
132.283702
 11
304.093774
 21
131.692597
  0
ARC
  8
CSLAYER1
  6
CONTINUOUS
 62
     6
 10
303.657260
 20
134.029709
 40
0.436508
 50
270.000001
 51
359.942691
  0
ARC
  8
CSLAYER1
  6
CONTINUOUS
 62
     6
 10
303.657260
 20
132.283702
 40
0.436508
 50
0.000010
 51
90.000016
  0
ARC
  8
CSLAYER1
  6
CONTINUOUS
 62
     6
 10
305.403313
 20
132.283702
 40
0.436508
 50
90.000016
 51
180.000005
  0
ARC
  8
CSLAYER1
  6
CONTINUOUS
 62
     6
 10
305.403313
 20
134.029709
 40
0.436508
 50
180.000005
 51
269.942654
  0
CIRCLE
  8
CSLAYER1
  6
CONTINUOUS
 62
     6
 10
304.530282
 20
164.156706
 40
2.750000
  0
ARC
  8
CSLAYER1
  6
CONTINUOUS
 62
     6
 10
304.530292
 20
164.156705
 40
1.527778
 50
-16.601584
 51
16.601577
  0
ARC
  8
CSLAYER1
  6
CONTINUOUS
 62
     6
 10
304.530292
 20
164.156705
 40
1.527778
 50
73.398422
 51
106.601583
  0
ARC
  8
CSLAYER1
  6
CONTINUOUS
 62
     6
 10
304.530292
 20
164.156705
 40
1.527778
 50
163.398438
 51
196.601572
  0
ARC
  8
CSLAYER1
  6
CONTINUOUS
 62
     6
 10
304.530292
 20
164.156705
 40
1.527778
 50
253.398406
 51
286.601595
  0
LINE
  8
CSLAYER1
  6
CONTINUOUS
 62
     6
 10
303.657265
 20
164.593219
 11
303.066206
 21
164.593219
  0
LINE
  8
CSLAYER1
  6
CONTINUOUS
 62
     6
 10
305.403318
 20
164.593219
 11
305.994377
 21
164.593219
  0
LINE
  8
CSLAYER1
  6
CONTINUOUS
 62
     6
 10
303.657265
 20
163.720192
 11
303.066206
 21
163.720192
  0
LINE
  8
CSLAYER1
  6
CONTINUOUS
 62
     6
 10
305.403318
 20
163.720192
 11
305.994377
 21
163.720192
  0
LINE
  8
CSLAYER1
  6
CONTINUOUS
 62
     6
 10
304.966805
 20
165.029709
 11
304.966805
 21
165.620814
  0
LINE
  8
CSLAYER1
  6
CONTINUOUS
 62
     6
 10
304.966805
 20
163.283702
 11
304.966805
 21
162.692597
  0
LINE
  8
CSLAYER1
  6
CONTINUOUS
 62
     6
 10
304.093778
 20
165.029709
 11
304.093778
 21
165.620814
  0
LINE
  8
CSLAYER1
  6
CONTINUOUS
 62
     6
 10
304.093778
 20
163.283702
 11
304.093778
 21
162.692597
  0
ARC
  8
CSLAYER1
  6
CONTINUOUS
 62
     6
 10
303.657265
 20
165.029709
 40
0.436508
 50
270.000001
 51
359.942691
  0
ARC
  8
CSLAYER1
  6
CONTINUOUS
 62
     6
 10
303.657265
 20
163.283702
 40
0.436508
 50
0.000010
 51
90.000016
  0
ARC
  8
CSLAYER1
  6
CONTINUOUS
 62
     6
 10
305.403318
 20
163.283702
 40
0.436508
 50
90.000016
 51
180.000005
  0
ARC
  8
CSLAYER1
  6
CONTINUOUS
 62
     6
 10
305.403318
 20
165.029709
 40
0.436508
 50
180.000005
 51
269.942654
  0
CIRCLE
  8
CSLAYER1
  6
CONTINUOUS
 62
     6
 10
304.530283
 20
133.156718
 40
3.500000
  0
CIRCLE
  8
CSLAYER1
  6
CONTINUOUS
 62
     6
 10
304.530293
 20
164.156718
 40
3.500000
  0
ARC
  8
CSLAYER1
  6
CONTINUOUS
 62
     6
 10
304.530288
 20
148.656718
 40
17.500000
 50
100.004971
 51
259.994992
  0
LINE
  8
CSLAYER1
  6
CONTINUOUS
 62
     6
 10
327.030283
 20
143.656718
 11
327.030283
 21
153.656718
  0
LINE
  8
CSLAYER1
  6
CONTINUOUS
 62
     6
 10
326.530288
 20
154.156712
 11
327.030283
 21
153.656718
  0
LINE
  8
CSLAYER1
  6
CONTINUOUS
 62
     6
 10
327.030283
 20
143.656718
 11
326.530288
 21
143.156723
  0
LINE
  8
CSLAYER1
  6
CONTINUOUS
 62
     6
 10
282.030290
 20
143.656732
 11
282.030296
 21
153.656732
  0
LINE
  8
CSLAYER1
  6
CONTINUOUS
 62
     6
 10
282.530292
 20
154.156727
 11
282.030296
 21
153.656732
  0
LINE
  8
CSLAYER1
  6
CONTINUOUS
 62
     6
 10
282.030290
 20
143.656732
 11
282.530285
 21
143.156737
  0
CIRCLE
  8
CSLAYER1
  6
CONTINUOUS
 62
     6
 10
304.530288
 20
148.656718
 40
4.000000
  0
CIRCLE
  8
CSLAYER1
  6
CONTINUOUS
 62
     6
 10
307.992752
 20
142.642458
 40
0.727272
  0
ARC
  8
CSLAYER1
  6
CONTINUOUS
 62
     6
 10
307.992752
 20
142.642458
 40
1.558646
 50
50.235851
 51
203.481549
  0
LINE
  8
CSLAYER1
  6
CONTINUOUS
 62
     6
 10
306.563179
 20
142.021414
 11
306.873763
 21
141.007670
  0
CIRCLE
  8
CSLAYER1
  6
CONTINUOUS
 62
     6
 10
301.067819
 20
142.642458
 40
0.727272
  0
ARC
  8
CSLAYER1
  6
CONTINUOUS
 62
     6
 10
301.067819
 20
142.642458
 40
1.558646
 50
-23.481547
 51
129.764151
  0
LINE
  8
CSLAYER1
  6
CONTINUOUS
 62
     6
 10
302.497391
 20
142.021414
 11
302.186807
 21
141.007670
  0
ARC
  8
CSLAYER1
  6
CONTINUOUS
 62
     6
 10
304.530288
 20
148.233719
 40
6.968438
 50
-37.903067
 51
217.903051
  0
ARC
  8
CSLAYER1
  6
CONTINUOUS
 62
     6
 10
309.454885
 20
144.399612
 40
0.727272
 50
230.236329
 51
322.096590
  0
ARC
  8
CSLAYER1
  6
CONTINUOUS
 62
     6
 10
299.605685
 20
144.399612
 40
0.727272
 50
217.903413
 51
309.763730
  0
ARC
  8
CSLAYER1
  6
CONTINUOUS
 62
     6
 10
105.615367
 20
148.656714
 40
15.000000
 50
-180.000000
 51
0.000000
  0
ARC
  8
CSLAYER1
  6
CONTINUOUS
 62
     6
 10
105.615367
 20
148.656714
 40
12.000000
 50
195.000000
 51
245.000000
  0
LINE
  8
CSLAYER1
  6
CONTINUOUS
 62
     6
 10
100.543948
 20
137.781020
 11
99.276093
 21
135.062097
  0
LINE
  8
CSLAYER1
  6
CONTINUOUS
 62
     6
 10
94.024257
 20
145.550885
 11
91.126480
 21
144.774428
  0
ARC
  8
CSLAYER1
  6
CONTINUOUS
 62
     6
 10
105.615367
 20
148.656714
 40
12.000000
 50
295.000000
 51
345.000000
  0
LINE
  8
CSLAYER1
  6
CONTINUOUS
 62
     6
 10
110.686786
 20
137.781020
 11
111.954641
 21
135.062097
  0
LINE
  8
CSLAYER1
  6
CONTINUOUS
 62
     6
 10
117.206477
 20
145.550885
 11
120.104255
 21
144.774428
  0
LINE
  8
CSLAYER1
  6
CONTINUOUS
 62
     6
 10
90.615367
 20
148.656714
 11
90.615367
 21
172.656714
  0
LINE
  8
CSLAYER1
  6
CONTINUOUS
 62
     6
 10
92.615367
 20
174.656714
 11
118.615367
 21
174.656714
  0
LINE
  8
CSLAYER1
  6
CONTINUOUS
 62
     6
 10
120.615367
 20
148.656714
 11
120.615367
 21
172.656714
  0
ARC
  8
CSLAYER1
  6
CONTINUOUS
 62
     6
 10
92.615367
 20
172.656714
 40
2.000000
 50
90.000000
 51
180.000000
  0
ARC
  8
CSLAYER1
  6
CONTINUOUS
 62
     6
 10
118.615367
 20
172.656714
 40
2.000000
 50
0.000000
 51
90.000000
  0
LINE
  8
CSLAYER1
  6
CONTINUOUS
 62
     6
 10
94.115367
 20
172.656714
 11
117.115367
 21
172.656714
  0
LINE
  8
CSLAYER1
  6
CONTINUOUS
 62
     6
 10
99.115367
 20
168.656714
 11
112.115367
 21
168.656714
  0
LINE
  8
CSLAYER1
  6
CONTINUOUS
 62
     6
 10
92.615367
 20
170.656714
 11
92.615367
 21
171.156714
  0
ARC
  8
CSLAYER1
  6
CONTINUOUS
 62
     6
 10
94.115367
 20
171.156714
 40
1.500000
 50
90.000000
 51
180.000000
  0
LINE
  8
CSLAYER1
  6
CONTINUOUS
 62
     6
 10
118.615367
 20
170.656714
 11
118.615367
 21
171.156714
  0
ARC
  8
CSLAYER1
  6
CONTINUOUS
 62
     6
 10
117.115367
 20
171.156714
 40
1.500000
 50
0.000000
 51
90.000000
  0
LINE
  8
CSLAYER1
  6
CONTINUOUS
 62
     6
 10
92.615367
 20
170.656714
 11
97.115367
 21
170.656714
  0
LINE
  8
CSLAYER1
  6
CONTINUOUS
 62
     6
 10
114.115367
 20
170.656714
 11
118.615367
 21
170.656714
  0
ARC
  8
CSLAYER1
  6
CONTINUOUS
 62
     6
 10
112.115367
 20
169.656714
 40
1.000000
 50
270.000000
 51
360.000000
  0
ARC
  8
CSLAYER1
  6
CONTINUOUS
 62
     6
 10
114.115367
 20
169.656714
 40
1.000000
 50
90.000000
 51
180.000000
  0
ARC
  8
CSLAYER1
  6
CONTINUOUS
 62
     6
 10
99.115367
 20
169.656714
 40
1.000000
 50
180.000000
 51
270.000000
  0
ARC
  8
CSLAYER1
  6
CONTINUOUS
 62
     6
 10
97.115367
 20
169.656714
 40
1.000000
 50
0.000000
 51
90.000000
  0
LINE
  8
CSLAYER1
  6
CONTINUOUS
 62
     6
 10
104.865367
 20
168.656714
 11
104.865367
 21
170.156714
  0
LINE
  8
CSLAYER1
  6
CONTINUOUS
 62
     6
 10
105.240367
 20
176.781714
 11
105.615367
 21
177.156714
  0
LINE
  8
CSLAYER1
  6
CONTINUOUS
 62
     6
 10
106.365367
 20
168.656714
 11
106.365367
 21
170.156714
  0
TEXT
  8
CSLAYER1
 62
     3
 10
109.669670
 20
166.247055
 40
2.000000
 41
1.500000
  1
1
 50
0.000000
 51
10.000000
  7
JX_FONT
 72
     5
 11
111.669670
 21
166.247055
  0
TEXT
  8
CSLAYER1
 62
     3
 10
107.169670
 20
166.247055
 40
2.000000
 41
1.500000
  1
2
 50
0.000000
 51
10.000000
  7
JX_FONT
 72
     5
 11
109.169670
 21
166.247055
  0
TEXT
  8
CSLAYER1
 62
     3
 10
104.669670
 20
166.247055
 40
2.000000
 41
1.500000
  1
3
 50
0.000000
 51
10.000000
  7
JX_FONT
 72
     5
 11
106.669670
 21
166.247055
  0
TEXT
  8
CSLAYER1
 62
     3
 10
102.169670
 20
166.247055
 40
2.000000
 41
1.500000
  1
4
 50
0.000000
 51
10.000000
  7
JX_FONT
 72
     5
 11
104.169670
 21
166.247055
  0
TEXT
  8
CSLAYER1
 62
     3
 10
99.669670
 20
166.247055
 40
2.000000
 41
1.500000
  1
5
 50
0.000000
 51
10.000000
  7
JX_FONT
 72
     5
 11
101.669670
 21
166.247055
  0
CIRCLE
  8
CSLAYER1
  6
CONTINUOUS
 62
     6
 10
105.615367
 20
148.656714
 40
7.500000
  0
LINE
  8
CSLAYER1
  6
CONTINUOUS
 62
     6
 10
109.615367
 20
148.156714
 11
101.615367
 21
148.156714
  0
LINE
  8
CSLAYER1
  6
CONTINUOUS
 62
     6
 10
101.615367
 20
148.156714
 11
101.615367
 21
149.156714
  0
LINE
  8
CSLAYER1
  6
CONTINUOUS
 62
     6
 10
101.615367
 20
149.156714
 11
109.615367
 21
149.156714
  0
LINE
  8
CSLAYER1
  6
CONTINUOUS
 62
     6
 10
109.615367
 20
149.156714
 11
109.615367
 21
148.156714
  0
ARC
  8
CSLAYER1
  6
CONTINUOUS
 62
     6
 10
105.615367
 20
148.656714
 40
9.250000
 50
257.513110
 51
282.486890
  0
LINE
  8
CSLAYER1
  6
CONTINUOUS
 62
     6
 10
107.615367
 20
139.625518
 11
107.615367
 21
141.428298
  0
LINE
  8
CSLAYER1
  6
CONTINUOUS
 62
     6
 10
103.615367
 20
139.625518
 11
103.615367
 21
141.428298
  0
ARC
  8
CSLAYER1
  6
CONTINUOUS
 62
     6
 10
105.615367
 20
148.656714
 40
9.250000
 50
17.513110
 51
42.486890
  0
LINE
  8
CSLAYER1
  6
CONTINUOUS
 62
     6
 10
112.436612
 20
154.904362
 11
110.875359
 21
154.002973
  0
LINE
  8
CSLAYER1
  6
CONTINUOUS
 62
     6
 10
114.436612
 20
151.440261
 11
112.875359
 21
150.538871
  0
ARC
  8
CSLAYER1
  6
CONTINUOUS
 62
     6
 10
105.615367
 20
148.656714
 40
9.250000
 50
137.513110
 51
162.486890
  0
LINE
  8
CSLAYER1
  6
CONTINUOUS
 62
     6
 10
96.794122
 20
151.440261
 11
98.355375
 21
150.538871
  0
LINE
  8
CSLAYER1
  6
CONTINUOUS
 62
     6
 10
98.794122
 20
154.904362
 11
100.355375
 21
154.002973
  0
LINE
  8
CSLAYER1
  6
CONTINUOUS
 62
     6
 10
104.865367
 20
170.156714
 11
105.240367
 21
170.656714
  0
LINE
  8
CSLAYER1
  6
CONTINUOUS
 62
     6
 10
105.240367
 20
170.656714
 11
105.240367
 21
172.656714
  0
LINE
  8
CSLAYER1
  6
CONTINUOUS
 62
     6
 10
105.240367
 20
174.656714
 11
105.240367
 21
176.781714
  0
LINE
  8
CSLAYER1
  6
CONTINUOUS
 62
     6
 10
105.990367
 20
176.781714
 11
105.615367
 21
177.156714
  0
LINE
  8
CSLAYER1
  6
CONTINUOUS
 62
     6
 10
106.365367
 20
170.156714
 11
105.990367
 21
170.656714
  0
LINE
  8
CSLAYER1
  6
CONTINUOUS
 62
     6
 10
105.990367
 20
170.656714
 11
105.990367
 21
172.656714
  0
LINE
  8
CSLAYER1
  6
CONTINUOUS
 62
     6
 10
105.990367
 20
174.656714
 11
105.990367
 21
176.781714
  0
LINE
  8
CSLAYER1
  6
CONTINUOUS
 62
     6
 10
102.365367
 20
168.656714
 11
102.365367
 21
170.156714
  0
LINE
  8
CSLAYER1
  6
CONTINUOUS
 62
     6
 10
102.740367
 20
176.781714
 11
103.115367
 21
177.156714
  0
LINE
  8
CSLAYER1
  6
CONTINUOUS
 62
     6
 10
103.865367
 20
168.656714
 11
103.865367
 21
170.156714
  0
LINE
  8
CSLAYER1
  6
CONTINUOUS
 62
     6
 10
102.365367
 20
170.156714
 11
102.740367
 21
170.656714
  0
LINE
  8
CSLAYER1
  6
CONTINUOUS
 62
     6
 10
102.740367
 20
170.656714
 11
102.740367
 21
172.656714
  0
LINE
  8
CSLAYER1
  6
CONTINUOUS
 62
     6
 10
102.740367
 20
174.656714
 11
102.740367
 21
176.781714
  0
LINE
  8
CSLAYER1
  6
CONTINUOUS
 62
     6
 10
103.490367
 20
176.781714
 11
103.115367
 21
177.156714
  0
LINE
  8
CSLAYER1
  6
CONTINUOUS
 62
     6
 10
103.865367
 20
170.156714
 11
103.490367
 21
170.656714
  0
LINE
  8
CSLAYER1
  6
CONTINUOUS
 62
     6
 10
103.490367
 20
170.656714
 11
103.490367
 21
172.656714
  0
LINE
  8
CSLAYER1
  6
CONTINUOUS
 62
     6
 10
103.490367
 20
174.656714
 11
103.490367
 21
176.781714
  0
LINE
  8
CSLAYER1
  6
CONTINUOUS
 62
     6
 10
99.865367
 20
168.656714
 11
99.865367
 21
170.156714
  0
LINE
  8
CSLAYER1
  6
CONTINUOUS
 62
     6
 10
100.240367
 20
176.781714
 11
100.615367
 21
177.156714
  0
LINE
  8
CSLAYER1
  6
CONTINUOUS
 62
     6
 10
101.365367
 20
168.656714
 11
101.365367
 21
170.156714
  0
LINE
  8
CSLAYER1
  6
CONTINUOUS
 62
     6
 10
99.865367
 20
170.156714
 11
100.240367
 21
170.656714
  0
LINE
  8
CSLAYER1
  6
CONTINUOUS
 62
     6
 10
100.240367
 20
170.656714
 11
100.240367
 21
172.656714
  0
LINE
  8
CSLAYER1
  6
CONTINUOUS
 62
     6
 10
100.240367
 20
174.656714
 11
100.240367
 21
176.781714
  0
LINE
  8
CSLAYER1
  6
CONTINUOUS
 62
     6
 10
100.990367
 20
176.781714
 11
100.615367
 21
177.156714
  0
LINE
  8
CSLAYER1
  6
CONTINUOUS
 62
     6
 10
101.365367
 20
170.156714
 11
100.990367
 21
170.656714
  0
LINE
  8
CSLAYER1
  6
CONTINUOUS
 62
     6
 10
100.990367
 20
170.656714
 11
100.990367
 21
172.656714
  0
LINE
  8
CSLAYER1
  6
CONTINUOUS
 62
     6
 10
100.990367
 20
174.656714
 11
100.990367
 21
176.781714
  0
LINE
  8
CSLAYER1
  6
CONTINUOUS
 62
     6
 10
108.865367
 20
168.656714
 11
108.865367
 21
170.156714
  0
LINE
  8
CSLAYER1
  6
CONTINUOUS
 62
     6
 10
108.490367
 20
176.781714
 11
108.115367
 21
177.156714
  0
LINE
  8
CSLAYER1
  6
CONTINUOUS
 62
     6
 10
107.365367
 20
168.656714
 11
107.365367
 21
170.156714
  0
LINE
  8
CSLAYER1
  6
CONTINUOUS
 62
     6
 10
108.865367
 20
170.156714
 11
108.490367
 21
170.656714
  0
LINE
  8
CSLAYER1
  6
CONTINUOUS
 62
     6
 10
108.490367
 20
170.656714
 11
108.490367
 21
172.656714
  0
LINE
  8
CSLAYER1
  6
CONTINUOUS
 62
     6
 10
108.490367
 20
174.656714
 11
108.490367
 21
176.781714
  0
LINE
  8
CSLAYER1
  6
CONTINUOUS
 62
     6
 10
107.740367
 20
176.781714
 11
108.115367
 21
177.156714
  0
LINE
  8
CSLAYER1
  6
CONTINUOUS
 62
     6
 10
107.365367
 20
170.156714
 11
107.740367
 21
170.656714
  0
LINE
  8
CSLAYER1
  6
CONTINUOUS
 62
     6
 10
107.740367
 20
170.656714
 11
107.740367
 21
172.656714
  0
LINE
  8
CSLAYER1
  6
CONTINUOUS
 62
     6
 10
107.740367
 20
174.656714
 11
107.740367
 21
176.781714
  0
LINE
  8
CSLAYER1
  6
CONTINUOUS
 62
     6
 10
111.365367
 20
168.656714
 11
111.365367
 21
170.156714
  0
LINE
  8
CSLAYER1
  6
CONTINUOUS
 62
     6
 10
110.990367
 20
176.781714
 11
110.615367
 21
177.156714
  0
LINE
  8
CSLAYER1
  6
CONTINUOUS
 62
     6
 10
109.865367
 20
168.656714
 11
109.865367
 21
170.156714
  0
LINE
  8
CSLAYER1
  6
CONTINUOUS
 62
     6
 10
111.365367
 20
170.156714
 11
110.990367
 21
170.656714
  0
LINE
  8
CSLAYER1
  6
CONTINUOUS
 62
     6
 10
110.990367
 20
170.656714
 11
110.990367
 21
172.656714
  0
LINE
  8
CSLAYER1
  6
CONTINUOUS
 62
     6
 10
110.990367
 20
174.656714
 11
110.990367
 21
176.781714
  0
LINE
  8
CSLAYER1
  6
CONTINUOUS
 62
     6
 10
110.240367
 20
176.781714
 11
110.615367
 21
177.156714
  0
LINE
  8
CSLAYER1
  6
CONTINUOUS
 62
     6
 10
109.865367
 20
170.156714
 11
110.240367
 21
170.656714
  0
LINE
  8
CSLAYER1
  6
CONTINUOUS
 62
     6
 10
110.240367
 20
170.656714
 11
110.240367
 21
172.656714
  0
LINE
  8
CSLAYER1
  6
CONTINUOUS
 62
     6
 10
110.240367
 20
174.656714
 11
110.240367
 21
176.781714
  0
LINE
  8
CSLAYER1
  6
CONTINUOUS
 62
     6
 10
174.048607
 20
154.572783
 11
184.048607
 21
154.572783
  0
LINE
  8
CSLAYER1
  6
CONTINUOUS
 62
     6
 10
174.048607
 20
142.740623
 11
184.048607
 21
142.740623
  0
LINE
  8
CSLAYER1
  6
CONTINUOUS
 62
     6
 10
175.798607
 20
148.906719
 11
176.798607
 21
148.906719
  0
LINE
  8
CSLAYER1
  6
CONTINUOUS
 62
     6
 10
175.798607
 20
148.406719
 11
176.798607
 21
148.406719
  0
ARC
  8
CSLAYER1
  6
CONTINUOUS
 62
     6
 10
178.298607
 20
148.656719
 40
0.250000
 50
-90.000000
 51
90.000000
  0
ARC
  8
CSLAYER1
  6
CONTINUOUS
 62
     6
 10
175.798607
 20
148.656719
 40
0.250000
 50
90.000000
 51
270.000000
  0
LINE
  8
CSLAYER1
  6
CONTINUOUS
 62
     6
 10
176.798607
 20
147.406719
 11
176.798607
 21
148.406719
  0
LINE
  8
CSLAYER1
  6
CONTINUOUS
 62
     6
 10
177.298607
 20
147.406719
 11
177.298607
 21
148.406719
  0
ARC
  8
CSLAYER1
  6
CONTINUOUS
 62
     6
 10
177.048607
 20
149.906719
 40
0.250000
 50
0.000000
 51
180.000000
  0
ARC
  8
CSLAYER1
  6
CONTINUOUS
 62
     6
 10
177.048607
 20
147.406719
 40
0.250000
 50
180.000000
 51
360.000000
  0
LINE
  8
CSLAYER1
  6
CONTINUOUS
 62
     6
 10
177.298607
 20
148.906719
 11
178.298607
 21
148.906719
  0
LINE
  8
CSLAYER1
  6
CONTINUOUS
 62
     6
 10
177.298607
 20
148.406719
 11
178.298607
 21
148.406719
  0
LINE
  8
CSLAYER1
  6
CONTINUOUS
 62
     6
 10
177.298607
 20
148.906719
 11
177.298607
 21
149.906719
  0
LINE
  8
CSLAYER1
  6
CONTINUOUS
 62
     6
 10
176.798607
 20
148.906719
 11
176.798607
 21
149.906719
  0
LINE
  8
CSLAYER1
  6
CONTINUOUS
 62
     6
 10
174.048607
 20
210.613519
 11
174.048607
 21
244.613519
  0
LINE
  8
CSLAYER1
  6
CONTINUOUS
 62
     6
 10
184.048607
 20
244.613519
 11
174.048607
 21
244.613519
  0
LINE
  8
CSLAYER1
  6
CONTINUOUS
 62
     6
 10
184.048607
 20
210.613519
 11
174.048607
 21
210.613519
  0
ARC
  8
CSLAYER1
  6
CONTINUOUS
 62
     6
 10
157.748607
 20
240.613519
 40
2.000000
 50
90.000000
 51
180.000000
  0
LINE
  8
CSLAYER1
  6
CONTINUOUS
 62
     6
 10
157.748607
 20
242.613519
 11
174.048607
 21
242.613519
  0
LINE
  8
CSLAYER1
  6
CONTINUOUS
 62
     6
 10
174.048607
 20
240.113519
 11
171.048607
 21
240.113519
  0
LINE
  8
CSLAYER1
  6
CONTINUOUS
 62
     6
 10
171.048607
 20
240.113519
 11
171.048607
 21
242.613519
  0
LINE
  8
CSLAYER1
  6
CONTINUOUS
 62
     6
 10
174.048607
 20
212.613519
 11
157.748607
 21
212.613519
  0
ARC
  8
CSLAYER1
  6
CONTINUOUS
 62
     6
 10
157.748607
 20
214.613519
 40
2.000000
 50
180.000000
 51
270.000000
  0
LINE
  8
CSLAYER1
  6
CONTINUOUS
 62
     6
 10
155.748607
 20
214.613519
 11
155.748607
 21
240.613519
  0
LINE
  8
CSLAYER1
  6
CONTINUOUS
 62
     6
 10
174.048607
 20
236.613519
 11
171.048607
 21
236.613519
  0
LINE
  8
CSLAYER1
  6
CONTINUOUS
 62
     6
 10
171.048607
 20
236.613519
 11
171.048607
 21
218.613519
  0
LINE
  8
CSLAYER1
  6
CONTINUOUS
 62
     6
 10
171.048607
 20
218.613519
 11
174.048607
 21
218.613519
  0
LINE
  8
CSLAYER1
  6
CONTINUOUS
 62
     6
 10
171.048607
 20
220.363519
 11
163.948607
 21
220.363519
  0
LINE
  8
CSLAYER1
  6
CONTINUOUS
 62
     6
 10
163.948607
 20
220.363519
 11
163.948607
 21
234.863519
  0
LINE
  8
CSLAYER1
  6
CONTINUOUS
 62
     6
 10
163.948607
 20
234.863519
 11
171.048607
 21
234.863519
  0
LINE
  8
CSLAYER1
  6
CONTINUOUS
 62
     6
 10
168.368607
 20
233.013519
 11
167.728607
 21
233.013519
  0
LINE
  8
CSLAYER1
  6
CONTINUOUS
 62
     6
 10
167.728607
 20
233.013519
 11
167.728607
 21
232.373519
  0
LINE
  8
CSLAYER1
  6
CONTINUOUS
 62
     6
 10
167.728607
 20
232.373519
 11
168.368607
 21
232.373519
  0
LINE
  8
CSLAYER1
  6
CONTINUOUS
 62
     6
 10
168.368607
 20
232.373519
 11
168.368607
 21
233.013519
  0
LINE
  8
CSLAYER1
  6
CONTINUOUS
 62
     6
 10
168.368607
 20
230.473519
 11
167.728607
 21
230.473519
  0
LINE
  8
CSLAYER1
  6
CONTINUOUS
 62
     6
 10
167.728607
 20
230.473519
 11
167.728607
 21
229.833519
  0
LINE
  8
CSLAYER1
  6
CONTINUOUS
 62
     6
 10
167.728607
 20
229.833519
 11
168.368607
 21
229.833519
  0
LINE
  8
CSLAYER1
  6
CONTINUOUS
 62
     6
 10
168.368607
 20
229.833519
 11
168.368607
 21
230.473519
  0
LINE
  8
CSLAYER1
  6
CONTINUOUS
 62
     6
 10
168.368607
 20
227.933519
 11
167.728607
 21
227.933519
  0
LINE
  8
CSLAYER1
  6
CONTINUOUS
 62
     6
 10
167.728607
 20
227.933519
 11
167.728607
 21
227.293519
  0
LINE
  8
CSLAYER1
  6
CONTINUOUS
 62
     6
 10
167.728607
 20
227.293519
 11
168.368607
 21
227.293519
  0
LINE
  8
CSLAYER1
  6
CONTINUOUS
 62
     6
 10
168.368607
 20
227.293519
 11
168.368607
 21
227.933519
  0
LINE
  8
CSLAYER1
  6
CONTINUOUS
 62
     6
 10
168.368607
 20
225.393519
 11
167.728607
 21
225.393519
  0
LINE
  8
CSLAYER1
  6
CONTINUOUS
 62
     6
 10
167.728607
 20
225.393519
 11
167.728607
 21
224.753519
  0
LINE
  8
CSLAYER1
  6
CONTINUOUS
 62
     6
 10
167.728607
 20
224.753519
 11
168.368607
 21
224.753519
  0
LINE
  8
CSLAYER1
  6
CONTINUOUS
 62
     6
 10
168.368607
 20
224.753519
 11
168.368607
 21
225.393519
  0
LINE
  8
CSLAYER1
  6
CONTINUOUS
 62
     6
 10
168.368607
 20
222.853519
 11
167.728607
 21
222.853519
  0
LINE
  8
CSLAYER1
  6
CONTINUOUS
 62
     6
 10
167.728607
 20
222.853519
 11
167.728607
 21
222.213519
  0
LINE
  8
CSLAYER1
  6
CONTINUOUS
 62
     6
 10
167.728607
 20
222.213519
 11
168.368607
 21
222.213519
  0
LINE
  8
CSLAYER1
  6
CONTINUOUS
 62
     6
 10
168.368607
 20
222.213519
 11
168.368607
 21
222.853519
  0
LINE
  8
CSLAYER1
  6
CONTINUOUS
 62
     6
 10
171.048607
 20
215.113519
 11
171.048607
 21
212.613519
  0
LINE
  8
CSLAYER1
  6
CONTINUOUS
 62
     6
 10
171.048607
 20
215.113519
 11
174.048607
 21
215.113519
  0
LINE
  8
CSLAYER1
  6
CONTINUOUS
 62
     6
 10
174.048607
 20
84.699919
 11
157.748607
 21
84.699919
  0
ARC
  8
CSLAYER1
  6
CONTINUOUS
 62
     6
 10
157.748607
 20
82.699919
 40
2.000000
 50
90.000000
 51
180.000000
  0
LINE
  8
CSLAYER1
  6
CONTINUOUS
 62
     6
 10
155.748607
 20
82.699919
 11
155.748607
 21
56.699919
  0
ARC
  8
CSLAYER1
  6
CONTINUOUS
 62
     6
 10
157.748607
 20
56.699919
 40
2.000000
 50
180.000000
 51
270.000000
  0
LINE
  8
CSLAYER1
  6
CONTINUOUS
 62
     6
 10
157.748607
 20
54.699919
 11
174.048607
 21
54.699919
  0
LINE
  8
CSLAYER1
  6
CONTINUOUS
 62
     6
 10
174.048607
 20
57.654888
 11
159.572825
 21
57.654888
  0
LINE
  8
CSLAYER1
  6
CONTINUOUS
 62
     6
 10
159.572825
 20
58.551022
 11
165.555949
 21
58.551022
  0
LINE
  8
CSLAYER1
  6
CONTINUOUS
 62
     6
 10
165.555949
 20
58.551022
 11
165.555949
 21
59.579530
  0
LINE
  8
CSLAYER1
  6
CONTINUOUS
 62
     6
 10
165.555949
 20
59.579530
 11
159.572825
 21
59.579530
  0
LINE
  8
CSLAYER1
  6
CONTINUOUS
 62
     6
 10
159.572825
 20
61.214309
 11
174.048607
 21
61.214309
  0
LINE
  8
CSLAYER1
  6
CONTINUOUS
 62
     6
 10
159.572825
 20
63.360640
 11
155.748607
 21
63.360640
  0
LINE
  8
CSLAYER1
  6
CONTINUOUS
 62
     6
 10
159.572825
 20
63.360640
 11
159.572825
 21
55.211025
  0
LINE
  8
CSLAYER1
  6
CONTINUOUS
 62
     6
 10
159.572825
 20
55.211025
 11
156.413243
 21
55.211025
  0
LINE
  8
CSLAYER1
  6
CONTINUOUS
 62
     6
 10
174.048607
 20
78.185528
 11
159.572825
 21
78.185528
  0
LINE
  8
CSLAYER1
  6
CONTINUOUS
 62
     6
 10
159.572825
 20
76.039197
 11
155.748607
 21
76.039197
  0
LINE
  8
CSLAYER1
  6
CONTINUOUS
 62
     6
 10
159.572825
 20
76.039197
 11
159.572825
 21
84.188812
  0
LINE
  8
CSLAYER1
  6
CONTINUOUS
 62
     6
 10
159.572825
 20
84.188812
 11
156.413243
 21
84.188812
  0
LINE
  8
CSLAYER1
  6
CONTINUOUS
 62
     6
 10
159.572825
 20
81.744949
 11
174.048607
 21
81.744949
  0
LINE
  8
CSLAYER1
  6
CONTINUOUS
 62
     6
 10
174.048607
 20
52.699919
 11
174.048607
 21
86.699919
  0
LINE
  8
CSLAYER1
  6
CONTINUOUS
 62
     6
 10
184.048607
 20
86.699919
 11
174.048607
 21
86.699919
  0
LINE
  8
CSLAYER1
  6
CONTINUOUS
 62
     6
 10
184.048607
 20
52.699919
 11
174.048607
 21
52.699919
  0
LINE
  8
CSLAYER1
  6
CONTINUOUS
 62
     6
 10
237.048607
 20
126.656719
 11
237.048607
 21
170.656719
  0
LINE
  8
CSLAYER1
  6
CONTINUOUS
 62
     6
 10
242.048607
 20
126.656719
 11
242.048607
 21
170.656719
  0
LINE
  8
CSLAYER1
  6
CONTINUOUS
 62
     6
 10
244.048607
 20
131.156718
 11
244.048607
 21
166.156719
  0
LINE
  8
CSLAYER1
  6
CONTINUOUS
 62
     6
 10
260.048607
 20
146.156719
 11
260.048607
 21
151.156719
  0
LINE
  8
CSLAYER1
  6
CONTINUOUS
 62
     6
 10
244.048607
 20
166.156719
 11
242.048607
 21
166.156719
  0
LINE
  8
CSLAYER1
  6
CONTINUOUS
 62
     6
 10
242.048607
 20
170.656719
 11
237.048607
 21
170.656719
  0
LINE
  8
CSLAYER1
  6
CONTINUOUS
 62
     6
 10
184.048607
 20
130.656719
 11
184.048607
 21
146.156719
  0
LINE
  8
CSLAYER1
  6
CONTINUOUS
 62
     6
 10
237.048607
 20
168.656719
 11
199.048607
 21
168.656719
  0
LINE
  8
CSLAYER1
  6
CONTINUOUS
 62
     6
 10
244.048607
 20
131.156719
 11
242.048607
 21
131.156719
  0
LINE
  8
CSLAYER1
  6
CONTINUOUS
 62
     6
 10
242.048607
 20
126.656719
 11
237.048607
 21
126.656719
  0
LINE
  8
CSLAYER1
  6
CONTINUOUS
 62
     6
 10
237.048607
 20
128.656719
 11
199.048607
 21
128.656719
  0
LINE
  8
CSLAYER1
  6
CONTINUOUS
 62
     6
 10
260.048607
 20
151.156719
 11
244.048607
 21
151.156719
  0
LINE
  8
CSLAYER1
  6
CONTINUOUS
 62
     6
 10
260.048607
 20
146.156719
 11
244.048607
 21
146.156719
  0
LINE
  8
CSLAYER1
  6
CONTINUOUS
 62
     6
 10
198.048607
 20
129.656719
 11
198.048607
 21
167.656719
  0
LINE
  8
CSLAYER1
  6
CONTINUOUS
 62
     6
 10
199.048607
 20
128.656719
 11
198.048607
 21
129.656719
  0
LINE
  8
CSLAYER1
  6
CONTINUOUS
 62
     6
 10
199.048607
 20
168.656719
 11
198.048607
 21
167.656719
  0
LINE
  8
CSLAYER1
  6
CONTINUOUS
 62
     6
 10
199.048607
 20
128.656719
 11
199.048607
 21
168.656719
  0
ARC
  8
CSLAYER1
  6
CONTINUOUS
 62
     6
 10
185.048607
 20
130.656719
 40
1.000000
 50
180.000000
 51
270.000000
  0
ARC
  8
CSLAYER1
  6
CONTINUOUS
 62
     6
 10
185.048607
 20
166.656719
 40
1.000000
 50
90.000000
 51
180.000000
  0
LINE
  8
CSLAYER1
  6
CONTINUOUS
 62
     6
 10
198.048607
 20
167.656719
 11
185.048607
 21
167.656719
  0
LINE
  8
CSLAYER1
  6
CONTINUOUS
 62
     6
 10
198.048607
 20
129.656719
 11
185.048607
 21
129.656719
  0
LINE
  8
CSLAYER1
  6
CONTINUOUS
 62
     3
 10
233.048607
 20
153.036614
 11
203.048607
 21
153.036614
  0
LINE
  8
CSLAYER1
  6
CONTINUOUS
 62
     3
 10
234.048607
 20
154.036614
 11
234.048607
 21
168.656719
  0
LINE
  8
CSLAYER1
  6
CONTINUOUS
 62
     3
 10
202.048607
 20
154.036614
 11
202.048607
 21
168.656719
  0
ARC
  8
CSLAYER1
  6
CONTINUOUS
 62
     3
 10
203.048607
 20
154.036614
 40
1.000000
 50
180.000000
 51
270.000000
  0
ARC
  8
CSLAYER1
  6
CONTINUOUS
 62
     3
 10
233.048607
 20
154.036614
 40
1.000000
 50
270.000000
 51
360.000000
  0
LINE
  8
CSLAYER1
  6
CONTINUOUS
 62
     6
 10
198.048607
 20
154.656719
 11
186.048607
 21
154.656719
  0
LINE
  8
CSLAYER1
  6
CONTINUOUS
 62
     6
 10
186.048607
 20
154.656719
 11
186.048607
 21
142.656719
  0
LINE
  8
CSLAYER1
  6
CONTINUOUS
 62
     6
 10
186.048607
 20
153.656719
 11
198.048607
 21
153.656719
  0
LINE
  8
CSLAYER1
  6
CONTINUOUS
 62
     6
 10
196.048607
 20
151.656719
 11
185.048607
 21
151.656719
  0
LINE
  8
CSLAYER1
  6
CONTINUOUS
 62
     6
 10
198.048607
 20
142.656719
 11
186.048607
 21
142.656719
  0
LINE
  8
CSLAYER1
  6
CONTINUOUS
 62
     6
 10
186.048607
 20
143.656719
 11
198.048607
 21
143.656719
  0
LINE
  8
CSLAYER1
  6
CONTINUOUS
 62
     6
 10
196.048607
 20
145.656719
 11
185.048607
 21
145.656719
  0
LINE
  8
CSLAYER1
  6
CONTINUOUS
 62
     6
 10
184.048607
 20
151.156719
 11
184.048607
 21
166.656719
  0
LINE
  8
CSLAYER1
  6
CONTINUOUS
 62
     6
 10
185.048607
 20
151.156719
 11
179.048607
 21
151.156719
  0
LINE
  8
CSLAYER1
  6
CONTINUOUS
 62
     6
 10
185.048607
 20
146.156719
 11
179.048607
 21
146.156719
  0
LINE
  8
CSLAYER1
  6
CONTINUOUS
 62
     6
 10
185.048607
 20
151.656719
 11
185.048607
 21
151.156719
  0
LINE
  8
CSLAYER1
  6
CONTINUOUS
 62
     6
 10
185.048607
 20
146.156719
 11
185.048607
 21
145.656719
  0
LINE
  8
CSLAYER1
  6
CONTINUOUS
 62
     6
 10
186.048607
 20
153.656719
 11
184.048607
 21
155.656719
  0
LINE
  8
CSLAYER1
  6
CONTINUOUS
 62
     6
 10
186.048607
 20
143.656719
 11
184.048607
 21
141.656719
  0
CIRCLE
  8
CSLAYER1
  6
CONTINUOUS
 62
     6
 10
181.048607
 20
148.656719
 40
1.000000
  0
LINE
  8
CSLAYER1
  6
CENTER
 62
     3
 10
181.048607
 20
150.656719
 11
181.048607
 21
146.656719
  0
LINE
  8
CSLAYER1
  6
CONTINUOUS
 62
     6
 10
196.048607
 20
145.656719
 11
196.048607
 21
151.656719
  0
LINE
  8
CSLAYER1
  6
CONTINUOUS
 62
     6
 10
237.048607
 20
91.699919
 11
237.048607
 21
47.699919
  0
LINE
  8
CSLAYER1
  6
CONTINUOUS
 62
     6
 10
242.048607
 20
91.699919
 11
242.048607
 21
47.699919
  0
LINE
  8
CSLAYER1
  6
CONTINUOUS
 62
     6
 10
244.048607
 20
87.199919
 11
244.048607
 21
52.199918
  0
LINE
  8
CSLAYER1
  6
CONTINUOUS
 62
     6
 10
260.048607
 20
72.199919
 11
260.048607
 21
67.199919
  0
LINE
  8
CSLAYER1
  6
CONTINUOUS
 62
     6
 10
244.048607
 20
52.199919
 11
242.048607
 21
52.199919
  0
LINE
  8
CSLAYER1
  6
CONTINUOUS
 62
     6
 10
242.048607
 20
47.699919
 11
237.048607
 21
47.699919
  0
LINE
  8
CSLAYER1
  6
CONTINUOUS
 62
     6
 10
184.048607
 20
87.699919
 11
184.048607
 21
51.699919
  0
LINE
  8
CSLAYER1
  6
CONTINUOUS
 62
     6
 10
237.048607
 20
49.699919
 11
199.048607
 21
49.699919
  0
LINE
  8
CSLAYER1
  6
CONTINUOUS
 62
     6
 10
244.048607
 20
87.199919
 11
242.048607
 21
87.199919
  0
LINE
  8
CSLAYER1
  6
CONTINUOUS
 62
     6
 10
242.048607
 20
91.699919
 11
237.048607
 21
91.699919
  0
LINE
  8
CSLAYER1
  6
CONTINUOUS
 62
     6
 10
237.048607
 20
89.699919
 11
199.048607
 21
89.699919
  0
LINE
  8
CSLAYER1
  6
CONTINUOUS
 62
     6
 10
260.048607
 20
67.199919
 11
244.048607
 21
67.199919
  0
LINE
  8
CSLAYER1
  6
CONTINUOUS
 62
     6
 10
260.048607
 20
72.199919
 11
244.048607
 21
72.199919
  0
LINE
  8
CSLAYER1
  6
CONTINUOUS
 62
     6
 10
198.048607
 20
92.199919
 11
198.048607
 21
47.199919
  0
LINE
  8
CSLAYER1
  6
CONTINUOUS
 62
     6
 10
199.048607
 20
89.699919
 11
198.048607
 21
88.699919
  0
LINE
  8
CSLAYER1
  6
CONTINUOUS
 62
     6
 10
199.048607
 20
49.699919
 11
198.048607
 21
50.699919
  0
LINE
  8
CSLAYER1
  6
CONTINUOUS
 62
     6
 10
199.048607
 20
89.699919
 11
199.048607
 21
49.699919
  0
ARC
  8
CSLAYER1
  6
CONTINUOUS
 62
     6
 10
185.048607
 20
87.699919
 40
1.000000
 50
90.000000
 51
180.000000
  0
ARC
  8
CSLAYER1
  6
CONTINUOUS
 62
     6
 10
185.048607
 20
51.699919
 40
1.000000
 50
180.000000
 51
270.000000
  0
LINE
  8
CSLAYER1
  6
CONTINUOUS
 62
     6
 10
186.048607
 20
50.699919
 11
185.048607
 21
50.699919
  0
LINE
  8
CSLAYER1
  6
CONTINUOUS
 62
     6
 10
186.048607
 20
88.699919
 11
185.048607
 21
88.699919
  0
LINE
  8
CSLAYER1
  6
CONTINUOUS
 62
     6
 10
198.048607
 20
47.199919
 11
186.048607
 21
47.199919
  0
LINE
  8
CSLAYER1
  6
CONTINUOUS
 62
     6
 10
198.048607
 20
92.199919
 11
186.048607
 21
92.199919
  0
LINE
  8
CSLAYER1
  6
CONTINUOUS
 62
     6
 10
198.048607
 20
88.199919
 11
186.048607
 21
88.199919
  0
LINE
  8
CSLAYER1
  6
CONTINUOUS
 62
     6
 10
198.048607
 20
51.199919
 11
186.048607
 21
51.199919
  0
LINE
  8
CSLAYER1
  6
CONTINUOUS
 62
     6
 10
186.048607
 20
51.199919
 11
186.048607
 21
47.199919
  0
LINE
  8
CSLAYER1
  6
CONTINUOUS
 62
     6
 10
186.048607
 20
92.199919
 11
186.048607
 21
88.199919
  0
LINE
  8
CSLAYER1
  6
CONTINUOUS
 62
     6
 10
198.048607
 20
48.199919
 11
186.048607
 21
48.199919
  0
LINE
  8
CSLAYER1
  6
CONTINUOUS
 62
     6
 10
198.048607
 20
91.199919
 11
186.048607
 21
91.199919
  0
LINE
  8
CSLAYER1
  6
CONTINUOUS
 62
     6
 10
186.048607
 20
90.699919
 11
179.048607
 21
90.699919
  0
LINE
  8
CSLAYER1
  6
CONTINUOUS
 62
     6
 10
179.048607
 20
48.699919
 11
186.048607
 21
48.699919
  0
LINE
  8
CSLAYER1
  6
CONTINUOUS
 62
     6
 10
186.048607
 20
90.199919
 11
179.048607
 21
90.199919
  0
LINE
  8
CSLAYER1
  6
CONTINUOUS
 62
     6
 10
179.048607
 20
49.199919
 11
186.048607
 21
49.199919
  0
LINE
  8
CSLAYER1
  6
CONTINUOUS
 62
     6
 10
179.048607
 20
90.699919
 11
179.048607
 21
90.199919
  0
LINE
  8
CSLAYER1
  6
CONTINUOUS
 62
     6
 10
179.048607
 20
49.199919
 11
179.048607
 21
48.699919
  0
LINE
  8
CSLAYER1
  6
CONTINUOUS
 62
     6
 10
237.048607
 20
205.613519
 11
237.048607
 21
249.613519
  0
LINE
  8
CSLAYER1
  6
CONTINUOUS
 62
     6
 10
242.048607
 20
205.613519
 11
242.048607
 21
249.613519
  0
LINE
  8
CSLAYER1
  6
CONTINUOUS
 62
     6
 10
244.048607
 20
210.113518
 11
244.048607
 21
245.113519
  0
LINE
  8
CSLAYER1
  6
CONTINUOUS
 62
     6
 10
260.048607
 20
225.113519
 11
260.048607
 21
230.113519
  0
LINE
  8
CSLAYER1
  6
CONTINUOUS
 62
     6
 10
244.048607
 20
245.113519
 11
242.048607
 21
245.113519
  0
LINE
  8
CSLAYER1
  6
CONTINUOUS
 62
     6
 10
242.048607
 20
249.613519
 11
237.048607
 21
249.613519
  0
LINE
  8
CSLAYER1
  6
CONTINUOUS
 62
     6
 10
184.048607
 20
209.613519
 11
184.048607
 21
245.613519
  0
LINE
  8
CSLAYER1
  6
CONTINUOUS
 62
     6
 10
237.048607
 20
247.613519
 11
199.048607
 21
247.613519
  0
LINE
  8
CSLAYER1
  6
CONTINUOUS
 62
     6
 10
244.048607
 20
210.113519
 11
242.048607
 21
210.113519
  0
LINE
  8
CSLAYER1
  6
CONTINUOUS
 62
     6
 10
242.048607
 20
205.613519
 11
237.048607
 21
205.613519
  0
LINE
  8
CSLAYER1
  6
CONTINUOUS
 62
     6
 10
237.048607
 20
207.613519
 11
199.048607
 21
207.613519
  0
LINE
  8
CSLAYER1
  6
CONTINUOUS
 62
     6
 10
260.048607
 20
230.113519
 11
244.048607
 21
230.113519
  0
LINE
  8
CSLAYER1
  6
CONTINUOUS
 62
     6
 10
260.048607
 20
225.113519
 11
244.048607
 21
225.113519
  0
LINE
  8
CSLAYER1
  6
CONTINUOUS
 62
     6
 10
198.048607
 20
205.113519
 11
198.048607
 21
250.113519
  0
LINE
  8
CSLAYER1
  6
CONTINUOUS
 62
     6
 10
199.048607
 20
207.613519
 11
198.048607
 21
208.613519
  0
LINE
  8
CSLAYER1
  6
CONTINUOUS
 62
     6
 10
199.048607
 20
247.613519
 11
198.048607
 21
246.613519
  0
LINE
  8
CSLAYER1
  6
CONTINUOUS
 62
     6
 10
199.048607
 20
207.613519
 11
199.048607
 21
247.613519
  0
ARC
  8
CSLAYER1
  6
CONTINUOUS
 62
     6
 10
185.048607
 20
209.613519
 40
1.000000
 50
180.000000
 51
270.000000
  0
ARC
  8
CSLAYER1
  6
CONTINUOUS
 62
     6
 10
185.048607
 20
245.613519
 40
1.000000
 50
90.000000
 51
180.000000
  0
LINE
  8
CSLAYER1
  6
CONTINUOUS
 62
     6
 10
186.048607
 20
246.613519
 11
185.048607
 21
246.613519
  0
LINE
  8
CSLAYER1
  6
CONTINUOUS
 62
     6
 10
186.048607
 20
208.613519
 11
185.048607
 21
208.613519
  0
LINE
  8
CSLAYER1
  6
CONTINUOUS
 62
     6
 10
198.048607
 20
250.113519
 11
186.048607
 21
250.113519
  0
LINE
  8
CSLAYER1
  6
CONTINUOUS
 62
     6
 10
198.048607
 20
205.113519
 11
186.048607
 21
205.113519
  0
LINE
  8
CSLAYER1
  6
CONTINUOUS
 62
     6
 10
198.048607
 20
209.113519
 11
186.048607
 21
209.113519
  0
LINE
  8
CSLAYER1
  6
CONTINUOUS
 62
     6
 10
198.048607
 20
246.113519
 11
186.048607
 21
246.113519
  0
LINE
  8
CSLAYER1
  6
CONTINUOUS
 62
     6
 10
186.048607
 20
246.113519
 11
186.048607
 21
250.113519
  0
LINE
  8
CSLAYER1
  6
CONTINUOUS
 62
     6
 10
186.048607
 20
205.113519
 11
186.048607
 21
209.113519
  0
LINE
  8
CSLAYER1
  6
CONTINUOUS
 62
     6
 10
198.048607
 20
249.113519
 11
186.048607
 21
249.113519
  0
LINE
  8
CSLAYER1
  6
CONTINUOUS
 62
     6
 10
198.048607
 20
206.113519
 11
186.048607
 21
206.113519
  0
LINE
  8
CSLAYER1
  6
CONTINUOUS
 62
     6
 10
186.048607
 20
206.613519
 11
179.048607
 21
206.613519
  0
LINE
  8
CSLAYER1
  6
CONTINUOUS
 62
     6
 10
179.048607
 20
248.613519
 11
186.048607
 21
248.613519
  0
LINE
  8
CSLAYER1
  6
CONTINUOUS
 62
     6
 10
186.048607
 20
207.113519
 11
179.048607
 21
207.113519
  0
LINE
  8
CSLAYER1
  6
CONTINUOUS
 62
     6
 10
179.048607
 20
248.113519
 11
186.048607
 21
248.113519
  0
LINE
  8
CSLAYER1
  6
CONTINUOUS
 62
     6
 10
179.048607
 20
206.613519
 11
179.048607
 21
207.113519
  0
LINE
  8
CSLAYER1
  6
CONTINUOUS
 62
     6
 10
179.048607
 20
248.113519
 11
179.048607
 21
248.613519
  0
LINE
  8
CSLAYER1
  6
CONTINUOUS
 62
     3
 10
233.048607
 20
208.098998
 11
203.048607
 21
208.098998
  0
LINE
  8
CSLAYER1
  6
CONTINUOUS
 62
     3
 10
233.048607
 20
247.128039
 11
203.048607
 21
247.128039
  0
LINE
  8
CSLAYER1
  6
CONTINUOUS
 62
     3
 10
234.048607
 20
209.098998
 11
234.048607
 21
246.128039
  0
LINE
  8
CSLAYER1
  6
CONTINUOUS
 62
     3
 10
202.048607
 20
209.098998
 11
202.048607
 21
246.128039
  0
ARC
  8
CSLAYER1
  6
CONTINUOUS
 62
     3
 10
233.048607
 20
246.128039
 40
1.000000
 50
0.000000
 51
90.000000
  0
ARC
  8
CSLAYER1
  6
CONTINUOUS
 62
     3
 10
203.048607
 20
246.128039
 40
1.000000
 50
90.000000
 51
180.000000
  0
ARC
  8
CSLAYER1
  6
CONTINUOUS
 62
     3
 10
203.048607
 20
209.098998
 40
1.000000
 50
180.000000
 51
270.000000
  0
ARC
  8
CSLAYER1
  6
CONTINUOUS
 62
     3
 10
233.048607
 20
209.098998
 40
1.000000
 50
270.000000
 51
360.000000
  0
TEXT
  8
CSLAYER1
 62
     3
 10
215.972763
 20
232.852570
 40
3.500000
 41
1.125000
  1
N P
 50
270.000000
 51
10.000000
  7
JX_FONT
 72
     5
 11
215.972763
 21
222.352570
  0
CIRCLE
  8
CSLAYER1
  6
PHANTOM
 62
     7
 10
234.320381
 20
227.613519
 40
0.098712
  0
LINE
  8
CSLAYER1
  6
CONTINUOUS
 62
     6
 10
179.048607
 20
151.156719
 11
179.048607
 21
146.156719
  0
ARC
  8
CSLAYER1
  6
CONTINUOUS
 62
     6
 10
105.615367
 20
148.656714
 40
19.000000
 50
200.487279
 51
339.512685
  0
ARC
  8
CSLAYER1
  6
CONTINUOUS
 62
     6
 10
105.615367
 20
148.656714
 40
19.000000
 50
20.487315
 51
37.863646
  0
ARC
  8
CSLAYER1
  6
CONTINUOUS
 62
     6
 10
105.615367
 20
148.656714
 40
19.000000
 50
142.136354
 51
159.512648
  0
ARC
  8
CSLAYER1
  6
CONTINUOUS
 62
     3
 10
105.615367
 20
133.656714
 40
1.500000
 50
-182.865984
 51
2.865984
  0
ARC
  8
CSLAYER1
  6
CONTINUOUS
 62
     6
 10
105.615367
 20
133.656714
 40
1.200000
 50
-182.292443
 51
2.292443
  0
LINE
  8
CSLAYER1
  6
CENTER
 62
     3
 10
102.115367
 20
133.656714
 11
109.115367
 21
133.656714
  0
LINE
  8
CSLAYER1
  6
CONTINUOUS
 62
     6
 10
127.115362
 20
154.656714
 11
124.350361
 21
154.656714
  0
LINE
  8
CSLAYER1
  6
CONTINUOUS
 62
     6
 10
127.115362
 20
142.656714
 11
124.350361
 21
142.656714
  0
LINE
  8
CSLAYER1
  6
CONTINUOUS
 62
     6
 10
125.115362
 20
144.383986
 11
126.715362
 21
144.383986
  0
LINE
  8
CSLAYER1
  6
CONTINUOUS
 62
     6
 10
126.715362
 20
144.383986
 11
126.715362
 21
145.202168
  0
LINE
  8
CSLAYER1
  6
CONTINUOUS
 62
     6
 10
125.115362
 20
145.202168
 11
125.915362
 21
145.202168
  0
LINE
  8
CSLAYER1
  6
CONTINUOUS
 62
     6
 10
125.115362
 20
144.383986
 11
125.115362
 21
152.929442
  0
LINE
  8
CSLAYER1
  6
CONTINUOUS
 62
     6
 10
128.115362
 20
143.656714
 11
128.115362
 21
153.656714
  0
LINE
  8
CSLAYER1
  6
CONTINUOUS
 62
     6
 10
125.115362
 20
152.929442
 11
126.715362
 21
152.929442
  0
LINE
  8
CSLAYER1
  6
CONTINUOUS
 62
     6
 10
126.715362
 20
152.929442
 11
126.715362
 21
152.111260
  0
LINE
  8
CSLAYER1
  6
CONTINUOUS
 62
     6
 10
125.115362
 20
152.111260
 11
125.915362
 21
152.111260
  0
LINE
  8
CSLAYER1
  6
CONTINUOUS
 62
     6
 10
127.115362
 20
154.656714
 11
128.115362
 21
153.656714
  0
LINE
  8
CSLAYER1
  6
CONTINUOUS
 62
     6
 10
128.115362
 20
143.656714
 11
127.115362
 21
142.656714
  0
LINE
  8
CSLAYER1
  6
CONTINUOUS
 62
     6
 10
126.715362
 20
152.111260
 11
128.115362
 21
152.111260
  0
LINE
  8
CSLAYER1
  6
CONTINUOUS
 62
     6
 10
126.715362
 20
145.202168
 11
128.115362
 21
145.202168
  0
LINE
  8
CSLAYER1
  6
CONTINUOUS
 62
     6
 10
125.915362
 20
144.383986
 11
125.915362
 21
152.929442
  0
ARC
  8
CSLAYER1
  6
CONTINUOUS
 62
     6
 10
86.880378
 20
155.656726
 40
1.000000
 50
269.999963
 51
339.512649
  0
ARC
  8
CSLAYER1
  6
CONTINUOUS
 62
     6
 10
86.880369
 20
141.656726
 40
1.000000
 50
20.487279
 51
89.999963
  0
ARC
  8
CSLAYER1
  6
CONTINUOUS
 62
     6
 10
124.350361
 20
141.656714
 40
1.000000
 50
90.000000
 51
159.512685
  0
ARC
  8
CSLAYER1
  6
CONTINUOUS
 62
     6
 10
124.350361
 20
155.656714
 40
1.000000
 50
200.487315
 51
270.000000
  0
LINE
  8
CSLAYER1
  6
CONTINUOUS
 62
     6
 10
86.115369
 20
144.383998
 11
84.515369
 21
144.383999
  0
LINE
  8
CSLAYER1
  6
CONTINUOUS
 62
     6
 10
84.515369
 20
144.383999
 11
84.515370
 21
145.202181
  0
LINE
  8
CSLAYER1
  6
CONTINUOUS
 62
     6
 10
86.115370
 20
145.202180
 11
85.315370
 21
145.202181
  0
LINE
  8
CSLAYER1
  6
CONTINUOUS
 62
     6
 10
86.115369
 20
144.383998
 11
86.115375
 21
152.929454
  0
LINE
  8
CSLAYER1
  6
CONTINUOUS
 62
     6
 10
83.115369
 20
143.656728
 11
83.115375
 21
153.656728
  0
LINE
  8
CSLAYER1
  6
CONTINUOUS
 62
     6
 10
86.115375
 20
152.929454
 11
84.515375
 21
152.929455
  0
LINE
  8
CSLAYER1
  6
CONTINUOUS
 62
     6
 10
84.515375
 20
152.929455
 11
84.515374
 21
152.111273
  0
LINE
  8
CSLAYER1
  6
CONTINUOUS
 62
     6
 10
86.115374
 20
152.111272
 11
85.315374
 21
152.111273
  0
LINE
  8
CSLAYER1
  6
CONTINUOUS
 62
     6
 10
84.115376
 20
154.656727
 11
83.115375
 21
153.656728
  0
LINE
  8
CSLAYER1
  6
CONTINUOUS
 62
     6
 10
83.115369
 20
143.656728
 11
84.115368
 21
142.656727
  0
LINE
  8
CSLAYER1
  6
CONTINUOUS
 62
     6
 10
84.515374
 20
152.111273
 11
83.115374
 21
152.111274
  0
LINE
  8
CSLAYER1
  6
CONTINUOUS
 62
     6
 10
84.515370
 20
145.202181
 11
83.115370
 21
145.202182
  0
LINE
  8
CSLAYER1
  6
CONTINUOUS
 62
     6
 10
85.315369
 20
144.383999
 11
85.315375
 21
152.929455
  0
LINE
  8
CSLAYER1
  6
CONTINUOUS
 62
     6
 10
86.880377
 20
154.656726
 11
84.115376
 21
154.656727
  0
LINE
  8
CSLAYER1
  6
CONTINUOUS
 62
     6
 10
86.880369
 20
142.656726
 11
84.115368
 21
142.656727
  0
ENDSEC
  0
EOF
