  0
SECTION
  2
HEADER
  9
$ACADVER
  1
AC1015
  9
$ACADMAINTVER
 70
     6
  9
$DWGCODEPAGE
  3
ANSI_932
  9
$INSBASE
 10
0.0
 20
0.0
 30
0.0
  9
$EXTMIN
 10
0.0
 20
0.0
 30
0.0
  9
$EXTMAX
 10
420.0
 20
297.0
 30
0.0
  9
$LIMMIN
 10
0.0
 20
0.0
  9
$LIMMAX
 10
420.0
 20
297.0
  9
$ORTHOMODE
 70
     0
  9
$REGENMODE
 70
     1
  9
$FILLMODE
 70
     1
  9
$QTEXTMODE
 70
     0
  9
$MIRRTEXT
 70
     1
  9
$LTSCALE
 40
1.0
  9
$ATTMODE
 70
     1
  9
$TEXTSIZE
 40
2.5
  9
$TRACEWID
 40
1.0
  9
$TEXTSTYLE
  7
FX_VECTOR
  9
$CLAYER
  8
0
  9
$CELTYPE
  6
ByLayer
  9
$CECOLOR
 62
   256
  9
$CELTSCALE
 40
1.0
  9
$DISPSILH
 70
     0
  9
$DIMSCALE
 40
1.0
  9
$DIMASZ
 40
3.0
  9
$DIMEXO
 40
1.0
  9
$DIMDLI
 40
8.0
  9
$DIMRND
 40
0.0
  9
$DIMDLE
 40
6.0
  9
$DIMEXE
 40
1.0
  9
$DIMTP
 40
0.0
  9
$DIMTM
 40
0.0
  9
$DIMTXT
 40
3.5
  9
$DIMCEN
 40
2.5
  9
$DIMTSZ
 40
0.0
  9
$DIMTOL
 70
     0
  9
$DIMLIM
 70
     0
  9
$DIMTIH
 70
     0
  9
$DIMTOH
 70
     0
  9
$DIMSE1
 70
     0
  9
$DIMSE2
 70
     0
  9
$DIMTAD
 70
     1
  9
$DIMZIN
 70
     8
  9
$DIMBLK
  1

  9
$DIMASO
 70
     1
  9
$DIMSHO
 70
     1
  9
$DIMPOST
  1

  9
$DIMAPOST
  1

  9
$DIMALT
 70
     0
  9
$DIMALTD
 70
     3
  9
$DIMALTF
 40
0.03937
  9
$DIMLFAC
 40
1.0
  9
$DIMTOFL
 70
     1
  9
$DIMTVP
 40
0.0
  9
$DIMTIX
 70
     0
  9
$DIMSOXD
 70
     0
  9
$DIMSAH
 70
     1
  9
$DIMBLK1
  1
FXTIP_ARROW_S
  9
$DIMBLK2
  1
FXTIP_ARROW_E
  9
$DIMSTYLE
  2
FXDIMINFO
  9
$DIMCLRD
 70
     7
  9
$DIMCLRE
 70
     7
  9
$DIMCLRT
 70
     7
  9
$DIMTFAC
 40
1.0
  9
$DIMGAP
 40
0.5
  9
$DIMJUST
 70
     0
  9
$DIMSD1
 70
     0
  9
$DIMSD2
 70
     0
  9
$DIMTOLJ
 70
     1
  9
$DIMTZIN
 70
     8
  9
$DIMALTZ
 70
     0
  9
$DIMALTTZ
 70
     0
  9
$DIMUPT
 70
     0
  9
$DIMDEC
 70
     4
  9
$DIMTDEC
 70
     2
  9
$DIMALTU
 70
     2
  9
$DIMALTTD
 70
     3
  9
$DIMTXSTY
  7
FX_VECTOR
  9
$DIMAUNIT
 70
     0
  9
$DIMADEC
 70
     4
  9
$DIMALTRND
 40
0.0
  9
$DIMAZIN
 70
     2
  9
$DIMDSEP
 70
    46
  9
$DIMATFIT
 70
     3
  9
$DIMFRAC
 70
     0
  9
$DIMLDRBLK
  1
FXTIP_ARROW_S
  9
$DIMLUNIT
 70
     2
  9
$DIMLWD
 70
    -2
  9
$DIMLWE
 70
    -2
  9
$DIMTMOVE
 70
     0
  9
$LUNITS
 70
     2
  9
$LUPREC
 70
     4
  9
$SKETCHINC
 40
1.0
  9
$FILLETRAD
 40
10.0
  9
$AUNITS
 70
     0
  9
$AUPREC
 70
     0
  9
$MENU
  1
.
  9
$ELEVATION
 40
0.0
  9
$PELEVATION
 40
0.0
  9
$THICKNESS
 40
0.0
  9
$LIMCHECK
 70
     0
  9
$CHAMFERA
 40
10.0
  9
$CHAMFERB
 40
10.0
  9
$CHAMFERC
 40
20.0
  9
$CHAMFERD
 40
0.0
  9
$SKPOLY
 70
     0
  9
$TDCREATE
 40
2456323.593325729
  9
$TDUCREATE
 40
2456323.218325729
  9
$TDUPDATE
 40
2456323.593325741
  9
$TDUUPDATE
 40
2456323.218325741
  9
$TDINDWG
 40
0.0000000116
  9
$TDUSRTIMER
 40
0.0000000116
  9
$USRTIMER
 70
     1
  9
$ANGBASE
 50
0.0
  9
$ANGDIR
 70
     0
  9
$PDMODE
 70
     0
  9
$PDSIZE
 40
0.0
  9
$PLINEWID
 40
0.0
  9
$SPLFRAME
 70
     0
  9
$SPLINETYPE
 70
     6
  9
$SPLINESEGS
 70
     8
  9
$HANDSEED
  5
2F8
  9
$SURFTAB1
 70
     6
  9
$SURFTAB2
 70
     6
  9
$SURFTYPE
 70
     6
  9
$SURFU
 70
     6
  9
$SURFV
 70
     6
  9
$UCSBASE
  2

  9
$UCSNAME
  2

  9
$UCSORG
 10
0.0
 20
0.0
 30
0.0
  9
$UCSXDIR
 10
1.0
 20
0.0
 30
0.0
  9
$UCSYDIR
 10
0.0
 20
1.0
 30
0.0
  9
$UCSORTHOREF
  2

  9
$UCSORTHOVIEW
 70
     0
  9
$UCSORGTOP
 10
0.0
 20
0.0
 30
0.0
  9
$UCSORGBOTTOM
 10
0.0
 20
0.0
 30
0.0
  9
$UCSORGLEFT
 10
0.0
 20
0.0
 30
0.0
  9
$UCSORGRIGHT
 10
0.0
 20
0.0
 30
0.0
  9
$UCSORGFRONT
 10
0.0
 20
0.0
 30
0.0
  9
$UCSORGBACK
 10
0.0
 20
0.0
 30
0.0
  9
$PUCSBASE
  2

  9
$PUCSNAME
  2

  9
$PUCSORG
 10
0.0
 20
0.0
 30
0.0
  9
$PUCSXDIR
 10
1.0
 20
0.0
 30
0.0
  9
$PUCSYDIR
 10
0.0
 20
1.0
 30
0.0
  9
$PUCSORTHOREF
  2

  9
$PUCSORTHOVIEW
 70
     0
  9
$PUCSORGTOP
 10
0.0
 20
0.0
 30
0.0
  9
$PUCSORGBOTTOM
 10
0.0
 20
0.0
 30
0.0
  9
$PUCSORGLEFT
 10
0.0
 20
0.0
 30
0.0
  9
$PUCSORGRIGHT
 10
0.0
 20
0.0
 30
0.0
  9
$PUCSORGFRONT
 10
0.0
 20
0.0
 30
0.0
  9
$PUCSORGBACK
 10
0.0
 20
0.0
 30
0.0
  9
$USERI1
 70
     0
  9
$USERI2
 70
     0
  9
$USERI3
 70
     0
  9
$USERI4
 70
     0
  9
$USERI5
 70
     0
  9
$USERR1
 40
0.0
  9
$USERR2
 40
0.0
  9
$USERR3
 40
0.0
  9
$USERR4
 40
0.0
  9
$USERR5
 40
0.0
  9
$WORLDVIEW
 70
     1
  9
$SHADEDGE
 70
     3
  9
$SHADEDIF
 70
    70
  9
$TILEMODE
 70
     1
  9
$MAXACTVP
 70
    64
  9
$PINSBASE
 10
0.0
 20
0.0
 30
0.0
  9
$PLIMCHECK
 70
     0
  9
$PEXTMIN
 10
1.000000000000000E+20
 20
1.000000000000000E+20
 30
1.000000000000000E+20
  9
$PEXTMAX
 10
-1.000000000000000E+20
 20
-1.000000000000000E+20
 30
-1.000000000000000E+20
  9
$PLIMMIN
 10
0.0
 20
0.0
  9
$PLIMMAX
 10
420.0
 20
297.0
  9
$UNITMODE
 70
     0
  9
$VISRETAIN
 70
     1
  9
$PLINEGEN
 70
     0
  9
$PSLTSCALE
 70
     1
  9
$TREEDEPTH
 70
  3020
  9
$CMLSTYLE
  2
Standard
  9
$CMLJUST
 70
     0
  9
$CMLSCALE
 40
20.0
  9
$PROXYGRAPHICS
 70
     1
  9
$MEASUREMENT
 70
     1
  9
$CELWEIGHT
370
    -1
  9
$ENDCAPS
280
     0
  9
$JOINSTYLE
280
     0
  9
$LWDISPLAY
290
     0
  9
$INSUNITS
 70
     4
  9
$HYPERLINKBASE
  1

  9
$STYLESHEET
  1

  9
$XEDIT
290
     1
  9
$CEPSNTYPE
380
     0
  9
$PSTYLEMODE
290
     1
  9
$FINGERPRINTGUID
  2
{50EC45AA-929B-407E-B48F-AF4D44D4094A}
  9
$VERSIONGUID
  2
{FAEB1C32-E019-11D5-929B-00C0DF256EC4}
  9
$EXTNAMES
290
     1
  9
$PSVPSCALE
 40
0.0
  9
$OLESTARTUP
290
     0
  0
ENDSEC
  0
SECTION
  2
CLASSES
  0
CLASS
  1
ACDBDICTIONARYWDFLT
  2
AcDbDictionaryWithDefault
  3
ObjectDBX Classes
 90
        0
280
     0
281
     0
  0
CLASS
  1
VISUALSTYLE
  2
AcDbVisualStyle
  3
ObjectDBX Classes
 90
     4095
280
     0
281
     0
  0
CLASS
  1
MATERIAL
  2
AcDbMaterial
  3
ObjectDBX Classes
 90
     1153
280
     0
281
     0
  0
CLASS
  1
DICTIONARYVAR
  2
AcDbDictionaryVar
  3
ObjectDBX Classes
 90
        0
280
     0
281
     0
  0
CLASS
  1
ACDBPLACEHOLDER
  2
AcDbPlaceHolder
  3
ObjectDBX Classes
 90
        0
280
     0
281
     0
  0
CLASS
  1
LAYOUT
  2
AcDbLayout
  3
ObjectDBX Classes
 90
        0
280
     0
281
     0
  0
ENDSEC
  0
SECTION
  2
TABLES
  0
TABLE
  2
VPORT
  5
8
330
0
100
AcDbSymbolTable
 70
     1
  0
VPORT
  5
29
330
8
100
AcDbSymbolTableRecord
100
AcDbViewportTableRecord
  2
*Active
 70
     0
 10
0.0
 20
0.0
 11
1.0
 21
1.0
 12
210.0
 22
148.5
 13
0.0
 23
0.0
 14
10.0
 24
10.0
 15
10.0
 25
10.0
 16
0.0
 26
0.0
 36
1.0
 17
0.0
 27
0.0
 37
0.0
 40
297.0
 41
1.414141414141414
 42
50.0
 43
0.0
 44
0.0
 50
0.0
 51
0.0
 71
     0
 72
   100
 73
     1
 74
     3
 75
     0
 76
     0
 77
     0
 78
     0
281
     0
 65
     1
110
0.0
120
0.0
130
0.0
111
1.0
121
0.0
131
0.0
112
0.0
122
1.0
132
0.0
 79
     0
146
0.0
  0
ENDTAB
  0
TABLE
  2
LTYPE
  5
5
330
0
100
AcDbSymbolTable
 70
     4
  0
LTYPE
  5
14
330
5
100
AcDbSymbolTableRecord
100
AcDbLinetypeTableRecord
  2
ByBlock
 70
     0
  3

 72
    65
 73
     0
 40
0.0
  0
LTYPE
  5
15
330
5
100
AcDbSymbolTableRecord
100
AcDbLinetypeTableRecord
  2
ByLayer
 70
     0
  3

 72
    65
 73
     0
 40
0.0
  0
LTYPE
  5
16
330
5
100
AcDbSymbolTableRecord
100
AcDbLinetypeTableRecord
  2
Continuous
 70
     0
  3
Solid line
 72
    65
 73
     0
 40
0.0
  0
LTYPE
  5
A8
330
5
100
AcDbSymbolTableRecord
100
AcDbLinetypeTableRecord
  2
実線
 70
     0
  3

 72
    65
 73
     0
 40
0.0
  0
LTYPE
  5
A9
330
5
100
AcDbSymbolTableRecord
100
AcDbLinetypeTableRecord
  2
一点鎖線
 70
     0
  3

 72
    65
 73
     4
 40
13.0
 49
10.0
 74
     0
 49
-1.0
 74
     0
 49
1.0
 74
     0
 49
-1.0
 74
     0
  0
LTYPE
  5
2C5
330
5
100
AcDbSymbolTableRecord
100
AcDbLinetypeTableRecord
  2
二点鎖線
 70
     0
  3

 72
    65
 73
     6
 40
15.0
 49
10.0
 74
     0
 49
-1.0
 74
     0
 49
1.0
 74
     0
 49
-1.0
 74
     0
 49
1.0
 74
     0
 49
-1.0
 74
     0
  0
ENDTAB
  0
TABLE
  2
LAYER
  5
2
330
0
100
AcDbSymbolTable
 70
     4
  0
LAYER
  5
10
330
2
100
AcDbSymbolTableRecord
100
AcDbLayerTableRecord
  2
0
 70
     0
 62
     7
  6
Continuous
370
    -3
390
F
  0
LAYER
  5
A7
330
2
100
AcDbSymbolTableRecord
100
AcDbLayerTableRecord
  2
作図レイヤ
 70
     0
 62
     5
  6
実線
370
    40
390
F
  0
LAYER
  5
EB
330
2
100
AcDbSymbolTableRecord
100
AcDbLayerTableRecord
  2
GR1_01
 70
     0
 62
     1
  6
実線
370
    20
390
F
  0
LAYER
  5
110
330
2
100
AcDbSymbolTableRecord
100
AcDbLayerTableRecord
  2
基準ﾚｲﾔｸﾞﾙｰﾌﾟ_01
 70
     0
 62
     3
  6
実線
370
    20
390
F
  0
ENDTAB
  0
TABLE
  2
STYLE
  5
3
330
0
100
AcDbSymbolTable
 70
     2
  0
STYLE
  5
11
330
3
100
AcDbSymbolTableRecord
100
AcDbTextStyleTableRecord
  2
Standard
 70
     0
 40
0.0
 41
1.0
 50
0.0
 71
     0
 42
2.5
  3
txt
  4

  0
STYLE
  5
3F
330
3
100
AcDbSymbolTableRecord
100
AcDbTextStyleTableRecord
  2
FX_VECTOR
 70
     0
 40
0.0
 41
1.0
 50
0.0
 71
     0
 42
0.2
  3
MONOTXT.SHX
  4
BigFont.shx
  0
ENDTAB
  0
TABLE
  2
VIEW
  5
6
330
0
100
AcDbSymbolTable
 70
     0
  0
ENDTAB
  0
TABLE
  2
UCS
  5
7
330
0
100
AcDbSymbolTable
 70
     0
  0
ENDTAB
  0
TABLE
  2
APPID
  5
9
330
0
100
AcDbSymbolTable
 70
     1
  0
APPID
  5
12
330
9
100
AcDbSymbolTableRecord
100
AcDbRegAppTableRecord
  2
ACAD
 70
     0
  0
ENDTAB
  0
TABLE
  2
DIMSTYLE
  5
A
330
0
100
AcDbSymbolTable
 70
     2
100
AcDbDimStyleTable
  0
DIMSTYLE
105
27
330
A
100
AcDbSymbolTableRecord
100
AcDbDimStyleTableRecord
  2
ISO-25
 70
     0
 41
2.5
 42
0.625
 43
3.75
 44
1.25
 73
     0
 74
     0
 77
     1
 78
     8
140
2.5
141
2.5
143
0.03937007874016
147
0.625
171
     3
172
     1
178
     0
271
     2
272
     2
274
     3
278
    44
283
     0
284
     8
340
11
  0
DIMSTYLE
105
A6
330
A
100
AcDbSymbolTableRecord
100
AcDbDimStyleTableRecord
  2
FXDIMINFO
 70
     0
 41
3.0
 42
1.0
 43
8.0
 44
1.0
 46
6.0
 73
     0
 74
     0
 77
     1
 78
     8
 79
     2
140
3.5
141
2.5
143
0.03937
147
0.5
171
     3
172
     1
173
     1
176
     7
177
     7
178
     7
179
     4
272
     2
274
     3
284
     8
340
3F
341
40
343
40
344
46
  0
ENDTAB
  0
TABLE
  2
BLOCK_RECORD
  5
1
330
0
100
AcDbSymbolTable
 70
    21
  0
BLOCK_RECORD
  5
1F
330
1
100
AcDbSymbolTableRecord
100
AcDbBlockTableRecord
  2
*Model_Space
340
22
  0
BLOCK_RECORD
  5
1B
330
1
100
AcDbSymbolTableRecord
100
AcDbBlockTableRecord
  2
*Paper_Space
340
1E
  0
BLOCK_RECORD
  5
23
330
1
100
AcDbSymbolTableRecord
100
AcDbBlockTableRecord
  2
*Paper_Space0
340
26
  0
BLOCK_RECORD
  5
40
330
1
100
AcDbSymbolTableRecord
100
AcDbBlockTableRecord
  2
FXTIP_ARROW_S
340
0
  0
BLOCK_RECORD
  5
46
330
1
100
AcDbSymbolTableRecord
100
AcDbBlockTableRecord
  2
FXTIP_ARROW_E
340
0
  0
BLOCK_RECORD
  5
4C
330
1
100
AcDbSymbolTableRecord
100
AcDbBlockTableRecord
  2
FXTIP_BLACKDOT_S
340
0
  0
BLOCK_RECORD
  5
52
330
1
100
AcDbSymbolTableRecord
100
AcDbBlockTableRecord
  2
FXTIP_BLACKDOT_E
340
0
  0
BLOCK_RECORD
  5
58
330
1
100
AcDbSymbolTableRecord
100
AcDbBlockTableRecord
  2
FXTIP_TRIANGLE_S
340
0
  0
BLOCK_RECORD
  5
5F
330
1
100
AcDbSymbolTableRecord
100
AcDbBlockTableRecord
  2
FXTIP_TRIANGLE_E
340
0
  0
BLOCK_RECORD
  5
66
330
1
100
AcDbSymbolTableRecord
100
AcDbBlockTableRecord
  2
FXTIP_ARCHITECT_S
340
0
  0
BLOCK_RECORD
  5
6C
330
1
100
AcDbSymbolTableRecord
100
AcDbBlockTableRecord
  2
FXTIP_ARCHITECT_E
340
0
  0
BLOCK_RECORD
  5
72
330
1
100
AcDbSymbolTableRecord
100
AcDbBlockTableRecord
  2
FXTIP_CIVIL_S
340
0
  0
BLOCK_RECORD
  5
78
330
1
100
AcDbSymbolTableRecord
100
AcDbBlockTableRecord
  2
FXTIP_CIVIL_E
340
0
  0
BLOCK_RECORD
  5
7E
330
1
100
AcDbSymbolTableRecord
100
AcDbBlockTableRecord
  2
FXTIP_WHITEDOT_S
340
0
  0
BLOCK_RECORD
  5
83
330
1
100
AcDbSymbolTableRecord
100
AcDbBlockTableRecord
  2
FXTIP_WHITEDOT_E
340
0
  0
BLOCK_RECORD
  5
88
330
1
100
AcDbSymbolTableRecord
100
AcDbBlockTableRecord
  2
FXTIP_UPARROW_S
340
0
  0
BLOCK_RECORD
  5
8D
330
1
100
AcDbSymbolTableRecord
100
AcDbBlockTableRecord
  2
FXTIP_UPARROW_E
340
0
  0
BLOCK_RECORD
  5
92
330
1
100
AcDbSymbolTableRecord
100
AcDbBlockTableRecord
  2
FXTIP_DOWNARROW_S
340
0
  0
BLOCK_RECORD
  5
97
330
1
100
AcDbSymbolTableRecord
100
AcDbBlockTableRecord
  2
FXTIP_DOWNARROW_E
340
0
  0
BLOCK_RECORD
  5
9C
330
1
100
AcDbSymbolTableRecord
100
AcDbBlockTableRecord
  2
FXTIP_BLACKTRIANGLE_S
340
0
  0
BLOCK_RECORD
  5
A1
330
1
100
AcDbSymbolTableRecord
100
AcDbBlockTableRecord
  2
FXTIP_BLACKTRIANGLE_E
340
0
  0
BLOCK_RECORD
  5
199
330
1
100
AcDbSymbolTableRecord
100
AcDbBlockTableRecord
  2
BLKF022
340
0
102
{BLKREFS
331
19C
102
}
  0
BLOCK_RECORD
  5
1C3
330
1
100
AcDbSymbolTableRecord
100
AcDbBlockTableRecord
  2
BLKF023
340
0
102
{BLKREFS
331
1C6
102
}
  0
ENDTAB
  0
ENDSEC
  0
SECTION
  2
BLOCKS
  0
BLOCK
  5
20
330
1F
100
AcDbEntity
  8
0
100
AcDbBlockBegin
  2
*Model_Space
 70
     0
 10
0.0
 20
0.0
 30
0.0
  3
*Model_Space
  1

  0
ENDBLK
  5
21
330
1F
100
AcDbEntity
  8
0
100
AcDbBlockEnd
  0
BLOCK
  5
1C
330
1B
100
AcDbEntity
 67
     1
  8
0
100
AcDbBlockBegin
  2
*Paper_Space
 70
     0
 10
0.0
 20
0.0
 30
0.0
  3
*Paper_Space
  1

  0
ENDBLK
  5
1D
330
1B
100
AcDbEntity
 67
     1
  8
0
100
AcDbBlockEnd
  0
BLOCK
  5
24
330
23
100
AcDbEntity
  8
0
100
AcDbBlockBegin
  2
*Paper_Space0
 70
     0
 10
0.0
 20
0.0
 30
0.0
  3
*Paper_Space0
  1

  0
ENDBLK
  5
25
330
23
100
AcDbEntity
  8
0
100
AcDbBlockEnd
  0
BLOCK
  5
41
330
40
100
AcDbEntity
  8
0
100
AcDbBlockBegin
  2
FXTIP_ARROW_S
 70
     0
 10
0.0
 20
0.0
 30
0.0
  3
FXTIP_ARROW_S
  1

  0
LINE
  5
43
330
40
100
AcDbEntity
  8
0
  6
Continuous
 62
     0
370
    -2
100
AcDbLine
 10
0.0
 20
0.0
 30
0.0
 11
-1.0
 21
0.0000000000000001
 31
0.0
  0
LINE
  5
44
330
40
100
AcDbEntity
  8
0
  6
Continuous
 62
     0
370
    -2
100
AcDbLine
 10
0.0
 20
0.0
 30
0.0
 11
-0.9914448613738104
 21
-0.1305261922200515
 31
0.0
  0
LINE
  5
45
330
40
100
AcDbEntity
  8
0
  6
Continuous
 62
     0
370
    -2
100
AcDbLine
 10
0.0
 20
0.0
 30
0.0
 11
-0.9914448613738104
 21
0.1305261922200517
 31
0.0
  0
ENDBLK
  5
42
330
40
100
AcDbEntity
  8
0
100
AcDbBlockEnd
  0
BLOCK
  5
47
330
46
100
AcDbEntity
  8
0
100
AcDbBlockBegin
  2
FXTIP_ARROW_E
 70
     0
 10
0.0
 20
0.0
 30
0.0
  3
FXTIP_ARROW_E
  1

  0
LINE
  5
49
330
46
100
AcDbEntity
  8
0
  6
Continuous
 62
     0
370
    -2
100
AcDbLine
 10
0.0
 20
0.0
 30
0.0
 11
-1.0
 21
0.0
 31
0.0
  0
LINE
  5
4A
330
46
100
AcDbEntity
  8
0
  6
Continuous
 62
     0
370
    -2
100
AcDbLine
 10
0.0
 20
0.0
 30
0.0
 11
-0.9914448613738104
 21
0.1305261922200516
 31
0.0
  0
LINE
  5
4B
330
46
100
AcDbEntity
  8
0
  6
Continuous
 62
     0
370
    -2
100
AcDbLine
 10
0.0
 20
0.0
 30
0.0
 11
-0.9914448613738104
 21
-0.1305261922200516
 31
0.0
  0
ENDBLK
  5
48
330
46
100
AcDbEntity
  8
0
100
AcDbBlockEnd
  0
BLOCK
  5
4D
330
4C
100
AcDbEntity
  8
0
100
AcDbBlockBegin
  2
FXTIP_BLACKDOT_S
 70
     0
 10
0.0
 20
0.0
 30
0.0
  3
FXTIP_BLACKDOT_S
  1

  0
LINE
  5
4F
330
4C
100
AcDbEntity
  8
0
  6
Continuous
 62
     0
370
    -2
100
AcDbLine
 10
0.0
 20
0.0
 30
0.0
 11
-1.0
 21
0.0000000000000001
 31
0.0
  0
LWPOLYLINE
  5
50
330
4C
100
AcDbEntity
  8
0
  6
Continuous
 62
     0
370
    -2
100
AcDbPolyline
 90
        2
 70
     1
 10
-0.25
 20
0.0
 40
0.5
 41
0.5
 42
1.0
 10
0.25
 20
0.0
 40
0.5
 41
0.5
 42
1.0
  0
CIRCLE
  5
51
330
4C
100
AcDbEntity
  8
0
  6
Continuous
 62
     0
370
    -2
100
AcDbCircle
 10
0.0
 20
0.0
 30
0.0
 40
0.5
  0
ENDBLK
  5
4E
330
4C
100
AcDbEntity
  8
0
100
AcDbBlockEnd
  0
BLOCK
  5
53
330
52
100
AcDbEntity
  8
0
100
AcDbBlockBegin
  2
FXTIP_BLACKDOT_E
 70
     0
 10
0.0
 20
0.0
 30
0.0
  3
FXTIP_BLACKDOT_E
  1

  0
LINE
  5
55
330
52
100
AcDbEntity
  8
0
  6
Continuous
 62
     0
370
    -2
100
AcDbLine
 10
0.0
 20
0.0
 30
0.0
 11
-1.0
 21
0.0
 31
0.0
  0
LWPOLYLINE
  5
56
330
52
100
AcDbEntity
  8
0
  6
Continuous
 62
     0
370
    -2
100
AcDbPolyline
 90
        2
 70
     1
 10
-0.25
 20
0.0
 40
0.5
 41
0.5
 42
1.0
 10
0.25
 20
0.0
 40
0.5
 41
0.5
 42
1.0
  0
CIRCLE
  5
57
330
52
100
AcDbEntity
  8
0
  6
Continuous
 62
     0
370
    -2
100
AcDbCircle
 10
0.0
 20
0.0
 30
0.0
 40
0.5
  0
ENDBLK
  5
54
330
52
100
AcDbEntity
  8
0
100
AcDbBlockEnd
  0
BLOCK
  5
59
330
58
100
AcDbEntity
  8
0
100
AcDbBlockBegin
  2
FXTIP_TRIANGLE_S
 70
     0
 10
0.0
 20
0.0
 30
0.0
  3
FXTIP_TRIANGLE_S
  1

  0
LINE
  5
5B
330
58
100
AcDbEntity
  8
0
  6
Continuous
 62
     0
370
    -2
100
AcDbLine
 10
0.0
 20
0.0
 30
0.0
 11
-1.0
 21
0.0000000000000001
 31
0.0
  0
LINE
  5
5C
330
58
100
AcDbEntity
  8
0
  6
Continuous
 62
     0
370
    -2
100
AcDbLine
 10
0.0
 20
0.0
 30
0.0
 11
-0.9914448613738104
 21
-0.1305261922200515
 31
0.0
  0
LINE
  5
5D
330
58
100
AcDbEntity
  8
0
  6
Continuous
 62
     0
370
    -2
100
AcDbLine
 10
0.0
 20
0.0
 30
0.0
 11
-0.9914448613738104
 21
0.1305261922200517
 31
0.0
  0
LINE
  5
5E
330
58
100
AcDbEntity
  8
0
  6
Continuous
 62
     0
370
    -2
100
AcDbLine
 10
-0.9914448613738104
 20
-0.1305261922200515
 30
0.0
 11
-0.9914448613738104
 21
0.1305261922200517
 31
0.0
  0
ENDBLK
  5
5A
330
58
100
AcDbEntity
  8
0
100
AcDbBlockEnd
  0
BLOCK
  5
60
330
5F
100
AcDbEntity
  8
0
100
AcDbBlockBegin
  2
FXTIP_TRIANGLE_E
 70
     0
 10
0.0
 20
0.0
 30
0.0
  3
FXTIP_TRIANGLE_E
  1

  0
LINE
  5
62
330
5F
100
AcDbEntity
  8
0
  6
Continuous
 62
     0
370
    -2
100
AcDbLine
 10
0.0
 20
0.0
 30
0.0
 11
-1.0
 21
0.0
 31
0.0
  0
LINE
  5
63
330
5F
100
AcDbEntity
  8
0
  6
Continuous
 62
     0
370
    -2
100
AcDbLine
 10
0.0
 20
0.0
 30
0.0
 11
-0.9914448613738104
 21
0.1305261922200516
 31
0.0
  0
LINE
  5
64
330
5F
100
AcDbEntity
  8
0
  6
Continuous
 62
     0
370
    -2
100
AcDbLine
 10
0.0
 20
0.0
 30
0.0
 11
-0.9914448613738104
 21
-0.1305261922200516
 31
0.0
  0
LINE
  5
65
330
5F
100
AcDbEntity
  8
0
  6
Continuous
 62
     0
370
    -2
100
AcDbLine
 10
-0.9914448613738104
 20
0.1305261922200516
 30
0.0
 11
-0.9914448613738104
 21
-0.1305261922200516
 31
0.0
  0
ENDBLK
  5
61
330
5F
100
AcDbEntity
  8
0
100
AcDbBlockEnd
  0
BLOCK
  5
67
330
66
100
AcDbEntity
  8
0
100
AcDbBlockBegin
  2
FXTIP_ARCHITECT_S
 70
     0
 10
0.0
 20
0.0
 30
0.0
  3
FXTIP_ARCHITECT_S
  1

  0
LINE
  5
69
330
66
100
AcDbEntity
  8
0
  6
Continuous
 62
     0
370
    -2
100
AcDbLine
 10
0.0
 20
0.0
 30
0.0
 11
-1.0
 21
0.0000000000000001
 31
0.0
  0
LINE
  5
6A
330
66
100
AcDbEntity
  8
0
  6
Continuous
 62
     0
370
    -2
100
AcDbLine
 10
0.0
 20
0.0
 30
0.0
 11
-0.7071067811865476
 21
-0.7071067811865474
 31
0.0
  0
LINE
  5
6B
330
66
100
AcDbEntity
  8
0
  6
Continuous
 62
     0
370
    -2
100
AcDbLine
 10
0.0
 20
0.0
 30
0.0
 11
0.7071067811865476
 21
0.7071067811865474
 31
0.0
  0
ENDBLK
  5
68
330
66
100
AcDbEntity
  8
0
100
AcDbBlockEnd
  0
BLOCK
  5
6D
330
6C
100
AcDbEntity
  8
0
100
AcDbBlockBegin
  2
FXTIP_ARCHITECT_E
 70
     0
 10
0.0
 20
0.0
 30
0.0
  3
FXTIP_ARCHITECT_E
  1

  0
LINE
  5
6F
330
6C
100
AcDbEntity
  8
0
  6
Continuous
 62
     0
370
    -2
100
AcDbLine
 10
0.0
 20
0.0
 30
0.0
 11
-1.0
 21
0.0
 31
0.0
  0
LINE
  5
70
330
6C
100
AcDbEntity
  8
0
  6
Continuous
 62
     0
370
    -2
100
AcDbLine
 10
0.0
 20
0.0
 30
0.0
 11
0.7071067811865475
 21
0.7071067811865475
 31
0.0
  0
LINE
  5
71
330
6C
100
AcDbEntity
  8
0
  6
Continuous
 62
     0
370
    -2
100
AcDbLine
 10
0.0
 20
0.0
 30
0.0
 11
-0.7071067811865475
 21
-0.7071067811865475
 31
0.0
  0
ENDBLK
  5
6E
330
6C
100
AcDbEntity
  8
0
100
AcDbBlockEnd
  0
BLOCK
  5
73
330
72
100
AcDbEntity
  8
0
100
AcDbBlockBegin
  2
FXTIP_CIVIL_S
 70
     0
 10
0.0
 20
0.0
 30
0.0
  3
FXTIP_CIVIL_S
  1

  0
LINE
  5
75
330
72
100
AcDbEntity
  8
0
  6
Continuous
 62
     0
370
    -2
100
AcDbLine
 10
0.0
 20
0.0
 30
0.0
 11
-1.0
 21
0.0000000000000001
 31
0.0
  0
LINE
  5
76
330
72
100
AcDbEntity
  8
0
  6
Continuous
 62
     0
370
    -2
100
AcDbLine
 10
0.0
 20
-0.0833333333333333
 30
0.0
 11
-1.0
 21
-0.0833333333333332
 31
0.0
  0
LINE
  5
77
330
72
100
AcDbEntity
  8
0
  6
Continuous
 62
     0
370
    -2
100
AcDbLine
 10
0.0
 20
-0.1666666666666667
 30
0.0
 11
-1.0
 21
-0.1666666666666666
 31
0.0
  0
ENDBLK
  5
74
330
72
100
AcDbEntity
  8
0
100
AcDbBlockEnd
  0
BLOCK
  5
79
330
78
100
AcDbEntity
  8
0
100
AcDbBlockBegin
  2
FXTIP_CIVIL_E
 70
     0
 10
0.0
 20
0.0
 30
0.0
  3
FXTIP_CIVIL_E
  1

  0
LINE
  5
7B
330
78
100
AcDbEntity
  8
0
  6
Continuous
 62
     0
370
    -2
100
AcDbLine
 10
0.0
 20
0.0
 30
0.0
 11
-1.0
 21
0.0
 31
0.0
  0
LINE
  5
7C
330
78
100
AcDbEntity
  8
0
  6
Continuous
 62
     0
370
    -2
100
AcDbLine
 10
0.0
 20
0.0833333333333333
 30
0.0
 11
-1.0
 21
0.0833333333333333
 31
0.0
  0
LINE
  5
7D
330
78
100
AcDbEntity
  8
0
  6
Continuous
 62
     0
370
    -2
100
AcDbLine
 10
0.0
 20
0.1666666666666667
 30
0.0
 11
-1.0
 21
0.1666666666666667
 31
0.0
  0
ENDBLK
  5
7A
330
78
100
AcDbEntity
  8
0
100
AcDbBlockEnd
  0
BLOCK
  5
7F
330
7E
100
AcDbEntity
  8
0
100
AcDbBlockBegin
  2
FXTIP_WHITEDOT_S
 70
     0
 10
0.0
 20
0.0
 30
0.0
  3
FXTIP_WHITEDOT_S
  1

  0
LINE
  5
81
330
7E
100
AcDbEntity
  8
0
  6
Continuous
 62
     0
370
    -2
100
AcDbLine
 10
0.0
 20
0.0
 30
0.0
 11
-1.0
 21
0.0000000000000001
 31
0.0
  0
CIRCLE
  5
82
330
7E
100
AcDbEntity
  8
0
  6
Continuous
 62
     0
370
    -2
100
AcDbCircle
 10
0.0
 20
0.0
 30
0.0
 40
0.5
  0
ENDBLK
  5
80
330
7E
100
AcDbEntity
  8
0
100
AcDbBlockEnd
  0
BLOCK
  5
84
330
83
100
AcDbEntity
  8
0
100
AcDbBlockBegin
  2
FXTIP_WHITEDOT_E
 70
     0
 10
0.0
 20
0.0
 30
0.0
  3
FXTIP_WHITEDOT_E
  1

  0
LINE
  5
86
330
83
100
AcDbEntity
  8
0
  6
Continuous
 62
     0
370
    -2
100
AcDbLine
 10
0.0
 20
0.0
 30
0.0
 11
-1.0
 21
0.0
 31
0.0
  0
CIRCLE
  5
87
330
83
100
AcDbEntity
  8
0
  6
Continuous
 62
     0
370
    -2
100
AcDbCircle
 10
0.0
 20
0.0
 30
0.0
 40
0.5
  0
ENDBLK
  5
85
330
83
100
AcDbEntity
  8
0
100
AcDbBlockEnd
  0
BLOCK
  5
89
330
88
100
AcDbEntity
  8
0
100
AcDbBlockBegin
  2
FXTIP_UPARROW_S
 70
     0
 10
0.0
 20
0.0
 30
0.0
  3
FXTIP_UPARROW_S
  1

  0
LINE
  5
8B
330
88
100
AcDbEntity
  8
0
  6
Continuous
 62
     0
370
    -2
100
AcDbLine
 10
0.0
 20
0.0
 30
0.0
 11
-1.0
 21
0.0000000000000001
 31
0.0
  0
LINE
  5
8C
330
88
100
AcDbEntity
  8
0
  6
Continuous
 62
     0
370
    -2
100
AcDbLine
 10
0.0
 20
0.0
 30
0.0
 11
-0.9914448613738104
 21
-0.1305261922200515
 31
0.0
  0
ENDBLK
  5
8A
330
88
100
AcDbEntity
  8
0
100
AcDbBlockEnd
  0
BLOCK
  5
8E
330
8D
100
AcDbEntity
  8
0
100
AcDbBlockBegin
  2
FXTIP_UPARROW_E
 70
     0
 10
0.0
 20
0.0
 30
0.0
  3
FXTIP_UPARROW_E
  1

  0
LINE
  5
90
330
8D
100
AcDbEntity
  8
0
  6
Continuous
 62
     0
370
    -2
100
AcDbLine
 10
0.0
 20
0.0
 30
0.0
 11
-1.0
 21
0.0
 31
0.0
  0
LINE
  5
91
330
8D
100
AcDbEntity
  8
0
  6
Continuous
 62
     0
370
    -2
100
AcDbLine
 10
0.0
 20
0.0
 30
0.0
 11
-0.9914448613738104
 21
0.1305261922200516
 31
0.0
  0
ENDBLK
  5
8F
330
8D
100
AcDbEntity
  8
0
100
AcDbBlockEnd
  0
BLOCK
  5
93
330
92
100
AcDbEntity
  8
0
100
AcDbBlockBegin
  2
FXTIP_DOWNARROW_S
 70
     0
 10
0.0
 20
0.0
 30
0.0
  3
FXTIP_DOWNARROW_S
  1

  0
LINE
  5
95
330
92
100
AcDbEntity
  8
0
  6
Continuous
 62
     0
370
    -2
100
AcDbLine
 10
0.0
 20
0.0
 30
0.0
 11
-1.0
 21
0.0000000000000001
 31
0.0
  0
LINE
  5
96
330
92
100
AcDbEntity
  8
0
  6
Continuous
 62
     0
370
    -2
100
AcDbLine
 10
0.0
 20
0.0
 30
0.0
 11
-0.9914448613738104
 21
0.1305261922200517
 31
0.0
  0
ENDBLK
  5
94
330
92
100
AcDbEntity
  8
0
100
AcDbBlockEnd
  0
BLOCK
  5
98
330
97
100
AcDbEntity
  8
0
100
AcDbBlockBegin
  2
FXTIP_DOWNARROW_E
 70
     0
 10
0.0
 20
0.0
 30
0.0
  3
FXTIP_DOWNARROW_E
  1

  0
LINE
  5
9A
330
97
100
AcDbEntity
  8
0
  6
Continuous
 62
     0
370
    -2
100
AcDbLine
 10
0.0
 20
0.0
 30
0.0
 11
-1.0
 21
0.0
 31
0.0
  0
LINE
  5
9B
330
97
100
AcDbEntity
  8
0
  6
Continuous
 62
     0
370
    -2
100
AcDbLine
 10
0.0
 20
0.0
 30
0.0
 11
-0.9914448613738104
 21
-0.1305261922200516
 31
0.0
  0
ENDBLK
  5
99
330
97
100
AcDbEntity
  8
0
100
AcDbBlockEnd
  0
BLOCK
  5
9D
330
9C
100
AcDbEntity
  8
0
100
AcDbBlockBegin
  2
FXTIP_BLACKTRIANGLE_S
 70
     0
 10
0.0
 20
0.0
 30
0.0
  3
FXTIP_BLACKTRIANGLE_S
  1

  0
LINE
  5
9F
330
9C
100
AcDbEntity
  8
0
  6
Continuous
 62
     0
370
    -2
100
AcDbLine
 10
0.0
 20
0.0
 30
0.0
 11
-1.0
 21
0.0000000000000001
 31
0.0
  0
SOLID
  5
A0
330
9C
100
AcDbEntity
  8
0
  6
Continuous
 62
     0
370
    -2
100
AcDbTrace
 10
0.0
 20
0.0
 30
0.0
 11
-0.9914448613738104
 21
-0.1305261922200515
 31
0.0
 12
-0.9914448613738104
 22
0.1305261922200517
 32
0.0
 13
-0.9914448613738104
 23
0.1305261922200517
 33
0.0
  0
ENDBLK
  5
9E
330
9C
100
AcDbEntity
  8
0
100
AcDbBlockEnd
  0
BLOCK
  5
A2
330
A1
100
AcDbEntity
  8
0
100
AcDbBlockBegin
  2
FXTIP_BLACKTRIANGLE_E
 70
     0
 10
0.0
 20
0.0
 30
0.0
  3
FXTIP_BLACKTRIANGLE_E
  1

  0
LINE
  5
A4
330
A1
100
AcDbEntity
  8
0
  6
Continuous
 62
     0
370
    -2
100
AcDbLine
 10
0.0
 20
0.0
 30
0.0
 11
-1.0
 21
0.0
 31
0.0
  0
SOLID
  5
A5
330
A1
100
AcDbEntity
  8
0
  6
Continuous
 62
     0
370
    -2
100
AcDbTrace
 10
0.0
 20
0.0
 30
0.0
 11
-0.9914448613738104
 21
0.1305261922200516
 31
0.0
 12
-0.9914448613738104
 22
-0.1305261922200516
 32
0.0
 13
-0.9914448613738104
 23
-0.1305261922200516
 33
0.0
  0
ENDBLK
  5
A3
330
A1
100
AcDbEntity
  8
0
100
AcDbBlockEnd
  0
BLOCK
  5
19A
330
199
100
AcDbEntity
  8
0
100
AcDbBlockBegin
  2
BLKF022
 70
     0
 10
0.0
 20
0.0
 30
0.0
  3
BLKF022
  1

  0
LINE
  5
19D
330
199
100
AcDbEntity
  8
0
  6
ByBlock
 62
     0
370
    -2
100
AcDbLine
 10
145.4545454545454
 20
128.3181818181789
 30
0.0
 11
145.4545454545454
 21
116.3181818181789
 31
0.0
  0
LINE
  5
19E
330
199
100
AcDbEntity
  8
0
  6
ByBlock
 62
     0
370
    -2
100
AcDbLine
 10
144.4545454545454
 20
125.3181818181789
 30
0.0
 11
144.4545454545453
 21
124.7181818181789
 31
0.0
  0
LINE
  5
19F
330
199
100
AcDbEntity
  8
0
  6
ByBlock
 62
     0
370
    -2
100
AcDbLine
 10
144.4545454545454
 20
119.9181818181789
 30
0.0
 11
144.4545454545454
 21
119.3181818181789
 31
0.0
  0
LINE
  5
1A0
330
199
100
AcDbEntity
  8
0
  6
ByBlock
 62
     0
370
    -2
100
AcDbLine
 10
138.4545454545454
 20
124.2181818181789
 30
0.0
 11
138.4545454545454
 21
120.4181818181789
 31
0.0
  0
LINE
  5
1A1
330
199
100
AcDbEntity
  8
0
  6
ByBlock
 62
     0
370
    -2
100
AcDbLine
 10
155.4545454545455
 20
119.3181818181789
 30
0.0
 11
155.4545454545455
 21
125.3181818181789
 31
0.0
  0
LINE
  5
1A2
330
199
100
AcDbEntity
  8
作図レイヤ
  6
一点鎖線
 62
     7
370
    20
100
AcDbLine
 10
141.4545454545455
 20
124.2560432756259
 30
0.0
 11
141.4545454545455
 21
120.3514465900867
 31
0.0
  0
CIRCLE
  5
1A3
330
199
100
AcDbEntity
  8
0
  6
ByBlock
 62
     0
370
    -2
100
AcDbCircle
 10
141.4545454545455
 20
122.3181818181789
 30
0.0
 40
1.0
  0
ENDBLK
  5
19B
330
199
100
AcDbEntity
  8
0
100
AcDbBlockEnd
  0
BLOCK
  5
1C4
330
1C3
100
AcDbEntity
  8
0
100
AcDbBlockBegin
  2
BLKF023
 70
     0
 10
0.0
 20
0.0
 30
0.0
  3
BLKF023
  1

  0
LINE
  5
1C7
330
1C3
100
AcDbEntity
  8
0
  6
ByBlock
 62
     0
370
    -2
100
AcDbLine
 10
192.3016727281164
 20
127.3181818181788
 30
0.0
 11
162.3016727281164
 21
127.3181818181788
 31
0.0
  0
LINE
  5
1C8
330
1C3
100
AcDbEntity
  8
0
  6
ByBlock
 62
     0
370
    -2
100
AcDbLine
 10
161.3016727281164
 20
142.3181818181787
 30
0.0
 11
161.3016727281164
 21
128.3181818181788
 31
0.0
  0
LINE
  5
1C9
330
1C3
100
AcDbEntity
  8
0
  6
ByBlock
 62
     0
370
    -2
100
AcDbLine
 10
193.3016727281164
 20
142.3181818181787
 30
0.0
 11
193.3016727281164
 21
128.3181818181788
 31
0.0
  0
ARC
  5
1CA
330
1C3
100
AcDbEntity
  8
0
  6
ByBlock
 62
     0
370
    -2
100
AcDbCircle
 10
162.3016727281164
 20
128.3181818181788
 30
0.0
 40
1.0
100
AcDbArc
 50
180.0
 51
270.0
  0
ARC
  5
1CB
330
1C3
100
AcDbEntity
  8
0
  6
ByBlock
 62
     0
370
    -2
100
AcDbCircle
 10
192.3016727281164
 20
128.3181818181788
 30
0.0
 40
1.0
100
AcDbArc
 50
270.0
 51
0.0
  0
TEXT
  5
1CC
330
1C3
100
AcDbEntity
  8
0
  6
ByBlock
 62
     0
370
    -2
100
AcDbText
 10
175.2615814208984
 20
141.3536376953125
 30
0.0
 40
3.5
  1
Ｎ　Ｐ
 50
270.0000076293945
 41
1.23529411764706
 51
10.0
  7
FX_VECTOR
 72
     5
 11
175.261582819058
 21
130.8536376953126
 31
0.0
100
AcDbText
  0
ENDBLK
  5
1C5
330
1C3
100
AcDbEntity
  8
0
100
AcDbBlockEnd
  0
ENDSEC
  0
SECTION
  2
ENTITIES
  0
LINE
  5
AA
330
1F
100
AcDbEntity
  8
作図レイヤ
  6
一点鎖線
 62
     7
370
    20
100
AcDbLine
 10
135.4545454545454
 20
122.3181818181789
 30
0.0
 11
234.4545454545455
 21
122.3181818181789
 31
0.0
  0
LINE
  5
AB
330
1F
100
AcDbEntity
  8
作図レイヤ
  6
一点鎖線
 62
     7
370
    20
100
AcDbLine
 10
70.45455599326633
 20
155.3181818181789
 30
0.0
 11
70.45453491582462
 21
89.31818181817886
 31
0.0
  0
LINE
  5
AC
330
1F
100
AcDbEntity
  8
作図レイヤ
  6
一点鎖線
 62
     7
370
    20
100
AcDbLine
 10
37.45454545454536
 20
122.3181818181789
 30
0.0
 11
103.4545454545454
 21
122.3181818181789
 31
0.0
  0
LINE
  5
AD
330
1F
100
AcDbEntity
  8
作図レイヤ
 62
     3
100
AcDbLine
 10
196.4545454545455
 20
101.0170344618807
 30
0.0
 11
196.4545454545455
 21
143.6193291744775
 31
0.0
  0
LINE
  5
AE
330
1F
100
AcDbEntity
  8
作図レイヤ
  6
一点鎖線
 62
     7
370
    20
100
AcDbLine
 10
250.4545454545455
 20
147.0669213951944
 30
0.0
 11
191.8545454545455
 21
147.0669213951944
 31
0.0
  0
LINE
  5
AF
330
1F
100
AcDbEntity
  8
作図レイヤ
  6
一点鎖線
 62
     7
370
    20
100
AcDbLine
 10
250.4545454545455
 20
97.5694422411637
 30
0.0
 11
191.8545454545455
 21
97.56944224116367
 31
0.0
  0
CIRCLE
  5
B0
330
1F
100
AcDbEntity
  8
作図レイヤ
 62
     3
100
AcDbCircle
 10
70.4545454545455
 20
122.3181818181789
 30
0.0
 40
25.0
  0
LINE
  5
B1
330
1F
100
AcDbEntity
  8
作図レイヤ
  6
一点鎖線
 62
     7
370
    20
100
AcDbLine
 10
260.6028065602993
 20
212.3181818181788
 30
0.0
 11
135.4545454545454
 21
212.3181818181789
 31
0.0
  0
LINE
  5
B2
330
1F
100
AcDbEntity
  8
作図レイヤ
 62
     3
100
AcDbLine
 10
196.9545454545455
 20
101.0432383515222
 30
0.0
 11
196.9545454545454
 21
143.5931252848359
 31
0.0
  0
CIRCLE
  5
B3
330
1F
100
AcDbEntity
  8
作図レイヤ
 62
     3
100
AcDbCircle
 10
70.45454545454548
 20
122.3181818181789
 30
0.0
 40
23.5
  0
LINE
  5
B4
330
1F
100
AcDbEntity
  8
作図レイヤ
  6
一点鎖線
 62
     7
370
    20
100
AcDbLine
 10
304.2816541634102
 20
122.3181818181789
 30
0.0
 11
370.2816541634102
 21
122.3181818181789
 31
0.0
  0
LINE
  5
B5
330
1F
100
AcDbEntity
  8
作図レイヤ
  6
一点鎖線
 62
     7
370
    20
100
AcDbLine
 10
337.2816541634102
 20
155.3181818181789
 30
0.0
 11
337.2816541634103
 21
89.31818181817886
 31
0.0
  0
LINE
  5
B6
330
1F
100
AcDbEntity
  8
作図レイヤ
 62
     3
100
AcDbLine
 10
307.2816541634102
 20
146.3181818181788
 30
0.0
 11
307.2816541634102
 21
98.31818181817889
 31
0.0
  0
LINE
  5
B7
330
1F
100
AcDbEntity
  8
作図レイヤ
 62
     3
100
AcDbLine
 10
367.2816541634102
 20
146.3181818181789
 30
0.0
 11
367.2816541634102
 21
98.31818181817886
 31
0.0
  0
LINE
  5
B8
330
1F
100
AcDbEntity
  8
作図レイヤ
 62
     3
100
AcDbLine
 10
313.2816541634102
 20
92.31818181817889
 30
0.0
 11
361.2816541634102
 21
92.31818181817886
 31
0.0
  0
LINE
  5
B9
330
1F
100
AcDbEntity
  8
作図レイヤ
 62
     3
100
AcDbLine
 10
313.2816541634102
 20
152.3181818181788
 30
0.0
 11
361.2816541634102
 21
152.3181818181789
 31
0.0
  0
ARC
  5
BA
330
1F
100
AcDbEntity
  8
作図レイヤ
  6
一点鎖線
 62
     7
370
    20
100
AcDbCircle
 10
337.2816541634103
 20
122.3181818181789
 30
0.0
 40
35.0
100
AcDbArc
 50
122.6987203441178
 51
147.301279655882
  0
ARC
  5
BB
330
1F
100
AcDbEntity
  8
作図レイヤ
  6
一点鎖線
 62
     7
370
    20
100
AcDbCircle
 10
337.2816541634103
 20
122.3181818181789
 30
0.0
 40
35.0
100
AcDbArc
 50
302.6987203441175
 51
327.3012796558818
  0
ARC
  5
BC
330
1F
100
AcDbEntity
  8
作図レイヤ
  6
一点鎖線
 62
     7
370
    20
100
AcDbCircle
 10
337.2816541634103
 20
122.3181818181789
 30
0.0
 40
35.0
100
AcDbArc
 50
212.5749900150515
 51
237.3012796558825
  0
ARC
  5
BD
330
1F
100
AcDbEntity
  8
作図レイヤ
  6
一点鎖線
 62
     7
370
    20
100
AcDbCircle
 10
337.2816541634103
 20
122.3181818181789
 30
0.0
 40
35.0
100
AcDbArc
 50
33.05605630941313
 51
57.30127965588244
  0
LINE
  5
BE
330
1F
100
AcDbEntity
  8
作図レイヤ
  6
一点鎖線
 62
     7
370
    20
100
AcDbLine
 10
366.9385084129026
 20
92.66132756868654
 30
0.0
 11
356.7270906460402
 21
102.8727453355489
 31
0.0
  0
LINE
  5
BF
330
1F
100
AcDbEntity
  8
作図レイヤ
  6
一点鎖線
 62
     7
370
    20
100
AcDbLine
 10
307.6247999139179
 20
92.66132756868652
 30
0.0
 11
317.8362176807801
 21
102.8727453355488
 31
0.0
  0
ARC
  5
C0
330
1F
100
AcDbEntity
  8
作図レイヤ
 62
     3
100
AcDbCircle
 10
313.2816541634102
 20
146.3181818181788
 30
0.0
 40
6.0
100
AcDbArc
 50
90.0
 51
180.0
  0
ARC
  5
C1
330
1F
100
AcDbEntity
  8
作図レイヤ
 62
     3
100
AcDbCircle
 10
313.2816541634102
 20
98.31818181817889
 30
0.0
 40
6.0
100
AcDbArc
 50
180.0
 51
270.0
  0
ARC
  5
C2
330
1F
100
AcDbEntity
  8
作図レイヤ
 62
     3
100
AcDbCircle
 10
361.2816541634102
 20
98.31818181817886
 30
0.0
 40
6.0
100
AcDbArc
 50
270.0
 51
0.0
  0
ARC
  5
C3
330
1F
100
AcDbEntity
  8
作図レイヤ
 62
     3
100
AcDbCircle
 10
361.2816541634102
 20
146.3181818181789
 30
0.0
 40
6.0
100
AcDbArc
 50
0.0
 51
90.0
  0
LINE
  5
C4
330
1F
100
AcDbEntity
  8
作図レイヤ
  6
一点鎖線
 62
     7
370
    20
100
AcDbLine
 10
328.2816541634103
 20
132.3181818181789
 30
0.0
 11
346.2816541634103
 21
132.3181818181789
 31
0.0
  0
CIRCLE
  5
C5
330
1F
100
AcDbEntity
  8
作図レイヤ
 62
     3
100
AcDbCircle
 10
337.2816541634103
 20
132.3181818181789
 30
0.0
 40
6.0
  0
CIRCLE
  5
C6
330
1F
100
AcDbEntity
  8
作図レイヤ
 62
     3
100
AcDbCircle
 10
337.2816541634103
 20
132.3181818181789
 30
0.0
 40
3.0
  0
LINE
  5
C7
330
1F
100
AcDbEntity
  8
作図レイヤ
 62
     3
100
AcDbLine
 10
335.6233417682325
 20
134.8181818181789
 30
0.0
 11
338.9399665585879
 21
134.8181818181789
 31
0.0
  0
ARC
  5
C8
330
1F
100
AcDbEntity
  8
作図レイヤ
 62
     3
100
AcDbCircle
 10
337.2816541634103
 20
122.318181818179
 30
0.0
 40
27.5
100
AcDbArc
 50
166.9313532506186
 51
250.5287793655093
  0
LINE
  5
C9
330
1F
100
AcDbEntity
  8
作図レイヤ
  6
一点鎖線
 62
     7
370
    20
100
AcDbLine
 10
331.2816541634103
 20
99.31818181817886
 30
0.0
 11
343.2816541634103
 21
99.31818181817886
 31
0.0
  0
ARC
  5
CA
330
1F
100
AcDbEntity
  8
作図レイヤ
 62
     3
100
AcDbCircle
 10
317.2816541634102
 20
133.3181818181788
 30
0.0
 40
8.0
100
AcDbArc
 50
91.96863471938401
 51
210.40977779467
  0
ARC
  5
CB
330
1F
100
AcDbEntity
  8
作図レイヤ
 62
     3
100
AcDbCircle
 10
357.2816541634102
 20
133.3181818181789
 30
0.0
 40
8.0
100
AcDbArc
 50
329.5902222053302
 51
88.0313652806156
  0
CIRCLE
  5
CC
330
1F
100
AcDbEntity
  8
作図レイヤ
 62
     3
100
AcDbCircle
 10
337.2816541634102
 20
132.3181818181788
 30
0.0
 40
4.5
  0
ARC
  5
CD
330
1F
100
AcDbEntity
  8
作図レイヤ
 62
     3
100
AcDbCircle
 10
337.2816541634103
 20
122.318181818179
 30
0.0
 40
27.5
100
AcDbArc
 50
44.55294073656404
 51
135.4470592634361
  0
LINE
  5
CE
330
1F
100
AcDbEntity
  8
作図レイヤ
 62
     3
100
AcDbLine
 10
345.7816541634103
 20
95.4481241330902
 30
0.0
 11
345.7816541634103
 21
92.31818181817886
 31
0.0
  0
LINE
  5
CF
330
1F
100
AcDbEntity
  8
作図レイヤ
 62
     3
100
AcDbLine
 10
328.7816541634103
 20
95.4481241330902
 30
0.0
 11
328.7816541634103
 21
92.31818181817889
 31
0.0
  0
ARC
  5
D0
330
1F
100
AcDbEntity
  8
作図レイヤ
 62
     3
100
AcDbCircle
 10
337.2816541634103
 20
122.318181818179
 30
0.0
 40
27.5
100
AcDbArc
 50
289.4712206344909
 51
13.06864674938152
  0
ARC
  5
D1
330
1F
100
AcDbEntity
  8
作図レイヤ
 62
     3
100
AcDbCircle
 10
327.7816541634103
 20
95.4481241330902
 30
0.0
 40
1.0
100
AcDbArc
 50
0.0
 51
70.52877936551012
  0
ARC
  5
D2
330
1F
100
AcDbEntity
  8
作図レイヤ
 62
     3
100
AcDbCircle
 10
346.7816541634103
 20
95.4481241330902
 30
0.0
 40
1.0
100
AcDbArc
 50
109.4712206344893
 51
180.0
  0
ARC
  5
D3
330
1F
100
AcDbEntity
  8
作図レイヤ
 62
     3
100
AcDbCircle
 10
309.5198084669868
 20
128.7625532792271
 30
0.0
 40
1.0
100
AcDbArc
 50
346.9313532506175
 51
30.40977779467278
  0
ARC
  5
D4
330
1F
100
AcDbEntity
  8
作図レイヤ
 62
     3
100
AcDbCircle
 10
316.9724825853615
 20
142.3128698580903
 30
0.0
 40
1.0
100
AcDbArc
 50
271.9686347193829
 51
315.4470592634323
  0
ARC
  5
D5
330
1F
100
AcDbEntity
  8
作図レイヤ
 62
     3
100
AcDbCircle
 10
357.5908257414591
 20
142.3128698580904
 30
0.0
 40
1.0
100
AcDbArc
 50
224.5529407365643
 51
268.031365280614
  0
ARC
  5
D6
330
1F
100
AcDbEntity
  8
作図レイヤ
 62
     3
100
AcDbCircle
 10
365.0434998598338
 20
128.7625532792271
 30
0.0
 40
1.0
100
AcDbArc
 50
149.5902222053305
 51
193.0686467493825
  0
CIRCLE
  5
D7
330
1F
100
AcDbEntity
  8
作図レイヤ
 62
     3
100
AcDbCircle
 10
317.2816541634099
 20
133.3181818181788
 30
0.0
 40
3.0
  0
CIRCLE
  5
D8
330
1F
100
AcDbEntity
  8
作図レイヤ
 62
     3
100
AcDbCircle
 10
357.2816541634103
 20
133.3181818181789
 30
0.0
 40
3.0
  0
CIRCLE
  5
D9
330
1F
100
AcDbEntity
  8
作図レイヤ
 62
     3
100
AcDbCircle
 10
337.2816541634103
 20
99.31818181817889
 30
0.0
 40
3.0
  0
LINE
  5
DA
330
1F
100
AcDbEntity
  8
作図レイヤ
  6
一点鎖線
 62
     7
370
    20
100
AcDbLine
 10
312.0855017407034
 20
136.3181818181788
 30
0.0
 11
322.4778065861167
 21
130.3181818181788
 31
0.0
  0
LINE
  5
DB
330
1F
100
AcDbEntity
  8
作図レイヤ
  6
一点鎖線
 62
     7
370
    20
100
AcDbLine
 10
314.2816541634103
 20
128.1220293954724
 30
0.0
 11
320.2816541634103
 21
138.5143342408857
 31
0.0
  0
LINE
  5
DC
330
1F
100
AcDbEntity
  8
作図レイヤ
  6
一点鎖線
 62
     7
370
    20
100
AcDbLine
 10
354.2816541634101
 20
138.5143342408854
 30
0.0
 11
360.2816541634101
 21
128.1220293954721
 31
0.0
  0
LINE
  5
DD
330
1F
100
AcDbEntity
  8
作図レイヤ
  6
一点鎖線
 62
     7
370
    20
100
AcDbLine
 10
352.0855017407036
 20
130.3181818181789
 30
0.0
 11
362.4778065861169
 21
136.3181818181789
 31
0.0
  0
LINE
  5
DE
330
1F
100
AcDbEntity
  8
作図レイヤ
  6
一点鎖線
 62
     7
370
    20
100
AcDbLine
 10
356.7270906460402
 20
141.7636183008089
 30
0.0
 11
366.9385084129026
 21
151.9750360676713
 31
0.0
  0
LINE
  5
DF
330
1F
100
AcDbEntity
  8
作図レイヤ
  6
一点鎖線
 62
     7
370
    20
100
AcDbLine
 10
317.8362176807801
 20
141.763618300809
 30
0.0
 11
307.6247999139179
 21
151.9750360676713
 31
0.0
  0
ARC
  5
E0
330
1F
100
AcDbEntity
  8
作図レイヤ
  6
一点鎖線
 62
     7
370
    20
100
AcDbCircle
 10
70.45454545454548
 20
122.3181818181789
 30
0.0
 40
35.0
100
AcDbArc
 50
214.3439310011823
 51
235.6559226171871
  0
LINE
  5
E1
330
1F
100
AcDbEntity
  8
作図レイヤ
  6
一点鎖線
 62
     7
370
    20
100
AcDbLine
 10
50.30200219072888
 20
142.4707250819955
 30
0.0
 11
41.10961403530376
 21
151.6631132374206
 31
0.0
  0
LINE
  5
E2
330
1F
100
AcDbEntity
  8
作図レイヤ
  6
一点鎖線
 62
     7
370
    20
100
AcDbLine
 10
90.6070887183842
 20
142.4707250820176
 30
0.0
 11
99.79947687375495
 21
151.6631132373884
 31
0.0
  0
LINE
  5
E3
330
1F
100
AcDbEntity
  8
作図レイヤ
  6
一点鎖線
 62
     7
370
    20
100
AcDbLine
 10
90.60708871838419
 20
102.1656385543401
 30
0.0
 11
99.79947687375494
 21
92.97325039896938
 31
0.0
  0
LINE
  5
E4
330
1F
100
AcDbEntity
  8
作図レイヤ
  6
一点鎖線
 62
     7
370
    20
100
AcDbLine
 10
50.30200219064035
 20
102.1656385542738
 30
0.0
 11
41.10961403543269
 21
92.9732503990661
 31
0.0
  0
ARC
  5
E5
330
1F
100
AcDbEntity
  8
作図レイヤ
  6
一点鎖線
 62
     7
370
    20
100
AcDbCircle
 10
70.45454545454548
 20
122.3181818181789
 30
0.0
 40
35.0
100
AcDbArc
 50
124.3440041919976
 51
145.6559958080024
  0
ARC
  5
E6
330
1F
100
AcDbEntity
  8
作図レイヤ
  6
一点鎖線
 62
     7
370
    20
100
AcDbCircle
 10
70.45454545454548
 20
122.3181818181789
 30
0.0
 40
35.0
100
AcDbArc
 50
34.34396759658996
 51
55.65595921259478
  0
ARC
  5
E7
330
1F
100
AcDbEntity
  8
作図レイヤ
  6
一点鎖線
 62
     7
370
    20
100
AcDbCircle
 10
70.45454545454548
 20
122.3181818181789
 30
0.0
 40
35.0
100
AcDbArc
 50
304.3440407874052
 51
325.65603240341
  0
LINE
  5
E8
330
1F
100
AcDbEntity
  8
作図レイヤ
  6
一点鎖線
 62
     7
370
    20
100
AcDbLine
 10
65.27912406917065
 20
138.2727316990356
 30
0.0
 11
75.6299770302565
 21
138.2727316990356
 31
0.0
  0
LINE
  5
E9
330
1F
100
AcDbEntity
  8
作図レイヤ
  6
一点鎖線
 62
     7
370
    20
100
AcDbLine
 10
65.27912406917065
 20
106.3636319373219
 30
0.0
 11
75.62997703025651
 21
106.3636319373219
 31
0.0
  0
LINE
  5
EA
330
1F
100
AcDbEntity
  8
作図レイヤ
  6
一点鎖線
 62
     7
370
    20
100
AcDbLine
 10
228.4545454545455
 20
132.3181818181791
 30
0.0
 11
260.9545454545454
 21
132.3181818181791
 31
0.0
  0
LINE
  5
EC
330
1F
100
AcDbEntity
  8
GR1_01
 62
     3
370
    35
100
AcDbLine
 10
232.2545454545455
 20
184.0694422411632
 30
0.0
 11
232.2545454545455
 21
191.0694422411633
 31
0.0
  0
LINE
  5
ED
330
1F
100
AcDbEntity
  8
GR1_01
 62
     3
370
    35
100
AcDbLine
 10
232.2545454545455
 20
191.0694422411632
 30
0.0
 11
235.4545454545456
 21
191.0694422411632
 31
0.0
  0
LINE
  5
EE
330
1F
100
AcDbEntity
  8
GR1_01
 62
     3
370
    35
100
AcDbLine
 10
235.4545454545456
 20
191.0694422411632
 30
0.0
 11
235.4545454545456
 21
184.0694422411632
 31
0.0
  0
LINE
  5
EF
330
1F
100
AcDbEntity
  8
GR1_01
 62
     3
370
    35
100
AcDbLine
 10
235.4545454545456
 20
184.0694422411632
 30
0.0
 11
232.2545454545455
 21
184.0694422411632
 31
0.0
  0
LINE
  5
F0
330
1F
100
AcDbEntity
  8
GR1_01
 62
     3
370
    35
100
AcDbLine
 10
232.2545454545455
 20
187.5694422411632
 30
0.0
 11
235.1838195123817
 21
187.5694422411632
 31
0.0
  0
ARC
  5
F1
330
1F
100
AcDbEntity
  8
GR1_01
 62
     3
370
    35
100
AcDbCircle
 10
229.6630935702181
 20
189.3194422411632
 30
0.0
 40
5.791451884327388
100
AcDbArc
 50
342.4120462260062
 51
17.58795377399378
  0
ARC
  5
F2
330
1F
100
AcDbEntity
  8
GR1_01
 62
     3
370
    35
100
AcDbCircle
 10
229.6630935702181
 20
185.8194422411632
 30
0.0
 40
5.791451884327388
100
AcDbArc
 50
342.4120462260062
 51
17.58795377399378
  0
LINE
  5
F3
330
1F
100
AcDbEntity
  8
作図レイヤ
 62
     3
100
AcDbLine
 10
196.4545454545456
 20
233.619329174477
 30
0.0
 11
196.4545454545455
 21
191.0170344618802
 31
0.0
  0
LINE
  5
F4
330
1F
100
AcDbEntity
  8
作図レイヤ
  6
一点鎖線
 62
     7
370
    20
100
AcDbLine
 10
250.4545454545455
 20
187.5694422411632
 30
0.0
 11
191.8545454545456
 21
187.5694422411632
 31
0.0
  0
LINE
  5
F5
330
1F
100
AcDbEntity
  8
作図レイヤ
  6
一点鎖線
 62
     7
370
    20
100
AcDbLine
 10
250.4545454545455
 20
237.066921395194
 30
0.0
 11
191.8545454545455
 21
237.066921395194
 31
0.0
  0
LINE
  5
F6
330
1F
100
AcDbEntity
  8
作図レイヤ
 62
     3
100
AcDbLine
 10
196.9545454545456
 20
233.5931252848354
 30
0.0
 11
196.9545454545455
 21
191.0432383515217
 31
0.0
  0
LINE
  5
F7
330
1F
100
AcDbEntity
  8
作図レイヤ
 62
     3
100
AcDbLine
 10
231.4545454545455
 20
242.3181818181786
 30
0.0
 11
231.4545454545455
 21
182.3181818181786
 31
0.0
  0
LINE
  5
F8
330
1F
100
AcDbEntity
  8
作図レイヤ
 62
     3
100
AcDbLine
 10
203.4545454545455
 20
242.3181818181787
 30
0.0
 11
231.4545454545455
 21
242.3181818181787
 31
0.0
  0
LINE
  5
F9
330
1F
100
AcDbEntity
  8
作図レイヤ
 62
     3
100
AcDbLine
 10
203.4545454545455
 20
182.3181818181788
 30
0.0
 11
231.4545454545455
 21
182.3181818181788
 31
0.0
  0
LINE
  5
FA
330
1F
100
AcDbEntity
  8
作図レイヤ
 62
     3
100
AcDbLine
 10
203.4545454545455
 20
182.3181818181788
 30
0.0
 11
203.4545454545455
 21
242.3181818181788
 31
0.0
  0
LINE
  5
FB
330
1F
100
AcDbEntity
  8
作図レイヤ
 62
     3
100
AcDbLine
 10
231.4545454545455
 20
218.3181818181788
 30
0.0
 11
236.4545454545456
 21
218.3181818181788
 31
0.0
  0
LINE
  5
FC
330
1F
100
AcDbEntity
  8
作図レイヤ
 62
     3
100
AcDbLine
 10
231.4545454545455
 20
206.3181818181788
 30
0.0
 11
236.4545454545456
 21
206.3181818181788
 31
0.0
  0
LINE
  5
FD
330
1F
100
AcDbEntity
  8
作図レイヤ
 62
     3
100
AcDbLine
 10
236.4545454545455
 20
218.3181818181788
 30
0.0
 11
236.4545454545455
 21
206.3181818181788
 31
0.0
  0
LINE
  5
FE
330
1F
100
AcDbEntity
  8
作図レイヤ
 62
     3
100
AcDbLine
 10
236.4545454545456
 20
215.3181818181788
 30
0.0
 11
257.9545454545455
 21
215.3181818181788
 31
0.0
  0
LINE
  5
FF
330
1F
100
AcDbEntity
  8
作図レイヤ
 62
     3
100
AcDbLine
 10
236.4545454545456
 20
209.3181818181788
 30
0.0
 11
257.9545454545455
 21
209.3181818181789
 31
0.0
  0
LINE
  5
100
330
1F
100
AcDbEntity
  8
作図レイヤ
 62
     3
100
AcDbLine
 10
257.9545454545455
 20
215.3181818181787
 30
0.0
 11
257.9545454545455
 21
209.3181818181789
 31
0.0
  0
LINE
  5
101
330
1F
100
AcDbEntity
  8
作図レイヤ
 62
     3
100
AcDbLine
 10
232.2545454545455
 20
183.0694422411633
 30
0.0
 11
232.2545454545455
 21
192.0694422411633
 31
0.0
  0
LINE
  5
102
330
1F
100
AcDbEntity
  8
作図レイヤ
 62
     3
100
AcDbLine
 10
232.2545454545455
 20
192.0694422411633
 30
0.0
 11
231.4545454545455
 21
192.0694422411633
 31
0.0
  0
LINE
  5
103
330
1F
100
AcDbEntity
  8
作図レイヤ
 62
     3
100
AcDbLine
 10
231.4545454545455
 20
192.0694422411633
 30
0.0
 11
231.4545454545455
 21
183.0694422411633
 31
0.0
  0
LINE
  5
104
330
1F
100
AcDbEntity
  8
作図レイヤ
 62
     3
100
AcDbLine
 10
231.4545454545455
 20
183.0694422411633
 30
0.0
 11
232.2545454545455
 21
183.0694422411633
 31
0.0
  0
LINE
  5
105
330
1F
100
AcDbEntity
  8
作図レイヤ
 62
     3
100
AcDbLine
 10
232.2545454545455
 20
232.566921395194
 30
0.0
 11
232.2545454545455
 21
241.566921395194
 31
0.0
  0
LINE
  5
106
330
1F
100
AcDbEntity
  8
作図レイヤ
 62
     3
100
AcDbLine
 10
232.2545454545455
 20
241.566921395194
 30
0.0
 11
231.4545454545455
 21
241.566921395194
 31
0.0
  0
LINE
  5
107
330
1F
100
AcDbEntity
  8
作図レイヤ
 62
     3
100
AcDbLine
 10
231.4545454545455
 20
241.566921395194
 30
0.0
 11
231.4545454545455
 21
232.566921395194
 31
0.0
  0
LINE
  5
108
330
1F
100
AcDbEntity
  8
作図レイヤ
 62
     3
100
AcDbLine
 10
231.4545454545455
 20
232.566921395194
 30
0.0
 11
232.2545454545455
 21
232.566921395194
 31
0.0
  0
LINE
  5
109
330
1F
100
AcDbEntity
  8
GR1_01
 62
     3
370
    35
100
AcDbLine
 10
232.2545454545455
 20
233.566921395194
 30
0.0
 11
232.2545454545455
 21
240.566921395194
 31
0.0
  0
LINE
  5
10A
330
1F
100
AcDbEntity
  8
GR1_01
 62
     3
370
    35
100
AcDbLine
 10
232.2545454545455
 20
240.566921395194
 30
0.0
 11
235.4545454545456
 21
240.566921395194
 31
0.0
  0
LINE
  5
10B
330
1F
100
AcDbEntity
  8
GR1_01
 62
     3
370
    35
100
AcDbLine
 10
235.4545454545456
 20
240.566921395194
 30
0.0
 11
235.4545454545456
 21
233.566921395194
 31
0.0
  0
LINE
  5
10C
330
1F
100
AcDbEntity
  8
GR1_01
 62
     3
370
    35
100
AcDbLine
 10
235.4545454545456
 20
233.566921395194
 30
0.0
 11
232.2545454545455
 21
233.566921395194
 31
0.0
  0
LINE
  5
10D
330
1F
100
AcDbEntity
  8
GR1_01
 62
     3
370
    35
100
AcDbLine
 10
232.2545454545455
 20
237.066921395194
 30
0.0
 11
235.1838195123817
 21
237.066921395194
 31
0.0
  0
ARC
  5
10E
330
1F
100
AcDbEntity
  8
GR1_01
 62
     3
370
    35
100
AcDbCircle
 10
229.6630935702181
 20
238.816921395194
 30
0.0
 40
5.791451884327388
100
AcDbArc
 50
342.4120462260057
 51
17.58795377399322
  0
ARC
  5
10F
330
1F
100
AcDbEntity
  8
GR1_01
 62
     3
370
    35
100
AcDbCircle
 10
229.6630935702181
 20
235.316921395194
 30
0.0
 40
5.791451884327388
100
AcDbArc
 50
342.4120462260062
 51
17.58795377399378
  0
LINE
  5
111
330
1F
100
AcDbEntity
  8
基準ﾚｲﾔｸﾞﾙｰﾌﾟ_01
370
    40
100
AcDbLine
 10
245.9545454545455
 20
210.6598694230012
 30
0.0
 11
245.9545454545455
 21
213.9764942133564
 31
0.0
  0
LINE
  5
112
330
1F
100
AcDbEntity
  8
基準ﾚｲﾔｸﾞﾙｰﾌﾟ_01
370
    40
100
AcDbLine
 10
257.9545454545455
 20
213.9764942133564
 30
0.0
 11
245.9545454545456
 21
213.9764942133564
 31
0.0
  0
LINE
  5
113
330
1F
100
AcDbEntity
  8
基準ﾚｲﾔｸﾞﾙｰﾌﾟ_01
370
    40
100
AcDbLine
 10
257.9545454545455
 20
210.6598694230012
 30
0.0
 11
245.9545454545456
 21
210.6598694230012
 31
0.0
  0
LINE
  5
114
330
1F
100
AcDbEntity
  8
作図レイヤ
 62
     3
100
AcDbLine
 10
197.4545454545455
 20
240.5669213951941
 30
0.0
 11
196.391621471582
 21
240.5112159097002
 31
0.0
  0
LINE
  5
115
330
1F
100
AcDbEntity
  8
作図レイヤ
 62
     3
100
AcDbLine
 10
197.4545454545455
 20
233.566921395194
 30
0.0
 11
196.391621471582
 21
233.6226268806878
 31
0.0
  0
LINE
  5
116
330
1F
100
AcDbEntity
  8
作図レイヤ
 62
     3
100
AcDbLine
 10
197.4545454545455
 20
240.5669213951941
 30
0.0
 11
197.4545454545455
 21
233.566921395194
 31
0.0
  0
ARC
  5
117
330
1F
100
AcDbEntity
  8
作図レイヤ
 62
     3
100
AcDbCircle
 10
196.4596582146979
 20
239.2129975145192
 30
0.0
 40
1.3
100
AcDbArc
 50
93.00000000000065
 51
163.8167007802421
  0
ARC
  5
118
330
1F
100
AcDbEntity
  8
作図レイヤ
 62
     3
100
AcDbCircle
 10
196.4596582146979
 20
234.9208452758687
 30
0.0
 40
1.3
100
AcDbArc
 50
196.1832992197532
 51
266.9999999999995
  0
ARC
  5
119
330
1F
100
AcDbEntity
  8
作図レイヤ
 62
     3
100
AcDbCircle
 10
203.8545454545455
 20
237.066921395194
 30
0.0
 40
9.0
100
AcDbArc
 50
163.8167007802418
 51
196.1832992197579
  0
LINE
  5
11A
330
1F
100
AcDbEntity
  8
作図レイヤ
 62
     3
100
AcDbLine
 10
235.4545454545455
 20
239.066921395194
 30
0.0
 11
246.6545454545455
 21
239.066921395194
 31
0.0
  0
LINE
  5
11B
330
1F
100
AcDbEntity
  8
作図レイヤ
 62
     3
100
AcDbLine
 10
235.4545454545455
 20
235.066921395194
 30
0.0
 11
246.6545454545455
 21
235.066921395194
 31
0.0
  0
LINE
  5
11C
330
1F
100
AcDbEntity
  8
作図レイヤ
 62
     3
100
AcDbLine
 10
247.4545454545455
 20
238.2669213951939
 30
0.0
 11
247.4545454545455
 21
235.8669213951939
 31
0.0
  0
LINE
  5
11D
330
1F
100
AcDbEntity
  8
作図レイヤ
 62
     7
370
    20
100
AcDbLine
 10
235.4545454545455
 20
238.6669213951939
 30
0.0
 11
247.0545454545455
 21
238.6669213951939
 31
0.0
  0
LINE
  5
11E
330
1F
100
AcDbEntity
  8
作図レイヤ
 62
     7
370
    20
100
AcDbLine
 10
235.4545454545455
 20
235.4669213951939
 30
0.0
 11
247.0545454545455
 21
235.4669213951939
 31
0.0
  0
LINE
  5
11F
330
1F
100
AcDbEntity
  8
作図レイヤ
 62
     3
100
AcDbLine
 10
247.4545454545455
 20
235.8669213951939
 30
0.0
 11
246.6545454545455
 21
235.066921395194
 31
0.0
  0
LINE
  5
120
330
1F
100
AcDbEntity
  8
作図レイヤ
 62
     3
100
AcDbLine
 10
246.6545454545455
 20
239.066921395194
 30
0.0
 11
247.4545454545455
 21
238.2669213951939
 31
0.0
  0
LINE
  5
121
330
1F
100
AcDbEntity
  8
作図レイヤ
 62
     3
100
AcDbLine
 10
246.6545454545455
 20
239.066921395194
 30
0.0
 11
246.6545454545455
 21
235.066921395194
 31
0.0
  0
LINE
  5
122
330
1F
100
AcDbEntity
  8
作図レイヤ
 62
     3
100
AcDbLine
 10
197.4545454545455
 20
191.0694422411632
 30
0.0
 11
196.391621471582
 21
191.0137367556694
 31
0.0
  0
LINE
  5
123
330
1F
100
AcDbEntity
  8
作図レイヤ
 62
     3
100
AcDbLine
 10
197.4545454545455
 20
184.0694422411632
 30
0.0
 11
196.391621471582
 21
184.125147726657
 31
0.0
  0
LINE
  5
124
330
1F
100
AcDbEntity
  8
作図レイヤ
 62
     3
100
AcDbLine
 10
197.4545454545455
 20
191.0694422411632
 30
0.0
 11
197.4545454545455
 21
184.0694422411632
 31
0.0
  0
ARC
  5
125
330
1F
100
AcDbEntity
  8
作図レイヤ
 62
     3
100
AcDbCircle
 10
196.4596582146979
 20
189.7155183604885
 30
0.0
 40
1.3
100
AcDbArc
 50
93.00000000000057
 51
163.8167007802421
  0
ARC
  5
126
330
1F
100
AcDbEntity
  8
作図レイヤ
 62
     3
100
AcDbCircle
 10
196.4596582146979
 20
185.423366121838
 30
0.0
 40
1.3
100
AcDbArc
 50
196.1832992197556
 51
266.9999999999994
  0
ARC
  5
127
330
1F
100
AcDbEntity
  8
作図レイヤ
 62
     3
100
AcDbCircle
 10
203.8545454545455
 20
187.5694422411632
 30
0.0
 40
9.0
100
AcDbArc
 50
163.8167007802419
 51
196.1832992197581
  0
LINE
  5
128
330
1F
100
AcDbEntity
  8
作図レイヤ
 62
     3
100
AcDbLine
 10
235.4545454545455
 20
189.5694422411632
 30
0.0
 11
246.6545454545455
 21
189.5694422411632
 31
0.0
  0
LINE
  5
129
330
1F
100
AcDbEntity
  8
作図レイヤ
 62
     3
100
AcDbLine
 10
235.4545454545456
 20
185.5694422411632
 30
0.0
 11
246.6545454545455
 21
185.5694422411632
 31
0.0
  0
LINE
  5
12A
330
1F
100
AcDbEntity
  8
作図レイヤ
 62
     3
100
AcDbLine
 10
247.4545454545455
 20
188.7694422411632
 30
0.0
 11
247.4545454545455
 21
186.3694422411632
 31
0.0
  0
LINE
  5
12B
330
1F
100
AcDbEntity
  8
作図レイヤ
 62
     7
370
    20
100
AcDbLine
 10
235.4545454545455
 20
189.1694422411632
 30
0.0
 11
247.0545454545455
 21
189.1694422411632
 31
0.0
  0
LINE
  5
12C
330
1F
100
AcDbEntity
  8
作図レイヤ
 62
     7
370
    20
100
AcDbLine
 10
235.4545454545455
 20
185.9694422411633
 30
0.0
 11
247.0545454545455
 21
185.9694422411632
 31
0.0
  0
LINE
  5
12D
330
1F
100
AcDbEntity
  8
作図レイヤ
 62
     3
100
AcDbLine
 10
247.4545454545455
 20
186.3694422411632
 30
0.0
 11
246.6545454545455
 21
185.5694422411632
 31
0.0
  0
LINE
  5
12E
330
1F
100
AcDbEntity
  8
作図レイヤ
 62
     3
100
AcDbLine
 10
246.6545454545455
 20
189.5694422411632
 30
0.0
 11
247.4545454545455
 21
188.7694422411632
 31
0.0
  0
LINE
  5
12F
330
1F
100
AcDbEntity
  8
作図レイヤ
 62
     3
100
AcDbLine
 10
246.6545454545455
 20
189.5694422411632
 30
0.0
 11
246.6545454545455
 21
185.5694422411632
 31
0.0
  0
LINE
  5
130
330
1F
100
AcDbEntity
  8
作図レイヤ
 62
     3
100
AcDbLine
 10
196.4545454545456
 20
232.3181818181788
 30
0.0
 11
158.4545454545455
 21
232.3181818181789
 31
0.0
  0
LINE
  5
131
330
1F
100
AcDbEntity
  8
作図レイヤ
 62
     3
100
AcDbLine
 10
158.4545454545455
 20
232.3181818181789
 30
0.0
 11
157.4545454545455
 21
231.3181818181788
 31
0.0
  0
LINE
  5
132
330
1F
100
AcDbEntity
  8
作図レイヤ
 62
     3
100
AcDbLine
 10
158.4545454545455
 20
192.3181818181789
 30
0.0
 11
157.4545454545455
 21
193.3181818181788
 31
0.0
  0
LINE
  5
133
330
1F
100
AcDbEntity
  8
作図レイヤ
 62
     3
100
AcDbLine
 10
158.4545454545455
 20
232.3181818181789
 30
0.0
 11
158.4545454545455
 21
192.3181818181789
 31
0.0
  0
LINE
  5
134
330
1F
100
AcDbEntity
  8
作図レイヤ
 62
     3
100
AcDbLine
 10
158.4545454545455
 20
192.3181818181789
 30
0.0
 11
196.4545454545455
 21
192.3181818181789
 31
0.0
  0
LINE
  5
135
330
1F
100
AcDbEntity
  8
作図レイヤ
 62
     3
100
AcDbLine
 10
138.4545454545455
 20
219.8181818181789
 30
0.0
 11
138.4545454545454
 21
204.8181818181789
 31
0.0
  0
LINE
  5
136
330
1F
100
AcDbEntity
  8
作図レイヤ
 62
     3
100
AcDbLine
 10
143.4545454545455
 20
230.3181818181788
 30
0.0
 11
143.4545454545454
 21
194.3181818181788
 31
0.0
  0
LINE
  5
137
330
1F
100
AcDbEntity
  8
作図レイヤ
 62
     3
100
AcDbLine
 10
157.4545454545454
 20
234.8181818181788
 30
0.0
 11
157.4545454545455
 21
189.8181818181788
 31
0.0
  0
LINE
  5
138
330
1F
100
AcDbEntity
  8
作図レイヤ
 62
     3
100
AcDbLine
 10
141.4545454545454
 20
202.8181818181789
 30
0.0
 11
140.4545454545454
 21
202.8181818181789
 31
0.0
  0
LINE
  5
139
330
1F
100
AcDbEntity
  8
作図レイヤ
 62
     3
100
AcDbLine
 10
141.4545454545454
 20
221.8181818181789
 30
0.0
 11
140.4545454545455
 21
221.8181818181789
 31
0.0
  0
ARC
  5
13A
330
1F
100
AcDbEntity
  8
作図レイヤ
 62
     3
100
AcDbCircle
 10
140.4545454545455
 20
219.8181818181789
 30
0.0
 40
2.0
100
AcDbArc
 50
90.0
 51
180.0
  0
ARC
  5
13B
330
1F
100
AcDbEntity
  8
作図レイヤ
 62
     3
100
AcDbCircle
 10
140.4545454545454
 20
204.8181818181789
 30
0.0
 40
2.0
100
AcDbArc
 50
180.0
 51
270.0
  0
ARC
  5
13C
330
1F
100
AcDbEntity
  8
作図レイヤ
 62
     3
100
AcDbCircle
 10
141.4545454545455
 20
223.8181818181789
 30
0.0
 40
2.0
100
AcDbArc
 50
269.9999999999992
 51
0.0
  0
ARC
  5
13D
330
1F
100
AcDbEntity
  8
作図レイヤ
 62
     3
100
AcDbCircle
 10
141.4545454545454
 20
200.8181818181789
 30
0.0
 40
2.0
100
AcDbArc
 50
0.0
 51
90.00000000000082
  0
ARC
  5
13E
330
1F
100
AcDbEntity
  8
作図レイヤ
 62
     3
100
AcDbCircle
 10
144.4545454545455
 20
230.3181818181788
 30
0.0
 40
1.0
100
AcDbArc
 50
90.0
 51
180.0
  0
LINE
  5
13F
330
1F
100
AcDbEntity
  8
作図レイヤ
 62
     3
100
AcDbLine
 10
145.4545454545454
 20
231.3181818181788
 30
0.0
 11
144.4545454545455
 21
231.3181818181788
 31
0.0
  0
LINE
  5
140
330
1F
100
AcDbEntity
  8
作図レイヤ
 62
     3
100
AcDbLine
 10
157.4545454545455
 20
189.8181818181788
 30
0.0
 11
145.4545454545455
 21
189.8181818181789
 31
0.0
  0
LINE
  5
141
330
1F
100
AcDbEntity
  8
作図レイヤ
 62
     3
100
AcDbLine
 10
157.4545454545454
 20
234.8181818181788
 30
0.0
 11
145.4545454545454
 21
234.8181818181788
 31
0.0
  0
LINE
  5
142
330
1F
100
AcDbEntity
  8
作図レイヤ
 62
     3
100
AcDbLine
 10
157.4545454545454
 20
230.3459382224794
 30
0.0
 11
145.4545454545454
 21
230.3459382224794
 31
0.0
  0
LINE
  5
143
330
1F
100
AcDbEntity
  8
作図レイヤ
 62
     3
100
AcDbLine
 10
145.4545454545455
 20
194.2904254138783
 30
0.0
 11
145.4545454545455
 21
189.8181818181789
 31
0.0
  0
LINE
  5
144
330
1F
100
AcDbEntity
  8
作図レイヤ
 62
     3
100
AcDbLine
 10
145.4545454545455
 20
234.8181818181788
 30
0.0
 11
145.4545454545455
 21
230.3459382224794
 31
0.0
  0
LINE
  5
145
330
1F
100
AcDbEntity
  8
作図レイヤ
 62
     3
100
AcDbLine
 10
157.4545454545455
 20
190.8181818181788
 30
0.0
 11
145.4545454545455
 21
190.8181818181789
 31
0.0
  0
LINE
  5
146
330
1F
100
AcDbEntity
  8
作図レイヤ
 62
     3
100
AcDbLine
 10
157.4545454545454
 20
233.8181818181789
 30
0.0
 11
145.4545454545454
 21
233.8181818181789
 31
0.0
  0
LINE
  5
147
330
1F
100
AcDbEntity
  8
作図レイヤ
 62
     3
100
AcDbLine
 10
145.4545454545455
 20
232.3181768823981
 30
0.0
 11
138.4545454545454
 21
232.3181768823981
 31
0.0
  0
LINE
  5
148
330
1F
100
AcDbEntity
  8
作図レイヤ
 62
     3
100
AcDbLine
 10
145.4545454545455
 20
231.8181768823981
 30
0.0
 11
138.4545454545454
 21
231.8181768823981
 31
0.0
  0
LINE
  5
149
330
1F
100
AcDbEntity
  8
作図レイヤ
 62
     3
100
AcDbLine
 10
138.4545454545454
 20
232.3181768823981
 30
0.0
 11
138.4545454545455
 21
231.8181768823981
 31
0.0
  0
ARC
  5
14A
330
1F
100
AcDbEntity
  8
作図レイヤ
 62
     3
100
AcDbCircle
 10
144.4545454545455
 20
194.3181818181788
 30
0.0
 40
1.0
100
AcDbArc
 50
180.0
 51
270.0
  0
LINE
  5
14B
330
1F
100
AcDbEntity
  8
作図レイヤ
 62
     3
100
AcDbLine
 10
145.4545454545454
 20
193.3181818181788
 30
0.0
 11
144.4545454545455
 21
193.3181818181788
 31
0.0
  0
LINE
  5
14C
330
1F
100
AcDbEntity
  8
作図レイヤ
 62
     3
100
AcDbLine
 10
157.4545454545454
 20
194.2904254138782
 30
0.0
 11
145.4545454545454
 21
194.2904254138783
 31
0.0
  0
LINE
  5
14D
330
1F
100
AcDbEntity
  8
作図レイヤ
 62
     3
100
AcDbLine
 10
145.4545454545455
 20
192.3181867539595
 30
0.0
 11
138.4545454545454
 21
192.3181867539595
 31
0.0
  0
LINE
  5
14E
330
1F
100
AcDbEntity
  8
作図レイヤ
 62
     3
100
AcDbLine
 10
145.4545454545455
 20
192.8181867539595
 30
0.0
 11
138.4545454545454
 21
192.8181867539595
 31
0.0
  0
LINE
  5
14F
330
1F
100
AcDbEntity
  8
作図レイヤ
 62
     3
100
AcDbLine
 10
138.4545454545454
 20
192.3181867539595
 30
0.0
 11
138.4545454545455
 21
192.8181867539595
 31
0.0
  0
LINE
  5
150
330
1F
100
AcDbEntity
  8
作図レイヤ
 62
     3
100
AcDbLine
 10
203.4545454545455
 20
242.3181818181787
 30
0.0
 11
203.4545454545455
 21
182.3181818181786
 31
0.0
  0
LINE
  5
151
330
1F
100
AcDbEntity
  8
作図レイヤ
 62
     3
100
AcDbLine
 10
197.4545454545455
 20
241.5681818181787
 30
0.0
 11
197.4545454545455
 21
183.0681818181786
 31
0.0
  0
LINE
  5
152
330
1F
100
AcDbEntity
  8
作図レイヤ
 62
     3
100
AcDbLine
 10
203.4545454545455
 20
242.3181818181787
 30
0.0
 11
198.2045454545455
 21
242.3181818181787
 31
0.0
  0
LINE
  5
153
330
1F
100
AcDbEntity
  8
作図レイヤ
 62
     3
100
AcDbLine
 10
203.4545454545455
 20
182.3181818181786
 30
0.0
 11
198.2045454545455
 21
182.3181818181786
 31
0.0
  0
ARC
  5
154
330
1F
100
AcDbEntity
  8
作図レイヤ
 62
     3
100
AcDbCircle
 10
198.2045454545455
 20
183.0681818181786
 30
0.0
 40
0.75
100
AcDbArc
 50
180.0
 51
270.0
  0
ARC
  5
155
330
1F
100
AcDbEntity
  8
作図レイヤ
 62
     3
100
AcDbCircle
 10
198.2045454545455
 20
241.5681818181787
 30
0.0
 40
0.75
100
AcDbArc
 50
90.0
 51
180.0
  0
LINE
  5
156
330
1F
100
AcDbEntity
  8
作図レイヤ
 62
     3
100
AcDbLine
 10
312.5329168218811
 20
151.1083710440355
 30
0.0
 11
309.0329168218811
 21
149.0876451018717
 31
0.0
  0
LINE
  5
157
330
1F
100
AcDbEntity
  8
作図レイヤ
 62
     3
100
AcDbLine
 10
309.0329168218811
 20
149.0876451018717
 30
0.0
 11
309.0329168218811
 21
145.0461932175444
 31
0.0
  0
LINE
  5
158
330
1F
100
AcDbEntity
  8
作図レイヤ
 62
     3
100
AcDbLine
 10
309.0329168218811
 20
145.0461932175444
 30
0.0
 11
312.5329168218811
 21
143.0254672753807
 31
0.0
  0
LINE
  5
159
330
1F
100
AcDbEntity
  8
作図レイヤ
 62
     3
100
AcDbLine
 10
312.5329168218811
 20
143.0254672753807
 30
0.0
 11
316.0329168218811
 21
145.0461932175444
 31
0.0
  0
LINE
  5
15A
330
1F
100
AcDbEntity
  8
作図レイヤ
 62
     3
100
AcDbLine
 10
316.0329168218811
 20
145.0461932175444
 30
0.0
 11
316.0329168218811
 21
149.0876451018717
 31
0.0
  0
LINE
  5
15B
330
1F
100
AcDbEntity
  8
作図レイヤ
 62
     3
100
AcDbLine
 10
316.0329168218811
 20
149.0876451018717
 30
0.0
 11
312.5329168218811
 21
151.1083710440355
 31
0.0
  0
CIRCLE
  5
15C
330
1F
100
AcDbEntity
  8
作図レイヤ
 62
     3
100
AcDbCircle
 10
312.5329168218811
 20
147.0669191597081
 30
0.0
 40
3.4
  0
CIRCLE
  5
15D
330
1F
100
AcDbEntity
  8
作図レイヤ
 62
     3
100
AcDbCircle
 10
312.5329168218811
 20
147.0669191597081
 30
0.0
 40
4.5
  0
LINE
  5
15E
330
1F
100
AcDbEntity
  8
作図レイヤ
 62
     3
100
AcDbLine
 10
362.0303915049392
 20
151.1083710440355
 30
0.0
 11
365.5303915049392
 21
149.0876451018718
 31
0.0
  0
LINE
  5
15F
330
1F
100
AcDbEntity
  8
作図レイヤ
 62
     3
100
AcDbLine
 10
365.5303915049392
 20
149.0876451018718
 30
0.0
 11
365.5303915049392
 21
145.0461932175445
 31
0.0
  0
LINE
  5
160
330
1F
100
AcDbEntity
  8
作図レイヤ
 62
     3
100
AcDbLine
 10
365.5303915049392
 20
145.0461932175445
 30
0.0
 11
362.0303915049392
 21
143.0254672753807
 31
0.0
  0
LINE
  5
161
330
1F
100
AcDbEntity
  8
作図レイヤ
 62
     3
100
AcDbLine
 10
362.0303915049392
 20
143.0254672753807
 30
0.0
 11
358.5303915049392
 21
145.0461932175445
 31
0.0
  0
LINE
  5
162
330
1F
100
AcDbEntity
  8
作図レイヤ
 62
     3
100
AcDbLine
 10
358.5303915049392
 20
145.0461932175445
 30
0.0
 11
358.5303915049392
 21
149.0876451018718
 31
0.0
  0
LINE
  5
163
330
1F
100
AcDbEntity
  8
作図レイヤ
 62
     3
100
AcDbLine
 10
358.5303915049392
 20
149.0876451018718
 30
0.0
 11
362.0303915049392
 21
151.1083710440355
 31
0.0
  0
CIRCLE
  5
164
330
1F
100
AcDbEntity
  8
作図レイヤ
 62
     3
100
AcDbCircle
 10
362.0303915049392
 20
147.0669191597081
 30
0.0
 40
3.4
  0
CIRCLE
  5
165
330
1F
100
AcDbEntity
  8
作図レイヤ
 62
     3
100
AcDbCircle
 10
362.0303915049392
 20
147.0669191597081
 30
0.0
 40
4.5
  0
LINE
  5
166
330
1F
100
AcDbEntity
  8
作図レイヤ
 62
     3
100
AcDbLine
 10
362.0303915049392
 20
93.52799259232225
 30
0.0
 11
365.5303915049392
 21
95.54871853448597
 31
0.0
  0
LINE
  5
167
330
1F
100
AcDbEntity
  8
作図レイヤ
 62
     3
100
AcDbLine
 10
365.5303915049392
 20
95.54871853448597
 30
0.0
 11
365.5303915049392
 21
99.5901704188133
 31
0.0
  0
LINE
  5
168
330
1F
100
AcDbEntity
  8
作図レイヤ
 62
     3
100
AcDbLine
 10
365.5303915049392
 20
99.5901704188133
 30
0.0
 11
362.0303915049392
 21
101.610896360977
 31
0.0
  0
LINE
  5
169
330
1F
100
AcDbEntity
  8
作図レイヤ
 62
     3
100
AcDbLine
 10
362.0303915049392
 20
101.610896360977
 30
0.0
 11
358.5303915049392
 21
99.5901704188133
 31
0.0
  0
LINE
  5
16A
330
1F
100
AcDbEntity
  8
作図レイヤ
 62
     3
100
AcDbLine
 10
358.5303915049392
 20
99.5901704188133
 30
0.0
 11
358.5303915049392
 21
95.54871853448597
 31
0.0
  0
LINE
  5
16B
330
1F
100
AcDbEntity
  8
作図レイヤ
 62
     3
100
AcDbLine
 10
358.5303915049392
 20
95.54871853448597
 30
0.0
 11
362.0303915049392
 21
93.52799259232225
 31
0.0
  0
CIRCLE
  5
16C
330
1F
100
AcDbEntity
  8
作図レイヤ
 62
     3
100
AcDbCircle
 10
362.0303915049392
 20
97.56944447664964
 30
0.0
 40
3.4
  0
CIRCLE
  5
16D
330
1F
100
AcDbEntity
  8
作図レイヤ
 62
     3
100
AcDbCircle
 10
362.0303915049392
 20
97.56944447664964
 30
0.0
 40
4.5
  0
LINE
  5
16E
330
1F
100
AcDbEntity
  8
作図レイヤ
 62
     3
100
AcDbLine
 10
312.5329168218813
 20
93.52799259232219
 30
0.0
 11
309.0329168218813
 21
95.54871853448591
 31
0.0
  0
LINE
  5
16F
330
1F
100
AcDbEntity
  8
作図レイヤ
 62
     3
100
AcDbLine
 10
309.0329168218813
 20
95.54871853448591
 30
0.0
 11
309.0329168218813
 21
99.59017041881324
 31
0.0
  0
LINE
  5
170
330
1F
100
AcDbEntity
  8
作図レイヤ
 62
     3
100
AcDbLine
 10
309.0329168218813
 20
99.59017041881324
 30
0.0
 11
312.5329168218813
 21
101.610896360977
 31
0.0
  0
LINE
  5
171
330
1F
100
AcDbEntity
  8
作図レイヤ
 62
     3
100
AcDbLine
 10
312.5329168218813
 20
101.610896360977
 30
0.0
 11
316.0329168218813
 21
99.59017041881324
 31
0.0
  0
LINE
  5
172
330
1F
100
AcDbEntity
  8
作図レイヤ
 62
     3
100
AcDbLine
 10
316.0329168218813
 20
99.59017041881324
 30
0.0
 11
316.0329168218813
 21
95.54871853448591
 31
0.0
  0
LINE
  5
173
330
1F
100
AcDbEntity
  8
作図レイヤ
 62
     3
100
AcDbLine
 10
316.0329168218813
 20
95.54871853448591
 30
0.0
 11
312.5329168218813
 21
93.52799259232219
 31
0.0
  0
CIRCLE
  5
174
330
1F
100
AcDbEntity
  8
作図レイヤ
 62
     3
100
AcDbCircle
 10
312.5329168218813
 20
97.56944447664958
 30
0.0
 40
3.4
  0
CIRCLE
  5
175
330
1F
100
AcDbEntity
  8
作図レイヤ
 62
     3
100
AcDbCircle
 10
312.5329168218813
 20
97.56944447664958
 30
0.0
 40
4.5
  0
CIRCLE
  5
176
330
1F
100
AcDbEntity
  8
作図レイヤ
 62
     3
100
AcDbCircle
 10
317.2816541634102
 20
133.3181818181788
 30
0.0
 40
2.75
  0
LINE
  5
177
330
1F
100
AcDbEntity
  8
作図レイヤ
 62
     3
100
AcDbLine
 10
317.8352440018964
 20
135.0770275449908
 30
0.0
 11
318.528064324924
 21
134.6770275449908
 31
0.0
  0
LINE
  5
178
330
1F
100
AcDbEntity
  8
作図レイヤ
 62
     3
100
AcDbLine
 10
319.0404998902222
 20
132.7645919796926
 30
0.0
 11
318.6404998902221
 21
132.071771656665
 31
0.0
  0
LINE
  5
179
330
1F
100
AcDbEntity
  8
作図レイヤ
 62
     3
100
AcDbLine
 10
316.0352440018964
 20
131.9593360913668
 30
0.0
 11
316.7280643249239
 21
131.5593360913668
 31
0.0
  0
LINE
  5
17A
330
1F
100
AcDbEntity
  8
作図レイヤ
 62
     3
100
AcDbLine
 10
315.9228084365982
 20
134.5645919796926
 30
0.0
 11
315.5228084365982
 21
133.871771656665
 31
0.0
  0
ARC
  5
17B
330
1F
100
AcDbEntity
  8
作図レイヤ
 62
     3
100
AcDbCircle
 10
319.7404998902222
 20
133.9770275449908
 30
0.0
 40
1.400000000000034
100
AcDbArc
 50
150.0
 51
240.0
  0
ARC
  5
17C
330
1F
100
AcDbEntity
  8
作図レイヤ
 62
     3
100
AcDbCircle
 10
316.6228084365982
 20
135.7770275449908
 30
0.0
 40
1.400000000000034
100
AcDbArc
 50
240.0
 51
330.0
  0
ARC
  5
17D
330
1F
100
AcDbEntity
  8
作図レイヤ
 62
     3
100
AcDbCircle
 10
314.8228084365982
 20
132.6593360913668
 30
0.0
 40
1.400000000000034
100
AcDbArc
 50
330.0
 51
59.99999999999999
  0
ARC
  5
17E
330
1F
100
AcDbEntity
  8
作図レイヤ
 62
     3
100
AcDbCircle
 10
317.9404998902222
 20
130.8593360913668
 30
0.0
 40
1.400000000000034
100
AcDbArc
 50
60.0
 51
150.0
  0
CIRCLE
  5
17F
330
1F
100
AcDbEntity
  8
作図レイヤ
 62
     3
100
AcDbCircle
 10
337.2816541634103
 20
99.31818181817889
 30
0.0
 40
2.75
  0
LINE
  5
180
330
1F
100
AcDbEntity
  8
作図レイヤ
 62
     3
100
AcDbLine
 10
336.8816541634103
 20
101.1181818181789
 30
0.0
 11
337.6816541634103
 21
101.1181818181789
 31
0.0
  0
LINE
  5
181
330
1F
100
AcDbEntity
  8
作図レイヤ
 62
     3
100
AcDbLine
 10
339.0816541634102
 20
99.71818181817889
 30
0.0
 11
339.0816541634102
 21
98.91818181817888
 31
0.0
  0
LINE
  5
182
330
1F
100
AcDbEntity
  8
作図レイヤ
 62
     3
100
AcDbLine
 10
336.8816541634103
 20
97.51818181817887
 30
0.0
 11
337.6816541634103
 21
97.51818181817887
 31
0.0
  0
LINE
  5
183
330
1F
100
AcDbEntity
  8
作図レイヤ
 62
     3
100
AcDbLine
 10
335.4816541634102
 20
99.71818181817889
 30
0.0
 11
335.4816541634102
 21
98.91818181817888
 31
0.0
  0
ARC
  5
184
330
1F
100
AcDbEntity
  8
作図レイヤ
 62
     3
100
AcDbCircle
 10
339.0816541634102
 20
101.1181818181789
 30
0.0
 40
1.400000000000034
100
AcDbArc
 50
180.0
 51
270.0
  0
ARC
  5
185
330
1F
100
AcDbEntity
  8
作図レイヤ
 62
     3
100
AcDbCircle
 10
335.4816541634102
 20
101.1181818181789
 30
0.0
 40
1.400000000000034
100
AcDbArc
 50
270.0
 51
0.0
  0
ARC
  5
186
330
1F
100
AcDbEntity
  8
作図レイヤ
 62
     3
100
AcDbCircle
 10
335.4816541634102
 20
97.51818181817887
 30
0.0
 40
1.400000000000034
100
AcDbArc
 50
0.0
 51
90.0
  0
ARC
  5
187
330
1F
100
AcDbEntity
  8
作図レイヤ
 62
     3
100
AcDbCircle
 10
339.0816541634102
 20
97.51818181817887
 30
0.0
 40
1.400000000000034
100
AcDbArc
 50
90.0
 51
180.0
  0
CIRCLE
  5
188
330
1F
100
AcDbEntity
  8
作図レイヤ
 62
     3
100
AcDbCircle
 10
357.2816541634099
 20
133.3181818181789
 30
0.0
 40
2.75
  0
LINE
  5
189
330
1F
100
AcDbEntity
  8
作図レイヤ
 62
     3
100
AcDbLine
 10
356.0352440018961
 20
134.6770275449909
 30
0.0
 11
356.7280643249237
 21
135.0770275449908
 31
0.0
  0
LINE
  5
18A
330
1F
100
AcDbEntity
  8
作図レイヤ
 62
     3
100
AcDbLine
 10
358.6404998902219
 20
134.5645919796926
 30
0.0
 11
359.0404998902219
 21
133.8717716566651
 31
0.0
  0
LINE
  5
18B
330
1F
100
AcDbEntity
  8
作図レイヤ
 62
     3
100
AcDbLine
 10
357.8352440018962
 20
131.5593360913669
 30
0.0
 11
358.5280643249237
 21
131.9593360913669
 31
0.0
  0
LINE
  5
18C
330
1F
100
AcDbEntity
  8
作図レイヤ
 62
     3
100
AcDbLine
 10
355.5228084365979
 20
132.7645919796926
 30
0.0
 11
355.922808436598
 21
132.0717716566651
 31
0.0
  0
ARC
  5
18D
330
1F
100
AcDbEntity
  8
作図レイヤ
 62
     3
100
AcDbCircle
 10
357.9404998902219
 20
135.7770275449909
 30
0.0
 40
1.400000000000034
100
AcDbArc
 50
210.0
 51
300.0
  0
ARC
  5
18E
330
1F
100
AcDbEntity
  8
作図レイヤ
 62
     3
100
AcDbCircle
 10
354.8228084365979
 20
133.9770275449908
 30
0.0
 40
1.400000000000034
100
AcDbArc
 50
300.0
 51
30.00000000000002
  0
ARC
  5
18F
330
1F
100
AcDbEntity
  8
作図レイヤ
 62
     3
100
AcDbCircle
 10
356.6228084365979
 20
130.8593360913669
 30
0.0
 40
1.400000000000034
100
AcDbArc
 50
30.0
 51
120.0
  0
ARC
  5
190
330
1F
100
AcDbEntity
  8
作図レイヤ
 62
     3
100
AcDbCircle
 10
359.7404998902219
 20
132.6593360913669
 30
0.0
 40
1.400000000000034
100
AcDbArc
 50
120.0
 51
210.0
  0
ARC
  5
191
330
1F
100
AcDbEntity
  8
作図レイヤ
 62
     7
370
    20
100
AcDbCircle
 10
312.5329168218811
 20
147.0669191597081
 30
0.0
 40
1.6
100
AcDbArc
 50
80.0
 51
349.9999999999999
  0
CIRCLE
  5
192
330
1F
100
AcDbEntity
  8
作図レイヤ
 62
     3
100
AcDbCircle
 10
312.5329168218811
 20
147.066919159708
 30
0.0
 40
2.000000000000034
  0
ARC
  5
193
330
1F
100
AcDbEntity
  8
作図レイヤ
 62
     7
370
    20
100
AcDbCircle
 10
362.0303915049394
 20
147.0669191597081
 30
0.0
 40
1.6
100
AcDbArc
 50
80.0
 51
349.9999999999999
  0
CIRCLE
  5
194
330
1F
100
AcDbEntity
  8
作図レイヤ
 62
     3
100
AcDbCircle
 10
362.0303915049394
 20
147.0669191597081
 30
0.0
 40
2.000000000000034
  0
ARC
  5
195
330
1F
100
AcDbEntity
  8
作図レイヤ
 62
     7
370
    20
100
AcDbCircle
 10
312.5329168218811
 20
97.56944447664978
 30
0.0
 40
1.6
100
AcDbArc
 50
80.0
 51
349.9999999999999
  0
CIRCLE
  5
196
330
1F
100
AcDbEntity
  8
作図レイヤ
 62
     3
100
AcDbCircle
 10
312.532916821881
 20
97.56944447664975
 30
0.0
 40
2.000000000000034
  0
ARC
  5
197
330
1F
100
AcDbEntity
  8
作図レイヤ
 62
     7
370
    20
100
AcDbCircle
 10
362.0303915049395
 20
97.56944447664978
 30
0.0
 40
1.6
100
AcDbArc
 50
80.0
 51
349.9999999999999
  0
CIRCLE
  5
198
330
1F
100
AcDbEntity
  8
作図レイヤ
 62
     3
100
AcDbCircle
 10
362.0303915049394
 20
97.56944447664975
 30
0.0
 40
2.000000000000034
  0
INSERT
  5
19C
330
1F
100
AcDbEntity
  8
作図レイヤ
 62
     3
100
AcDbBlockReference
  2
BLKF022
 10
0.0
 20
0.0
 30
0.0
  0
LINE
  5
1A4
330
1F
100
AcDbEntity
  8
作図レイヤ
 62
     3
100
AcDbLine
 10
138.4545454545455
 20
114.8181818181789
 30
0.0
 11
138.4545454545454
 21
129.8181818181789
 31
0.0
  0
LINE
  5
1A5
330
1F
100
AcDbEntity
  8
作図レイヤ
 62
     3
100
AcDbLine
 10
143.4545454545454
 20
104.3181818181789
 30
0.0
 11
143.4545454545454
 21
119.9181818181789
 31
0.0
  0
LINE
  5
1A6
330
1F
100
AcDbEntity
  8
作図レイヤ
 62
     3
100
AcDbLine
 10
143.4545454545454
 20
124.7181818181789
 30
0.0
 11
143.4545454545454
 21
140.3181818181789
 31
0.0
  0
ARC
  5
1A7
330
1F
100
AcDbEntity
  8
作図レイヤ
 62
     3
100
AcDbCircle
 10
144.4545454545454
 20
104.3181818181789
 30
0.0
 40
1.0
100
AcDbArc
 50
180.0
 51
270.0
  0
ARC
  5
1A8
330
1F
100
AcDbEntity
  8
作図レイヤ
 62
     3
100
AcDbCircle
 10
142.4545454545454
 20
132.8181818181789
 30
0.0
 40
1.0
100
AcDbArc
 50
270.0
 51
0.0
  0
ARC
  5
1A9
330
1F
100
AcDbEntity
  8
作図レイヤ
 62
     3
100
AcDbCircle
 10
142.4545454545454
 20
111.8181818181789
 30
0.0
 40
1.0
100
AcDbArc
 50
0.0
 51
90.0
  0
LINE
  5
1AA
330
1F
100
AcDbEntity
  8
作図レイヤ
 62
     3
100
AcDbLine
 10
144.4545454545454
 20
141.3181818181789
 30
0.0
 11
157.4545454545455
 21
141.3181818181789
 31
0.0
  0
LINE
  5
1AB
330
1F
100
AcDbEntity
  8
作図レイヤ
 62
     3
100
AcDbLine
 10
144.4545454545454
 20
103.3181818181789
 30
0.0
 11
157.4545454545454
 21
103.3181818181789
 31
0.0
  0
ARC
  5
1AC
330
1F
100
AcDbEntity
  8
作図レイヤ
 62
     3
100
AcDbCircle
 10
144.4545454545454
 20
140.3181818181789
 30
0.0
 40
1.0
100
AcDbArc
 50
90.0
 51
180.0
  0
LINE
  5
1AD
330
1F
100
AcDbEntity
  8
作図レイヤ
 62
     3
100
AcDbLine
 10
140.4545454545455
 20
112.8181818181789
 30
0.0
 11
142.4545454545454
 21
112.8181818181789
 31
0.0
  0
LINE
  5
1AE
330
1F
100
AcDbEntity
  8
作図レイヤ
 62
     3
100
AcDbLine
 10
140.4545454545454
 20
131.8181818181789
 30
0.0
 11
142.4545454545454
 21
131.8181818181789
 31
0.0
  0
ARC
  5
1AF
330
1F
100
AcDbEntity
  8
作図レイヤ
 62
     3
100
AcDbCircle
 10
140.4545454545454
 20
129.8181818181789
 30
0.0
 40
2.0
100
AcDbArc
 50
90.0
 51
180.0
  0
ARC
  5
1B0
330
1F
100
AcDbEntity
  8
作図レイヤ
 62
     3
100
AcDbCircle
 10
140.4545454545455
 20
114.8181818181789
 30
0.0
 40
2.0
100
AcDbArc
 50
180.0
 51
270.0
  0
LINE
  5
1B1
330
1F
100
AcDbEntity
  8
作図レイヤ
 62
     3
100
AcDbLine
 10
138.9545454545454
 20
119.9181818181789
 30
0.0
 11
144.4545454545454
 21
119.9181818181789
 31
0.0
  0
LINE
  5
1B2
330
1F
100
AcDbEntity
  8
作図レイヤ
 62
     3
100
AcDbLine
 10
138.9545454545454
 20
124.7181818181789
 30
0.0
 11
144.4545454545454
 21
124.7181818181789
 31
0.0
  0
ARC
  5
1B3
330
1F
100
AcDbEntity
  8
作図レイヤ
 62
     3
100
AcDbCircle
 10
138.9545454545454
 20
124.2181818181789
 30
0.0
 40
0.5
100
AcDbArc
 50
90.0
 51
180.0
  0
ARC
  5
1B4
330
1F
100
AcDbEntity
  8
作図レイヤ
 62
     3
100
AcDbCircle
 10
138.9545454545454
 20
120.4181818181789
 30
0.0
 40
0.5
100
AcDbArc
 50
180.0
 51
270.0
  0
LINE
  5
1B5
330
1F
100
AcDbEntity
  8
作図レイヤ
 62
     3
100
AcDbLine
 10
144.4545454545453
 20
125.3181818181789
 30
0.0
 11
155.4545454545455
 21
125.3181818181789
 31
0.0
  0
LINE
  5
1B6
330
1F
100
AcDbEntity
  8
作図レイヤ
 62
     3
100
AcDbLine
 10
144.4545454545454
 20
119.3181818181789
 30
0.0
 11
155.4545454545455
 21
119.3181818181789
 31
0.0
  0
LINE
  5
1B7
330
1F
100
AcDbEntity
  8
作図レイヤ
 62
     3
100
AcDbLine
 10
145.4545454545454
 20
117.3181818181789
 30
0.0
 11
157.4545454545454
 21
117.3181818181789
 31
0.0
  0
LINE
  5
1B8
330
1F
100
AcDbEntity
  8
作図レイヤ
 62
     3
100
AcDbLine
 10
145.4545454545454
 20
127.3181818181789
 30
0.0
 11
157.4545454545454
 21
127.3181818181788
 31
0.0
  0
LINE
  5
1B9
330
1F
100
AcDbEntity
  8
作図レイヤ
 62
     3
100
AcDbLine
 10
145.4545454545454
 20
116.3181818181789
 30
0.0
 11
157.4545454545454
 21
116.3181818181789
 31
0.0
  0
LINE
  5
1BA
330
1F
100
AcDbEntity
  8
作図レイヤ
 62
     3
100
AcDbLine
 10
145.4545454545454
 20
128.3181818181789
 30
0.0
 11
157.4545454545454
 21
128.3181818181788
 31
0.0
  0
LINE
  5
1BB
330
1F
100
AcDbEntity
  8
作図レイヤ
 62
     3
100
AcDbLine
 10
145.4545454545454
 20
127.3181818181789
 30
0.0
 11
143.4545454545454
 21
129.3181818181789
 31
0.0
  0
LINE
  5
1BC
330
1F
100
AcDbEntity
  8
作図レイヤ
 62
     3
100
AcDbLine
 10
143.4545454545454
 20
115.3181818181789
 30
0.0
 11
145.4545454545454
 21
117.3181818181789
 31
0.0
  0
LINE
  5
1BD
330
1F
100
AcDbEntity
  8
作図レイヤ
 62
     3
100
AcDbLine
 10
196.4545454545455
 20
142.3181818181788
 30
0.0
 11
158.4545454545454
 21
142.3181818181788
 31
0.0
  0
LINE
  5
1BE
330
1F
100
AcDbEntity
  8
作図レイヤ
 62
     3
100
AcDbLine
 10
196.4545454545455
 20
102.3181818181788
 30
0.0
 11
158.4545454545454
 21
102.3181818181788
 31
0.0
  0
LINE
  5
1BF
330
1F
100
AcDbEntity
  8
作図レイヤ
 62
     3
100
AcDbLine
 10
158.4545454545454
 20
102.3181818181789
 30
0.0
 11
157.4545454545454
 21
103.3181818181789
 31
0.0
  0
LINE
  5
1C0
330
1F
100
AcDbEntity
  8
作図レイヤ
 62
     3
100
AcDbLine
 10
158.4545454545454
 20
142.3181818181788
 30
0.0
 11
157.4545454545454
 21
141.3181818181788
 31
0.0
  0
LINE
  5
1C1
330
1F
100
AcDbEntity
  8
作図レイヤ
 62
     3
100
AcDbLine
 10
157.4545454545454
 20
103.3181706194281
 30
0.0
 11
157.4545454545455
 21
141.3181706194278
 31
0.0
  0
LINE
  5
1C2
330
1F
100
AcDbEntity
  8
作図レイヤ
 62
     3
100
AcDbLine
 10
158.4545454545454
 20
102.3181818181788
 30
0.0
 11
158.4545454545454
 21
142.3181818181788
 31
0.0
  0
INSERT
  5
1C6
330
1F
100
AcDbEntity
  8
作図レイヤ
 62
     7
370
    20
100
AcDbBlockReference
  2
BLKF023
 10
0.0
 20
0.0
 30
0.0
  0
LINE
  5
1CD
330
1F
100
AcDbEntity
  8
作図レイヤ
 62
     3
100
AcDbLine
 10
203.4545454545455
 20
92.318181818179
 30
0.0
 11
203.4545454545455
 21
152.3181818181791
 31
0.0
  0
LINE
  5
1CE
330
1F
100
AcDbEntity
  8
作図レイヤ
 62
     3
100
AcDbLine
 10
197.4545454545455
 20
93.06818181817894
 30
0.0
 11
197.4545454545455
 21
151.5681818181791
 31
0.0
  0
LINE
  5
1CF
330
1F
100
AcDbEntity
  8
作図レイヤ
 62
     3
100
AcDbLine
 10
203.4545454545455
 20
92.318181818179
 30
0.0
 11
198.2045454545455
 21
92.31818181817894
 31
0.0
  0
LINE
  5
1D0
330
1F
100
AcDbEntity
  8
作図レイヤ
 62
     3
100
AcDbLine
 10
203.4545454545455
 20
152.318181818179
 30
0.0
 11
198.2045454545455
 21
152.3181818181791
 31
0.0
  0
ARC
  5
1D1
330
1F
100
AcDbEntity
  8
作図レイヤ
 62
     3
100
AcDbCircle
 10
198.2045454545455
 20
151.5681818181791
 30
0.0
 40
0.75
100
AcDbArc
 50
90.0
 51
180.0
  0
ARC
  5
1D2
330
1F
100
AcDbEntity
  8
作図レイヤ
 62
     3
100
AcDbCircle
 10
198.2045454545455
 20
93.06818181817894
 30
0.0
 40
0.75
100
AcDbArc
 50
180.0
 51
270.0
  0
LINE
  5
1D3
330
1F
100
AcDbEntity
  8
作図レイヤ
 62
     3
100
AcDbLine
 10
231.4545454545455
 20
92.318181818179
 30
0.0
 11
231.4545454545455
 21
152.3181818181791
 31
0.0
  0
LINE
  5
1D4
330
1F
100
AcDbEntity
  8
作図レイヤ
 62
     3
100
AcDbLine
 10
203.4545454545454
 20
92.31818181817889
 30
0.0
 11
231.4545454545454
 21
92.31818181817889
 31
0.0
  0
LINE
  5
1D5
330
1F
100
AcDbEntity
  8
作図レイヤ
 62
     3
100
AcDbLine
 10
203.4545454545454
 20
152.3181818181789
 30
0.0
 11
231.4545454545454
 21
152.3181818181789
 31
0.0
  0
LINE
  5
1D6
330
1F
100
AcDbEntity
  8
作図レイヤ
 62
     3
100
AcDbLine
 10
203.4545454545454
 20
152.3181818181789
 30
0.0
 11
203.4545454545454
 21
92.31818181817886
 31
0.0
  0
LINE
  5
1D7
330
1F
100
AcDbEntity
  8
作図レイヤ
 62
     3
100
AcDbLine
 10
231.4545454545455
 20
126.3181818181791
 30
0.0
 11
236.4545454545455
 21
126.3181818181791
 31
0.0
  0
LINE
  5
1D8
330
1F
100
AcDbEntity
  8
作図レイヤ
 62
     3
100
AcDbLine
 10
231.4545454545455
 20
138.3181818181791
 30
0.0
 11
236.4545454545455
 21
138.3181818181791
 31
0.0
  0
LINE
  5
1D9
330
1F
100
AcDbEntity
  8
作図レイヤ
 62
     3
100
AcDbLine
 10
236.4545454545455
 20
126.3181818181791
 30
0.0
 11
236.4545454545455
 21
138.318181818179
 31
0.0
  0
LINE
  5
1DA
330
1F
100
AcDbEntity
  8
作図レイヤ
 62
     3
100
AcDbLine
 10
236.4545454545455
 20
129.3181818181791
 30
0.0
 11
257.9545454545455
 21
129.3181818181791
 31
0.0
  0
LINE
  5
1DB
330
1F
100
AcDbEntity
  8
作図レイヤ
 62
     3
100
AcDbLine
 10
236.4545454545455
 20
135.3181818181791
 30
0.0
 11
245.9545454545455
 21
135.3181818181791
 31
0.0
  0
LINE
  5
1DC
330
1F
100
AcDbEntity
  8
作図レイヤ
 62
     3
100
AcDbLine
 10
257.9545454545455
 20
129.3181818181791
 30
0.0
 11
257.9545454545455
 21
134.8181818181791
 31
0.0
  0
LINE
  5
1DD
330
1F
100
AcDbEntity
  8
作図レイヤ
 62
     3
100
AcDbLine
 10
245.9545454545455
 20
134.8181818181791
 30
0.0
 11
257.9545454545455
 21
134.8181818181791
 31
0.0
  0
LINE
  5
1DE
330
1F
100
AcDbEntity
  8
作図レイヤ
 62
     3
100
AcDbLine
 10
245.9545454545455
 20
134.8181818181791
 30
0.0
 11
245.9545454545455
 21
135.3181818181791
 31
0.0
  0
LINE
  5
1DF
330
1F
100
AcDbEntity
  8
作図レイヤ
 62
     3
100
AcDbLine
 10
235.1419380633758
 20
151.1083732795217
 30
0.0
 11
235.4545454545455
 21
150.5669213951944
 31
0.0
  0
LINE
  5
1E0
330
1F
100
AcDbEntity
  8
作図レイヤ
 62
     3
100
AcDbLine
 10
235.4545454545455
 20
150.5669213951944
 30
0.0
 11
235.4545454545455
 21
143.5669213951944
 31
0.0
  0
LINE
  5
1E1
330
1F
100
AcDbEntity
  8
作図レイヤ
 62
     3
100
AcDbLine
 10
235.4545454545455
 20
143.5669213951944
 30
0.0
 11
235.1419380633758
 21
143.025469510867
 31
0.0
  0
ARC
  5
1E2
330
1F
100
AcDbEntity
  8
作図レイヤ
 62
     3
100
AcDbCircle
 10
233.6654695306493
 20
150.0980103084399
 30
0.0
 40
1.789075923896154
100
AcDbArc
 50
325.6157525319585
 51
34.38424746804373
  0
ARC
  5
1E3
330
1F
100
AcDbEntity
  8
作図レイヤ
 62
     3
100
AcDbCircle
 10
228.7671528457153
 20
147.0669213951944
 30
0.0
 40
6.687392608830201
100
AcDbArc
 50
342.4120462260061
 51
17.58795377399439
  0
ARC
  5
1E4
330
1F
100
AcDbEntity
  8
作図レイヤ
 62
     3
100
AcDbCircle
 10
233.6654695306493
 20
144.0358324819488
 30
0.0
 40
1.789075923896154
100
AcDbArc
 50
325.6157525319585
 51
34.38424746804373
  0
LINE
  5
1E5
330
1F
100
AcDbEntity
  8
作図レイヤ
 62
     3
100
AcDbLine
 10
235.1419380633758
 20
143.025469510867
 30
0.0
 11
232.2545454545455
 21
143.025469510867
 31
0.0
  0
LINE
  5
1E6
330
1F
100
AcDbEntity
  8
作図レイヤ
 62
     3
100
AcDbLine
 10
232.2545454545455
 20
143.025469510867
 30
0.0
 11
232.2545454545455
 21
151.1083732795217
 31
0.0
  0
LINE
  5
1E7
330
1F
100
AcDbEntity
  8
作図レイヤ
 62
     3
100
AcDbLine
 10
232.2545454545455
 20
151.1083732795217
 30
0.0
 11
235.1419380633758
 21
151.1083732795217
 31
0.0
  0
LINE
  5
1E8
330
1F
100
AcDbEntity
  8
作図レイヤ
 62
     3
100
AcDbLine
 10
235.1419380633758
 20
149.087647337358
 30
0.0
 11
232.2545454545455
 21
149.087647337358
 31
0.0
  0
LINE
  5
1E9
330
1F
100
AcDbEntity
  8
作図レイヤ
 62
     3
100
AcDbLine
 10
235.1419380633758
 20
145.0461954530307
 30
0.0
 11
232.2545454545455
 21
145.0461954530307
 31
0.0
  0
LINE
  5
1EA
330
1F
100
AcDbEntity
  8
作図レイヤ
 62
     3
100
AcDbLine
 10
232.2545454545455
 20
151.5669213951944
 30
0.0
 11
232.2545454545455
 21
142.5669213951944
 31
0.0
  0
LINE
  5
1EB
330
1F
100
AcDbEntity
  8
作図レイヤ
 62
     3
100
AcDbLine
 10
232.2545454545455
 20
142.5669213951944
 30
0.0
 11
231.4545454545455
 21
142.5669213951944
 31
0.0
  0
LINE
  5
1EC
330
1F
100
AcDbEntity
  8
作図レイヤ
 62
     3
100
AcDbLine
 10
231.4545454545455
 20
142.5669213951944
 30
0.0
 11
231.4545454545455
 21
151.5669213951944
 31
0.0
  0
LINE
  5
1ED
330
1F
100
AcDbEntity
  8
作図レイヤ
 62
     3
100
AcDbLine
 10
231.4545454545455
 20
151.5669213951944
 30
0.0
 11
232.2545454545455
 21
151.5669213951944
 31
0.0
  0
LINE
  5
1EE
330
1F
100
AcDbEntity
  8
作図レイヤ
 62
     3
100
AcDbLine
 10
235.1419380633758
 20
101.6108941254911
 30
0.0
 11
235.4545454545455
 21
101.0694422411637
 31
0.0
  0
LINE
  5
1EF
330
1F
100
AcDbEntity
  8
作図レイヤ
 62
     3
100
AcDbLine
 10
235.4545454545455
 20
101.0694422411637
 30
0.0
 11
235.4545454545455
 21
94.0694422411637
 31
0.0
  0
LINE
  5
1F0
330
1F
100
AcDbEntity
  8
作図レイヤ
 62
     3
100
AcDbLine
 10
235.4545454545455
 20
94.0694422411637
 30
0.0
 11
235.1419380633758
 21
93.52799035683631
 31
0.0
  0
ARC
  5
1F1
330
1F
100
AcDbEntity
  8
作図レイヤ
 62
     3
100
AcDbCircle
 10
233.6654695306493
 20
100.6005311544092
 30
0.0
 40
1.789075923896131
100
AcDbArc
 50
325.615752531958
 51
34.38424746804424
  0
ARC
  5
1F2
330
1F
100
AcDbEntity
  8
作図レイヤ
 62
     3
100
AcDbCircle
 10
228.7671528457152
 20
97.5694422411637
 30
0.0
 40
6.687392608830229
100
AcDbArc
 50
342.4120462260061
 51
17.58795377399434
  0
ARC
  5
1F3
330
1F
100
AcDbEntity
  8
作図レイヤ
 62
     3
100
AcDbCircle
 10
233.6654695306493
 20
94.53835332791817
 30
0.0
 40
1.789075923896131
100
AcDbArc
 50
325.615752531958
 51
34.38424746804424
  0
LINE
  5
1F4
330
1F
100
AcDbEntity
  8
作図レイヤ
 62
     3
100
AcDbLine
 10
235.1419380633758
 20
93.52799035683631
 30
0.0
 11
232.2545454545455
 21
93.52799035683631
 31
0.0
  0
LINE
  5
1F5
330
1F
100
AcDbEntity
  8
作図レイヤ
 62
     3
100
AcDbLine
 10
232.2545454545455
 20
93.52799035683631
 30
0.0
 11
232.2545454545455
 21
101.6108941254911
 31
0.0
  0
LINE
  5
1F6
330
1F
100
AcDbEntity
  8
作図レイヤ
 62
     3
100
AcDbLine
 10
232.2545454545455
 20
101.6108941254911
 30
0.0
 11
235.1419380633758
 21
101.6108941254911
 31
0.0
  0
LINE
  5
1F7
330
1F
100
AcDbEntity
  8
作図レイヤ
 62
     3
100
AcDbLine
 10
235.1419380633758
 20
99.59016818332739
 30
0.0
 11
232.2545454545455
 21
99.59016818332739
 31
0.0
  0
LINE
  5
1F8
330
1F
100
AcDbEntity
  8
作図レイヤ
 62
     3
100
AcDbLine
 10
235.1419380633758
 20
95.548716299
 30
0.0
 11
232.2545454545455
 21
95.548716299
 31
0.0
  0
LINE
  5
1F9
330
1F
100
AcDbEntity
  8
作図レイヤ
 62
     3
100
AcDbLine
 10
232.2545454545455
 20
102.0694422411637
 30
0.0
 11
232.2545454545455
 21
93.0694422411637
 31
0.0
  0
LINE
  5
1FA
330
1F
100
AcDbEntity
  8
作図レイヤ
 62
     3
100
AcDbLine
 10
232.2545454545455
 20
93.0694422411637
 30
0.0
 11
231.4545454545455
 21
93.0694422411637
 31
0.0
  0
LINE
  5
1FB
330
1F
100
AcDbEntity
  8
作図レイヤ
 62
     3
100
AcDbLine
 10
231.4545454545455
 20
93.0694422411637
 30
0.0
 11
231.4545454545455
 21
102.0694422411637
 31
0.0
  0
LINE
  5
1FC
330
1F
100
AcDbEntity
  8
作図レイヤ
 62
     3
100
AcDbLine
 10
231.4545454545455
 20
102.0694422411637
 30
0.0
 11
232.2545454545455
 21
102.0694422411637
 31
0.0
  0
LINE
  5
1FD
330
1F
100
AcDbEntity
  8
作図レイヤ
 62
     3
100
AcDbLine
 10
197.4545454545455
 20
143.5669213951944
 30
0.0
 11
196.391621471582
 21
143.6226268806882
 31
0.0
  0
LINE
  5
1FE
330
1F
100
AcDbEntity
  8
作図レイヤ
 62
     3
100
AcDbLine
 10
197.4545454545455
 20
150.5669213951944
 30
0.0
 11
196.391621471582
 21
150.5112159097006
 31
0.0
  0
LINE
  5
1FF
330
1F
100
AcDbEntity
  8
作図レイヤ
 62
     3
100
AcDbLine
 10
197.4545454545455
 20
143.5669213951944
 30
0.0
 11
197.4545454545455
 21
150.5669213951944
 31
0.0
  0
ARC
  5
200
330
1F
100
AcDbEntity
  8
作図レイヤ
 62
     3
100
AcDbCircle
 10
196.4596582146978
 20
144.9208452758692
 30
0.0
 40
1.3
100
AcDbArc
 50
196.1832992197579
 51
266.9999999999994
  0
ARC
  5
201
330
1F
100
AcDbEntity
  8
作図レイヤ
 62
     3
100
AcDbCircle
 10
196.4596582146978
 20
149.2129975145197
 30
0.0
 40
1.3
100
AcDbArc
 50
93.00000000000053
 51
163.8167007802421
  0
ARC
  5
202
330
1F
100
AcDbEntity
  8
作図レイヤ
 62
     3
100
AcDbCircle
 10
203.8545454545455
 20
147.0669213951944
 30
0.0
 40
9.0
100
AcDbArc
 50
163.8167007802421
 51
196.1832992197579
  0
LINE
  5
203
330
1F
100
AcDbEntity
  8
作図レイヤ
 62
     3
100
AcDbLine
 10
235.4545454545455
 20
145.0669213951944
 30
0.0
 11
246.6545454545455
 21
145.0669213951944
 31
0.0
  0
LINE
  5
204
330
1F
100
AcDbEntity
  8
作図レイヤ
 62
     3
100
AcDbLine
 10
235.4545454545455
 20
149.0669213951944
 30
0.0
 11
246.6545454545455
 21
149.0669213951944
 31
0.0
  0
LINE
  5
205
330
1F
100
AcDbEntity
  8
作図レイヤ
 62
     3
100
AcDbLine
 10
247.4545454545455
 20
145.8669213951944
 30
0.0
 11
247.4545454545455
 21
148.2669213951944
 31
0.0
  0
LINE
  5
206
330
1F
100
AcDbEntity
  8
作図レイヤ
 62
     7
370
    20
100
AcDbLine
 10
235.4545454545455
 20
145.4669213951944
 30
0.0
 11
247.0545454545455
 21
145.4669213951944
 31
0.0
  0
LINE
  5
207
330
1F
100
AcDbEntity
  8
作図レイヤ
 62
     7
370
    20
100
AcDbLine
 10
235.4545454545455
 20
148.6669213951944
 30
0.0
 11
247.0545454545454
 21
148.6669213951944
 31
0.0
  0
LINE
  5
208
330
1F
100
AcDbEntity
  8
作図レイヤ
 62
     3
100
AcDbLine
 10
247.4545454545455
 20
148.2669213951944
 30
0.0
 11
246.6545454545455
 21
149.0669213951944
 31
0.0
  0
LINE
  5
209
330
1F
100
AcDbEntity
  8
作図レイヤ
 62
     3
100
AcDbLine
 10
246.6545454545455
 20
145.0669213951944
 30
0.0
 11
247.4545454545455
 21
145.8669213951944
 31
0.0
  0
LINE
  5
20A
330
1F
100
AcDbEntity
  8
作図レイヤ
 62
     3
100
AcDbLine
 10
246.6545454545455
 20
145.0669213951944
 30
0.0
 11
246.6545454545455
 21
149.0669213951944
 31
0.0
  0
LINE
  5
20B
330
1F
100
AcDbEntity
  8
作図レイヤ
 62
     3
100
AcDbLine
 10
197.4545454545455
 20
94.0694422411637
 30
0.0
 11
196.391621471582
 21
94.1251477266575
 31
0.0
  0
LINE
  5
20C
330
1F
100
AcDbEntity
  8
作図レイヤ
 62
     3
100
AcDbLine
 10
197.4545454545455
 20
101.0694422411637
 30
0.0
 11
196.391621471582
 21
101.0137367556699
 31
0.0
  0
LINE
  5
20D
330
1F
100
AcDbEntity
  8
作図レイヤ
 62
     3
100
AcDbLine
 10
197.4545454545455
 20
94.0694422411637
 30
0.0
 11
197.4545454545455
 21
101.0694422411637
 31
0.0
  0
ARC
  5
20E
330
1F
100
AcDbEntity
  8
作図レイヤ
 62
     3
100
AcDbCircle
 10
196.4596582146978
 20
95.42336612183846
 30
0.0
 40
1.3
100
AcDbArc
 50
196.1832992197579
 51
266.9999999999994
  0
ARC
  5
20F
330
1F
100
AcDbEntity
  8
作図レイヤ
 62
     3
100
AcDbCircle
 10
196.4596582146978
 20
99.71551836048894
 30
0.0
 40
1.3
100
AcDbArc
 50
93.00000000000053
 51
163.8167007802421
  0
ARC
  5
210
330
1F
100
AcDbEntity
  8
作図レイヤ
 62
     3
100
AcDbCircle
 10
203.8545454545455
 20
97.5694422411637
 30
0.0
 40
9.0
100
AcDbArc
 50
163.8167007802421
 51
196.1832992197579
  0
LINE
  5
211
330
1F
100
AcDbEntity
  8
作図レイヤ
 62
     3
100
AcDbLine
 10
235.4545454545455
 20
95.56944224116367
 30
0.0
 11
246.6545454545455
 21
95.5694422411637
 31
0.0
  0
LINE
  5
212
330
1F
100
AcDbEntity
  8
作図レイヤ
 62
     3
100
AcDbLine
 10
235.4545454545455
 20
99.5694422411637
 30
0.0
 11
246.6545454545455
 21
99.5694422411637
 31
0.0
  0
LINE
  5
213
330
1F
100
AcDbEntity
  8
作図レイヤ
 62
     3
100
AcDbLine
 10
247.4545454545455
 20
96.36944224116371
 30
0.0
 11
247.4545454545455
 21
98.76944224116369
 31
0.0
  0
LINE
  5
214
330
1F
100
AcDbEntity
  8
作図レイヤ
 62
     7
370
    20
100
AcDbLine
 10
235.4545454545455
 20
95.9694422411637
 30
0.0
 11
247.0545454545455
 21
95.9694422411637
 31
0.0
  0
LINE
  5
215
330
1F
100
AcDbEntity
  8
作図レイヤ
 62
     7
370
    20
100
AcDbLine
 10
235.4545454545455
 20
99.16944224116367
 30
0.0
 11
247.0545454545454
 21
99.16944224116372
 31
0.0
  0
LINE
  5
216
330
1F
100
AcDbEntity
  8
作図レイヤ
 62
     3
100
AcDbLine
 10
247.4545454545455
 20
98.76944224116369
 30
0.0
 11
246.6545454545455
 21
99.5694422411637
 31
0.0
  0
LINE
  5
217
330
1F
100
AcDbEntity
  8
作図レイヤ
 62
     3
100
AcDbLine
 10
246.6545454545455
 20
95.5694422411637
 30
0.0
 11
247.4545454545455
 21
96.36944224116371
 31
0.0
  0
LINE
  5
218
330
1F
100
AcDbEntity
  8
作図レイヤ
 62
     3
100
AcDbLine
 10
246.6545454545455
 20
95.5694422411637
 30
0.0
 11
246.6545454545455
 21
99.5694422411637
 31
0.0
  0
LINE
  5
219
330
1F
100
AcDbEntity
  8
作図レイヤ
 62
     3
100
AcDbLine
 10
90.45454051876489
 20
118.0454536374902
 30
0.0
 11
90.45454051876489
 21
126.5909099988673
 31
0.0
  0
LINE
  5
21A
330
1F
100
AcDbEntity
  8
作図レイヤ
 62
     3
100
AcDbLine
 10
89.95454051876483
 20
122.3181818181788
 30
0.0
 11
90.45454051876489
 21
122.3181818181788
 31
0.0
  0
LINE
  5
21B
330
1F
100
AcDbEntity
  8
作図レイヤ
 62
     3
100
AcDbLine
 10
89.95454051876483
 20
124.7181818181788
 30
0.0
 11
90.45454051876489
 21
124.7181818181788
 31
0.0
  0
LINE
  5
21C
330
1F
100
AcDbEntity
  8
作図レイヤ
 62
     3
100
AcDbLine
 10
89.95454051876483
 20
119.9181818181788
 30
0.0
 11
90.45454051876489
 21
119.9181818181788
 31
0.0
  0
LINE
  5
21D
330
1F
100
AcDbEntity
  8
作図レイヤ
 62
     3
100
AcDbLine
 10
90.45454051876489
 20
125.7727279536952
 30
0.0
 11
89.95454051876483
 21
125.7727279536952
 31
0.0
  0
LINE
  5
21E
330
1F
100
AcDbEntity
  8
作図レイヤ
 62
     3
100
AcDbLine
 10
90.45454051876489
 20
118.8636356826623
 30
0.0
 11
89.95454051876483
 21
118.8636356826623
 31
0.0
  0
LINE
  5
21F
330
1F
100
AcDbEntity
  8
作図レイヤ
 62
     3
100
AcDbLine
 10
89.95454051876483
 20
118.0454536374902
 30
0.0
 11
91.55454051876485
 21
118.0454536374902
 31
0.0
  0
LINE
  5
220
330
1F
100
AcDbEntity
  8
作図レイヤ
 62
     3
100
AcDbLine
 10
91.55454051876485
 20
118.0454536374902
 30
0.0
 11
91.55454051876485
 21
118.8636356826623
 31
0.0
  0
LINE
  5
221
330
1F
100
AcDbEntity
  8
作図レイヤ
 62
     3
100
AcDbLine
 10
91.55454051876485
 20
118.8636356826623
 30
0.0
 11
92.95454051876489
 21
118.8636356826623
 31
0.0
  0
LINE
  5
222
330
1F
100
AcDbEntity
  8
作図レイヤ
 62
     3
100
AcDbLine
 10
89.95454051876483
 20
118.0454536374902
 30
0.0
 11
89.95454051876483
 21
126.5909099988673
 31
0.0
  0
LINE
  5
223
330
1F
100
AcDbEntity
  8
作図レイヤ
 62
     3
100
AcDbLine
 10
92.95454051876489
 20
117.3181818181788
 30
0.0
 11
92.95454051876489
 21
127.3181818181788
 31
0.0
  0
LINE
  5
224
330
1F
100
AcDbEntity
  8
作図レイヤ
 62
     3
100
AcDbLine
 10
89.95454051876483
 20
126.5909099988673
 30
0.0
 11
91.55454051876485
 21
126.5909099988673
 31
0.0
  0
LINE
  5
225
330
1F
100
AcDbEntity
  8
作図レイヤ
 62
     3
100
AcDbLine
 10
91.55454051876485
 20
126.5909099988673
 30
0.0
 11
91.55454051876485
 21
125.7727279536952
 31
0.0
  0
LINE
  5
226
330
1F
100
AcDbEntity
  8
作図レイヤ
 62
     3
100
AcDbLine
 10
91.55454051876485
 20
125.7727279536952
 30
0.0
 11
92.95454051876489
 21
125.7727279536952
 31
0.0
  0
CIRCLE
  5
227
330
1F
100
AcDbEntity
  8
作図レイヤ
 62
     3
100
AcDbCircle
 10
70.45454545454552
 20
122.3181818181788
 30
0.0
 40
9.5
  0
LINE
  5
228
330
1F
100
AcDbEntity
  8
作図レイヤ
 62
     3
100
AcDbLine
 10
83.20454545454626
 20
122.5681818181788
 30
0.0
 11
84.20454545454626
 21
122.5681818181788
 31
0.0
  0
LINE
  5
229
330
1F
100
AcDbEntity
  8
作図レイヤ
 62
     3
100
AcDbLine
 10
83.20454545454626
 20
122.0681818181788
 30
0.0
 11
84.20454545454626
 21
122.0681818181788
 31
0.0
  0
ARC
  5
22A
330
1F
100
AcDbEntity
  8
作図レイヤ
 62
     3
100
AcDbCircle
 10
85.70454545454626
 20
122.3181818181788
 30
0.0
 40
0.25
100
AcDbArc
 50
270.0
 51
90.0
  0
ARC
  5
22B
330
1F
100
AcDbEntity
  8
作図レイヤ
 62
     3
100
AcDbCircle
 10
83.20454545454626
 20
122.3181818181788
 30
0.0
 40
0.25
100
AcDbArc
 50
90.0
 51
270.0
  0
LINE
  5
22C
330
1F
100
AcDbEntity
  8
作図レイヤ
 62
     3
100
AcDbLine
 10
84.20454545454626
 20
121.0681818181788
 30
0.0
 11
84.20454545454626
 21
122.0681818181788
 31
0.0
  0
LINE
  5
22D
330
1F
100
AcDbEntity
  8
作図レイヤ
 62
     3
100
AcDbLine
 10
84.70454545454626
 20
121.0681818181788
 30
0.0
 11
84.70454545454626
 21
122.0681818181788
 31
0.0
  0
ARC
  5
22E
330
1F
100
AcDbEntity
  8
作図レイヤ
 62
     3
100
AcDbCircle
 10
84.45454545454626
 20
123.5681818181788
 30
0.0
 40
0.25
100
AcDbArc
 50
0.0
 51
180.0
  0
ARC
  5
22F
330
1F
100
AcDbEntity
  8
作図レイヤ
 62
     3
100
AcDbCircle
 10
84.45454545454626
 20
121.0681818181788
 30
0.0
 40
0.25
100
AcDbArc
 50
180.0
 51
0.0
  0
LINE
  5
230
330
1F
100
AcDbEntity
  8
作図レイヤ
 62
     3
100
AcDbLine
 10
84.70454545454626
 20
122.5681818181788
 30
0.0
 11
85.70454545454626
 21
122.5681818181788
 31
0.0
  0
LINE
  5
231
330
1F
100
AcDbEntity
  8
作図レイヤ
 62
     3
100
AcDbLine
 10
84.70454545454626
 20
122.0681818181788
 30
0.0
 11
85.70454545454626
 21
122.0681818181788
 31
0.0
  0
LINE
  5
232
330
1F
100
AcDbEntity
  8
作図レイヤ
 62
     3
100
AcDbLine
 10
84.70454545454626
 20
122.5681818181788
 30
0.0
 11
84.70454545454626
 21
123.5681818181788
 31
0.0
  0
LINE
  5
233
330
1F
100
AcDbEntity
  8
作図レイヤ
 62
     3
100
AcDbLine
 10
84.20454545454626
 20
122.5681818181788
 30
0.0
 11
84.20454545454626
 21
123.5681818181788
 31
0.0
  0
ARC
  5
234
330
1F
100
AcDbEntity
  8
作図レイヤ
 62
     3
100
AcDbCircle
 10
56.45454545454476
 20
123.5681818181788
 30
0.0
 40
0.25
100
AcDbArc
 50
0.0
 51
180.0
  0
ARC
  5
235
330
1F
100
AcDbEntity
  8
作図レイヤ
 62
     3
100
AcDbCircle
 10
56.45454545454476
 20
121.0681818181788
 30
0.0
 40
0.25
100
AcDbArc
 50
180.0
 51
0.0
  0
LINE
  5
236
330
1F
100
AcDbEntity
  8
作図レイヤ
 62
     3
100
AcDbLine
 10
56.20454545454487
 20
121.0681818181788
 30
0.0
 11
56.20454545454476
 21
123.5681818181788
 31
0.0
  0
LINE
  5
237
330
1F
100
AcDbEntity
  8
作図レイヤ
 62
     3
100
AcDbLine
 10
56.70454545454487
 20
121.0681818181788
 30
0.0
 11
56.70454545454476
 21
123.5681818181788
 31
0.0
  0
ARC
  5
238
330
1F
100
AcDbEntity
  8
作図レイヤ
 62
     3
100
AcDbCircle
 10
70.45454545454552
 20
122.3181818992455
 30
0.0
 40
19.0
100
AcDbArc
 50
20.48731486680276
 51
158.9798505251076
  0
ARC
  5
239
330
1F
100
AcDbEntity
  8
作図レイヤ
 62
     3
100
AcDbCircle
 10
70.45454545454552
 20
122.3181818992455
 30
0.0
 40
19.99999999998063
100
AcDbArc
 50
17.45760288028708
 51
162.5423605243053
  0
LINE
  5
23A
330
1F
100
AcDbEntity
  8
作図レイヤ
 62
     3
100
AcDbLine
 10
89.18953948002986
 20
128.3181818181788
 30
0.0
 11
91.95454051876489
 21
128.3181818181788
 31
0.0
  0
LINE
  5
23B
330
1F
100
AcDbEntity
  8
作図レイヤ
 62
     3
100
AcDbLine
 10
89.1895394194516
 20
116.3181818181788
 30
0.0
 11
91.95454051876489
 21
116.3181818181788
 31
0.0
  0
LINE
  5
23C
330
1F
100
AcDbEntity
  8
作図レイヤ
 62
     3
100
AcDbLine
 10
91.95454051876489
 20
128.3181818181788
 30
0.0
 11
92.95454051876489
 21
127.3181818181788
 31
0.0
  0
LINE
  5
23D
330
1F
100
AcDbEntity
  8
作図レイヤ
 62
     3
100
AcDbLine
 10
92.95454051876489
 20
117.3181818181788
 30
0.0
 11
91.95454051876489
 21
116.3181818181788
 31
0.0
  0
LINE
  5
23E
330
1F
100
AcDbEntity
  8
作図レイヤ
 62
     3
100
AcDbLine
 10
87.95454051876483
 20
117.2640911629738
 30
0.0
 11
87.95454051876483
 21
127.372272452015
 31
0.0
  0
LINE
  5
23F
330
1F
100
AcDbEntity
  8
作図レイヤ
 62
     3
100
AcDbLine
 10
81.45454051876484
 20
125.3181818181788
 30
0.0
 11
86.95454051876484
 21
125.3181818181788
 31
0.0
  0
LINE
  5
240
330
1F
100
AcDbEntity
  8
作図レイヤ
 62
     3
100
AcDbLine
 10
81.45454051876484
 20
119.3181818181788
 30
0.0
 11
86.95454051876484
 21
119.3181818181788
 31
0.0
  0
LINE
  5
241
330
1F
100
AcDbEntity
  8
作図レイヤ
 62
     3
100
AcDbLine
 10
87.63010952301444
 20
128.3181818181788
 30
0.0
 11
81.45454051876484
 21
128.3181818181788
 31
0.0
  0
LINE
  5
242
330
1F
100
AcDbEntity
  8
作図レイヤ
 62
     3
100
AcDbLine
 10
87.63010946071195
 20
116.3181818181788
 30
0.0
 11
81.45454051876484
 21
116.3181818181788
 31
0.0
  0
ARC
  5
243
330
1F
100
AcDbEntity
  8
作図レイヤ
 62
     3
100
AcDbCircle
 10
87.63010952301444
 20
128.9181818181788
 30
0.0
 40
0.6
100
AcDbArc
 50
270.0
 51
21.0201128794853
  0
ARC
  5
244
330
1F
100
AcDbEntity
  8
作図レイヤ
 62
     3
100
AcDbCircle
 10
87.63010946071195
 20
115.7181818181788
 30
0.0
 40
0.6
100
AcDbArc
 50
338.9798865796562
 51
90.0
  0
LINE
  5
245
330
1F
100
AcDbEntity
  8
作図レイヤ
 62
     3
100
AcDbLine
 10
80.45454051876484
 20
127.3181818181788
 30
0.0
 11
80.45454051876484
 21
117.3181818181788
 31
0.0
  0
ARC
  5
246
330
1F
100
AcDbEntity
  8
作図レイヤ
 62
     3
100
AcDbCircle
 10
81.45454051876484
 20
127.3181818181788
 30
0.0
 40
1.0
100
AcDbArc
 50
90.0
 51
180.0
  0
ARC
  5
247
330
1F
100
AcDbEntity
  8
作図レイヤ
 62
     3
100
AcDbCircle
 10
81.45454051876484
 20
117.3181818181788
 30
0.0
 40
1.0
100
AcDbArc
 50
180.0
 51
270.0
  0
ARC
  5
248
330
1F
100
AcDbEntity
  8
作図レイヤ
 62
     3
100
AcDbCircle
 10
81.45454051876484
 20
124.3181818181788
 30
0.0
 40
1.0
100
AcDbArc
 50
90.0
 51
180.0
  0
ARC
  5
249
330
1F
100
AcDbEntity
  8
作図レイヤ
 62
     3
100
AcDbCircle
 10
81.45454051876484
 20
120.3181818181788
 30
0.0
 40
1.0
100
AcDbArc
 50
180.0
 51
270.0
  0
ARC
  5
24A
330
1F
100
AcDbEntity
  8
作図レイヤ
 62
     3
100
AcDbCircle
 10
86.95454051876484
 20
120.3181818181788
 30
0.0
 40
1.0
100
AcDbArc
 50
270.0
 51
0.0
  0
ARC
  5
24B
330
1F
100
AcDbEntity
  8
作図レイヤ
 62
     3
100
AcDbCircle
 10
86.95454051876484
 20
124.3181818181788
 30
0.0
 40
1.0
100
AcDbArc
 50
0.0
 51
90.0
  0
LINE
  5
24C
330
1F
100
AcDbEntity
  8
作図レイヤ
 62
     3
100
AcDbLine
 10
52.95454716222963
 20
117.2641023404029
 30
0.0
 11
52.95455361842977
 21
127.372283629442
 31
0.0
  0
LINE
  5
24D
330
1F
100
AcDbEntity
  8
作図レイヤ
 62
     3
100
AcDbLine
 10
59.45455230645945
 20
125.3181888439889
 30
0.0
 11
53.95455230646058
 21
125.3181923568958
 31
0.0
  0
LINE
  5
24E
330
1F
100
AcDbEntity
  8
作図レイヤ
 62
     3
100
AcDbLine
 10
59.45454847419734
 20
119.3181888439901
 30
0.0
 11
53.95454847419848
 21
119.318192356897
 31
0.0
  0
LINE
  5
24F
330
1F
100
AcDbEntity
  8
作図レイヤ
 62
     3
100
AcDbLine
 10
53.27898521834226
 20
128.3181927883882
 30
0.0
 11
59.4545542225905
 21
128.3181888439883
 31
0.0
  0
LINE
  5
250
330
1F
100
AcDbEntity
  8
作図レイヤ
 62
     3
100
AcDbLine
 10
53.27897761612036
 20
116.3181927883905
 30
0.0
 11
59.45454655806628
 21
116.3181888439908
 31
0.0
  0
ARC
  5
251
330
1F
100
AcDbEntity
  8
作図レイヤ
 62
     3
100
AcDbCircle
 10
53.27898560156842
 20
128.9181927883881
 30
0.0
 40
0.6
100
AcDbArc
 50
158.979850525108
 51
269.9999634045914
  0
ARC
  5
252
330
1F
100
AcDbEntity
  8
作図レイヤ
 62
     3
100
AcDbCircle
 10
53.27897723289419
 20
115.7181927883907
 30
0.0
 40
0.6
100
AcDbArc
 50
89.99996340459141
 51
201.0200768249373
  0
LINE
  5
253
330
1F
100
AcDbEntity
  8
作図レイヤ
 62
     3
100
AcDbLine
 10
60.45455358388
 20
127.3181882052781
 30
0.0
 11
60.45454719677645
 21
117.3181882052802
 31
0.0
  0
ARC
  5
254
330
1F
100
AcDbEntity
  8
作図レイヤ
 62
     3
100
AcDbCircle
 10
59.45455358388011
 20
127.3181888439885
 30
0.0
 40
1.0
100
AcDbArc
 50
359.999963404592
 51
89.99996340459036
  0
ARC
  5
255
330
1F
100
AcDbEntity
  8
作図レイヤ
 62
     3
100
AcDbCircle
 10
59.45454719677667
 20
117.3181888439906
 30
0.0
 40
1.0
100
AcDbArc
 50
269.9999634045903
 51
359.999963404592
  0
ARC
  5
256
330
1F
100
AcDbEntity
  8
作図レイヤ
 62
     3
100
AcDbCircle
 10
59.45455166774906
 20
124.3181888439891
 30
0.0
 40
1.0
100
AcDbArc
 50
359.9999634045936
 51
89.99996340459036
  0
ARC
  5
257
330
1F
100
AcDbEntity
  8
作図レイヤ
 62
     3
100
AcDbCircle
 10
59.45454911290773
 20
120.31818884399
 30
0.0
 40
1.0
100
AcDbArc
 50
269.9999634045903
 51
359.999963404592
  0
ARC
  5
258
330
1F
100
AcDbEntity
  8
作図レイヤ
 62
     3
100
AcDbCircle
 10
53.95454911290875
 20
120.3181923568969
 30
0.0
 40
1.0
100
AcDbArc
 50
179.999963404592
 51
269.9999634045936
  0
ARC
  5
259
330
1F
100
AcDbEntity
  8
作図レイヤ
 62
     3
100
AcDbCircle
 10
53.9545516677502
 20
124.3181923568961
 30
0.0
 40
1.0
100
AcDbArc
 50
89.9999634045936
 51
179.9999634045936
  0
ARC
  5
25A
330
1F
100
AcDbEntity
  8
作図レイヤ
 62
     3
100
AcDbCircle
 10
70.45454545454552
 20
122.3181818992455
 30
0.0
 40
19.0
100
AcDbArc
 50
201.0200768249358
 51
339.5126846373574
  0
ARC
  5
25B
330
1F
100
AcDbEntity
  8
作図レイヤ
 62
     3
100
AcDbCircle
 10
70.45454545454552
 20
122.3181818992455
 30
0.0
 40
19.99999999998063
100
AcDbArc
 50
197.4575667717844
 51
342.5423966328079
  0
ARC
  5
25C
330
1F
100
AcDbEntity
  8
作図レイヤ
 62
     3
100
AcDbCircle
 10
89.18953948002986
 20
129.3181818181788
 30
0.0
 40
1.0
100
AcDbArc
 50
200.487314866803
 51
270.0
  0
ARC
  5
25D
330
1F
100
AcDbEntity
  8
作図レイヤ
 62
     3
100
AcDbCircle
 10
89.1895394194516
 20
115.3181818181788
 30
0.0
 40
1.0
100
AcDbArc
 50
90.0
 51
159.5126846373582
  0
LINE
  5
25E
330
1F
100
AcDbEntity
  8
作図レイヤ
 62
     3
100
AcDbLine
 10
50.4545476612945
 20
118.045466411695
 30
0.0
 11
50.45455311936593
 21
126.5909227730705
 31
0.0
  0
LINE
  5
25F
330
1F
100
AcDbEntity
  8
作図レイヤ
 62
     3
100
AcDbLine
 10
50.9545503903301
 20
122.3181942730275
 30
0.0
 11
50.45455039033021
 21
122.3181945923827
 31
0.0
  0
LINE
  5
260
330
1F
100
AcDbEntity
  8
作図レイヤ
 62
     3
100
AcDbLine
 10
50.95455192323499
 20
124.7181942730271
 30
0.0
 11
50.4545519232351
 21
124.7181945923822
 31
0.0
  0
LINE
  5
261
330
1F
100
AcDbEntity
  8
作図レイヤ
 62
     3
100
AcDbLine
 10
50.95454885742532
 20
119.918194273028
 30
0.0
 11
50.45454885742544
 21
119.9181945923832
 31
0.0
  0
LINE
  5
262
330
1F
100
AcDbEntity
  8
作図レイヤ
 62
     3
100
AcDbLine
 10
50.45455259678459
 20
125.7727407278985
 30
0.0
 11
50.95455259678448
 21
125.7727404085433
 31
0.0
  0
LINE
  5
263
330
1F
100
AcDbEntity
  8
作図レイヤ
 62
     3
100
AcDbLine
 10
50.45454818387583
 20
118.863648456867
 30
0.0
 11
50.95454818387572
 21
118.8636481375118
 31
0.0
  0
LINE
  5
264
330
1F
100
AcDbEntity
  8
作図レイヤ
 62
     3
100
AcDbLine
 10
50.95454766129438
 20
118.0454660923398
 30
0.0
 11
49.3545476612947
 21
118.0454671142764
 31
0.0
  0
LINE
  5
265
330
1F
100
AcDbEntity
  8
作図レイヤ
 62
     3
100
AcDbLine
 10
49.3545476612947
 20
118.0454671142764
 30
0.0
 11
49.35454818387615
 21
118.8636491594484
 31
0.0
  0
LINE
  5
266
330
1F
100
AcDbEntity
  8
作図レイヤ
 62
     3
100
AcDbLine
 10
49.35454818387615
 20
118.8636491594484
 30
0.0
 11
47.9545481838764
 21
118.8636500536429
 31
0.0
  0
LINE
  5
267
330
1F
100
AcDbEntity
  8
作図レイヤ
 62
     3
100
AcDbLine
 10
50.95454766129438
 20
118.0454660923398
 30
0.0
 11
50.95455311936581
 21
126.5909224537153
 31
0.0
  0
LINE
  5
268
330
1F
100
AcDbEntity
  8
作図レイヤ
 62
     3
100
AcDbLine
 10
47.95454719677895
 20
117.3181961891596
 30
0.0
 11
47.9545535838825
 21
127.3181961891576
 31
0.0
  0
LINE
  5
269
330
1F
100
AcDbEntity
  8
作図レイヤ
 62
     3
100
AcDbLine
 10
50.95455311936581
 20
126.5909224537153
 30
0.0
 11
49.35455311936624
 21
126.5909234756518
 31
0.0
  0
LINE
  5
26A
330
1F
100
AcDbEntity
  8
作図レイヤ
 62
     3
100
AcDbLine
 10
49.35455311936624
 20
126.5909234756518
 30
0.0
 11
49.35455259678491
 21
125.7727414304799
 31
0.0
  0
LINE
  5
26B
330
1F
100
AcDbEntity
  8
作図レイヤ
 62
     3
100
AcDbLine
 10
49.35455259678491
 20
125.7727414304799
 30
0.0
 11
47.95455259678516
 21
125.7727423246744
 31
0.0
  0
LINE
  5
26C
330
1F
100
AcDbEntity
  8
作図レイヤ
 62
     3
100
AcDbLine
 10
51.71955526132712
 20
128.3181937844122
 30
0.0
 11
48.95455422259266
 21
128.3181955504471
 31
0.0
  0
LINE
  5
26D
330
1F
100
AcDbEntity
  8
作図レイヤ
 62
     3
100
AcDbLine
 10
51.71954765738116
 20
116.3181937844146
 30
0.0
 11
48.95454655806844
 21
116.3181955504494
 31
0.0
  0
LINE
  5
26E
330
1F
100
AcDbEntity
  8
作図レイヤ
 62
     3
100
AcDbLine
 10
48.95455422259266
 20
128.3181955504471
 30
0.0
 11
47.9545535838825
 21
127.3181961891576
 31
0.0
  0
LINE
  5
26F
330
1F
100
AcDbEntity
  8
作図レイヤ
 62
     3
100
AcDbLine
 10
47.95454719677895
 20
117.3181961891596
 30
0.0
 11
48.95454655806844
 21
116.3181955504494
 31
0.0
  0
ARC
  5
270
330
1F
100
AcDbEntity
  8
作図レイヤ
 62
     3
100
AcDbCircle
 10
51.71955590003751
 20
129.318193784412
 30
0.0
 40
1.0
100
AcDbArc
 50
269.999963404592
 51
339.512648537789
  0
ARC
  5
271
330
1F
100
AcDbEntity
  8
作図レイヤ
 62
     3
100
AcDbCircle
 10
51.71954701867077
 20
115.3181937844149
 30
0.0
 40
1.0
100
AcDbArc
 50
20.48727876723456
 51
89.99996340459201
  0
LINE
  5
272
330
1F
100
AcDbEntity
  8
作図レイヤ
 62
     3
100
AcDbLine
 10
70.4545454545455
 20
122.3181818181788
 30
0.0
 11
70.4642288737338
 21
122.3226972707034
 31
0.0
  0
TEXT
  5
273
330
1F
100
AcDbEntity
  8
作図レイヤ
 62
     7
370
    20
100
AcDbText
 10
70.50302124023438
 20
114.8041305541992
 30
0.0
 40
2.0
  1
Ａ
 50
6.24999999999975
 41
1.050000000000002
  7
FX_VECTOR
 72
     5
 11
71.99410574756786
 21
114.9674308664772
 31
0.0
100
AcDbText
  0
TEXT
  5
274
330
1F
100
AcDbEntity
  8
作図レイヤ
 62
     7
370
    20
100
AcDbText
 10
62.94976425170898
 20
121.9419937133789
 30
0.0
 40
2.0
  1
Ｓ
 50
278.7500000000001
 41
1.049999999999999
  7
FX_VECTOR
 72
     5
 11
63.17794933099386
 21
120.4594514476773
 31
0.0
100
AcDbText
  0
TEXT
  5
275
330
1F
100
AcDbEntity
  8
作図レイヤ
 62
     7
370
    20
100
AcDbText
 10
63.20907974243164
 20
120.3265762329102
 30
0.0
 40
2.0
  1
Ａ
 50
291.2500000000002
 41
1.049999999999997
  7
FX_VECTOR
 72
     5
 11
63.7527367998572
 21
118.928564428986
 31
0.0
100
AcDbText
  0
TEXT
  5
276
330
1F
100
AcDbEntity
  8
作図レイヤ
 62
     7
370
    20
100
AcDbText
 10
63.81188583374023
 20
118.8055801391602
 30
0.0
 40
2.0
  1
Ｗ
 50
303.7499999999998
 41
1.049999999999999
  7
FX_VECTOR
 72
     5
 11
64.64524118326963
 21
117.5583757207063
 31
0.0
100
AcDbText
  0
TEXT
  5
277
330
1F
100
AcDbEntity
  8
作図レイヤ
 62
     7
370
    20
100
AcDbText
 10
64.7296142578125
 20
117.4511032104492
 30
0.0
 40
2.0
  1
Ａ
 50
316.2499999999999
 41
1.050000000000001
  7
FX_VECTOR
 72
     5
 11
65.81316020090213
 21
116.4138336267758
 31
0.0
100
AcDbText
  0
TEXT
  5
278
330
1F
100
AcDbEntity
  8
作図レイヤ
 62
     7
370
    20
100
AcDbText
 10
65.91873168945312
 20
116.3273696899414
 30
0.0
 40
2.0
  1
Ｍ
 50
328.7499999999997
 41
1.050000000000002
  7
FX_VECTOR
 72
     5
 11
67.20109949546254
 21
115.5492098027006
 31
0.0
100
AcDbText
  0
TEXT
  5
279
330
1F
100
AcDbEntity
  8
作図レイヤ
 62
     7
370
    20
100
AcDbText
 10
67.32290649414062
 20
115.4876480102539
 30
0.0
 40
2.0
  1
Ｕ
 50
341.2499999999999
 41
1.05
  7
FX_VECTOR
 72
     5
 11
68.74330168838328
 21
115.0054888122992
 31
0.0
100
AcDbText
  0
TEXT
  5
27A
330
1F
100
AcDbEntity
  8
作図レイヤ
 62
     7
370
    20
100
AcDbText
 10
68.87553405761719
 20
114.9717483520508
 30
0.0
 40
2.0
  1
Ｒ
 50
353.7499999999997
 41
1.050000000000003
  7
FX_VECTOR
 72
     5
 11
70.36661856495067
 21
114.8084480397728
 31
0.0
100
AcDbText
  0
TEXT
  5
27B
330
1F
100
AcDbEntity
  8
作図レイヤ
 62
     7
370
    20
100
AcDbText
 10
73.67404174804688
 20
115.5286178588867
 30
0.0
 40
2.0
  1
Ｄ
 50
31.24999999999983
 41
1.049999999999997
  7
FX_VECTOR
 72
     5
 11
74.9564095540563
 21
116.3067777461275
 31
0.0
100
AcDbText
  0
TEXT
  5
27C
330
1F
100
AcDbEntity
  8
作図レイヤ
 62
     7
370
    20
100
AcDbText
 10
75.0672607421875
 20
116.3863906860352
 30
0.0
 40
2.0
  1
Ｅ
 50
43.75000000000011
 41
1.050000000000001
  7
FX_VECTOR
 72
     5
 11
76.15080668527713
 21
117.4236602697086
 31
0.0
100
AcDbText
  0
TEXT
  5
27D
330
1F
100
AcDbEntity
  8
作図レイヤ
 62
     7
370
    20
100
AcDbText
 10
76.24179077148438
 20
117.5253677368164
 30
0.0
 40
2.0
  1
Ｎ
 50
56.25000000000018
 41
1.049999999999999
  7
FX_VECTOR
 72
     5
 11
77.07514612101377
 21
118.7725721552702
 31
0.0
100
AcDbText
  0
TEXT
  5
27E
330
1F
100
AcDbEntity
  8
作図レイヤ
 62
     7
370
    20
100
AcDbText
 10
77.1419677734375
 20
118.8915786743164
 30
0.0
 40
2.0
  1
Ｋ
 50
68.75000000000007
 41
1.049999999999995
  7
FX_VECTOR
 72
     5
 11
77.68562483086305
 21
120.2895904782406
 31
0.0
100
AcDbText
  0
TEXT
  5
27F
330
1F
100
AcDbEntity
  8
作図レイヤ
 62
     7
370
    20
100
AcDbText
 10
77.72509765625
 20
120.4202194213867
 30
0.0
 40
2.0
  1
Ｉ
 50
81.25000000000017
 41
1.049999999999998
  7
FX_VECTOR
 72
     5
 11
77.95328273553487
 21
121.9027616870884
 31
0.0
100
AcDbText
  0
CIRCLE
  5
280
330
1F
100
AcDbEntity
  8
作図レイヤ
 62
     3
100
AcDbCircle
 10
45.70580811301632
 20
147.066919159708
 30
0.0
 40
3.5
  0
LINE
  5
281
330
1F
100
AcDbEntity
  8
作図レイヤ
 62
     3
100
AcDbLine
 10
45.20580811301632
 20
149.166919159708
 30
0.0
 11
46.20580811301632
 21
149.166919159708
 31
0.0
  0
LINE
  5
282
330
1F
100
AcDbEntity
  8
作図レイヤ
 62
     3
100
AcDbLine
 10
47.80580811301632
 20
147.566919159708
 30
0.0
 11
47.80580811301632
 21
146.566919159708
 31
0.0
  0
LINE
  5
283
330
1F
100
AcDbEntity
  8
作図レイヤ
 62
     3
100
AcDbLine
 10
45.20580811301632
 20
144.966919159708
 30
0.0
 11
46.20580811301632
 21
144.966919159708
 31
0.0
  0
LINE
  5
284
330
1F
100
AcDbEntity
  8
作図レイヤ
 62
     3
100
AcDbLine
 10
43.60580811301632
 20
147.566919159708
 30
0.0
 11
43.60580811301632
 21
146.566919159708
 31
0.0
  0
ARC
  5
285
330
1F
100
AcDbEntity
  8
作図レイヤ
 62
     3
100
AcDbCircle
 10
47.80580811301632
 20
149.166919159708
 30
0.0
 40
1.600000000000001
100
AcDbArc
 50
180.0
 51
270.0
  0
ARC
  5
286
330
1F
100
AcDbEntity
  8
作図レイヤ
 62
     3
100
AcDbCircle
 10
43.60580811301632
 20
149.166919159708
 30
0.0
 40
1.600000000000001
100
AcDbArc
 50
270.0
 51
0.0
  0
ARC
  5
287
330
1F
100
AcDbEntity
  8
作図レイヤ
 62
     3
100
AcDbCircle
 10
43.60580811301632
 20
144.966919159708
 30
0.0
 40
1.600000000000001
100
AcDbArc
 50
0.0
 51
90.0
  0
ARC
  5
288
330
1F
100
AcDbEntity
  8
作図レイヤ
 62
     3
100
AcDbCircle
 10
47.80580811301632
 20
144.966919159708
 30
0.0
 40
1.600000000000001
100
AcDbArc
 50
90.0
 51
180.0
  0
CIRCLE
  5
289
330
1F
100
AcDbEntity
  8
作図レイヤ
 62
     3
100
AcDbCircle
 10
45.7058081130163
 20
97.56944447664972
 30
0.0
 40
3.5
  0
LINE
  5
28A
330
1F
100
AcDbEntity
  8
作図レイヤ
 62
     3
100
AcDbLine
 10
45.2058081130163
 20
99.66944447664972
 30
0.0
 11
46.2058081130163
 21
99.66944447664972
 31
0.0
  0
LINE
  5
28B
330
1F
100
AcDbEntity
  8
作図レイヤ
 62
     3
100
AcDbLine
 10
47.8058081130163
 20
98.06944447664972
 30
0.0
 11
47.8058081130163
 21
97.06944447664972
 31
0.0
  0
LINE
  5
28C
330
1F
100
AcDbEntity
  8
作図レイヤ
 62
     3
100
AcDbLine
 10
45.2058081130163
 20
95.46944447664973
 30
0.0
 11
46.2058081130163
 21
95.46944447664973
 31
0.0
  0
LINE
  5
28D
330
1F
100
AcDbEntity
  8
作図レイヤ
 62
     3
100
AcDbLine
 10
43.6058081130163
 20
98.06944447664972
 30
0.0
 11
43.6058081130163
 21
97.06944447664972
 31
0.0
  0
ARC
  5
28E
330
1F
100
AcDbEntity
  8
作図レイヤ
 62
     3
100
AcDbCircle
 10
47.8058081130163
 20
99.66944447664972
 30
0.0
 40
1.600000000000001
100
AcDbArc
 50
180.0
 51
270.0
  0
ARC
  5
28F
330
1F
100
AcDbEntity
  8
作図レイヤ
 62
     3
100
AcDbCircle
 10
43.6058081130163
 20
99.66944447664972
 30
0.0
 40
1.600000000000001
100
AcDbArc
 50
270.0
 51
0.0
  0
ARC
  5
290
330
1F
100
AcDbEntity
  8
作図レイヤ
 62
     3
100
AcDbCircle
 10
43.6058081130163
 20
95.46944447664973
 30
0.0
 40
1.600000000000001
100
AcDbArc
 50
0.0
 51
90.0
  0
ARC
  5
291
330
1F
100
AcDbEntity
  8
作図レイヤ
 62
     3
100
AcDbCircle
 10
47.8058081130163
 20
95.46944447664973
 30
0.0
 40
1.600000000000001
100
AcDbArc
 50
90.0
 51
180.0
  0
CIRCLE
  5
292
330
1F
100
AcDbEntity
  8
作図レイヤ
 62
     3
100
AcDbCircle
 10
95.20328279607463
 20
97.56944447664969
 30
0.0
 40
3.5
  0
LINE
  5
293
330
1F
100
AcDbEntity
  8
作図レイヤ
 62
     3
100
AcDbLine
 10
94.70328279607463
 20
99.66944447664969
 30
0.0
 11
95.70328279607463
 21
99.66944447664969
 31
0.0
  0
LINE
  5
294
330
1F
100
AcDbEntity
  8
作図レイヤ
 62
     3
100
AcDbLine
 10
97.30328279607463
 20
98.06944447664969
 30
0.0
 11
97.30328279607463
 21
97.06944447664969
 31
0.0
  0
LINE
  5
295
330
1F
100
AcDbEntity
  8
作図レイヤ
 62
     3
100
AcDbLine
 10
94.70328279607463
 20
95.4694444766497
 30
0.0
 11
95.70328279607463
 21
95.4694444766497
 31
0.0
  0
LINE
  5
296
330
1F
100
AcDbEntity
  8
作図レイヤ
 62
     3
100
AcDbLine
 10
93.10328279607464
 20
98.06944447664969
 30
0.0
 11
93.10328279607464
 21
97.06944447664969
 31
0.0
  0
ARC
  5
297
330
1F
100
AcDbEntity
  8
作図レイヤ
 62
     3
100
AcDbCircle
 10
97.30328279607463
 20
99.66944447664969
 30
0.0
 40
1.599999999999994
100
AcDbArc
 50
180.0
 51
270.0
  0
ARC
  5
298
330
1F
100
AcDbEntity
  8
作図レイヤ
 62
     3
100
AcDbCircle
 10
93.10328279607464
 20
99.66944447664969
 30
0.0
 40
1.599999999999994
100
AcDbArc
 50
270.0
 51
0.0
  0
ARC
  5
299
330
1F
100
AcDbEntity
  8
作図レイヤ
 62
     3
100
AcDbCircle
 10
93.10328279607464
 20
95.4694444766497
 30
0.0
 40
1.599999999999994
100
AcDbArc
 50
0.0
 51
90.0
  0
ARC
  5
29A
330
1F
100
AcDbEntity
  8
作図レイヤ
 62
     3
100
AcDbCircle
 10
97.30328279607463
 20
95.4694444766497
 30
0.0
 40
1.599999999999994
100
AcDbArc
 50
90.0
 51
180.0
  0
CIRCLE
  5
29B
330
1F
100
AcDbEntity
  8
作図レイヤ
 62
     3
100
AcDbCircle
 10
95.20328279607463
 20
147.066919159708
 30
0.0
 40
3.5
  0
LINE
  5
29C
330
1F
100
AcDbEntity
  8
作図レイヤ
 62
     3
100
AcDbLine
 10
94.70328279607463
 20
149.166919159708
 30
0.0
 11
95.70328279607463
 21
149.166919159708
 31
0.0
  0
LINE
  5
29D
330
1F
100
AcDbEntity
  8
作図レイヤ
 62
     3
100
AcDbLine
 10
97.30328279607463
 20
147.566919159708
 30
0.0
 11
97.30328279607463
 21
146.566919159708
 31
0.0
  0
LINE
  5
29E
330
1F
100
AcDbEntity
  8
作図レイヤ
 62
     3
100
AcDbLine
 10
94.70328279607463
 20
144.966919159708
 30
0.0
 11
95.70328279607463
 21
144.966919159708
 31
0.0
  0
LINE
  5
29F
330
1F
100
AcDbEntity
  8
作図レイヤ
 62
     3
100
AcDbLine
 10
93.10328279607464
 20
147.566919159708
 30
0.0
 11
93.10328279607464
 21
146.566919159708
 31
0.0
  0
ARC
  5
2A0
330
1F
100
AcDbEntity
  8
作図レイヤ
 62
     3
100
AcDbCircle
 10
97.30328279607463
 20
149.166919159708
 30
0.0
 40
1.599999999999994
100
AcDbArc
 50
180.0
 51
270.0
  0
ARC
  5
2A1
330
1F
100
AcDbEntity
  8
作図レイヤ
 62
     3
100
AcDbCircle
 10
93.10328279607464
 20
149.166919159708
 30
0.0
 40
1.599999999999994
100
AcDbArc
 50
270.0
 51
0.0
  0
ARC
  5
2A2
330
1F
100
AcDbEntity
  8
作図レイヤ
 62
     3
100
AcDbCircle
 10
93.10328279607464
 20
144.966919159708
 30
0.0
 40
1.599999999999994
100
AcDbArc
 50
0.0
 51
90.0
  0
ARC
  5
2A3
330
1F
100
AcDbEntity
  8
作図レイヤ
 62
     3
100
AcDbCircle
 10
97.30328279607463
 20
144.966919159708
 30
0.0
 40
1.599999999999994
100
AcDbArc
 50
90.0
 51
180.0
  0
LINE
  5
2A4
330
1F
100
AcDbEntity
  8
作図レイヤ
 62
     3
100
AcDbLine
 10
73.62997703025651
 20
138.2727316990356
 30
0.0
 11
72.04226378998504
 21
141.0227316990356
 31
0.0
  0
LINE
  5
2A5
330
1F
100
AcDbEntity
  8
作図レイヤ
 62
     3
100
AcDbLine
 10
72.04226378998504
 20
141.0227316990356
 30
0.0
 11
68.8668373094421
 21
141.0227316990356
 31
0.0
  0
LINE
  5
2A6
330
1F
100
AcDbEntity
  8
作図レイヤ
 62
     3
100
AcDbLine
 10
68.8668373094421
 20
141.0227316990356
 30
0.0
 11
67.27912406917063
 21
138.2727316990356
 31
0.0
  0
LINE
  5
2A7
330
1F
100
AcDbEntity
  8
作図レイヤ
 62
     3
100
AcDbLine
 10
67.27912406917063
 20
138.2727316990356
 30
0.0
 11
68.8668373094421
 21
135.5227316990356
 31
0.0
  0
LINE
  5
2A8
330
1F
100
AcDbEntity
  8
作図レイヤ
 62
     3
100
AcDbLine
 10
68.8668373094421
 20
135.5227316990356
 30
0.0
 11
72.04226378998504
 21
135.5227316990356
 31
0.0
  0
LINE
  5
2A9
330
1F
100
AcDbEntity
  8
作図レイヤ
 62
     3
100
AcDbLine
 10
72.04226378998504
 20
135.5227316990356
 30
0.0
 11
73.62997703025651
 21
138.2727316990356
 31
0.0
  0
CIRCLE
  5
2AA
330
1F
100
AcDbEntity
  8
作図レイヤ
 62
     3
100
AcDbCircle
 10
70.45455054971357
 20
138.2727316990356
 30
0.0
 40
2.65
  0
CIRCLE
  5
2AB
330
1F
100
AcDbEntity
  8
作図レイヤ
 62
     3
100
AcDbCircle
 10
70.45455054971357
 20
138.2727316990356
 30
0.0
 40
1.2
  0
ARC
  5
2AC
330
1F
100
AcDbEntity
  8
作図レイヤ
 62
     7
370
    20
100
AcDbCircle
 10
70.45455054971357
 20
138.2727316990356
 30
0.0
 40
1.5
100
AcDbArc
 50
80.0
 51
349.9999999999999
  0
LINE
  5
2AD
330
1F
100
AcDbEntity
  8
作図レイヤ
 62
     3
100
AcDbLine
 10
73.6299668399203
 20
106.3636319373219
 30
0.0
 11
72.04225359964883
 21
109.1136319373219
 31
0.0
  0
LINE
  5
2AE
330
1F
100
AcDbEntity
  8
作図レイヤ
 62
     3
100
AcDbLine
 10
72.04225359964883
 20
109.1136319373219
 30
0.0
 11
68.86682711910589
 21
109.1136319373219
 31
0.0
  0
LINE
  5
2AF
330
1F
100
AcDbEntity
  8
作図レイヤ
 62
     3
100
AcDbLine
 10
68.86682711910589
 20
109.1136319373219
 30
0.0
 11
67.27911387883442
 21
106.3636319373219
 31
0.0
  0
LINE
  5
2B0
330
1F
100
AcDbEntity
  8
作図レイヤ
 62
     3
100
AcDbLine
 10
67.27911387883442
 20
106.3636319373219
 30
0.0
 11
68.86682711910589
 21
103.6136319373219
 31
0.0
  0
LINE
  5
2B1
330
1F
100
AcDbEntity
  8
作図レイヤ
 62
     3
100
AcDbLine
 10
68.86682711910589
 20
103.6136319373219
 30
0.0
 11
72.04225359964883
 21
103.6136319373219
 31
0.0
  0
LINE
  5
2B2
330
1F
100
AcDbEntity
  8
作図レイヤ
 62
     3
100
AcDbLine
 10
72.04225359964883
 20
103.6136319373219
 30
0.0
 11
73.6299668399203
 21
106.3636319373219
 31
0.0
  0
CIRCLE
  5
2B3
330
1F
100
AcDbEntity
  8
作図レイヤ
 62
     3
100
AcDbCircle
 10
70.45454035937736
 20
106.3636319373219
 30
0.0
 40
2.65
  0
CIRCLE
  5
2B4
330
1F
100
AcDbEntity
  8
作図レイヤ
 62
     3
100
AcDbCircle
 10
70.45454035937736
 20
106.3636319373219
 30
0.0
 40
1.2
  0
ARC
  5
2B5
330
1F
100
AcDbEntity
  8
作図レイヤ
 62
     7
370
    20
100
AcDbCircle
 10
70.45454035937736
 20
106.3636319373219
 30
0.0
 40
1.5
100
AcDbArc
 50
80.0
 51
349.9999999999999
  0
LINE
  5
2B6
330
1F
100
AcDbEntity
  8
作図レイヤ
 62
     3
100
AcDbLine
 10
100.4545531190706
 20
146.3181799020478
 30
0.0
 11
100.4545377900221
 21
98.3181799020478
 31
0.0
  0
LINE
  5
2B7
330
1F
100
AcDbEntity
  8
作図レイヤ
 62
     3
100
AcDbLine
 10
40.45455311906882
 20
146.3181837343099
 30
0.0
 11
40.4545377900203
 21
98.31818373430994
 31
0.0
  0
LINE
  5
2B8
330
1F
100
AcDbEntity
  8
作図レイヤ
 62
     3
100
AcDbLine
 10
46.45453779002
 20
92.31818181817889
 30
0.0
 11
94.45453779002246
 21
92.31818181817886
 31
0.0
  0
LINE
  5
2B9
330
1F
100
AcDbEntity
  8
作図レイヤ
 62
     3
100
AcDbLine
 10
46.45455311906851
 20
152.3181818181789
 30
0.0
 11
94.45455311907095
 21
152.3181818181789
 31
0.0
  0
ARC
  5
2BA
330
1F
100
AcDbEntity
  8
作図レイヤ
 62
     3
100
AcDbCircle
 10
94.45455311907095
 20
146.3181818181789
 30
0.0
 40
6.0
100
AcDbArc
 50
359.9999817022963
 51
90.0
  0
ARC
  5
2BB
330
1F
100
AcDbEntity
  8
作図レイヤ
 62
     3
100
AcDbCircle
 10
46.45455311906851
 20
146.3181818181789
 30
0.0
 40
6.0
100
AcDbArc
 50
90.0
 51
179.9999817022963
  0
ARC
  5
2BC
330
1F
100
AcDbEntity
  8
作図レイヤ
 62
     3
100
AcDbCircle
 10
46.45453779002
 20
98.31818181817889
 30
0.0
 40
6.0
100
AcDbArc
 50
179.9999817022963
 51
270.0
  0
ARC
  5
2BD
330
1F
100
AcDbEntity
  8
作図レイヤ
 62
     3
100
AcDbCircle
 10
94.45453779002246
 20
98.31818181817886
 30
0.0
 40
6.0
100
AcDbArc
 50
270.0
 51
359.9999817022963
  0
ARC
  5
2BE
330
1F
100
AcDbEntity
  8
GR1_01
 62
     7
100
AcDbCircle
 10
162.3016727281163
 20
193.8036613287548
 30
0.0
 40
1.0
100
AcDbArc
 50
180.0
 51
270.0
  0
LINE
  5
2BF
330
1F
100
AcDbEntity
  8
GR1_01
 62
     7
100
AcDbLine
 10
161.3016727281163
 20
193.8036613287548
 30
0.0
 11
161.3016727281164
 21
230.832702307603
 31
0.0
  0
ARC
  5
2C0
330
1F
100
AcDbEntity
  8
GR1_01
 62
     7
100
AcDbCircle
 10
162.3016727281164
 20
230.832702307603
 30
0.0
 40
1.0
100
AcDbArc
 50
90.0
 51
180.0
  0
ARC
  5
2C1
330
1F
100
AcDbEntity
  8
GR1_01
 62
     7
100
AcDbCircle
 10
192.3016727281164
 20
230.8327023076031
 30
0.0
 40
1.0
100
AcDbArc
 50
0.0
 51
90.0
  0
LINE
  5
2C2
330
1F
100
AcDbEntity
  8
GR1_01
 62
     7
100
AcDbLine
 10
193.3016727281164
 20
230.8327023076031
 30
0.0
 11
193.3016727281164
 21
193.8036613287548
 31
0.0
  0
ARC
  5
2C3
330
1F
100
AcDbEntity
  8
GR1_01
 62
     7
100
AcDbCircle
 10
192.3016727281164
 20
193.8036613287548
 30
0.0
 40
1.0
100
AcDbArc
 50
270.0
 51
0.0
  0
TEXT
  5
2C4
330
1F
100
AcDbEntity
  8
GR1_01
 62
     7
100
AcDbText
 10
175.3787078857422
 20
217.5572357177734
 30
0.0
 40
3.5
  1
Ｎ　Ｐ
 50
270.0
 41
1.235294117647059
 51
10.0
  7
FX_VECTOR
 72
     5
 11
175.3787078857422
 21
207.0572357177734
 31
0.0
100
AcDbText
  0
CIRCLE
  5
2C6
330
1F
100
AcDbEntity
  8
GR1_01
  6
二点鎖線
 62
     6
370
    13
100
AcDbCircle
 10
193.573446893342
 20
212.3181818181789
 30
0.0
 40
0.0987123434116484
  0
LINE
  5
2C7
330
1F
100
AcDbEntity
  8
基準ﾚｲﾔｸﾞﾙｰﾌﾟ_01
 62
     7
100
AcDbLine
 10
162.3016727281164
 20
231.832702307603
 30
0.0
 11
192.3016727281164
 21
231.832702307603
 31
0.0
  0
LINE
  5
2C8
330
1F
100
AcDbEntity
  8
基準ﾚｲﾔｸﾞﾙｰﾌﾟ_01
 62
     7
100
AcDbLine
 10
162.3016727281163
 20
192.8036613287548
 30
0.0
 11
192.3016727281164
 21
192.8036613287548
 31
0.0
  0
LINE
  5
2C9
330
1F
100
AcDbEntity
  8
基準ﾚｲﾔｸﾞﾙｰﾌﾟ_01
 62
     7
100
AcDbLine
 10
245.9545454545456
 20
213.9764942133564
 30
0.0
 11
257.9545454545455
 21
210.6598694230012
 31
0.0
  0
LINE
  5
2CA
330
1F
100
AcDbEntity
  8
基準ﾚｲﾔｸﾞﾙｰﾌﾟ_01
 62
     7
100
AcDbLine
 10
245.9545454545455
 20
210.6598694230012
 30
0.0
 11
257.9545454545455
 21
213.9764942133564
 31
0.0
  0
ENDSEC
  0
SECTION
  2
OBJECTS
  0
DICTIONARY
  5
C
330
0
100
AcDbDictionary
281
     1
  3
ACAD_GROUP
350
D
  3
ACAD_LAYOUT
350
1A
  3
ACAD_MATERIAL
350
3B
  3
ACAD_MLEADERSTYLE
350
2CD
  3
ACAD_MLINESTYLE
350
17
  3
ACAD_PLOTSETTINGS
350
19
  3
ACAD_PLOTSTYLENAME
350
E
  3
ACAD_VISUALSTYLE
350
2A
  3
AcDbVariableDictionary
350
2CB
  0
DICTIONARY
  5
D
102
{ACAD_REACTORS
330
C
102
}
330
C
100
AcDbDictionary
281
     1
  0
DICTIONARY
  5
1A
102
{ACAD_REACTORS
330
C
102
}
330
C
100
AcDbDictionary
281
     1
  3
Layout1
350
1E
  3
Layout2
350
26
  3
Model
350
22
  0
DICTIONARY
  5
3B
102
{ACAD_REACTORS
330
C
102
}
330
C
100
AcDbDictionary
281
     1
  3
ByBlock
350
3D
  3
ByLayer
350
3C
  3
Global
350
3E
  0
DICTIONARY
  5
2CD
102
{ACAD_REACTORS
330
C
102
}
330
C
100
AcDbDictionary
281
     1
  0
DICTIONARY
  5
17
102
{ACAD_REACTORS
330
C
102
}
330
C
100
AcDbDictionary
281
     1
  3
Standard
350
18
  0
DICTIONARY
  5
19
102
{ACAD_REACTORS
330
C
102
}
330
C
100
AcDbDictionary
281
     1
  0
ACDBDICTIONARYWDFLT
  5
E
102
{ACAD_REACTORS
330
C
102
}
330
C
100
AcDbDictionary
281
     1
  3
Normal
350
F
100
AcDbDictionaryWithDefault
340
F
  0
DICTIONARY
  5
2A
102
{ACAD_REACTORS
330
C
102
}
330
C
100
AcDbDictionary
281
     1
  3
2dWireframe
350
2F
  3
3D Hidden
350
31
  3
3dWireframe
350
30
  3
Basic
350
32
  3
Brighten
350
36
  3
ColorChange
350
3A
  3
Conceptual
350
34
  3
Dim
350
35
  3
Facepattern
350
39
  3
Flat
350
2B
  3
FlatWithEdges
350
2C
  3
Gouraud
350
2D
  3
GouraudWithEdges
350
2E
  3
Linepattern
350
38
  3
Realistic
350
33
  3
Thicken
350
37
  0
DICTIONARY
  5
2CB
102
{ACAD_REACTORS
330
C
102
}
330
C
100
AcDbDictionary
281
     1
  3
DIMASSOC
350
2D0
  3
HIDETEXT
350
2D1
  3
PSOLHEIGHT
350
2CF
  3
PSOLWIDTH
350
2CE
  0
LAYOUT
  5
1E
102
{ACAD_REACTORS
330
1A
102
}
330
1A
100
AcDbPlotSettings
  1

  2
none_device
  4

  6

 40
0.0
 41
0.0
 42
0.0
 43
0.0
 44
0.0
 45
0.0
 46
0.0
 47
0.0
 48
0.0
 49
0.0
140
0.0
141
0.0
142
1.0
143
1.0
 70
   688
 72
     0
 73
     0
 74
     5
  7

 75
    16
147
1.0
148
0.0
149
0.0
100
AcDbLayout
  1
Layout1
 70
     1
 71
     1
 10
0.0
 20
0.0
 11
420.0
 21
297.0
 12
0.0
 22
0.0
 32
0.0
 14
1.000000000000000E+20
 24
1.000000000000000E+20
 34
1.000000000000000E+20
 15
-1.000000000000000E+20
 25
-1.000000000000000E+20
 35
-1.000000000000000E+20
146
0.0
 13
0.0
 23
0.0
 33
0.0
 16
1.0
 26
0.0
 36
0.0
 17
0.0
 27
1.0
 37
0.0
 76
     0
330
1B
  0
LAYOUT
  5
26
102
{ACAD_REACTORS
330
1A
102
}
330
1A
100
AcDbPlotSettings
  1

  2
none_device
  4

  6

 40
0.0
 41
0.0
 42
0.0
 43
0.0
 44
0.0
 45
0.0
 46
0.0
 47
0.0
 48
0.0
 49
0.0
140
0.0
141
0.0
142
1.0
143
1.0
 70
   688
 72
     0
 73
     0
 74
     5
  7

 75
    16
147
1.0
148
0.0
149
0.0
100
AcDbLayout
  1
Layout2
 70
     1
 71
     2
 10
0.0
 20
0.0
 11
0.0
 21
0.0
 12
0.0
 22
0.0
 32
0.0
 14
0.0
 24
0.0
 34
0.0
 15
0.0
 25
0.0
 35
0.0
146
0.0
 13
0.0
 23
0.0
 33
0.0
 16
1.0
 26
0.0
 36
0.0
 17
0.0
 27
1.0
 37
0.0
 76
     0
330
23
  0
LAYOUT
  5
22
102
{ACAD_REACTORS
330
1A
102
}
330
1A
100
AcDbPlotSettings
  1

  2
none_device
  4

  6

 40
0.0
 41
0.0
 42
0.0
 43
0.0
 44
0.0
 45
0.0
 46
0.0
 47
0.0
 48
0.0
 49
0.0
140
0.0
141
0.0
142
1.0
143
1.0
 70
  1712
 72
     0
 73
     0
 74
     0
  7

 75
     0
147
1.0
148
0.0
149
0.0
100
AcDbLayout
  1
Model
 70
     1
 71
     0
 10
0.0
 20
0.0
 11
420.0
 21
297.0
 12
0.0
 22
0.0
 32
0.0
 14
0.0
 24
0.0
 34
0.0
 15
420.0
 25
297.0
 35
0.0
146
0.0
 13
0.0
 23
0.0
 33
0.0
 16
1.0
 26
0.0
 36
0.0
 17
0.0
 27
1.0
 37
0.0
 76
     0
330
1F
331
29
  0
MATERIAL
  5
3D
102
{ACAD_REACTORS
330
3B
102
}
102
{ACAD_XDICTIONARY
360
2F4
102
}
330
3B
100
AcDbMaterial
  1
ByBlock
  0
MATERIAL
  5
3C
102
{ACAD_REACTORS
330
3B
102
}
102
{ACAD_XDICTIONARY
360
2F2
102
}
330
3B
100
AcDbMaterial
  1
ByLayer
  0
MATERIAL
  5
3E
102
{ACAD_REACTORS
330
3B
102
}
102
{ACAD_XDICTIONARY
360
2F6
102
}
330
3B
100
AcDbMaterial
  1
Global
  0
MLINESTYLE
  5
18
102
{ACAD_REACTORS
330
17
102
}
330
17
100
AcDbMlineStyle
  2
Standard
 70
     0
  3

 62
   256
 51
90.0
 52
90.0
 71
     2
 49
0.5
 62
   256
  6
BYLAYER
 49
-0.5
 62
   256
  6
BYLAYER
  0
ACDBPLACEHOLDER
  5
F
102
{ACAD_REACTORS
330
E
102
}
330
E
  0
VISUALSTYLE
  5
2F
102
{ACAD_REACTORS
330
2A
102
}
102
{ACAD_XDICTIONARY
360
2DA
102
}
330
2A
100
AcDbVisualStyle
  2
2dWireframe
 70
     4
 71
     0
 72
     2
 73
     0
 90
        0
 40
-0.6
 41
-30.0
 62
     5
 63
     7
 74
     1
 91
        4
 64
     7
 65
   257
 75
     1
175
     1
 42
1.0
 92
        0
 66
   257
 43
1.0
 76
     1
 77
     6
 78
     2
 67
     7
 79
     5
170
     0
171
     0
290
     0
174
     0
 93
        1
 44
0.0
173
     0
291
     0
 45
0.0
1001
ACAD
1000
AcDbSavedByObjectVersion
1070
     0
  0
VISUALSTYLE
  5
31
102
{ACAD_REACTORS
330
2A
102
}
102
{ACAD_XDICTIONARY
360
2DE
102
}
330
2A
100
AcDbVisualStyle
  2
3D Hidden
 70
     6
 71
     1
 72
     2
 73
     2
 90
        0
 40
-0.6
 41
-30.0
 62
     5
 63
     7
 74
     2
 91
        2
 64
     7
 65
   257
 75
     2
175
     1
 42
40.0
 92
        0
 66
   257
 43
1.0
 76
     1
 77
     6
 78
     2
 67
     7
 79
     3
170
     0
171
     0
290
     0
174
     0
 93
        1
 44
0.0
173
     0
291
     0
 45
0.0
1001
ACAD
1000
AcDbSavedByObjectVersion
1070
     0
  0
VISUALSTYLE
  5
30
102
{ACAD_REACTORS
330
2A
102
}
102
{ACAD_XDICTIONARY
360
2DC
102
}
330
2A
100
AcDbVisualStyle
  2
3dWireframe
 70
     5
 71
     0
 72
     2
 73
     0
 90
        0
 40
-0.6
 41
-30.0
 62
     5
 63
     7
 74
     1
 91
        4
 64
     7
 65
   257
 75
     1
175
     1
 42
1.0
 92
        0
 66
   257
 43
1.0
 76
     1
 77
     6
 78
     2
 67
     7
 79
     5
170
     0
171
     0
290
     0
174
     0
 93
        1
 44
0.0
173
     0
291
     0
 45
0.0
1001
ACAD
1000
AcDbSavedByObjectVersion
1070
     0
  0
VISUALSTYLE
  5
32
102
{ACAD_REACTORS
330
2A
102
}
102
{ACAD_XDICTIONARY
360
2E0
102
}
330
2A
100
AcDbVisualStyle
  2
Basic
 70
     7
 71
     1
 72
     0
 73
     1
 90
        0
 40
-0.6
 41
-30.0
 62
     5
 63
     7
 74
     0
 91
        4
 64
     7
 65
   257
 75
     1
175
     1
 42
1.0
 92
        8
 66
     7
 43
1.0
 76
     1
 77
     6
 78
     2
 67
     7
 79
     5
170
     0
171
     0
290
     0
174
     0
 93
        1
 44
0.0
173
     0
291
     1
 45
0.0
1001
ACAD
1000
AcDbSavedByObjectVersion
1070
     0
  0
VISUALSTYLE
  5
36
102
{ACAD_REACTORS
330
2A
102
}
102
{ACAD_XDICTIONARY
360
2E8
102
}
330
2A
100
AcDbVisualStyle
  2
Brighten
 70
    12
 71
     2
 72
     2
 73
     0
 90
        0
 40
-0.6
 41
-30.0
 62
     5
 63
     7
 74
     1
 91
        4
 64
     7
 65
   257
 75
     1
175
     1
 42
1.0
 92
        8
 66
     7
 43
1.0
 76
     1
 77
     6
 78
     2
 67
     7
 79
     5
170
     0
171
     0
290
     0
174
     0
 93
        1
 44
50.0
173
     0
291
     1
 45
0.0
1001
ACAD
1000
AcDbSavedByObjectVersion
1070
     0
  0
VISUALSTYLE
  5
3A
102
{ACAD_REACTORS
330
2A
102
}
102
{ACAD_XDICTIONARY
360
2F0
102
}
330
2A
100
AcDbVisualStyle
  2
ColorChange
 70
    16
 71
     2
 72
     2
 73
     3
 90
        0
 40
-0.6
 41
-30.0
 62
     5
 63
     8
 74
     1
 91
        4
 64
     7
 65
   257
 75
     1
175
     1
 42
1.0
 92
        8
 66
     8
 43
1.0
 76
     1
 77
     6
 78
     2
 67
     7
 79
     5
170
     0
171
     0
290
     0
174
     0
 93
        1
 44
0.0
173
     0
291
     1
 45
0.0
1001
ACAD
1000
AcDbSavedByObjectVersion
1070
     0
  0
VISUALSTYLE
  5
34
102
{ACAD_REACTORS
330
2A
102
}
102
{ACAD_XDICTIONARY
360
2E4
102
}
330
2A
100
AcDbVisualStyle
  2
Conceptual
 70
     9
 71
     3
 72
     2
 73
     0
 90
        0
 40
-0.6
 41
-30.0
 62
     5
 63
     7
 74
     2
 91
        2
 64
     7
 65
   257
 75
     1
175
     1
 42
40.0
 92
        8
 66
     7
 43
1.0
 76
     1
 77
     6
 78
     2
 67
     7
 79
     3
170
     0
171
     0
290
     0
174
     0
 93
        1
 44
0.0
173
     0
291
     0
 45
0.0
1001
ACAD
1000
AcDbSavedByObjectVersion
1070
     0
  0
VISUALSTYLE
  5
35
102
{ACAD_REACTORS
330
2A
102
}
102
{ACAD_XDICTIONARY
360
2E6
102
}
330
2A
100
AcDbVisualStyle
  2
Dim
 70
    11
 71
     2
 72
     2
 73
     0
 90
        0
 40
-0.6
 41
-30.0
 62
     5
 63
     7
 74
     1
 91
        4
 64
     7
 65
   257
 75
     1
175
     1
 42
1.0
 92
        8
 66
     7
 43
1.0
 76
     1
 77
     6
 78
     2
 67
     7
 79
     5
170
     0
171
     0
290
     0
174
     0
 93
        1
 44
-50.0
173
     0
291
     1
 45
0.0
1001
ACAD
1000
AcDbSavedByObjectVersion
1070
     0
  0
VISUALSTYLE
  5
39
102
{ACAD_REACTORS
330
2A
102
}
102
{ACAD_XDICTIONARY
360
2EE
102
}
330
2A
100
AcDbVisualStyle
  2
Facepattern
 70
    15
 71
     2
 72
     2
 73
     0
 90
        0
 40
-0.6
 41
-30.0
 62
     5
 63
     7
 74
     1
 91
        4
 64
     7
 65
   257
 75
     1
175
     1
 42
1.0
 92
        8
 66
     7
 43
1.0
 76
     1
 77
     6
 78
     2
 67
     7
 79
     5
170
     0
171
     0
290
     0
174
     0
 93
        1
 44
0.0
173
     0
291
     1
 45
0.0
1001
ACAD
1000
AcDbSavedByObjectVersion
1070
     0
  0
VISUALSTYLE
  5
2B
102
{ACAD_REACTORS
330
2A
102
}
102
{ACAD_XDICTIONARY
360
2D2
102
}
330
2A
100
AcDbVisualStyle
  2
Flat
 70
     0
 71
     2
 72
     1
 73
     1
 90
        2
 40
-0.6
 41
30.0
 62
     5
 63
     7
 74
     0
 91
        4
 64
     7
 65
   257
 75
     1
175
     1
 42
1.0
 92
        8
 66
     7
 43
1.0
 76
     1
 77
     6
 78
     2
 67
     7
 79
     5
170
     0
171
     0
290
     0
174
     0
 93
       13
 44
0.0
173
     0
291
     1
 45
0.0
1001
ACAD
1000
AcDbSavedByObjectVersion
1070
     0
  0
VISUALSTYLE
  5
2C
102
{ACAD_REACTORS
330
2A
102
}
102
{ACAD_XDICTIONARY
360
2D4
102
}
330
2A
100
AcDbVisualStyle
  2
FlatWithEdges
 70
     1
 71
     2
 72
     1
 73
     1
 90
        2
 40
-0.6
 41
30.0
 62
     5
 63
     7
 74
     1
 91
        4
 64
     7
 65
   257
 75
     1
175
     1
 42
1.0
 92
        0
 66
   257
 43
1.0
 76
     1
 77
     6
 78
     2
 67
     7
 79
     5
170
     0
171
     0
290
     0
174
     0
 93
       13
 44
0.0
173
     0
291
     1
 45
0.0
1001
ACAD
1000
AcDbSavedByObjectVersion
1070
     0
  0
VISUALSTYLE
  5
2D
102
{ACAD_REACTORS
330
2A
102
}
102
{ACAD_XDICTIONARY
360
2D6
102
}
330
2A
100
AcDbVisualStyle
  2
Gouraud
 70
     2
 71
     2
 72
     2
 73
     1
 90
        2
 40
-0.6
 41
30.0
 62
     5
 63
     7
 74
     0
 91
        4
 64
     7
 65
   257
 75
     1
175
     1
 42
1.0
 92
        0
 66
     7
 43
1.0
 76
     1
 77
     6
 78
     2
 67
     7
 79
     5
170
     0
171
     0
290
     0
174
     0
 93
       13
 44
0.0
173
     0
291
     1
 45
0.0
1001
ACAD
1000
AcDbSavedByObjectVersion
1070
     0
  0
VISUALSTYLE
  5
2E
102
{ACAD_REACTORS
330
2A
102
}
102
{ACAD_XDICTIONARY
360
2D8
102
}
330
2A
100
AcDbVisualStyle
  2
GouraudWithEdges
 70
     3
 71
     2
 72
     2
 73
     1
 90
        2
 40
-0.6
 41
30.0
 62
     5
 63
     7
 74
     1
 91
        4
 64
     7
 65
   257
 75
     1
175
     1
 42
1.0
 92
        0
 66
   257
 43
1.0
 76
     1
 77
     6
 78
     2
 67
     7
 79
     5
170
     0
171
     0
290
     0
174
     0
 93
       13
 44
0.0
173
     0
291
     1
 45
0.0
1001
ACAD
1000
AcDbSavedByObjectVersion
1070
     0
  0
VISUALSTYLE
  5
38
102
{ACAD_REACTORS
330
2A
102
}
102
{ACAD_XDICTIONARY
360
2EC
102
}
330
2A
100
AcDbVisualStyle
  2
Linepattern
 70
    14
 71
     2
 72
     2
 73
     0
 90
        0
 40
-0.6
 41
-30.0
 62
     5
 63
     7
 74
     1
 91
        4
 64
     7
 65
   257
 75
     7
175
     7
 42
1.0
 92
        8
 66
     7
 43
1.0
 76
     1
 77
     6
 78
     2
 67
     7
 79
     5
170
     0
171
     0
290
     0
174
     0
 93
        1
 44
0.0
173
     0
291
     1
 45
0.0
1001
ACAD
1000
AcDbSavedByObjectVersion
1070
     0
  0
VISUALSTYLE
  5
33
102
{ACAD_REACTORS
330
2A
102
}
102
{ACAD_XDICTIONARY
360
2E2
102
}
330
2A
100
AcDbVisualStyle
  2
Realistic
 70
     8
 71
     2
 72
     2
 73
     0
 90
        0
 40
-0.6
 41
-30.0
 62
     5
 63
     7
 74
     1
 91
        0
 64
     7
 65
   257
 75
     1
175
     1
 42
1.0
 92
        8
 66
     8
 43
1.0
 76
     1
 77
     6
 78
     2
 67
     7
 79
     5
170
     0
171
     0
290
     0
174
     0
 93
       13
 44
0.0
173
     0
291
     0
 45
0.0
1001
ACAD
1000
AcDbSavedByObjectVersion
1070
     0
  0
VISUALSTYLE
  5
37
102
{ACAD_REACTORS
330
2A
102
}
102
{ACAD_XDICTIONARY
360
2EA
102
}
330
2A
100
AcDbVisualStyle
  2
Thicken
 70
    13
 71
     2
 72
     2
 73
     0
 90
        0
 40
-0.6
 41
-30.0
 62
     5
 63
     7
 74
     1
 91
        4
 64
     7
 65
   257
 75
     1
175
     1
 42
1.0
 92
       12
 66
     7
 43
1.0
 76
     1
 77
     6
 78
     2
 67
     7
 79
     5
170
     0
171
     0
290
     0
174
     0
 93
        1
 44
0.0
173
     0
291
     1
 45
0.0
1001
ACAD
1000
AcDbSavedByObjectVersion
1070
     0
  0
DICTIONARYVAR
  5
2D0
102
{ACAD_REACTORS
330
2CB
102
}
330
2CB
100
DictionaryVariables
280
     0
  1
2
  0
DICTIONARYVAR
  5
2D1
102
{ACAD_REACTORS
330
2CB
102
}
330
2CB
100
DictionaryVariables
280
     0
  1
1
  0
DICTIONARYVAR
  5
2CF
102
{ACAD_REACTORS
330
2CB
102
}
330
2CB
100
DictionaryVariables
280
     0
  1
80.000000
  0
DICTIONARYVAR
  5
2CE
102
{ACAD_REACTORS
330
2CB
102
}
330
2CB
100
DictionaryVariables
280
     0
  1
5.000000
  0
DICTIONARY
  5
2F4
330
3D
100
AcDbDictionary
280
     1
281
     1
  3
ACAD_XREC_ROUNDTRIP
360
2F5
  0
DICTIONARY
  5
2F2
330
3C
100
AcDbDictionary
280
     1
281
     1
  3
ACAD_XREC_ROUNDTRIP
360
2F3
  0
DICTIONARY
  5
2F6
330
3E
100
AcDbDictionary
280
     1
281
     1
  3
ACAD_XREC_ROUNDTRIP
360
2F7
  0
DICTIONARY
  5
2DA
330
2F
100
AcDbDictionary
280
     1
281
     1
  3
ACAD_XREC_ROUNDTRIP
360
2DB
  0
DICTIONARY
  5
2DE
330
31
100
AcDbDictionary
280
     1
281
     1
  3
ACAD_XREC_ROUNDTRIP
360
2DF
  0
DICTIONARY
  5
2DC
330
30
100
AcDbDictionary
280
     1
281
     1
  3
ACAD_XREC_ROUNDTRIP
360
2DD
  0
DICTIONARY
  5
2E0
330
32
100
AcDbDictionary
280
     1
281
     1
  3
ACAD_XREC_ROUNDTRIP
360
2E1
  0
DICTIONARY
  5
2E8
330
36
100
AcDbDictionary
280
     1
281
     1
  3
ACAD_XREC_ROUNDTRIP
360
2E9
  0
DICTIONARY
  5
2F0
330
3A
100
AcDbDictionary
280
     1
281
     1
  3
ACAD_XREC_ROUNDTRIP
360
2F1
  0
DICTIONARY
  5
2E4
330
34
100
AcDbDictionary
280
     1
281
     1
  3
ACAD_XREC_ROUNDTRIP
360
2E5
  0
DICTIONARY
  5
2E6
330
35
100
AcDbDictionary
280
     1
281
     1
  3
ACAD_XREC_ROUNDTRIP
360
2E7
  0
DICTIONARY
  5
2EE
330
39
100
AcDbDictionary
280
     1
281
     1
  3
ACAD_XREC_ROUNDTRIP
360
2EF
  0
DICTIONARY
  5
2D2
330
2B
100
AcDbDictionary
280
     1
281
     1
  3
ACAD_XREC_ROUNDTRIP
360
2D3
  0
DICTIONARY
  5
2D4
330
2C
100
AcDbDictionary
280
     1
281
     1
  3
ACAD_XREC_ROUNDTRIP
360
2D5
  0
DICTIONARY
  5
2D6
330
2D
100
AcDbDictionary
280
     1
281
     1
  3
ACAD_XREC_ROUNDTRIP
360
2D7
  0
DICTIONARY
  5
2D8
330
2E
100
AcDbDictionary
280
     1
281
     1
  3
ACAD_XREC_ROUNDTRIP
360
2D9
  0
DICTIONARY
  5
2EC
330
38
100
AcDbDictionary
280
     1
281
     1
  3
ACAD_XREC_ROUNDTRIP
360
2ED
  0
DICTIONARY
  5
2E2
330
33
100
AcDbDictionary
280
     1
281
     1
  3
ACAD_XREC_ROUNDTRIP
360
2E3
  0
DICTIONARY
  5
2EA
330
37
100
AcDbDictionary
280
     1
281
     1
  3
ACAD_XREC_ROUNDTRIP
360
2EB
  0
XRECORD
  5
2F5
102
{ACAD_REACTORS
330
2F4
102
}
330
2F4
100
AcDbXrecord
280
     1
102
MATERIAL
148
0.0
149
0.0
149
0.0
 93
        0
 94
      127
282
     0
 72
     1
 77
     1
171
     1
175
     1
179
     1
273
     0
  0
XRECORD
  5
2F3
102
{ACAD_REACTORS
330
2F2
102
}
330
2F2
100
AcDbXrecord
280
     1
102
MATERIAL
148
0.0
149
0.0
149
0.0
 93
        0
 94
      127
282
     0
 72
     1
 77
     1
171
     1
175
     1
179
     1
273
     0
  0
XRECORD
  5
2F7
102
{ACAD_REACTORS
330
2F6
102
}
330
2F6
100
AcDbXrecord
280
     1
102
MATERIAL
148
0.0
149
0.0
149
0.0
 93
        0
 94
      127
282
     0
 72
     1
 77
     1
171
     1
175
     1
179
     1
273
     0
  0
XRECORD
  5
2DB
102
{ACAD_REACTORS
330
2DA
102
}
330
2DA
100
AcDbXrecord
280
     1
102
RTVSPropertyOp0
 70
     1
102
RTVSPropertyOp1
 70
     1
102
RTVSPropertyOp2
 70
     1
102
RTVSPropertyOp3
 70
     1
102
RTVSPropertyOp4
 70
     1
102
RTVSPropertyOp5
 70
     1
102
RTVSPropertyOp6
 70
     1
102
RTVSPropertyOp7
 70
     1
102
RTVSPropertyOp8
 70
     1
102
RTVSPropertyOp9
 70
     1
102
RTVSPropertyOp10
 70
     1
102
RTVSPropertyOp11
 70
     1
102
RTVSPropertyOp12
 70
     1
102
RTVSPropertyOp13
 70
     1
102
RTVSPropertyOp14
 70
     1
102
RTVSPropertyOp15
 70
     1
102
RTVSPropertyOp16
 70
     1
102
RTVSPropertyOp17
 70
     1
102
RTVSPropertyOp18
 70
     1
102
RTVSPropertyOp19
 70
     1
102
RTVSPropertyOp20
 70
     1
102
RTVSPropertyOp21
 70
     1
102
RTVSPropertyOp22
 70
     1
102
RTVSPropertyOp23
 70
     1
102
RTVSPropertyOp24
 70
     1
102
RTVSPropertyOp25
 70
     1
102
RTVSPropertyOp26
 70
     1
102
RTVSPropertyOp27
 70
     1
  0
XRECORD
  5
2DF
102
{ACAD_REACTORS
330
2DE
102
}
330
2DE
100
AcDbXrecord
280
     1
102
RTVSPropertyOp0
 70
     1
102
RTVSPropertyOp1
 70
     1
102
RTVSPropertyOp2
 70
     1
102
RTVSPropertyOp3
 70
     1
102
RTVSPropertyOp4
 70
     1
102
RTVSPropertyOp5
 70
     1
102
RTVSPropertyOp6
 70
     1
102
RTVSPropertyOp7
 70
     1
102
RTVSPropertyOp8
 70
     1
102
RTVSPropertyOp9
 70
     1
102
RTVSPropertyOp10
 70
     1
102
RTVSPropertyOp11
 70
     1
102
RTVSPropertyOp12
 70
     1
102
RTVSPropertyOp13
 70
     1
102
RTVSPropertyOp14
 70
     1
102
RTVSPropertyOp15
 70
     1
102
RTVSPropertyOp16
 70
     1
102
RTVSPropertyOp17
 70
     1
102
RTVSPropertyOp18
 70
     1
102
RTVSPropertyOp19
 70
     1
102
RTVSPropertyOp20
 70
     1
102
RTVSPropertyOp21
 70
     1
102
RTVSPropertyOp22
 70
     1
102
RTVSPropertyOp23
 70
     1
102
RTVSPropertyOp24
 70
     1
102
RTVSPropertyOp25
 70
     1
102
RTVSPropertyOp26
 70
     1
102
RTVSPropertyOp27
 70
     1
  0
XRECORD
  5
2DD
102
{ACAD_REACTORS
330
2DC
102
}
330
2DC
100
AcDbXrecord
280
     1
102
RTVSPropertyOp0
 70
     1
102
RTVSPropertyOp1
 70
     1
102
RTVSPropertyOp2
 70
     1
102
RTVSPropertyOp3
 70
     1
102
RTVSPropertyOp4
 70
     1
102
RTVSPropertyOp5
 70
     1
102
RTVSPropertyOp6
 70
     1
102
RTVSPropertyOp7
 70
     1
102
RTVSPropertyOp8
 70
     1
102
RTVSPropertyOp9
 70
     1
102
RTVSPropertyOp10
 70
     1
102
RTVSPropertyOp11
 70
     1
102
RTVSPropertyOp12
 70
     1
102
RTVSPropertyOp13
 70
     1
102
RTVSPropertyOp14
 70
     1
102
RTVSPropertyOp15
 70
     1
102
RTVSPropertyOp16
 70
     1
102
RTVSPropertyOp17
 70
     1
102
RTVSPropertyOp18
 70
     1
102
RTVSPropertyOp19
 70
     1
102
RTVSPropertyOp20
 70
     1
102
RTVSPropertyOp21
 70
     1
102
RTVSPropertyOp22
 70
     1
102
RTVSPropertyOp23
 70
     1
102
RTVSPropertyOp24
 70
     1
102
RTVSPropertyOp25
 70
     1
102
RTVSPropertyOp26
 70
     1
102
RTVSPropertyOp27
 70
     1
  0
XRECORD
  5
2E1
102
{ACAD_REACTORS
330
2E0
102
}
330
2E0
100
AcDbXrecord
280
     1
102
RTVSPropertyOp0
 70
     1
102
RTVSPropertyOp1
 70
     1
102
RTVSPropertyOp2
 70
     1
102
RTVSPropertyOp3
 70
     1
102
RTVSPropertyOp4
 70
     1
102
RTVSPropertyOp5
 70
     1
102
RTVSPropertyOp6
 70
     1
102
RTVSPropertyOp7
 70
     1
102
RTVSPropertyOp8
 70
     1
102
RTVSPropertyOp9
 70
     1
102
RTVSPropertyOp10
 70
     1
102
RTVSPropertyOp11
 70
     1
102
RTVSPropertyOp12
 70
     1
102
RTVSPropertyOp13
 70
     1
102
RTVSPropertyOp14
 70
     1
102
RTVSPropertyOp15
 70
     1
102
RTVSPropertyOp16
 70
     1
102
RTVSPropertyOp17
 70
     1
102
RTVSPropertyOp18
 70
     1
102
RTVSPropertyOp19
 70
     1
102
RTVSPropertyOp20
 70
     1
102
RTVSPropertyOp21
 70
     1
102
RTVSPropertyOp22
 70
     1
102
RTVSPropertyOp23
 70
     1
102
RTVSPropertyOp24
 70
     1
102
RTVSPropertyOp25
 70
     1
102
RTVSPropertyOp26
 70
     1
102
RTVSPropertyOp27
 70
     1
  0
XRECORD
  5
2E9
102
{ACAD_REACTORS
330
2E8
102
}
330
2E8
100
AcDbXrecord
280
     1
102
RTVSPropertyOp0
 70
     1
102
RTVSPropertyOp1
 70
     1
102
RTVSPropertyOp2
 70
     1
102
RTVSPropertyOp3
 70
     1
102
RTVSPropertyOp4
 70
     1
102
RTVSPropertyOp5
 70
     1
102
RTVSPropertyOp6
 70
     1
102
RTVSPropertyOp7
 70
     1
102
RTVSPropertyOp8
 70
     1
102
RTVSPropertyOp9
 70
     1
102
RTVSPropertyOp10
 70
     1
102
RTVSPropertyOp11
 70
     1
102
RTVSPropertyOp12
 70
     1
102
RTVSPropertyOp13
 70
     1
102
RTVSPropertyOp14
 70
     1
102
RTVSPropertyOp15
 70
     1
102
RTVSPropertyOp16
 70
     1
102
RTVSPropertyOp17
 70
     1
102
RTVSPropertyOp18
 70
     1
102
RTVSPropertyOp19
 70
     1
102
RTVSPropertyOp20
 70
     1
102
RTVSPropertyOp21
 70
     1
102
RTVSPropertyOp22
 70
     1
102
RTVSPropertyOp23
 70
     1
102
RTVSPropertyOp24
 70
     1
102
RTVSPropertyOp25
 70
     1
102
RTVSPropertyOp26
 70
     1
102
RTVSPropertyOp27
 70
     1
  0
XRECORD
  5
2F1
102
{ACAD_REACTORS
330
2F0
102
}
330
2F0
100
AcDbXrecord
280
     1
102
RTVSPropertyOp0
 70
     1
102
RTVSPropertyOp1
 70
     1
102
RTVSPropertyOp2
 70
     1
102
RTVSPropertyOp3
 70
     1
102
RTVSPropertyOp4
 70
     1
102
RTVSPropertyOp5
 70
     1
102
RTVSPropertyOp6
 70
     1
102
RTVSPropertyOp7
 70
     1
102
RTVSPropertyOp8
 70
     1
102
RTVSPropertyOp9
 70
     1
102
RTVSPropertyOp10
 70
     1
102
RTVSPropertyOp11
 70
     1
102
RTVSPropertyOp12
 70
     1
102
RTVSPropertyOp13
 70
     1
102
RTVSPropertyOp14
 70
     1
102
RTVSPropertyOp15
 70
     1
102
RTVSPropertyOp16
 70
     1
102
RTVSPropertyOp17
 70
     1
102
RTVSPropertyOp18
 70
     1
102
RTVSPropertyOp19
 70
     1
102
RTVSPropertyOp20
 70
     1
102
RTVSPropertyOp21
 70
     1
102
RTVSPropertyOp22
 70
     1
102
RTVSPropertyOp23
 70
     1
102
RTVSPropertyOp24
 70
     1
102
RTVSPropertyOp25
 70
     1
102
RTVSPropertyOp26
 70
     1
102
RTVSPropertyOp27
 70
     1
  0
XRECORD
  5
2E5
102
{ACAD_REACTORS
330
2E4
102
}
330
2E4
100
AcDbXrecord
280
     1
102
RTVSPropertyOp0
 70
     1
102
RTVSPropertyOp1
 70
     1
102
RTVSPropertyOp2
 70
     1
102
RTVSPropertyOp3
 70
     1
102
RTVSPropertyOp4
 70
     1
102
RTVSPropertyOp5
 70
     1
102
RTVSPropertyOp6
 70
     1
102
RTVSPropertyOp7
 70
     1
102
RTVSPropertyOp8
 70
     1
102
RTVSPropertyOp9
 70
     1
102
RTVSPropertyOp10
 70
     1
102
RTVSPropertyOp11
 70
     1
102
RTVSPropertyOp12
 70
     1
102
RTVSPropertyOp13
 70
     1
102
RTVSPropertyOp14
 70
     1
102
RTVSPropertyOp15
 70
     1
102
RTVSPropertyOp16
 70
     1
102
RTVSPropertyOp17
 70
     1
102
RTVSPropertyOp18
 70
     1
102
RTVSPropertyOp19
 70
     1
102
RTVSPropertyOp20
 70
     1
102
RTVSPropertyOp21
 70
     1
102
RTVSPropertyOp22
 70
     1
102
RTVSPropertyOp23
 70
     1
102
RTVSPropertyOp24
 70
     1
102
RTVSPropertyOp25
 70
     1
102
RTVSPropertyOp26
 70
     1
102
RTVSPropertyOp27
 70
     1
  0
XRECORD
  5
2E7
102
{ACAD_REACTORS
330
2E6
102
}
330
2E6
100
AcDbXrecord
280
     1
102
RTVSPropertyOp0
 70
     1
102
RTVSPropertyOp1
 70
     1
102
RTVSPropertyOp2
 70
     1
102
RTVSPropertyOp3
 70
     1
102
RTVSPropertyOp4
 70
     1
102
RTVSPropertyOp5
 70
     1
102
RTVSPropertyOp6
 70
     1
102
RTVSPropertyOp7
 70
     1
102
RTVSPropertyOp8
 70
     1
102
RTVSPropertyOp9
 70
     1
102
RTVSPropertyOp10
 70
     1
102
RTVSPropertyOp11
 70
     1
102
RTVSPropertyOp12
 70
     1
102
RTVSPropertyOp13
 70
     1
102
RTVSPropertyOp14
 70
     1
102
RTVSPropertyOp15
 70
     1
102
RTVSPropertyOp16
 70
     1
102
RTVSPropertyOp17
 70
     1
102
RTVSPropertyOp18
 70
     1
102
RTVSPropertyOp19
 70
     1
102
RTVSPropertyOp20
 70
     1
102
RTVSPropertyOp21
 70
     1
102
RTVSPropertyOp22
 70
     1
102
RTVSPropertyOp23
 70
     1
102
RTVSPropertyOp24
 70
     1
102
RTVSPropertyOp25
 70
     1
102
RTVSPropertyOp26
 70
     1
102
RTVSPropertyOp27
 70
     1
  0
XRECORD
  5
2EF
102
{ACAD_REACTORS
330
2EE
102
}
330
2EE
100
AcDbXrecord
280
     1
102
RTVSPropertyOp0
 70
     1
102
RTVSPropertyOp1
 70
     1
102
RTVSPropertyOp2
 70
     1
102
RTVSPropertyOp3
 70
     1
102
RTVSPropertyOp4
 70
     1
102
RTVSPropertyOp5
 70
     1
102
RTVSPropertyOp6
 70
     1
102
RTVSPropertyOp7
 70
     1
102
RTVSPropertyOp8
 70
     1
102
RTVSPropertyOp9
 70
     1
102
RTVSPropertyOp10
 70
     1
102
RTVSPropertyOp11
 70
     1
102
RTVSPropertyOp12
 70
     1
102
RTVSPropertyOp13
 70
     1
102
RTVSPropertyOp14
 70
     1
102
RTVSPropertyOp15
 70
     1
102
RTVSPropertyOp16
 70
     1
102
RTVSPropertyOp17
 70
     1
102
RTVSPropertyOp18
 70
     1
102
RTVSPropertyOp19
 70
     1
102
RTVSPropertyOp20
 70
     1
102
RTVSPropertyOp21
 70
     1
102
RTVSPropertyOp22
 70
     1
102
RTVSPropertyOp23
 70
     1
102
RTVSPropertyOp24
 70
     1
102
RTVSPropertyOp25
 70
     1
102
RTVSPropertyOp26
 70
     1
102
RTVSPropertyOp27
 70
     1
  0
XRECORD
  5
2D3
102
{ACAD_REACTORS
330
2D2
102
}
330
2D2
100
AcDbXrecord
280
     1
102
RTVSPropertyOp0
 70
     1
102
RTVSPropertyOp1
 70
     1
102
RTVSPropertyOp2
 70
     1
102
RTVSPropertyOp3
 70
     1
102
RTVSPropertyOp4
 70
     1
102
RTVSPropertyOp5
 70
     1
102
RTVSPropertyOp6
 70
     1
102
RTVSPropertyOp7
 70
     1
102
RTVSPropertyOp8
 70
     1
102
RTVSPropertyOp9
 70
     1
102
RTVSPropertyOp10
 70
     1
102
RTVSPropertyOp11
 70
     1
102
RTVSPropertyOp12
 70
     1
102
RTVSPropertyOp13
 70
     1
102
RTVSPropertyOp14
 70
     1
102
RTVSPropertyOp15
 70
     1
102
RTVSPropertyOp16
 70
     1
102
RTVSPropertyOp17
 70
     1
102
RTVSPropertyOp18
 70
     1
102
RTVSPropertyOp19
 70
     1
102
RTVSPropertyOp20
 70
     1
102
RTVSPropertyOp21
 70
     1
102
RTVSPropertyOp22
 70
     1
102
RTVSPropertyOp23
 70
     1
102
RTVSPropertyOp24
 70
     1
102
RTVSPropertyOp25
 70
     1
102
RTVSPropertyOp26
 70
     1
102
RTVSPropertyOp27
 70
     1
  0
XRECORD
  5
2D5
102
{ACAD_REACTORS
330
2D4
102
}
330
2D4
100
AcDbXrecord
280
     1
102
RTVSPropertyOp0
 70
     1
102
RTVSPropertyOp1
 70
     1
102
RTVSPropertyOp2
 70
     1
102
RTVSPropertyOp3
 70
     1
102
RTVSPropertyOp4
 70
     1
102
RTVSPropertyOp5
 70
     1
102
RTVSPropertyOp6
 70
     1
102
RTVSPropertyOp7
 70
     1
102
RTVSPropertyOp8
 70
     1
102
RTVSPropertyOp9
 70
     1
102
RTVSPropertyOp10
 70
     1
102
RTVSPropertyOp11
 70
     1
102
RTVSPropertyOp12
 70
     1
102
RTVSPropertyOp13
 70
     1
102
RTVSPropertyOp14
 70
     1
102
RTVSPropertyOp15
 70
     1
102
RTVSPropertyOp16
 70
     1
102
RTVSPropertyOp17
 70
     1
102
RTVSPropertyOp18
 70
     1
102
RTVSPropertyOp19
 70
     1
102
RTVSPropertyOp20
 70
     1
102
RTVSPropertyOp21
 70
     1
102
RTVSPropertyOp22
 70
     1
102
RTVSPropertyOp23
 70
     1
102
RTVSPropertyOp24
 70
     1
102
RTVSPropertyOp25
 70
     1
102
RTVSPropertyOp26
 70
     1
102
RTVSPropertyOp27
 70
     1
  0
XRECORD
  5
2D7
102
{ACAD_REACTORS
330
2D6
102
}
330
2D6
100
AcDbXrecord
280
     1
102
RTVSPropertyOp0
 70
     1
102
RTVSPropertyOp1
 70
     1
102
RTVSPropertyOp2
 70
     1
102
RTVSPropertyOp3
 70
     1
102
RTVSPropertyOp4
 70
     1
102
RTVSPropertyOp5
 70
     1
102
RTVSPropertyOp6
 70
     1
102
RTVSPropertyOp7
 70
     1
102
RTVSPropertyOp8
 70
     1
102
RTVSPropertyOp9
 70
     1
102
RTVSPropertyOp10
 70
     1
102
RTVSPropertyOp11
 70
     1
102
RTVSPropertyOp12
 70
     1
102
RTVSPropertyOp13
 70
     1
102
RTVSPropertyOp14
 70
     1
102
RTVSPropertyOp15
 70
     1
102
RTVSPropertyOp16
 70
     1
102
RTVSPropertyOp17
 70
     1
102
RTVSPropertyOp18
 70
     1
102
RTVSPropertyOp19
 70
     1
102
RTVSPropertyOp20
 70
     1
102
RTVSPropertyOp21
 70
     1
102
RTVSPropertyOp22
 70
     1
102
RTVSPropertyOp23
 70
     1
102
RTVSPropertyOp24
 70
     1
102
RTVSPropertyOp25
 70
     1
102
RTVSPropertyOp26
 70
     1
102
RTVSPropertyOp27
 70
     1
  0
XRECORD
  5
2D9
102
{ACAD_REACTORS
330
2D8
102
}
330
2D8
100
AcDbXrecord
280
     1
102
RTVSPropertyOp0
 70
     1
102
RTVSPropertyOp1
 70
     1
102
RTVSPropertyOp2
 70
     1
102
RTVSPropertyOp3
 70
     1
102
RTVSPropertyOp4
 70
     1
102
RTVSPropertyOp5
 70
     1
102
RTVSPropertyOp6
 70
     1
102
RTVSPropertyOp7
 70
     1
102
RTVSPropertyOp8
 70
     1
102
RTVSPropertyOp9
 70
     1
102
RTVSPropertyOp10
 70
     1
102
RTVSPropertyOp11
 70
     1
102
RTVSPropertyOp12
 70
     1
102
RTVSPropertyOp13
 70
     1
102
RTVSPropertyOp14
 70
     1
102
RTVSPropertyOp15
 70
     1
102
RTVSPropertyOp16
 70
     1
102
RTVSPropertyOp17
 70
     1
102
RTVSPropertyOp18
 70
     1
102
RTVSPropertyOp19
 70
     1
102
RTVSPropertyOp20
 70
     1
102
RTVSPropertyOp21
 70
     1
102
RTVSPropertyOp22
 70
     1
102
RTVSPropertyOp23
 70
     1
102
RTVSPropertyOp24
 70
     1
102
RTVSPropertyOp25
 70
     1
102
RTVSPropertyOp26
 70
     1
102
RTVSPropertyOp27
 70
     1
  0
XRECORD
  5
2ED
102
{ACAD_REACTORS
330
2EC
102
}
330
2EC
100
AcDbXrecord
280
     1
102
RTVSPropertyOp0
 70
     1
102
RTVSPropertyOp1
 70
     1
102
RTVSPropertyOp2
 70
     1
102
RTVSPropertyOp3
 70
     1
102
RTVSPropertyOp4
 70
     1
102
RTVSPropertyOp5
 70
     1
102
RTVSPropertyOp6
 70
     1
102
RTVSPropertyOp7
 70
     1
102
RTVSPropertyOp8
 70
     1
102
RTVSPropertyOp9
 70
     1
102
RTVSPropertyOp10
 70
     1
102
RTVSPropertyOp11
 70
     1
102
RTVSPropertyOp12
 70
     1
102
RTVSPropertyOp13
 70
     1
102
RTVSPropertyOp14
 70
     1
102
RTVSPropertyOp15
 70
     1
102
RTVSPropertyOp16
 70
     1
102
RTVSPropertyOp17
 70
     1
102
RTVSPropertyOp18
 70
     1
102
RTVSPropertyOp19
 70
     1
102
RTVSPropertyOp20
 70
     1
102
RTVSPropertyOp21
 70
     1
102
RTVSPropertyOp22
 70
     1
102
RTVSPropertyOp23
 70
     1
102
RTVSPropertyOp24
 70
     1
102
RTVSPropertyOp25
 70
     1
102
RTVSPropertyOp26
 70
     1
102
RTVSPropertyOp27
 70
     1
  0
XRECORD
  5
2E3
102
{ACAD_REACTORS
330
2E2
102
}
330
2E2
100
AcDbXrecord
280
     1
102
RTVSPropertyOp0
 70
     1
102
RTVSPropertyOp1
 70
     1
102
RTVSPropertyOp2
 70
     1
102
RTVSPropertyOp3
 70
     1
102
RTVSPropertyOp4
 70
     1
102
RTVSPropertyOp5
 70
     1
102
RTVSPropertyOp6
 70
     1
102
RTVSPropertyOp7
 70
     1
102
RTVSPropertyOp8
 70
     1
102
RTVSPropertyOp9
 70
     1
102
RTVSPropertyOp10
 70
     1
102
RTVSPropertyOp11
 70
     1
102
RTVSPropertyOp12
 70
     1
102
RTVSPropertyOp13
 70
     1
102
RTVSPropertyOp14
 70
     1
102
RTVSPropertyOp15
 70
     1
102
RTVSPropertyOp16
 70
     1
102
RTVSPropertyOp17
 70
     1
102
RTVSPropertyOp18
 70
     1
102
RTVSPropertyOp19
 70
     1
102
RTVSPropertyOp20
 70
     1
102
RTVSPropertyOp21
 70
     1
102
RTVSPropertyOp22
 70
     1
102
RTVSPropertyOp23
 70
     1
102
RTVSPropertyOp24
 70
     1
102
RTVSPropertyOp25
 70
     1
102
RTVSPropertyOp26
 70
     1
102
RTVSPropertyOp27
 70
     1
  0
XRECORD
  5
2EB
102
{ACAD_REACTORS
330
2EA
102
}
330
2EA
100
AcDbXrecord
280
     1
102
RTVSPropertyOp0
 70
     1
102
RTVSPropertyOp1
 70
     1
102
RTVSPropertyOp2
 70
     1
102
RTVSPropertyOp3
 70
     1
102
RTVSPropertyOp4
 70
     1
102
RTVSPropertyOp5
 70
     1
102
RTVSPropertyOp6
 70
     1
102
RTVSPropertyOp7
 70
     1
102
RTVSPropertyOp8
 70
     1
102
RTVSPropertyOp9
 70
     1
102
RTVSPropertyOp10
 70
     1
102
RTVSPropertyOp11
 70
     1
102
RTVSPropertyOp12
 70
     1
102
RTVSPropertyOp13
 70
     1
102
RTVSPropertyOp14
 70
     1
102
RTVSPropertyOp15
 70
     1
102
RTVSPropertyOp16
 70
     1
102
RTVSPropertyOp17
 70
     1
102
RTVSPropertyOp18
 70
     1
102
RTVSPropertyOp19
 70
     1
102
RTVSPropertyOp20
 70
     1
102
RTVSPropertyOp21
 70
     1
102
RTVSPropertyOp22
 70
     1
102
RTVSPropertyOp23
 70
     1
102
RTVSPropertyOp24
 70
     1
102
RTVSPropertyOp25
 70
     1
102
RTVSPropertyOp26
 70
     1
102
RTVSPropertyOp27
 70
     1
  0
ENDSEC
  0
EOF
