  0
SECTION
  2
HEADER
  9
$ACADVER
  1
AC1015
  9
$ACADMAINTVER
 70
     6
  9
$DWGCODEPAGE
  3
ANSI_932
  9
$INSBASE
 10
0.0
 20
0.0
 30
0.0
  9
$EXTMIN
 10
0.0
 20
0.0
 30
0.0
  9
$EXTMAX
 10
420.0
 20
297.0
 30
0.0
  9
$LIMMIN
 10
0.0
 20
0.0
  9
$LIMMAX
 10
420.0
 20
297.0
  9
$ORTHOMODE
 70
     0
  9
$REGENMODE
 70
     1
  9
$FILLMODE
 70
     1
  9
$QTEXTMODE
 70
     0
  9
$MIRRTEXT
 70
     1
  9
$LTSCALE
 40
1.0
  9
$ATTMODE
 70
     1
  9
$TEXTSIZE
 40
2.5
  9
$TRACEWID
 40
1.0
  9
$TEXTSTYLE
  7
FX_VECTOR
  9
$CLAYER
  8
0
  9
$CELTYPE
  6
ByLayer
  9
$CECOLOR
 62
   256
  9
$CELTSCALE
 40
1.0
  9
$DISPSILH
 70
     0
  9
$DIMSCALE
 40
1.0
  9
$DIMASZ
 40
3.0
  9
$DIMEXO
 40
1.0
  9
$DIMDLI
 40
8.0
  9
$DIMRND
 40
0.0
  9
$DIMDLE
 40
6.0
  9
$DIMEXE
 40
1.0
  9
$DIMTP
 40
0.0
  9
$DIMTM
 40
0.0
  9
$DIMTXT
 40
3.5
  9
$DIMCEN
 40
2.5
  9
$DIMTSZ
 40
0.0
  9
$DIMTOL
 70
     0
  9
$DIMLIM
 70
     0
  9
$DIMTIH
 70
     0
  9
$DIMTOH
 70
     0
  9
$DIMSE1
 70
     0
  9
$DIMSE2
 70
     0
  9
$DIMTAD
 70
     1
  9
$DIMZIN
 70
     8
  9
$DIMBLK
  1

  9
$DIMASO
 70
     1
  9
$DIMSHO
 70
     1
  9
$DIMPOST
  1

  9
$DIMAPOST
  1

  9
$DIMALT
 70
     0
  9
$DIMALTD
 70
     3
  9
$DIMALTF
 40
0.03937
  9
$DIMLFAC
 40
1.0
  9
$DIMTOFL
 70
     1
  9
$DIMTVP
 40
0.0
  9
$DIMTIX
 70
     0
  9
$DIMSOXD
 70
     0
  9
$DIMSAH
 70
     1
  9
$DIMBLK1
  1
FXTIP_ARROW_S
  9
$DIMBLK2
  1
FXTIP_ARROW_E
  9
$DIMSTYLE
  2
FX_DIMINFO
  9
$DIMCLRD
 70
     7
  9
$DIMCLRE
 70
     7
  9
$DIMCLRT
 70
     7
  9
$DIMTFAC
 40
1.0
  9
$DIMGAP
 40
0.5
  9
$DIMJUST
 70
     0
  9
$DIMSD1
 70
     0
  9
$DIMSD2
 70
     0
  9
$DIMTOLJ
 70
     1
  9
$DIMTZIN
 70
     8
  9
$DIMALTZ
 70
     0
  9
$DIMALTTZ
 70
     0
  9
$DIMUPT
 70
     0
  9
$DIMDEC
 70
     2
  9
$DIMTDEC
 70
     2
  9
$DIMALTU
 70
     2
  9
$DIMALTTD
 70
     3
  9
$DIMTXSTY
  7
FX_VECTOR
  9
$DIMAUNIT
 70
     0
  9
$DIMADEC
 70
     2
  9
$DIMALTRND
 40
0.0
  9
$DIMAZIN
 70
     2
  9
$DIMDSEP
 70
    46
  9
$DIMATFIT
 70
     3
  9
$DIMFRAC
 70
     0
  9
$DIMLDRBLK
  1
FXTIP_ARROW_S
  9
$DIMLUNIT
 70
     2
  9
$DIMLWD
 70
    -2
  9
$DIMLWE
 70
    -2
  9
$DIMTMOVE
 70
     0
  9
$LUNITS
 70
     2
  9
$LUPREC
 70
     4
  9
$SKETCHINC
 40
1.0
  9
$FILLETRAD
 40
10.0
  9
$AUNITS
 70
     0
  9
$AUPREC
 70
     0
  9
$MENU
  1
.
  9
$ELEVATION
 40
0.0
  9
$PELEVATION
 40
0.0
  9
$THICKNESS
 40
0.0
  9
$LIMCHECK
 70
     0
  9
$CHAMFERA
 40
0.0
  9
$CHAMFERB
 40
0.0
  9
$CHAMFERC
 40
0.0
  9
$CHAMFERD
 40
0.0
  9
$SKPOLY
 70
     0
  9
$TDCREATE
 40
2459766.664105799
  9
$TDUCREATE
 40
2459766.289105799
  9
$TDUPDATE
 40
2459766.664107245
  9
$TDUUPDATE
 40
2459766.289107245
  9
$TDINDWG
 40
0.0000000116
  9
$TDUSRTIMER
 40
0.0000000116
  9
$USRTIMER
 70
     1
  9
$ANGBASE
 50
0.0
  9
$ANGDIR
 70
     0
  9
$PDMODE
 70
     0
  9
$PDSIZE
 40
0.0
  9
$PLINEWID
 40
0.0
  9
$SPLFRAME
 70
     0
  9
$SPLINETYPE
 70
     6
  9
$SPLINESEGS
 70
     8
  9
$HANDSEED
  5
539
  9
$SURFTAB1
 70
     6
  9
$SURFTAB2
 70
     6
  9
$SURFTYPE
 70
     6
  9
$SURFU
 70
     6
  9
$SURFV
 70
     6
  9
$UCSBASE
  2

  9
$UCSNAME
  2

  9
$UCSORG
 10
0.0
 20
0.0
 30
0.0
  9
$UCSXDIR
 10
1.0
 20
0.0
 30
0.0
  9
$UCSYDIR
 10
0.0
 20
1.0
 30
0.0
  9
$UCSORTHOREF
  2

  9
$UCSORTHOVIEW
 70
     0
  9
$UCSORGTOP
 10
0.0
 20
0.0
 30
0.0
  9
$UCSORGBOTTOM
 10
0.0
 20
0.0
 30
0.0
  9
$UCSORGLEFT
 10
0.0
 20
0.0
 30
0.0
  9
$UCSORGRIGHT
 10
0.0
 20
0.0
 30
0.0
  9
$UCSORGFRONT
 10
0.0
 20
0.0
 30
0.0
  9
$UCSORGBACK
 10
0.0
 20
0.0
 30
0.0
  9
$PUCSBASE
  2

  9
$PUCSNAME
  2

  9
$PUCSORG
 10
0.0
 20
0.0
 30
0.0
  9
$PUCSXDIR
 10
1.0
 20
0.0
 30
0.0
  9
$PUCSYDIR
 10
0.0
 20
1.0
 30
0.0
  9
$PUCSORTHOREF
  2

  9
$PUCSORTHOVIEW
 70
     0
  9
$PUCSORGTOP
 10
0.0
 20
0.0
 30
0.0
  9
$PUCSORGBOTTOM
 10
0.0
 20
0.0
 30
0.0
  9
$PUCSORGLEFT
 10
0.0
 20
0.0
 30
0.0
  9
$PUCSORGRIGHT
 10
0.0
 20
0.0
 30
0.0
  9
$PUCSORGFRONT
 10
0.0
 20
0.0
 30
0.0
  9
$PUCSORGBACK
 10
0.0
 20
0.0
 30
0.0
  9
$USERI1
 70
     0
  9
$USERI2
 70
     0
  9
$USERI3
 70
     0
  9
$USERI4
 70
     0
  9
$USERI5
 70
     0
  9
$USERR1
 40
0.0
  9
$USERR2
 40
0.0
  9
$USERR3
 40
0.0
  9
$USERR4
 40
0.0
  9
$USERR5
 40
0.0
  9
$WORLDVIEW
 70
     1
  9
$SHADEDGE
 70
     3
  9
$SHADEDIF
 70
    70
  9
$TILEMODE
 70
     1
  9
$MAXACTVP
 70
    64
  9
$PINSBASE
 10
0.0
 20
0.0
 30
0.0
  9
$PLIMCHECK
 70
     0
  9
$PEXTMIN
 10
1.000000000000000E+20
 20
1.000000000000000E+20
 30
1.000000000000000E+20
  9
$PEXTMAX
 10
-1.000000000000000E+20
 20
-1.000000000000000E+20
 30
-1.000000000000000E+20
  9
$PLIMMIN
 10
0.0
 20
0.0
  9
$PLIMMAX
 10
420.0
 20
297.0
  9
$UNITMODE
 70
     0
  9
$VISRETAIN
 70
     1
  9
$PLINEGEN
 70
     0
  9
$PSLTSCALE
 70
     1
  9
$TREEDEPTH
 70
  3020
  9
$CMLSTYLE
  2
Standard
  9
$CMLJUST
 70
     0
  9
$CMLSCALE
 40
20.0
  9
$PROXYGRAPHICS
 70
     1
  9
$MEASUREMENT
 70
     1
  9
$CELWEIGHT
370
    -1
  9
$ENDCAPS
280
     0
  9
$JOINSTYLE
280
     0
  9
$LWDISPLAY
290
     0
  9
$INSUNITS
 70
     4
  9
$HYPERLINKBASE
  1

  9
$STYLESHEET
  1

  9
$XEDIT
290
     1
  9
$CEPSNTYPE
380
     0
  9
$PSTYLEMODE
290
     1
  9
$FINGERPRINTGUID
  2
{89BB2F23-8062-414D-AD4A-0F2A5FC01EBF}
  9
$VERSIONGUID
  2
{FAEB1C32-E019-11D5-929B-00C0DF256EC4}
  9
$EXTNAMES
290
     1
  9
$PSVPSCALE
 40
0.0
  9
$OLESTARTUP
290
     0
  0
ENDSEC
  0
SECTION
  2
CLASSES
  0
CLASS
  1
ACDBDICTIONARYWDFLT
  2
AcDbDictionaryWithDefault
  3
ObjectDBX Classes
 90
        0
280
     0
281
     0
  0
CLASS
  1
VISUALSTYLE
  2
AcDbVisualStyle
  3
ObjectDBX Classes
 90
     4095
280
     0
281
     0
  0
CLASS
  1
MATERIAL
  2
AcDbMaterial
  3
ObjectDBX Classes
 90
     1153
280
     0
281
     0
  0
CLASS
  1
SCALE
  2
AcDbScale
  3
ObjectDBX Classes
 90
     1153
280
     0
281
     0
  0
CLASS
  1
TABLESTYLE
  2
AcDbTableStyle
  3
ObjectDBX Classes
 90
     4095
280
     0
281
     0
  0
CLASS
  1
MLEADERSTYLE
  2
AcDbMLeaderStyle
  3
ACDB_MLEADERSTYLE_CLASS
 90
     4095
280
     0
281
     0
  0
CLASS
  1
SUN
  2
AcDbSun
  3
SCENEOE
 90
     1153
280
     0
281
     0
  0
CLASS
  1
DICTIONARYVAR
  2
AcDbDictionaryVar
  3
ObjectDBX Classes
 90
        0
280
     0
281
     0
  0
CLASS
  1
ACDBPLACEHOLDER
  2
AcDbPlaceHolder
  3
ObjectDBX Classes
 90
        0
280
     0
281
     0
  0
CLASS
  1
LAYOUT
  2
AcDbLayout
  3
ObjectDBX Classes
 90
        0
280
     0
281
     0
  0
ENDSEC
  0
SECTION
  2
TABLES
  0
TABLE
  2
VPORT
  5
8
102
{ACAD_XDICTIONARY
360
4FC
102
}
330
0
100
AcDbSymbolTable
 70
     1
  0
VPORT
  5
29
330
8
100
AcDbSymbolTableRecord
100
AcDbViewportTableRecord
  2
*Active
 70
     0
 10
0.0
 20
0.0
 11
1.0
 21
1.0
 12
210.0
 22
148.5
 13
0.0
 23
0.0
 14
10.0
 24
10.0
 15
10.0
 25
10.0
 16
0.0
 26
0.0
 36
1.0
 17
0.0
 27
0.0
 37
0.0
 40
297.0
 41
1.414141414141414
 42
50.0
 43
0.0
 44
0.0
 50
0.0
 51
0.0
 71
     0
 72
   100
 73
     1
 74
     3
 75
     0
 76
     0
 77
     0
 78
     0
281
     0
 65
     1
110
0.0
120
0.0
130
0.0
111
1.0
121
0.0
131
0.0
112
0.0
122
1.0
132
0.0
 79
     0
146
0.0
  0
ENDTAB
  0
TABLE
  2
LTYPE
  5
5
330
0
100
AcDbSymbolTable
 70
     4
  0
LTYPE
  5
14
330
5
100
AcDbSymbolTableRecord
100
AcDbLinetypeTableRecord
  2
ByBlock
 70
     0
  3

 72
    65
 73
     0
 40
0.0
  0
LTYPE
  5
15
330
5
100
AcDbSymbolTableRecord
100
AcDbLinetypeTableRecord
  2
ByLayer
 70
     0
  3

 72
    65
 73
     0
 40
0.0
  0
LTYPE
  5
16
330
5
100
AcDbSymbolTableRecord
100
AcDbLinetypeTableRecord
  2
Continuous
 70
     0
  3
Solid line
 72
    65
 73
     0
 40
0.0
  0
LTYPE
  5
DE
330
5
100
AcDbSymbolTableRecord
100
AcDbLinetypeTableRecord
  2
実線
 70
     0
  3

 72
    65
 73
     0
 40
0.0
  0
LTYPE
  5
F5
330
5
100
AcDbSymbolTableRecord
100
AcDbLinetypeTableRecord
  2
一点鎖線
 70
     0
  3

 72
    65
 73
     4
 40
13.0
 49
10.0
 74
     0
 49
-1.0
 74
     0
 49
1.0
 74
     0
 49
-1.0
 74
     0
  0
LTYPE
  5
23F
330
5
100
AcDbSymbolTableRecord
100
AcDbLinetypeTableRecord
  2
破線
 70
     0
  3

 72
    65
 73
     2
 40
2.8
 49
2.0
 74
     0
 49
-0.8
 74
     0
  0
ENDTAB
  0
TABLE
  2
LAYER
  5
2
330
0
100
AcDbSymbolTable
 70
     3
  0
LAYER
  5
10
330
2
100
AcDbSymbolTableRecord
100
AcDbLayerTableRecord
  2
0
 70
     0
 62
     7
  6
Continuous
370
    -3
390
F
  0
LAYER
  5
DD
330
2
100
AcDbSymbolTableRecord
100
AcDbLayerTableRecord
  2
基準ﾚｲﾔｸﾞﾙｰﾌﾟ_01
 70
     0
 62
     3
  6
実線
370
    20
390
F
  0
LAYER
  5
F4
330
2
100
AcDbSymbolTableRecord
100
AcDbLayerTableRecord
  2
作図レイヤ
 70
     0
 62
     5
  6
実線
370
    20
390
F
  0
ENDTAB
  0
TABLE
  2
STYLE
  5
3
330
0
100
AcDbSymbolTable
 70
     3
  0
STYLE
  5
11
330
3
100
AcDbSymbolTableRecord
100
AcDbTextStyleTableRecord
  2
Standard
 70
     0
 40
0.0
 41
1.0
 50
0.0
 71
     0
 42
2.5
  3
txt
  4

  0
STYLE
  5
6E
330
3
100
AcDbSymbolTableRecord
100
AcDbTextStyleTableRecord
  2
FX_VECTOR
 70
     0
 40
0.0
 41
1.0
 50
0.0
 71
     0
 42
2.5
  3
MONOTXT.SHX
  4
BigFont.shx
  0
STYLE
  5
D9
330
3
100
AcDbSymbolTableRecord
100
AcDbTextStyleTableRecord
  2
DEFAULT
 70
     0
 40
0.0
 41
1.0
 50
0.0
 71
     0
 42
2.5
  3

  4

1001
ACAD
1000
ＭＳ ゴシック
1071
    32817
  0
ENDTAB
  0
TABLE
  2
VIEW
  5
6
330
0
100
AcDbSymbolTable
 70
     0
  0
ENDTAB
  0
TABLE
  2
UCS
  5
7
330
0
100
AcDbSymbolTable
 70
     0
  0
ENDTAB
  0
TABLE
  2
APPID
  5
9
330
0
100
AcDbSymbolTable
 70
     2
  0
APPID
  5
12
330
9
100
AcDbSymbolTableRecord
100
AcDbRegAppTableRecord
  2
ACAD
 70
     0
  0
APPID
  5
536
330
9
100
AcDbSymbolTableRecord
100
AcDbRegAppTableRecord
  2
ACAD_MLEADERVER
 70
     0
  0
ENDTAB
  0
TABLE
  2
DIMSTYLE
  5
A
330
0
100
AcDbSymbolTable
 70
     2
100
AcDbDimStyleTable
  0
DIMSTYLE
105
27
330
A
100
AcDbSymbolTableRecord
100
AcDbDimStyleTableRecord
  2
ISO-25
 70
     0
 41
2.5
 42
0.625
 43
3.75
 44
1.25
 73
     0
 74
     0
 77
     1
 78
     8
140
2.5
141
2.5
143
0.03937007874016
147
0.625
171
     3
172
     1
178
     0
271
     2
272
     2
274
     3
278
    44
283
     0
284
     8
340
11
  0
DIMSTYLE
105
D8
330
A
100
AcDbSymbolTableRecord
100
AcDbDimStyleTableRecord
  2
FX_DIMINFO
 70
     0
 41
3.0
 42
1.0
 43
8.0
 44
1.0
 46
6.0
 73
     0
 74
     0
 77
     1
 78
     8
 79
     2
140
3.5
141
2.5
143
0.03937
147
0.5
171
     3
172
     1
173
     1
176
     7
177
     7
271
     2
178
     7
179
     2
271
     2
272
     2
274
     3
284
     8
340
6E
341
72
343
72
344
78
  0
ENDTAB
  0
TABLE
  2
BLOCK_RECORD
  5
1
330
0
100
AcDbSymbolTable
 70
    68
  0
BLOCK_RECORD
  5
1F
330
1
100
AcDbSymbolTableRecord
100
AcDbBlockTableRecord
  2
*Model_Space
340
22
  0
BLOCK_RECORD
  5
1B
330
1
100
AcDbSymbolTableRecord
100
AcDbBlockTableRecord
  2
*Paper_Space
340
1E
  0
BLOCK_RECORD
  5
23
330
1
100
AcDbSymbolTableRecord
100
AcDbBlockTableRecord
  2
*Paper_Space0
340
26
  0
BLOCK_RECORD
  5
6F
330
1
100
AcDbSymbolTableRecord
100
AcDbBlockTableRecord
  2
FXTIP_NONE
340
0
  0
BLOCK_RECORD
  5
72
330
1
100
AcDbSymbolTableRecord
100
AcDbBlockTableRecord
  2
FXTIP_ARROW_S
340
0
  0
BLOCK_RECORD
  5
78
330
1
100
AcDbSymbolTableRecord
100
AcDbBlockTableRecord
  2
FXTIP_ARROW_E
340
0
  0
BLOCK_RECORD
  5
7E
330
1
100
AcDbSymbolTableRecord
100
AcDbBlockTableRecord
  2
FXTIP_BLACKDOT_S
340
0
  0
BLOCK_RECORD
  5
84
330
1
100
AcDbSymbolTableRecord
100
AcDbBlockTableRecord
  2
FXTIP_BLACKDOT_E
340
0
  0
BLOCK_RECORD
  5
8A
330
1
100
AcDbSymbolTableRecord
100
AcDbBlockTableRecord
  2
FXTIP_TRIANGLE_S
340
0
  0
BLOCK_RECORD
  5
91
330
1
100
AcDbSymbolTableRecord
100
AcDbBlockTableRecord
  2
FXTIP_TRIANGLE_E
340
0
  0
BLOCK_RECORD
  5
98
330
1
100
AcDbSymbolTableRecord
100
AcDbBlockTableRecord
  2
FXTIP_ARCHITECT_S
340
0
  0
BLOCK_RECORD
  5
9E
330
1
100
AcDbSymbolTableRecord
100
AcDbBlockTableRecord
  2
FXTIP_ARCHITECT_E
340
0
  0
BLOCK_RECORD
  5
A4
330
1
100
AcDbSymbolTableRecord
100
AcDbBlockTableRecord
  2
FXTIP_CIVIL_S
340
0
  0
BLOCK_RECORD
  5
AA
330
1
100
AcDbSymbolTableRecord
100
AcDbBlockTableRecord
  2
FXTIP_CIVIL_E
340
0
  0
BLOCK_RECORD
  5
B0
330
1
100
AcDbSymbolTableRecord
100
AcDbBlockTableRecord
  2
FXTIP_WHITEDOT_S
340
0
  0
BLOCK_RECORD
  5
B5
330
1
100
AcDbSymbolTableRecord
100
AcDbBlockTableRecord
  2
FXTIP_WHITEDOT_E
340
0
  0
BLOCK_RECORD
  5
BA
330
1
100
AcDbSymbolTableRecord
100
AcDbBlockTableRecord
  2
FXTIP_UPARROW_S
340
0
  0
BLOCK_RECORD
  5
BF
330
1
100
AcDbSymbolTableRecord
100
AcDbBlockTableRecord
  2
FXTIP_UPARROW_E
340
0
  0
BLOCK_RECORD
  5
C4
330
1
100
AcDbSymbolTableRecord
100
AcDbBlockTableRecord
  2
FXTIP_DOWNARROW_S
340
0
  0
BLOCK_RECORD
  5
C9
330
1
100
AcDbSymbolTableRecord
100
AcDbBlockTableRecord
  2
FXTIP_DOWNARROW_E
340
0
  0
BLOCK_RECORD
  5
CE
330
1
100
AcDbSymbolTableRecord
100
AcDbBlockTableRecord
  2
FXTIP_BLACKTRIANGLE_S
340
0
  0
BLOCK_RECORD
  5
D3
330
1
100
AcDbSymbolTableRecord
100
AcDbBlockTableRecord
  2
FXTIP_BLACKTRIANGLE_E
340
0
  0
BLOCK_RECORD
  5
DA
330
1
100
AcDbSymbolTableRecord
100
AcDbBlockTableRecord
  2
BLKF023
340
0
102
{BLKREFS
331
DF
102
}
  0
BLOCK_RECORD
  5
E8
330
1
100
AcDbSymbolTableRecord
100
AcDbBlockTableRecord
  2
BLKF024
340
0
102
{BLKREFS
331
EB
102
}
  0
BLOCK_RECORD
  5
FF
330
1
100
AcDbSymbolTableRecord
100
AcDbBlockTableRecord
  2
BLKF025
340
0
102
{BLKREFS
331
102
102
}
  0
BLOCK_RECORD
  5
10D
330
1
100
AcDbSymbolTableRecord
100
AcDbBlockTableRecord
  2
BLKF026
340
0
102
{BLKREFS
331
110
102
}
  0
BLOCK_RECORD
  5
117
330
1
100
AcDbSymbolTableRecord
100
AcDbBlockTableRecord
  2
BLKF027
340
0
102
{BLKREFS
331
11A
102
}
  0
BLOCK_RECORD
  5
155
330
1
100
AcDbSymbolTableRecord
100
AcDbBlockTableRecord
  2
BLKF028
340
0
102
{BLKREFS
331
158
102
}
  0
BLOCK_RECORD
  5
15F
330
1
100
AcDbSymbolTableRecord
100
AcDbBlockTableRecord
  2
BLKF029
340
0
102
{BLKREFS
331
162
102
}
  0
BLOCK_RECORD
  5
168
330
1
100
AcDbSymbolTableRecord
100
AcDbBlockTableRecord
  2
BLKF030
340
0
102
{BLKREFS
331
16B
102
}
  0
BLOCK_RECORD
  5
176
330
1
100
AcDbSymbolTableRecord
100
AcDbBlockTableRecord
  2
BLKF031
340
0
102
{BLKREFS
331
179
102
}
  0
BLOCK_RECORD
  5
18A
330
1
100
AcDbSymbolTableRecord
100
AcDbBlockTableRecord
  2
BLKF032
340
0
102
{BLKREFS
331
18D
102
}
  0
BLOCK_RECORD
  5
197
330
1
100
AcDbSymbolTableRecord
100
AcDbBlockTableRecord
  2
BLKF033
340
0
102
{BLKREFS
331
19A
102
}
  0
BLOCK_RECORD
  5
1A4
330
1
100
AcDbSymbolTableRecord
100
AcDbBlockTableRecord
  2
BLKF034
340
0
102
{BLKREFS
331
1A7
102
}
  0
BLOCK_RECORD
  5
1B1
330
1
100
AcDbSymbolTableRecord
100
AcDbBlockTableRecord
  2
BLKF035
340
0
102
{BLKREFS
331
1B4
102
}
  0
BLOCK_RECORD
  5
1BE
330
1
100
AcDbSymbolTableRecord
100
AcDbBlockTableRecord
  2
BLKF036
340
0
102
{BLKREFS
331
1C1
102
}
  0
BLOCK_RECORD
  5
1D2
330
1
100
AcDbSymbolTableRecord
100
AcDbBlockTableRecord
  2
BLKF037
340
0
102
{BLKREFS
331
1D5
102
}
  0
BLOCK_RECORD
  5
1DC
330
1
100
AcDbSymbolTableRecord
100
AcDbBlockTableRecord
  2
BLKF038
340
0
102
{BLKREFS
331
1DF
102
}
  0
BLOCK_RECORD
  5
1E6
330
1
100
AcDbSymbolTableRecord
100
AcDbBlockTableRecord
  2
BLKF039
340
0
102
{BLKREFS
331
1E9
102
}
  0
BLOCK_RECORD
  5
1F0
330
1
100
AcDbSymbolTableRecord
100
AcDbBlockTableRecord
  2
BLKF040
340
0
102
{BLKREFS
331
1F3
102
}
  0
BLOCK_RECORD
  5
1FA
330
1
100
AcDbSymbolTableRecord
100
AcDbBlockTableRecord
  2
BLKF041
340
0
102
{BLKREFS
331
1FD
102
}
  0
BLOCK_RECORD
  5
204
330
1
100
AcDbSymbolTableRecord
100
AcDbBlockTableRecord
  2
BLKF042
340
0
102
{BLKREFS
331
207
102
}
  0
BLOCK_RECORD
  5
20E
330
1
100
AcDbSymbolTableRecord
100
AcDbBlockTableRecord
  2
BLKF043
340
0
102
{BLKREFS
331
211
102
}
  0
BLOCK_RECORD
  5
21B
330
1
100
AcDbSymbolTableRecord
100
AcDbBlockTableRecord
  2
BLKF044
340
0
102
{BLKREFS
331
21E
102
}
  0
BLOCK_RECORD
  5
22D
330
1
100
AcDbSymbolTableRecord
100
AcDbBlockTableRecord
  2
BLKF045
340
0
102
{BLKREFS
331
230
102
}
  0
BLOCK_RECORD
  5
23C
330
1
100
AcDbSymbolTableRecord
100
AcDbBlockTableRecord
  2
BLKF046
340
0
102
{BLKREFS
331
240
102
}
  0
BLOCK_RECORD
  5
267
330
1
100
AcDbSymbolTableRecord
100
AcDbBlockTableRecord
  2
BLKF047
340
0
102
{BLKREFS
331
26A
102
}
  0
BLOCK_RECORD
  5
271
330
1
100
AcDbSymbolTableRecord
100
AcDbBlockTableRecord
  2
BLKF048
340
0
102
{BLKREFS
331
274
102
}
  0
BLOCK_RECORD
  5
294
330
1
100
AcDbSymbolTableRecord
100
AcDbBlockTableRecord
  2
BLKF049
340
0
102
{BLKREFS
331
297
102
}
  0
BLOCK_RECORD
  5
2B6
330
1
100
AcDbSymbolTableRecord
100
AcDbBlockTableRecord
  2
BLKF050
340
0
102
{BLKREFS
331
2B9
102
}
  0
BLOCK_RECORD
  5
2C4
330
1
100
AcDbSymbolTableRecord
100
AcDbBlockTableRecord
  2
BLKF051
340
0
102
{BLKREFS
331
2C7
102
}
  0
BLOCK_RECORD
  5
2CC
330
1
100
AcDbSymbolTableRecord
100
AcDbBlockTableRecord
  2
BLKF052
340
0
102
{BLKREFS
331
2CF
102
}
  0
BLOCK_RECORD
  5
303
330
1
100
AcDbSymbolTableRecord
100
AcDbBlockTableRecord
  2
BLKF053
340
0
102
{BLKREFS
331
306
102
}
  0
BLOCK_RECORD
  5
319
330
1
100
AcDbSymbolTableRecord
100
AcDbBlockTableRecord
  2
BLKF054
340
0
102
{BLKREFS
331
31C
102
}
  0
BLOCK_RECORD
  5
357
330
1
100
AcDbSymbolTableRecord
100
AcDbBlockTableRecord
  2
BLKF055
340
0
102
{BLKREFS
331
35A
102
}
  0
BLOCK_RECORD
  5
35C
330
1
100
AcDbSymbolTableRecord
100
AcDbBlockTableRecord
  2
BLKF056
340
0
102
{BLKREFS
331
35F
102
}
  0
BLOCK_RECORD
  5
365
330
1
100
AcDbSymbolTableRecord
100
AcDbBlockTableRecord
  2
BLKF057
340
0
102
{BLKREFS
331
368
102
}
  0
BLOCK_RECORD
  5
3CC
330
1
100
AcDbSymbolTableRecord
100
AcDbBlockTableRecord
  2
BLKF058
340
0
102
{BLKREFS
331
3CF
102
}
  0
BLOCK_RECORD
  5
3E2
330
1
100
AcDbSymbolTableRecord
100
AcDbBlockTableRecord
  2
BLKF059
340
0
102
{BLKREFS
331
3E5
102
}
  0
BLOCK_RECORD
  5
3EE
330
1
100
AcDbSymbolTableRecord
100
AcDbBlockTableRecord
  2
BLKF060
340
0
102
{BLKREFS
331
3F1
102
}
  0
BLOCK_RECORD
  5
402
330
1
100
AcDbSymbolTableRecord
100
AcDbBlockTableRecord
  2
BLKF061
340
0
102
{BLKREFS
331
405
102
}
  0
BLOCK_RECORD
  5
427
330
1
100
AcDbSymbolTableRecord
100
AcDbBlockTableRecord
  2
BLKF062
340
0
102
{BLKREFS
331
42A
102
}
  0
BLOCK_RECORD
  5
440
330
1
100
AcDbSymbolTableRecord
100
AcDbBlockTableRecord
  2
BLKF063
340
0
102
{BLKREFS
331
443
102
}
  0
BLOCK_RECORD
  5
451
330
1
100
AcDbSymbolTableRecord
100
AcDbBlockTableRecord
  2
BLKF064
340
0
102
{BLKREFS
331
454
102
}
  0
BLOCK_RECORD
  5
468
330
1
100
AcDbSymbolTableRecord
100
AcDbBlockTableRecord
  2
BLKF065
340
0
102
{BLKREFS
331
46B
102
}
  0
BLOCK_RECORD
  5
47F
330
1
100
AcDbSymbolTableRecord
100
AcDbBlockTableRecord
  2
BLKF066
340
0
102
{BLKREFS
331
482
102
}
  0
BLOCK_RECORD
  5
499
330
1
100
AcDbSymbolTableRecord
100
AcDbBlockTableRecord
  2
BLKF067
340
0
102
{BLKREFS
331
49C
102
}
  0
BLOCK_RECORD
  5
4AF
330
1
100
AcDbSymbolTableRecord
100
AcDbBlockTableRecord
  2
BLKF068
340
0
102
{BLKREFS
331
4B2
102
}
  0
BLOCK_RECORD
  5
4C5
330
1
100
AcDbSymbolTableRecord
100
AcDbBlockTableRecord
  2
BLKF069
340
0
102
{BLKREFS
331
4C8
102
}
  0
BLOCK_RECORD
  5
4DB
330
1
100
AcDbSymbolTableRecord
100
AcDbBlockTableRecord
  2
BLKF070
340
0
102
{BLKREFS
331
4DE
102
}
  0
ENDTAB
  0
ENDSEC
  0
SECTION
  2
BLOCKS
  0
BLOCK
  5
20
330
1F
100
AcDbEntity
  8
0
100
AcDbBlockBegin
  2
*Model_Space
 70
     0
 10
0.0
 20
0.0
 30
0.0
  3
*Model_Space
  1
*Model_Space
  0
ENDBLK
  5
21
330
1F
100
AcDbEntity
  8
0
100
AcDbBlockEnd
  0
BLOCK
  5
1C
330
1B
100
AcDbEntity
 67
     1
  8
0
100
AcDbBlockBegin
  2
*Paper_Space
 70
     0
 10
0.0
 20
0.0
 30
0.0
  3
*Paper_Space
  1
*Paper_Space
  0
ENDBLK
  5
1D
330
1B
100
AcDbEntity
 67
     1
  8
0
100
AcDbBlockEnd
  0
BLOCK
  5
24
330
23
100
AcDbEntity
  8
0
100
AcDbBlockBegin
  2
*Paper_Space0
 70
     0
 10
0.0
 20
0.0
 30
0.0
  3
*Paper_Space0
  1
*Paper_Space0
  0
ENDBLK
  5
25
330
23
100
AcDbEntity
  8
0
100
AcDbBlockEnd
  0
BLOCK
  5
70
330
6F
100
AcDbEntity
  8
0
100
AcDbBlockBegin
  2
FXTIP_NONE
 70
     0
 10
0.0
 20
0.0
 30
0.0
  3
FXTIP_NONE
  1
FXTIP_NONE
  0
ENDBLK
  5
71
330
6F
100
AcDbEntity
  8
0
100
AcDbBlockEnd
  0
BLOCK
  5
73
330
72
100
AcDbEntity
  8
0
100
AcDbBlockBegin
  2
FXTIP_ARROW_S
 70
     0
 10
0.0
 20
0.0
 30
0.0
  3
FXTIP_ARROW_S
  1
FXTIP_ARROW_S
  0
LINE
  5
75
330
72
100
AcDbEntity
  8
0
  6
Continuous
 62
     0
370
    -2
100
AcDbLine
 10
0.0
 20
0.0
 30
0.0
 11
-1.0
 21
0.0000000000000001
 31
0.0
  0
LINE
  5
76
330
72
100
AcDbEntity
  8
0
  6
Continuous
 62
     0
370
    -2
100
AcDbLine
 10
0.0
 20
0.0
 30
0.0
 11
-0.9914448613738104
 21
-0.1305261922200515
 31
0.0
  0
LINE
  5
77
330
72
100
AcDbEntity
  8
0
  6
Continuous
 62
     0
370
    -2
100
AcDbLine
 10
0.0
 20
0.0
 30
0.0
 11
-0.9914448613738104
 21
0.1305261922200517
 31
0.0
  0
ENDBLK
  5
74
330
72
100
AcDbEntity
  8
0
100
AcDbBlockEnd
  0
BLOCK
  5
79
330
78
100
AcDbEntity
  8
0
100
AcDbBlockBegin
  2
FXTIP_ARROW_E
 70
     0
 10
0.0
 20
0.0
 30
0.0
  3
FXTIP_ARROW_E
  1
FXTIP_ARROW_E
  0
LINE
  5
7B
330
78
100
AcDbEntity
  8
0
  6
Continuous
 62
     0
370
    -2
100
AcDbLine
 10
0.0
 20
0.0
 30
0.0
 11
-1.0
 21
0.0
 31
0.0
  0
LINE
  5
7C
330
78
100
AcDbEntity
  8
0
  6
Continuous
 62
     0
370
    -2
100
AcDbLine
 10
0.0
 20
0.0
 30
0.0
 11
-0.9914448613738104
 21
0.1305261922200516
 31
0.0
  0
LINE
  5
7D
330
78
100
AcDbEntity
  8
0
  6
Continuous
 62
     0
370
    -2
100
AcDbLine
 10
0.0
 20
0.0
 30
0.0
 11
-0.9914448613738104
 21
-0.1305261922200516
 31
0.0
  0
ENDBLK
  5
7A
330
78
100
AcDbEntity
  8
0
100
AcDbBlockEnd
  0
BLOCK
  5
7F
330
7E
100
AcDbEntity
  8
0
100
AcDbBlockBegin
  2
FXTIP_BLACKDOT_S
 70
     0
 10
0.0
 20
0.0
 30
0.0
  3
FXTIP_BLACKDOT_S
  1
FXTIP_BLACKDOT_S
  0
LINE
  5
81
330
7E
100
AcDbEntity
  8
0
  6
Continuous
 62
     0
370
    -2
100
AcDbLine
 10
0.0
 20
0.0
 30
0.0
 11
-1.0
 21
0.0000000000000001
 31
0.0
  0
LWPOLYLINE
  5
82
330
7E
100
AcDbEntity
  8
0
  6
Continuous
 62
     0
370
    -2
100
AcDbPolyline
 90
        2
 70
     1
 43
0.1666666666666667
 10
-0.0833333333333333
 20
0.0
 42
1.0
 10
0.0833333333333333
 20
0.0
 42
1.0
  0
CIRCLE
  5
83
330
7E
100
AcDbEntity
  8
0
  6
Continuous
 62
     0
370
    -2
100
AcDbCircle
 10
0.0
 20
0.0
 30
0.0
 40
0.1666666666666667
  0
ENDBLK
  5
80
330
7E
100
AcDbEntity
  8
0
100
AcDbBlockEnd
  0
BLOCK
  5
85
330
84
100
AcDbEntity
  8
0
100
AcDbBlockBegin
  2
FXTIP_BLACKDOT_E
 70
     0
 10
0.0
 20
0.0
 30
0.0
  3
FXTIP_BLACKDOT_E
  1
FXTIP_BLACKDOT_E
  0
LINE
  5
87
330
84
100
AcDbEntity
  8
0
  6
Continuous
 62
     0
370
    -2
100
AcDbLine
 10
0.0
 20
0.0
 30
0.0
 11
-1.0
 21
0.0
 31
0.0
  0
LWPOLYLINE
  5
88
330
84
100
AcDbEntity
  8
0
  6
Continuous
 62
     0
370
    -2
100
AcDbPolyline
 90
        2
 70
     1
 43
0.1666666666666667
 10
-0.0833333333333333
 20
0.0
 42
1.0
 10
0.0833333333333333
 20
0.0
 42
1.0
  0
CIRCLE
  5
89
330
84
100
AcDbEntity
  8
0
  6
Continuous
 62
     0
370
    -2
100
AcDbCircle
 10
0.0
 20
0.0
 30
0.0
 40
0.1666666666666667
  0
ENDBLK
  5
86
330
84
100
AcDbEntity
  8
0
100
AcDbBlockEnd
  0
BLOCK
  5
8B
330
8A
100
AcDbEntity
  8
0
100
AcDbBlockBegin
  2
FXTIP_TRIANGLE_S
 70
     0
 10
0.0
 20
0.0
 30
0.0
  3
FXTIP_TRIANGLE_S
  1
FXTIP_TRIANGLE_S
  0
LINE
  5
8D
330
8A
100
AcDbEntity
  8
0
  6
Continuous
 62
     0
370
    -2
100
AcDbLine
 10
0.0
 20
0.0
 30
0.0
 11
-1.0
 21
0.0000000000000001
 31
0.0
  0
LINE
  5
8E
330
8A
100
AcDbEntity
  8
0
  6
Continuous
 62
     0
370
    -2
100
AcDbLine
 10
0.0
 20
0.0
 30
0.0
 11
-0.9914448613738104
 21
-0.1305261922200515
 31
0.0
  0
LINE
  5
8F
330
8A
100
AcDbEntity
  8
0
  6
Continuous
 62
     0
370
    -2
100
AcDbLine
 10
0.0
 20
0.0
 30
0.0
 11
-0.9914448613738104
 21
0.1305261922200517
 31
0.0
  0
LINE
  5
90
330
8A
100
AcDbEntity
  8
0
  6
Continuous
 62
     0
370
    -2
100
AcDbLine
 10
-0.9914448613738104
 20
-0.1305261922200515
 30
0.0
 11
-0.9914448613738104
 21
0.1305261922200517
 31
0.0
  0
ENDBLK
  5
8C
330
8A
100
AcDbEntity
  8
0
100
AcDbBlockEnd
  0
BLOCK
  5
92
330
91
100
AcDbEntity
  8
0
100
AcDbBlockBegin
  2
FXTIP_TRIANGLE_E
 70
     0
 10
0.0
 20
0.0
 30
0.0
  3
FXTIP_TRIANGLE_E
  1
FXTIP_TRIANGLE_E
  0
LINE
  5
94
330
91
100
AcDbEntity
  8
0
  6
Continuous
 62
     0
370
    -2
100
AcDbLine
 10
0.0
 20
0.0
 30
0.0
 11
-1.0
 21
0.0
 31
0.0
  0
LINE
  5
95
330
91
100
AcDbEntity
  8
0
  6
Continuous
 62
     0
370
    -2
100
AcDbLine
 10
0.0
 20
0.0
 30
0.0
 11
-0.9914448613738104
 21
0.1305261922200516
 31
0.0
  0
LINE
  5
96
330
91
100
AcDbEntity
  8
0
  6
Continuous
 62
     0
370
    -2
100
AcDbLine
 10
0.0
 20
0.0
 30
0.0
 11
-0.9914448613738104
 21
-0.1305261922200516
 31
0.0
  0
LINE
  5
97
330
91
100
AcDbEntity
  8
0
  6
Continuous
 62
     0
370
    -2
100
AcDbLine
 10
-0.9914448613738104
 20
0.1305261922200516
 30
0.0
 11
-0.9914448613738104
 21
-0.1305261922200516
 31
0.0
  0
ENDBLK
  5
93
330
91
100
AcDbEntity
  8
0
100
AcDbBlockEnd
  0
BLOCK
  5
99
330
98
100
AcDbEntity
  8
0
100
AcDbBlockBegin
  2
FXTIP_ARCHITECT_S
 70
     0
 10
0.0
 20
0.0
 30
0.0
  3
FXTIP_ARCHITECT_S
  1
FXTIP_ARCHITECT_S
  0
LINE
  5
9B
330
98
100
AcDbEntity
  8
0
  6
Continuous
 62
     0
370
    -2
100
AcDbLine
 10
0.0
 20
0.0
 30
0.0
 11
-1.0
 21
0.0000000000000001
 31
0.0
  0
LINE
  5
9C
330
98
100
AcDbEntity
  8
0
  6
Continuous
 62
     0
370
    -2
100
AcDbLine
 10
0.0
 20
0.0
 30
0.0
 11
-0.7071067811865476
 21
-0.7071067811865474
 31
0.0
  0
LINE
  5
9D
330
98
100
AcDbEntity
  8
0
  6
Continuous
 62
     0
370
    -2
100
AcDbLine
 10
0.0
 20
0.0
 30
0.0
 11
0.7071067811865476
 21
0.7071067811865474
 31
0.0
  0
ENDBLK
  5
9A
330
98
100
AcDbEntity
  8
0
100
AcDbBlockEnd
  0
BLOCK
  5
9F
330
9E
100
AcDbEntity
  8
0
100
AcDbBlockBegin
  2
FXTIP_ARCHITECT_E
 70
     0
 10
0.0
 20
0.0
 30
0.0
  3
FXTIP_ARCHITECT_E
  1
FXTIP_ARCHITECT_E
  0
LINE
  5
A1
330
9E
100
AcDbEntity
  8
0
  6
Continuous
 62
     0
370
    -2
100
AcDbLine
 10
0.0
 20
0.0
 30
0.0
 11
-1.0
 21
0.0
 31
0.0
  0
LINE
  5
A2
330
9E
100
AcDbEntity
  8
0
  6
Continuous
 62
     0
370
    -2
100
AcDbLine
 10
0.0
 20
0.0
 30
0.0
 11
0.7071067811865475
 21
0.7071067811865475
 31
0.0
  0
LINE
  5
A3
330
9E
100
AcDbEntity
  8
0
  6
Continuous
 62
     0
370
    -2
100
AcDbLine
 10
0.0
 20
0.0
 30
0.0
 11
-0.7071067811865475
 21
-0.7071067811865475
 31
0.0
  0
ENDBLK
  5
A0
330
9E
100
AcDbEntity
  8
0
100
AcDbBlockEnd
  0
BLOCK
  5
A5
330
A4
100
AcDbEntity
  8
0
100
AcDbBlockBegin
  2
FXTIP_CIVIL_S
 70
     0
 10
0.0
 20
0.0
 30
0.0
  3
FXTIP_CIVIL_S
  1
FXTIP_CIVIL_S
  0
LINE
  5
A7
330
A4
100
AcDbEntity
  8
0
  6
Continuous
 62
     0
370
    -2
100
AcDbLine
 10
0.0
 20
0.0
 30
0.0
 11
-1.0
 21
0.0000000000000001
 31
0.0
  0
LINE
  5
A8
330
A4
100
AcDbEntity
  8
0
  6
Continuous
 62
     0
370
    -2
100
AcDbLine
 10
0.0
 20
-0.0833333333333333
 30
0.0
 11
-1.0
 21
-0.0833333333333332
 31
0.0
  0
LINE
  5
A9
330
A4
100
AcDbEntity
  8
0
  6
Continuous
 62
     0
370
    -2
100
AcDbLine
 10
0.0
 20
-0.1666666666666667
 30
0.0
 11
-1.0
 21
-0.1666666666666666
 31
0.0
  0
ENDBLK
  5
A6
330
A4
100
AcDbEntity
  8
0
100
AcDbBlockEnd
  0
BLOCK
  5
AB
330
AA
100
AcDbEntity
  8
0
100
AcDbBlockBegin
  2
FXTIP_CIVIL_E
 70
     0
 10
0.0
 20
0.0
 30
0.0
  3
FXTIP_CIVIL_E
  1
FXTIP_CIVIL_E
  0
LINE
  5
AD
330
AA
100
AcDbEntity
  8
0
  6
Continuous
 62
     0
370
    -2
100
AcDbLine
 10
0.0
 20
0.0
 30
0.0
 11
-1.0
 21
0.0
 31
0.0
  0
LINE
  5
AE
330
AA
100
AcDbEntity
  8
0
  6
Continuous
 62
     0
370
    -2
100
AcDbLine
 10
0.0
 20
0.0833333333333333
 30
0.0
 11
-1.0
 21
0.0833333333333333
 31
0.0
  0
LINE
  5
AF
330
AA
100
AcDbEntity
  8
0
  6
Continuous
 62
     0
370
    -2
100
AcDbLine
 10
0.0
 20
0.1666666666666667
 30
0.0
 11
-1.0
 21
0.1666666666666667
 31
0.0
  0
ENDBLK
  5
AC
330
AA
100
AcDbEntity
  8
0
100
AcDbBlockEnd
  0
BLOCK
  5
B1
330
B0
100
AcDbEntity
  8
0
100
AcDbBlockBegin
  2
FXTIP_WHITEDOT_S
 70
     0
 10
0.0
 20
0.0
 30
0.0
  3
FXTIP_WHITEDOT_S
  1
FXTIP_WHITEDOT_S
  0
LINE
  5
B3
330
B0
100
AcDbEntity
  8
0
  6
Continuous
 62
     0
370
    -2
100
AcDbLine
 10
0.0
 20
0.0
 30
0.0
 11
-1.0
 21
0.0000000000000001
 31
0.0
  0
CIRCLE
  5
B4
330
B0
100
AcDbEntity
  8
0
  6
Continuous
 62
     0
370
    -2
100
AcDbCircle
 10
0.0
 20
0.0
 30
0.0
 40
0.1666666666666667
  0
ENDBLK
  5
B2
330
B0
100
AcDbEntity
  8
0
100
AcDbBlockEnd
  0
BLOCK
  5
B6
330
B5
100
AcDbEntity
  8
0
100
AcDbBlockBegin
  2
FXTIP_WHITEDOT_E
 70
     0
 10
0.0
 20
0.0
 30
0.0
  3
FXTIP_WHITEDOT_E
  1
FXTIP_WHITEDOT_E
  0
LINE
  5
B8
330
B5
100
AcDbEntity
  8
0
  6
Continuous
 62
     0
370
    -2
100
AcDbLine
 10
0.0
 20
0.0
 30
0.0
 11
-1.0
 21
0.0
 31
0.0
  0
CIRCLE
  5
B9
330
B5
100
AcDbEntity
  8
0
  6
Continuous
 62
     0
370
    -2
100
AcDbCircle
 10
0.0
 20
0.0
 30
0.0
 40
0.1666666666666667
  0
ENDBLK
  5
B7
330
B5
100
AcDbEntity
  8
0
100
AcDbBlockEnd
  0
BLOCK
  5
BB
330
BA
100
AcDbEntity
  8
0
100
AcDbBlockBegin
  2
FXTIP_UPARROW_S
 70
     0
 10
0.0
 20
0.0
 30
0.0
  3
FXTIP_UPARROW_S
  1
FXTIP_UPARROW_S
  0
LINE
  5
BD
330
BA
100
AcDbEntity
  8
0
  6
Continuous
 62
     0
370
    -2
100
AcDbLine
 10
0.0
 20
0.0
 30
0.0
 11
-1.0
 21
0.0000000000000001
 31
0.0
  0
LINE
  5
BE
330
BA
100
AcDbEntity
  8
0
  6
Continuous
 62
     0
370
    -2
100
AcDbLine
 10
0.0
 20
0.0
 30
0.0
 11
-0.9914448613738104
 21
-0.1305261922200515
 31
0.0
  0
ENDBLK
  5
BC
330
BA
100
AcDbEntity
  8
0
100
AcDbBlockEnd
  0
BLOCK
  5
C0
330
BF
100
AcDbEntity
  8
0
100
AcDbBlockBegin
  2
FXTIP_UPARROW_E
 70
     0
 10
0.0
 20
0.0
 30
0.0
  3
FXTIP_UPARROW_E
  1
FXTIP_UPARROW_E
  0
LINE
  5
C2
330
BF
100
AcDbEntity
  8
0
  6
Continuous
 62
     0
370
    -2
100
AcDbLine
 10
0.0
 20
0.0
 30
0.0
 11
-1.0
 21
0.0
 31
0.0
  0
LINE
  5
C3
330
BF
100
AcDbEntity
  8
0
  6
Continuous
 62
     0
370
    -2
100
AcDbLine
 10
0.0
 20
0.0
 30
0.0
 11
-0.9914448613738104
 21
0.1305261922200516
 31
0.0
  0
ENDBLK
  5
C1
330
BF
100
AcDbEntity
  8
0
100
AcDbBlockEnd
  0
BLOCK
  5
C5
330
C4
100
AcDbEntity
  8
0
100
AcDbBlockBegin
  2
FXTIP_DOWNARROW_S
 70
     0
 10
0.0
 20
0.0
 30
0.0
  3
FXTIP_DOWNARROW_S
  1
FXTIP_DOWNARROW_S
  0
LINE
  5
C7
330
C4
100
AcDbEntity
  8
0
  6
Continuous
 62
     0
370
    -2
100
AcDbLine
 10
0.0
 20
0.0
 30
0.0
 11
-1.0
 21
0.0000000000000001
 31
0.0
  0
LINE
  5
C8
330
C4
100
AcDbEntity
  8
0
  6
Continuous
 62
     0
370
    -2
100
AcDbLine
 10
0.0
 20
0.0
 30
0.0
 11
-0.9914448613738104
 21
0.1305261922200517
 31
0.0
  0
ENDBLK
  5
C6
330
C4
100
AcDbEntity
  8
0
100
AcDbBlockEnd
  0
BLOCK
  5
CA
330
C9
100
AcDbEntity
  8
0
100
AcDbBlockBegin
  2
FXTIP_DOWNARROW_E
 70
     0
 10
0.0
 20
0.0
 30
0.0
  3
FXTIP_DOWNARROW_E
  1
FXTIP_DOWNARROW_E
  0
LINE
  5
CC
330
C9
100
AcDbEntity
  8
0
  6
Continuous
 62
     0
370
    -2
100
AcDbLine
 10
0.0
 20
0.0
 30
0.0
 11
-1.0
 21
0.0
 31
0.0
  0
LINE
  5
CD
330
C9
100
AcDbEntity
  8
0
  6
Continuous
 62
     0
370
    -2
100
AcDbLine
 10
0.0
 20
0.0
 30
0.0
 11
-0.9914448613738104
 21
-0.1305261922200516
 31
0.0
  0
ENDBLK
  5
CB
330
C9
100
AcDbEntity
  8
0
100
AcDbBlockEnd
  0
BLOCK
  5
CF
330
CE
100
AcDbEntity
  8
0
100
AcDbBlockBegin
  2
FXTIP_BLACKTRIANGLE_S
 70
     0
 10
0.0
 20
0.0
 30
0.0
  3
FXTIP_BLACKTRIANGLE_S
  1
FXTIP_BLACKTRIANGLE_S
  0
LINE
  5
D1
330
CE
100
AcDbEntity
  8
0
  6
Continuous
 62
     0
370
    -2
100
AcDbLine
 10
0.0
 20
0.0
 30
0.0
 11
-1.0
 21
0.0000000000000001
 31
0.0
  0
SOLID
  5
D2
330
CE
100
AcDbEntity
  8
0
  6
Continuous
 62
     0
370
    -2
100
AcDbTrace
 10
0.0
 20
0.0
 30
0.0
 11
-0.9914448613738104
 21
-0.1305261922200515
 31
0.0
 12
-0.9914448613738104
 22
0.1305261922200517
 32
0.0
 13
-0.9914448613738104
 23
0.1305261922200517
 33
0.0
  0
ENDBLK
  5
D0
330
CE
100
AcDbEntity
  8
0
100
AcDbBlockEnd
  0
BLOCK
  5
D4
330
D3
100
AcDbEntity
  8
0
100
AcDbBlockBegin
  2
FXTIP_BLACKTRIANGLE_E
 70
     0
 10
0.0
 20
0.0
 30
0.0
  3
FXTIP_BLACKTRIANGLE_E
  1
FXTIP_BLACKTRIANGLE_E
  0
LINE
  5
D6
330
D3
100
AcDbEntity
  8
0
  6
Continuous
 62
     0
370
    -2
100
AcDbLine
 10
0.0
 20
0.0
 30
0.0
 11
-1.0
 21
0.0
 31
0.0
  0
SOLID
  5
D7
330
D3
100
AcDbEntity
  8
0
  6
Continuous
 62
     0
370
    -2
100
AcDbTrace
 10
0.0
 20
0.0
 30
0.0
 11
-0.9914448613738104
 21
0.1305261922200516
 31
0.0
 12
-0.9914448613738104
 22
-0.1305261922200516
 32
0.0
 13
-0.9914448613738104
 23
-0.1305261922200516
 33
0.0
  0
ENDBLK
  5
D5
330
D3
100
AcDbEntity
  8
0
100
AcDbBlockEnd
  0
BLOCK
  5
DB
330
DA
100
AcDbEntity
  8
0
100
AcDbBlockBegin
  2
BLKF023
 70
     0
 10
0.0
 20
0.0
 30
0.0
  3
BLKF023
  1
BLKF023
  0
LINE
  5
E0
330
DA
100
AcDbEntity
  8
0
  6
ByBlock
 62
     0
370
    -2
100
AcDbLine
 10
378.1731842231843
 20
21.36498917748917
 30
0.0
 11
381.1507275132276
 21
21.36498917748917
 31
0.0
  0
LINE
  5
E1
330
DA
100
AcDbEntity
  8
0
  6
ByBlock
 62
     0
370
    -2
100
AcDbLine
 10
381.9007275132276
 20
21.36498917748917
 30
0.0
 11
382.9007275132276
 21
21.36498917748917
 31
0.0
  0
LINE
  5
E2
330
DA
100
AcDbEntity
  8
0
  6
ByBlock
 62
     0
370
    -2
100
AcDbLine
 10
383.6507275132276
 20
21.36498917748917
 30
0.0
 11
388.9705240595154
 21
21.36498917748917
 31
0.0
  0
LINE
  5
E3
330
DA
100
AcDbEntity
  8
0
  6
ByBlock
 62
     0
370
    -2
100
AcDbLine
 10
389.7205240595154
 20
21.36498917748917
 30
0.0
 11
390.7205240595154
 21
21.36498917748917
 31
0.0
  0
LINE
  5
E4
330
DA
100
AcDbEntity
  8
0
  6
ByBlock
 62
     0
370
    -2
100
AcDbLine
 10
391.4705240595154
 20
21.36498917748917
 30
0.0
 11
394.6709568626509
 21
21.36498917748917
 31
0.0
  0
LINE
  5
E5
330
DA
100
AcDbEntity
  8
0
  6
ByBlock
 62
     0
370
    -2
100
AcDbLine
 10
382.4007275132276
 20
25.59190121142563
 30
0.0
 11
382.4007275132276
 21
22.61498917748917
 31
0.0
  0
LINE
  5
E6
330
DA
100
AcDbEntity
  8
0
  6
ByBlock
 62
     0
370
    -2
100
AcDbLine
 10
382.4007275132276
 20
21.86498917748917
 30
0.0
 11
382.4007275132276
 21
20.86498917748917
 31
0.0
  0
LINE
  5
E7
330
DA
100
AcDbEntity
  8
0
  6
ByBlock
 62
     0
370
    -2
100
AcDbLine
 10
382.4007275132276
 20
20.11498917748917
 30
0.0
 11
382.4007275132276
 21
17.29376533729637
 31
0.0
  0
INSERT
  5
EB
330
DA
100
AcDbEntity
  8
0
  6
ByBlock
 62
     3
370
    40
100
AcDbBlockReference
  2
BLKF024
 10
0.0
 20
0.0
 30
0.0
  0
ENDBLK
  5
DC
330
DA
100
AcDbEntity
  8
0
100
AcDbBlockEnd
  0
BLOCK
  5
E9
330
E8
100
AcDbEntity
  8
0
100
AcDbBlockBegin
  2
BLKF024
 70
     0
 10
0.0
 20
0.0
 30
0.0
  3
BLKF024
  1
BLKF024
  0
CIRCLE
  5
EC
330
E8
100
AcDbEntity
  8
0
  6
ByBlock
 62
     0
370
    -2
100
AcDbCircle
 10
382.4007275132276
 20
21.36498917748917
 30
0.0
 40
3.0
  0
CIRCLE
  5
ED
330
E8
100
AcDbEntity
  8
0
  6
ByBlock
 62
     0
370
    -2
100
AcDbCircle
 10
382.4007275132276
 20
21.36498917748917
 30
0.0
 40
1.8
  0
LINE
  5
EE
330
E8
100
AcDbEntity
  8
0
  6
ByBlock
 62
     0
370
    -2
100
AcDbLine
 10
387.2007275132275
 20
23.16498917748915
 30
0.0
 11
387.2007275132275
 21
19.56498917748916
 31
0.0
  0
LINE
  5
EF
330
E8
100
AcDbEntity
  8
0
  6
ByBlock
 62
     0
370
    -2
100
AcDbLine
 10
393.2007275132275
 20
24.36498917748917
 30
0.0
 11
393.2007275132275
 21
18.36498917748917
 31
0.0
  0
LINE
  5
F0
330
E8
100
AcDbEntity
  8
0
  6
ByBlock
 62
     0
370
    -2
100
AcDbLine
 10
387.2007275132275
 20
23.16498917748915
 30
0.0
 11
393.2007275132275
 21
24.36498917748917
 31
0.0
  0
LINE
  5
F1
330
E8
100
AcDbEntity
  8
0
  6
ByBlock
 62
     0
370
    -2
100
AcDbLine
 10
387.2007275132275
 20
19.56498917748916
 30
0.0
 11
393.2007275132275
 21
18.36498917748917
 31
0.0
  0
ENDBLK
  5
EA
330
E8
100
AcDbEntity
  8
0
100
AcDbBlockEnd
  0
BLOCK
  5
100
330
FF
100
AcDbEntity
  8
0
100
AcDbBlockBegin
  2
BLKF025
 70
     0
 10
0.0
 20
0.0
 30
0.0
  3
BLKF025
  1
BLKF025
  0
LINE
  5
103
330
FF
100
AcDbEntity
  8
0
  6
ByBlock
 62
     0
370
    -2
100
AcDbLine
 10
141.3124171002161
 20
165.9231959162134
 30
0.0
 11
141.3515394847255
 21
166.6696954825851
 31
0.0
  0
LINE
  5
104
330
FF
100
AcDbEntity
  8
0
  6
ByBlock
 62
     0
370
    -2
100
AcDbLine
 10
145.8124171002161
 20
165.9231959162134
 30
0.0
 11
145.7732947157069
 21
166.6696954825851
 31
0.0
  0
LINE
  5
105
330
FF
100
AcDbEntity
  8
0
  6
ByBlock
 62
     0
370
    -2
100
AcDbLine
 10
141.3124171002161
 20
165.9231959162134
 30
0.0
 11
145.8124171002161
 21
165.9231959162134
 31
0.0
  0
ARC
  5
106
330
FF
100
AcDbEntity
  8
0
  6
ByBlock
 62
     0
370
    -2
100
AcDbCircle
 10
142.1504431125291
 20
166.6278267175908
 30
0.0
 40
0.8
100
AcDbArc
 50
105.755536998594
 51
177.0000000000006
  0
ARC
  5
107
330
FF
100
AcDbEntity
  8
0
  6
ByBlock
 62
     0
370
    -2
100
AcDbCircle
 10
144.9743910879031
 20
166.6278267175908
 30
0.0
 40
0.8
100
AcDbArc
 50
2.999999999999453
 51
74.24446300140607
  0
ARC
  5
108
330
FF
100
AcDbEntity
  8
0
  6
ByBlock
 62
     0
370
    -2
100
AcDbCircle
 10
143.5624171002161
 20
161.6231959162134
 30
0.0
 40
6.0
100
AcDbArc
 50
74.2444630014054
 51
105.7555369985946
  0
ENDBLK
  5
101
330
FF
100
AcDbEntity
  8
0
100
AcDbBlockEnd
  0
BLOCK
  5
10E
330
10D
100
AcDbEntity
  8
0
100
AcDbBlockBegin
  2
BLKF026
 70
     0
 10
0.0
 20
0.0
 30
0.0
  3
BLKF026
  1
BLKF026
  0
LINE
  5
111
330
10D
100
AcDbEntity
  8
0
  6
ByBlock
 62
     0
370
    -2
100
AcDbLine
 10
174.1124151002161
 20
162.5231959162134
 30
0.0
 11
180.0124151002161
 21
162.5231959162134
 31
0.0
  0
LINE
  5
112
330
10D
100
AcDbEntity
  8
0
  6
ByBlock
 62
     0
370
    -2
100
AcDbLine
 10
174.1124151002161
 20
163.2231959162134
 30
0.0
 11
174.1124151002161
 21
162.5231959162134
 31
0.0
  0
LINE
  5
113
330
10D
100
AcDbEntity
  8
0
  6
ByBlock
 62
     0
370
    -2
100
AcDbLine
 10
180.0124151002161
 20
163.2231959162134
 30
0.0
 11
180.0124151002161
 21
162.5231959162134
 31
0.0
  0
LINE
  5
114
330
10D
100
AcDbEntity
  8
0
  6
ByBlock
 62
     0
370
    -2
100
AcDbLine
 10
180.0124151002161
 20
163.2231959162134
 30
0.0
 11
174.1124151002161
 21
163.2231959162134
 31
0.0
  0
LINE
  5
115
330
10D
100
AcDbEntity
  8
0
  6
ByBlock
 62
     0
370
    -2
100
AcDbLine
 10
176.6582699117834
 20
163.2231959162134
 30
0.0
 11
177.0624151002161
 21
162.5231959162134
 31
0.0
  0
LINE
  5
116
330
10D
100
AcDbEntity
  8
0
  6
ByBlock
 62
     0
370
    -2
100
AcDbLine
 10
177.0624151002161
 20
163.2231959162134
 30
0.0
 11
177.4665602886489
 21
162.5231959162134
 31
0.0
  0
ENDBLK
  5
10F
330
10D
100
AcDbEntity
  8
0
100
AcDbBlockEnd
  0
BLOCK
  5
118
330
117
100
AcDbEntity
  8
0
100
AcDbBlockBegin
  2
BLKF027
 70
     0
 10
0.0
 20
0.0
 30
0.0
  3
BLKF027
  1
BLKF027
  0
LINE
  5
11B
330
117
100
AcDbEntity
  8
0
  6
ByBlock
 62
     0
370
    -2
100
AcDbLine
 10
174.3124151002161
 20
163.2231959162134
 30
0.0
 11
174.3545365048788
 21
164.0269201960611
 31
0.0
  0
LINE
  5
11C
330
117
100
AcDbEntity
  8
0
  6
ByBlock
 62
     0
370
    -2
100
AcDbLine
 10
179.8124151002161
 20
163.2231959162134
 30
0.0
 11
179.7702936955534
 21
164.0269201960611
 31
0.0
  0
LINE
  5
11D
330
117
100
AcDbEntity
  8
0
  6
ByBlock
 62
     0
370
    -2
100
AcDbLine
 10
174.3124151002161
 20
163.2231959162134
 30
0.0
 11
179.8124151002161
 21
163.2231959162134
 31
0.0
  0
ARC
  5
11E
330
117
100
AcDbEntity
  8
0
  6
ByBlock
 62
     0
370
    -2
100
AcDbCircle
 10
175.3531660396333
 20
163.9745842398181
 30
0.0
 40
1.0
100
AcDbArc
 50
159.5975774670466
 51
176.9999999999993
  0
ARC
  5
11F
330
117
100
AcDbEntity
  8
0
  6
ByBlock
 62
     0
370
    -2
100
AcDbCircle
 10
178.7716641607988
 20
163.9745842398181
 30
0.0
 40
1.0
100
AcDbArc
 50
3.000000000000715
 51
20.40242253295336
  0
ENDBLK
  5
119
330
117
100
AcDbEntity
  8
0
100
AcDbBlockEnd
  0
BLOCK
  5
156
330
155
100
AcDbEntity
  8
0
100
AcDbBlockBegin
  2
BLKF028
 70
     0
 10
0.0
 20
0.0
 30
0.0
  3
BLKF028
  1
BLKF028
  0
LINE
  5
159
330
155
100
AcDbEntity
  8
0
  6
ByBlock
 62
     0
370
    -2
100
AcDbLine
 10
354.689907305277
 20
162.5231959162134
 30
0.0
 11
360.5899073052769
 21
162.5231959162134
 31
0.0
  0
LINE
  5
15A
330
155
100
AcDbEntity
  8
0
  6
ByBlock
 62
     0
370
    -2
100
AcDbLine
 10
354.689907305277
 20
163.2231959162134
 30
0.0
 11
354.689907305277
 21
162.5231959162134
 31
0.0
  0
LINE
  5
15B
330
155
100
AcDbEntity
  8
0
  6
ByBlock
 62
     0
370
    -2
100
AcDbLine
 10
360.5899073052769
 20
163.2231959162134
 30
0.0
 11
360.5899073052769
 21
162.5231959162134
 31
0.0
  0
LINE
  5
15C
330
155
100
AcDbEntity
  8
0
  6
ByBlock
 62
     0
370
    -2
100
AcDbLine
 10
360.5899073052769
 20
163.2231959162134
 30
0.0
 11
354.689907305277
 21
163.2231959162134
 31
0.0
  0
LINE
  5
15D
330
155
100
AcDbEntity
  8
0
  6
ByBlock
 62
     0
370
    -2
100
AcDbLine
 10
357.2357621168443
 20
163.2231959162134
 30
0.0
 11
357.639907305277
 21
162.5231959162134
 31
0.0
  0
LINE
  5
15E
330
155
100
AcDbEntity
  8
0
  6
ByBlock
 62
     0
370
    -2
100
AcDbLine
 10
357.639907305277
 20
163.2231959162134
 30
0.0
 11
358.0440524937097
 21
162.5231959162134
 31
0.0
  0
ENDBLK
  5
157
330
155
100
AcDbEntity
  8
0
100
AcDbBlockEnd
  0
BLOCK
  5
160
330
15F
100
AcDbEntity
  8
0
100
AcDbBlockBegin
  2
BLKF029
 70
     0
 10
0.0
 20
0.0
 30
0.0
  3
BLKF029
  1
BLKF029
  0
LINE
  5
163
330
15F
100
AcDbEntity
  8
0
  6
ByBlock
 62
     0
370
    -2
100
AcDbLine
 10
360.389907305277
 20
163.2231959162133
 30
0.0
 11
360.3477859006143
 21
164.026920196061
 31
0.0
  0
LINE
  5
164
330
15F
100
AcDbEntity
  8
0
  6
ByBlock
 62
     0
370
    -2
100
AcDbLine
 10
354.889907305277
 20
163.2231959162133
 30
0.0
 11
354.9320287099397
 21
164.026920196061
 31
0.0
  0
LINE
  5
165
330
15F
100
AcDbEntity
  8
0
  6
ByBlock
 62
     0
370
    -2
100
AcDbLine
 10
360.389907305277
 20
163.2231959162133
 30
0.0
 11
354.889907305277
 21
163.2231959162133
 31
0.0
  0
ARC
  5
166
330
15F
100
AcDbEntity
  8
0
  6
ByBlock
 62
     0
370
    -2
100
AcDbCircle
 10
359.3491563658598
 20
163.9745842398181
 30
0.0
 40
1.000000000000002
100
AcDbArc
 50
3.000000000000682
 51
20.40242253294821
  0
ARC
  5
167
330
15F
100
AcDbEntity
  8
0
  6
ByBlock
 62
     0
370
    -2
100
AcDbCircle
 10
355.9306582446943
 20
163.9745842398181
 30
0.0
 40
1.0
100
AcDbArc
 50
159.5975774670518
 51
176.9999999999993
  0
ENDBLK
  5
161
330
15F
100
AcDbEntity
  8
0
100
AcDbBlockEnd
  0
BLOCK
  5
169
330
168
100
AcDbEntity
  8
0
100
AcDbBlockBegin
  2
BLKF030
 70
     0
 10
0.0
 20
0.0
 30
0.0
  3
BLKF030
  1
BLKF030
  0
LINE
  5
16C
330
168
100
AcDbEntity
  8
0
  6
ByBlock
 62
     0
370
    -2
100
AcDbLine
 10
328.345907305277
 20
165.9231959162133
 30
0.0
 11
328.3067849207677
 21
166.669695482585
 31
0.0
  0
LINE
  5
16D
330
168
100
AcDbEntity
  8
0
  6
ByBlock
 62
     0
370
    -2
100
AcDbLine
 10
323.845907305277
 20
165.9231959162133
 30
0.0
 11
323.8850296897863
 21
166.669695482585
 31
0.0
  0
LINE
  5
16E
330
168
100
AcDbEntity
  8
0
  6
ByBlock
 62
     0
370
    -2
100
AcDbLine
 10
328.345907305277
 20
165.9231959162133
 30
0.0
 11
323.845907305277
 21
165.9231959162133
 31
0.0
  0
ARC
  5
16F
330
168
100
AcDbEntity
  8
0
  6
ByBlock
 62
     0
370
    -2
100
AcDbCircle
 10
327.507881292964
 20
166.6278267175907
 30
0.0
 40
0.8
100
AcDbArc
 50
2.999999999999261
 51
74.24446300140579
  0
ARC
  5
170
330
168
100
AcDbEntity
  8
0
  6
ByBlock
 62
     0
370
    -2
100
AcDbCircle
 10
324.68393331759
 20
166.6278267175907
 30
0.0
 40
0.8
100
AcDbArc
 50
105.7555369985942
 51
177.0000000000008
  0
ARC
  5
171
330
168
100
AcDbEntity
  8
0
  6
ByBlock
 62
     0
370
    -2
100
AcDbCircle
 10
326.095907305277
 20
161.6231959162133
 30
0.0
 40
6.0
100
AcDbArc
 50
74.2444630014054
 51
105.7555369985946
  0
ENDBLK
  5
16A
330
168
100
AcDbEntity
  8
0
100
AcDbBlockEnd
  0
BLOCK
  5
177
330
176
100
AcDbEntity
  8
0
100
AcDbBlockBegin
  2
BLKF031
 70
     0
 10
0.0
 20
0.0
 30
0.0
  3
BLKF031
  1
BLKF031
  0
LINE
  5
17A
330
176
100
AcDbEntity
  8
0
  6
ByBlock
 62
     0
370
    -2
100
AcDbLine
 10
326.2713317858199
 20
137.0688160092751
 30
0.0
 11
325.845905305277
 21
136.8231959162133
 31
0.0
  0
LINE
  5
17B
330
176
100
AcDbEntity
  8
0
  6
ByBlock
 62
     0
370
    -2
100
AcDbLine
 10
325.845905305277
 20
136.8231959162133
 30
0.0
 11
320.345905305277
 21
136.8231959162133
 31
0.0
  0
LINE
  5
17C
330
176
100
AcDbEntity
  8
0
  6
ByBlock
 62
     0
370
    -2
100
AcDbLine
 10
320.345905305277
 20
136.8231959162133
 30
0.0
 11
319.920478824734
 21
137.0688160092751
 31
0.0
  0
ARC
  5
17D
330
176
100
AcDbEntity
  8
0
  6
ByBlock
 62
     0
370
    -2
100
AcDbCircle
 10
325.4774751656842
 20
138.2288984278459
 30
0.0
 40
1.405702511632777
100
AcDbArc
 50
235.6157525319541
 51
304.3842474680402
  0
ARC
  5
17E
330
176
100
AcDbEntity
  8
0
  6
ByBlock
 62
     0
370
    -2
100
AcDbCircle
 10
323.095905305277
 20
142.0775758231508
 30
0.0
 40
5.25437990693756
100
AcDbArc
 50
252.4120462260038
 51
287.5879537739951
  0
ARC
  5
17F
330
176
100
AcDbEntity
  8
0
  6
ByBlock
 62
     0
370
    -2
100
AcDbCircle
 10
320.7143354448697
 20
138.228898427846
 30
0.0
 40
1.405702511632777
100
AcDbArc
 50
235.6157525319541
 51
304.3842474680402
  0
LINE
  5
180
330
176
100
AcDbEntity
  8
0
  6
ByBlock
 62
     0
370
    -2
100
AcDbLine
 10
319.920478824734
 20
137.0688160092751
 30
0.0
 11
319.920478824734
 21
156.5775758231514
 31
0.0
  0
LINE
  5
181
330
176
100
AcDbEntity
  8
0
  6
ByBlock
 62
     0
370
    -2
100
AcDbLine
 10
319.920478824734
 20
156.5775758231514
 30
0.0
 11
320.345905305277
 21
156.8231959162133
 31
0.0
  0
LINE
  5
182
330
176
100
AcDbEntity
  8
0
  6
ByBlock
 62
     0
370
    -2
100
AcDbLine
 10
320.345905305277
 20
156.8231959162133
 30
0.0
 11
325.845905305277
 21
156.8231959162133
 31
0.0
  0
LINE
  5
183
330
176
100
AcDbEntity
  8
0
  6
ByBlock
 62
     0
370
    -2
100
AcDbLine
 10
325.845905305277
 20
156.8231959162133
 30
0.0
 11
326.2713317858199
 21
156.5775758231514
 31
0.0
  0
LINE
  5
184
330
176
100
AcDbEntity
  8
0
  6
ByBlock
 62
     0
370
    -2
100
AcDbLine
 10
326.2713317858199
 20
156.5775758231514
 30
0.0
 11
326.2713317858199
 21
137.0688160092751
 31
0.0
  0
ARC
  5
185
330
176
100
AcDbEntity
  8
0
  6
ByBlock
 62
     0
370
    -2
100
AcDbCircle
 10
325.4774751656842
 20
155.4174934045805
 30
0.0
 40
1.405702511632777
100
AcDbArc
 50
55.61575253195405
 51
124.3842474680402
  0
ARC
  5
186
330
176
100
AcDbEntity
  8
0
  6
ByBlock
 62
     0
370
    -2
100
AcDbCircle
 10
323.095905305277
 20
151.5688160092757
 30
0.0
 40
5.25437990693756
100
AcDbArc
 50
72.41204622600378
 51
107.5879537739951
  0
ARC
  5
187
330
176
100
AcDbEntity
  8
0
  6
ByBlock
 62
     0
370
    -2
100
AcDbCircle
 10
320.7143354448697
 20
155.4174934045806
 30
0.0
 40
1.405702511632777
100
AcDbArc
 50
55.61575253195405
 51
124.3842474680402
  0
LINE
  5
188
330
176
100
AcDbEntity
  8
0
  6
ByBlock
 62
     0
370
    -2
100
AcDbLine
 10
324.6836185455484
 20
137.0688160092751
 30
0.0
 11
324.6836185455484
 21
156.5775758231514
 31
0.0
  0
LINE
  5
189
330
176
100
AcDbEntity
  8
0
  6
ByBlock
 62
     0
370
    -2
100
AcDbLine
 10
321.5081920650055
 20
137.0688160092751
 30
0.0
 11
321.5081920650055
 21
156.5775758231514
 31
0.0
  0
ENDBLK
  5
178
330
176
100
AcDbEntity
  8
0
100
AcDbBlockEnd
  0
BLOCK
  5
18B
330
18A
100
AcDbEntity
  8
0
100
AcDbBlockBegin
  2
BLKF032
 70
     0
 10
0.0
 20
0.0
 30
0.0
  3
BLKF032
  1
BLKF032
  0
LINE
  5
18E
330
18A
100
AcDbEntity
  8
0
  6
ByBlock
 62
     0
370
    -2
100
AcDbLine
 10
239.5624131002162
 20
100.4449158392992
 30
0.0
 11
236.8124131002162
 21
98.85720259902773
 31
0.0
  0
LINE
  5
18F
330
18A
100
AcDbEntity
  8
0
  6
ByBlock
 62
     0
370
    -2
100
AcDbLine
 10
236.8124131002162
 20
98.85720259902773
 30
0.0
 11
236.8124131002162
 21
95.68177611848476
 31
0.0
  0
LINE
  5
190
330
18A
100
AcDbEntity
  8
0
  6
ByBlock
 62
     0
370
    -2
100
AcDbLine
 10
236.8124131002162
 20
95.68177611848476
 30
0.0
 11
239.5624131002162
 21
94.09406287821331
 31
0.0
  0
LINE
  5
191
330
18A
100
AcDbEntity
  8
0
  6
ByBlock
 62
     0
370
    -2
100
AcDbLine
 10
239.5624131002162
 20
94.09406287821331
 30
0.0
 11
242.3124131002162
 21
95.68177611848476
 31
0.0
  0
LINE
  5
192
330
18A
100
AcDbEntity
  8
0
  6
ByBlock
 62
     0
370
    -2
100
AcDbLine
 10
242.3124131002162
 20
95.68177611848476
 30
0.0
 11
242.3124131002162
 21
98.85720259902773
 31
0.0
  0
LINE
  5
193
330
18A
100
AcDbEntity
  8
0
  6
ByBlock
 62
     0
370
    -2
100
AcDbLine
 10
242.3124131002162
 20
98.85720259902773
 30
0.0
 11
239.5624131002162
 21
100.4449158392992
 31
0.0
  0
CIRCLE
  5
194
330
18A
100
AcDbEntity
  8
0
  6
ByBlock
 62
     0
370
    -2
100
AcDbCircle
 10
239.5624131002162
 20
97.26948935875625
 30
0.0
 40
2.65
  0
CIRCLE
  5
195
330
18A
100
AcDbEntity
  8
0
  6
ByBlock
 62
     0
370
    -2
100
AcDbCircle
 10
239.5624131002162
 20
97.26948935875625
 30
0.0
 40
1.2
  0
CIRCLE
  5
196
330
18A
100
AcDbEntity
  8
0
  6
ByBlock
 62
     7
370
    20
100
AcDbCircle
 10
239.5624131002162
 20
97.26948935875625
 30
0.0
 40
1.5
  0
ENDBLK
  5
18C
330
18A
100
AcDbEntity
  8
0
100
AcDbBlockEnd
  0
BLOCK
  5
198
330
197
100
AcDbEntity
  8
0
100
AcDbBlockBegin
  2
BLKF033
 70
     0
 10
0.0
 20
0.0
 30
0.0
  3
BLKF033
  1
BLKF033
  0
LINE
  5
19B
330
197
100
AcDbEntity
  8
0
  6
ByBlock
 62
     0
370
    -2
100
AcDbLine
 10
135.5624131002162
 20
100.4449158392992
 30
0.0
 11
132.8124131002162
 21
98.85720259902773
 31
0.0
  0
LINE
  5
19C
330
197
100
AcDbEntity
  8
0
  6
ByBlock
 62
     0
370
    -2
100
AcDbLine
 10
132.8124131002162
 20
98.85720259902773
 30
0.0
 11
132.8124131002162
 21
95.68177611848476
 31
0.0
  0
LINE
  5
19D
330
197
100
AcDbEntity
  8
0
  6
ByBlock
 62
     0
370
    -2
100
AcDbLine
 10
132.8124131002162
 20
95.68177611848476
 30
0.0
 11
135.5624131002162
 21
94.09406287821331
 31
0.0
  0
LINE
  5
19E
330
197
100
AcDbEntity
  8
0
  6
ByBlock
 62
     0
370
    -2
100
AcDbLine
 10
135.5624131002162
 20
94.09406287821331
 30
0.0
 11
138.3124131002162
 21
95.68177611848476
 31
0.0
  0
LINE
  5
19F
330
197
100
AcDbEntity
  8
0
  6
ByBlock
 62
     0
370
    -2
100
AcDbLine
 10
138.3124131002162
 20
95.68177611848476
 30
0.0
 11
138.3124131002162
 21
98.85720259902773
 31
0.0
  0
LINE
  5
1A0
330
197
100
AcDbEntity
  8
0
  6
ByBlock
 62
     0
370
    -2
100
AcDbLine
 10
138.3124131002162
 20
98.85720259902773
 30
0.0
 11
135.5624131002162
 21
100.4449158392992
 31
0.0
  0
CIRCLE
  5
1A1
330
197
100
AcDbEntity
  8
0
  6
ByBlock
 62
     0
370
    -2
100
AcDbCircle
 10
135.5624131002162
 20
97.26948935875625
 30
0.0
 40
2.65
  0
CIRCLE
  5
1A2
330
197
100
AcDbEntity
  8
0
  6
ByBlock
 62
     0
370
    -2
100
AcDbCircle
 10
135.5624131002162
 20
97.26948935875625
 30
0.0
 40
1.2
  0
CIRCLE
  5
1A3
330
197
100
AcDbEntity
  8
0
  6
ByBlock
 62
     7
370
    20
100
AcDbCircle
 10
135.5624131002162
 20
97.26948935875625
 30
0.0
 40
1.5
  0
ENDBLK
  5
199
330
197
100
AcDbEntity
  8
0
100
AcDbBlockEnd
  0
BLOCK
  5
1A5
330
1A4
100
AcDbEntity
  8
0
100
AcDbBlockBegin
  2
BLKF034
 70
     0
 10
0.0
 20
0.0
 30
0.0
  3
BLKF034
  1
BLKF034
  0
LINE
  5
1A8
330
1A4
100
AcDbEntity
  8
0
  6
ByBlock
 62
     0
370
    -2
100
AcDbLine
 10
135.5624131002162
 20
60.44491583929916
 30
0.0
 11
132.8124131002162
 21
58.8572025990277
 31
0.0
  0
LINE
  5
1A9
330
1A4
100
AcDbEntity
  8
0
  6
ByBlock
 62
     0
370
    -2
100
AcDbLine
 10
132.8124131002162
 20
58.8572025990277
 30
0.0
 11
132.8124131002162
 21
55.68177611848473
 31
0.0
  0
LINE
  5
1AA
330
1A4
100
AcDbEntity
  8
0
  6
ByBlock
 62
     0
370
    -2
100
AcDbLine
 10
132.8124131002162
 20
55.68177611848473
 30
0.0
 11
135.5624131002162
 21
54.09406287821328
 31
0.0
  0
LINE
  5
1AB
330
1A4
100
AcDbEntity
  8
0
  6
ByBlock
 62
     0
370
    -2
100
AcDbLine
 10
135.5624131002162
 20
54.09406287821328
 30
0.0
 11
138.3124131002162
 21
55.68177611848473
 31
0.0
  0
LINE
  5
1AC
330
1A4
100
AcDbEntity
  8
0
  6
ByBlock
 62
     0
370
    -2
100
AcDbLine
 10
138.3124131002162
 20
55.68177611848473
 30
0.0
 11
138.3124131002162
 21
58.8572025990277
 31
0.0
  0
LINE
  5
1AD
330
1A4
100
AcDbEntity
  8
0
  6
ByBlock
 62
     0
370
    -2
100
AcDbLine
 10
138.3124131002162
 20
58.8572025990277
 30
0.0
 11
135.5624131002162
 21
60.44491583929916
 31
0.0
  0
CIRCLE
  5
1AE
330
1A4
100
AcDbEntity
  8
0
  6
ByBlock
 62
     0
370
    -2
100
AcDbCircle
 10
135.5624131002162
 20
57.26948935875622
 30
0.0
 40
2.65
  0
CIRCLE
  5
1AF
330
1A4
100
AcDbEntity
  8
0
  6
ByBlock
 62
     0
370
    -2
100
AcDbCircle
 10
135.5624131002162
 20
57.26948935875622
 30
0.0
 40
1.2
  0
CIRCLE
  5
1B0
330
1A4
100
AcDbEntity
  8
0
  6
ByBlock
 62
     7
370
    20
100
AcDbCircle
 10
135.5624131002162
 20
57.26948935875622
 30
0.0
 40
1.5
  0
ENDBLK
  5
1A6
330
1A4
100
AcDbEntity
  8
0
100
AcDbBlockEnd
  0
BLOCK
  5
1B2
330
1B1
100
AcDbEntity
  8
0
100
AcDbBlockBegin
  2
BLKF035
 70
     0
 10
0.0
 20
0.0
 30
0.0
  3
BLKF035
  1
BLKF035
  0
LINE
  5
1B5
330
1B1
100
AcDbEntity
  8
0
  6
ByBlock
 62
     0
370
    -2
100
AcDbLine
 10
239.5624131002162
 20
60.44491583929916
 30
0.0
 11
236.8124131002162
 21
58.8572025990277
 31
0.0
  0
LINE
  5
1B6
330
1B1
100
AcDbEntity
  8
0
  6
ByBlock
 62
     0
370
    -2
100
AcDbLine
 10
236.8124131002162
 20
58.8572025990277
 30
0.0
 11
236.8124131002162
 21
55.68177611848473
 31
0.0
  0
LINE
  5
1B7
330
1B1
100
AcDbEntity
  8
0
  6
ByBlock
 62
     0
370
    -2
100
AcDbLine
 10
236.8124131002162
 20
55.68177611848473
 30
0.0
 11
239.5624131002162
 21
54.09406287821328
 31
0.0
  0
LINE
  5
1B8
330
1B1
100
AcDbEntity
  8
0
  6
ByBlock
 62
     0
370
    -2
100
AcDbLine
 10
239.5624131002162
 20
54.09406287821328
 30
0.0
 11
242.3124131002162
 21
55.68177611848473
 31
0.0
  0
LINE
  5
1B9
330
1B1
100
AcDbEntity
  8
0
  6
ByBlock
 62
     0
370
    -2
100
AcDbLine
 10
242.3124131002162
 20
55.68177611848473
 30
0.0
 11
242.3124131002162
 21
58.8572025990277
 31
0.0
  0
LINE
  5
1BA
330
1B1
100
AcDbEntity
  8
0
  6
ByBlock
 62
     0
370
    -2
100
AcDbLine
 10
242.3124131002162
 20
58.8572025990277
 30
0.0
 11
239.5624131002162
 21
60.44491583929916
 31
0.0
  0
CIRCLE
  5
1BB
330
1B1
100
AcDbEntity
  8
0
  6
ByBlock
 62
     0
370
    -2
100
AcDbCircle
 10
239.5624131002162
 20
57.26948935875622
 30
0.0
 40
2.65
  0
CIRCLE
  5
1BC
330
1B1
100
AcDbEntity
  8
0
  6
ByBlock
 62
     0
370
    -2
100
AcDbCircle
 10
239.5624131002162
 20
57.26948935875622
 30
0.0
 40
1.2
  0
CIRCLE
  5
1BD
330
1B1
100
AcDbEntity
  8
0
  6
ByBlock
 62
     7
370
    20
100
AcDbCircle
 10
239.5624131002162
 20
57.26948935875622
 30
0.0
 40
1.5
  0
ENDBLK
  5
1B3
330
1B1
100
AcDbEntity
  8
0
100
AcDbBlockEnd
  0
BLOCK
  5
1BF
330
1BE
100
AcDbEntity
  8
0
100
AcDbBlockBegin
  2
BLKF036
 70
     0
 10
0.0
 20
0.0
 30
0.0
  3
BLKF036
  1
BLKF036
  0
LINE
  5
1C2
330
1BE
100
AcDbEntity
  8
0
  6
ByBlock
 62
     0
370
    -2
100
AcDbLine
 10
359.920478824734
 20
137.0688160092751
 30
0.0
 11
360.345905305277
 21
136.8231959162133
 31
0.0
  0
LINE
  5
1C3
330
1BE
100
AcDbEntity
  8
0
  6
ByBlock
 62
     0
370
    -2
100
AcDbLine
 10
360.345905305277
 20
136.8231959162133
 30
0.0
 11
365.845905305277
 21
136.8231959162133
 31
0.0
  0
LINE
  5
1C4
330
1BE
100
AcDbEntity
  8
0
  6
ByBlock
 62
     0
370
    -2
100
AcDbLine
 10
365.845905305277
 20
136.8231959162133
 30
0.0
 11
366.2713317858199
 21
137.0688160092751
 31
0.0
  0
ARC
  5
1C5
330
1BE
100
AcDbEntity
  8
0
  6
ByBlock
 62
     0
370
    -2
100
AcDbCircle
 10
360.7143354448697
 20
138.2288984278459
 30
0.0
 40
1.405702511632777
100
AcDbArc
 50
235.6157525319598
 51
304.3842474680466
  0
ARC
  5
1C6
330
1BE
100
AcDbEntity
  8
0
  6
ByBlock
 62
     0
370
    -2
100
AcDbCircle
 10
363.095905305277
 20
142.0775758231508
 30
0.0
 40
5.25437990693756
100
AcDbArc
 50
252.4120462260051
 51
287.5879537739962
  0
ARC
  5
1C7
330
1BE
100
AcDbEntity
  8
0
  6
ByBlock
 62
     0
370
    -2
100
AcDbCircle
 10
365.4774751656842
 20
138.228898427846
 30
0.0
 40
1.405702511632777
100
AcDbArc
 50
235.6157525319598
 51
304.3842474680466
  0
LINE
  5
1C8
330
1BE
100
AcDbEntity
  8
0
  6
ByBlock
 62
     0
370
    -2
100
AcDbLine
 10
366.2713317858199
 20
137.0688160092751
 30
0.0
 11
366.27133178582
 21
156.5775758231514
 31
0.0
  0
LINE
  5
1C9
330
1BE
100
AcDbEntity
  8
0
  6
ByBlock
 62
     0
370
    -2
100
AcDbLine
 10
366.27133178582
 20
156.5775758231514
 30
0.0
 11
365.845905305277
 21
156.8231959162133
 31
0.0
  0
LINE
  5
1CA
330
1BE
100
AcDbEntity
  8
0
  6
ByBlock
 62
     0
370
    -2
100
AcDbLine
 10
365.845905305277
 20
156.8231959162133
 30
0.0
 11
360.345905305277
 21
156.8231959162133
 31
0.0
  0
LINE
  5
1CB
330
1BE
100
AcDbEntity
  8
0
  6
ByBlock
 62
     0
370
    -2
100
AcDbLine
 10
360.345905305277
 20
156.8231959162133
 30
0.0
 11
359.9204788247341
 21
156.5775758231514
 31
0.0
  0
LINE
  5
1CC
330
1BE
100
AcDbEntity
  8
0
  6
ByBlock
 62
     0
370
    -2
100
AcDbLine
 10
359.9204788247341
 20
156.5775758231514
 30
0.0
 11
359.920478824734
 21
137.0688160092751
 31
0.0
  0
ARC
  5
1CD
330
1BE
100
AcDbEntity
  8
0
  6
ByBlock
 62
     0
370
    -2
100
AcDbCircle
 10
360.7143354448698
 20
155.4174934045805
 30
0.0
 40
1.405702511632777
100
AcDbArc
 50
55.61575253195986
 51
124.3842474680453
  0
ARC
  5
1CE
330
1BE
100
AcDbEntity
  8
0
  6
ByBlock
 62
     0
370
    -2
100
AcDbCircle
 10
363.095905305277
 20
151.5688160092757
 30
0.0
 40
5.25437990693756
100
AcDbArc
 50
72.41204622600515
 51
107.5879537739962
  0
ARC
  5
1CF
330
1BE
100
AcDbEntity
  8
0
  6
ByBlock
 62
     0
370
    -2
100
AcDbCircle
 10
365.4774751656843
 20
155.4174934045806
 30
0.0
 40
1.405702511632777
100
AcDbArc
 50
55.61575253195986
 51
124.3842474680466
  0
LINE
  5
1D0
330
1BE
100
AcDbEntity
  8
0
  6
ByBlock
 62
     0
370
    -2
100
AcDbLine
 10
361.5081920650055
 20
137.0688160092751
 30
0.0
 11
361.5081920650056
 21
156.5775758231514
 31
0.0
  0
LINE
  5
1D1
330
1BE
100
AcDbEntity
  8
0
  6
ByBlock
 62
     0
370
    -2
100
AcDbLine
 10
364.6836185455484
 20
137.0688160092751
 30
0.0
 11
364.6836185455485
 21
156.5775758231514
 31
0.0
  0
ENDBLK
  5
1C0
330
1BE
100
AcDbEntity
  8
0
100
AcDbBlockEnd
  0
BLOCK
  5
1D3
330
1D2
100
AcDbEntity
  8
0
100
AcDbBlockBegin
  2
BLKF037
 70
     0
 10
0.0
 20
0.0
 30
0.0
  3
BLKF037
  1
BLKF037
  0
LINE
  5
1D6
330
1D2
100
AcDbEntity
  8
0
  6
ByBlock
 62
     0
370
    -2
100
AcDbLine
 10
360.145905305277
 20
159.8231959162134
 30
0.0
 11
366.045905305277
 21
159.8231959162134
 31
0.0
  0
LINE
  5
1D7
330
1D2
100
AcDbEntity
  8
0
  6
ByBlock
 62
     0
370
    -2
100
AcDbLine
 10
360.145905305277
 20
160.5231959162134
 30
0.0
 11
360.145905305277
 21
159.8231959162134
 31
0.0
  0
LINE
  5
1D8
330
1D2
100
AcDbEntity
  8
0
  6
ByBlock
 62
     0
370
    -2
100
AcDbLine
 10
366.045905305277
 20
160.5231959162134
 30
0.0
 11
366.045905305277
 21
159.8231959162134
 31
0.0
  0
LINE
  5
1D9
330
1D2
100
AcDbEntity
  8
0
  6
ByBlock
 62
     0
370
    -2
100
AcDbLine
 10
366.045905305277
 20
160.5231959162134
 30
0.0
 11
360.145905305277
 21
160.5231959162134
 31
0.0
  0
LINE
  5
1DA
330
1D2
100
AcDbEntity
  8
0
  6
ByBlock
 62
     0
370
    -2
100
AcDbLine
 10
362.6917601168443
 20
160.5231959162134
 30
0.0
 11
363.095905305277
 21
159.8231959162134
 31
0.0
  0
LINE
  5
1DB
330
1D2
100
AcDbEntity
  8
0
  6
ByBlock
 62
     0
370
    -2
100
AcDbLine
 10
363.095905305277
 20
160.5231959162134
 30
0.0
 11
363.5000504937098
 21
159.8231959162134
 31
0.0
  0
ENDBLK
  5
1D4
330
1D2
100
AcDbEntity
  8
0
100
AcDbBlockEnd
  0
BLOCK
  5
1DD
330
1DC
100
AcDbEntity
  8
0
100
AcDbBlockBegin
  2
BLKF038
 70
     0
 10
0.0
 20
0.0
 30
0.0
  3
BLKF038
  1
BLKF038
  0
LINE
  5
1E0
330
1DC
100
AcDbEntity
  8
0
  6
ByBlock
 62
     0
370
    -2
100
AcDbLine
 10
360.345905305277
 20
160.5231959162134
 30
0.0
 11
360.3880267099397
 21
161.3269201960611
 31
0.0
  0
LINE
  5
1E1
330
1DC
100
AcDbEntity
  8
0
  6
ByBlock
 62
     0
370
    -2
100
AcDbLine
 10
365.845905305277
 20
160.5231959162134
 30
0.0
 11
365.8037839006143
 21
161.3269201960611
 31
0.0
  0
LINE
  5
1E2
330
1DC
100
AcDbEntity
  8
0
  6
ByBlock
 62
     0
370
    -2
100
AcDbLine
 10
360.345905305277
 20
160.5231959162134
 30
0.0
 11
365.845905305277
 21
160.5231959162134
 31
0.0
  0
ARC
  5
1E3
330
1DC
100
AcDbEntity
  8
0
  6
ByBlock
 62
     0
370
    -2
100
AcDbCircle
 10
361.3866562446942
 20
161.2745842398181
 30
0.0
 40
1.0
100
AcDbArc
 50
106.5513675242226
 51
176.9999999999993
  0
ARC
  5
1E4
330
1DC
100
AcDbEntity
  8
0
  6
ByBlock
 62
     0
370
    -2
100
AcDbCircle
 10
364.8051543658597
 20
161.2745842398181
 30
0.0
 40
1.0
100
AcDbArc
 50
3.000000000000682
 51
73.44863247577746
  0
ARC
  5
1E5
330
1DC
100
AcDbEntity
  8
0
  6
ByBlock
 62
     0
370
    -2
100
AcDbCircle
 10
363.095905305277
 20
155.5231959162134
 30
0.0
 40
7.0
100
AcDbArc
 50
73.44863247577746
 51
106.5513675242226
  0
ENDBLK
  5
1DE
330
1DC
100
AcDbEntity
  8
0
100
AcDbBlockEnd
  0
BLOCK
  5
1E7
330
1E6
100
AcDbEntity
  8
0
100
AcDbBlockBegin
  2
BLKF039
 70
     0
 10
0.0
 20
0.0
 30
0.0
  3
BLKF039
  1
BLKF039
  0
LINE
  5
1EA
330
1E6
100
AcDbEntity
  8
0
  6
ByBlock
 62
     0
370
    -2
100
AcDbLine
 10
320.1459053052769
 20
159.8231959162134
 30
0.0
 11
326.0459053052769
 21
159.8231959162134
 31
0.0
  0
LINE
  5
1EB
330
1E6
100
AcDbEntity
  8
0
  6
ByBlock
 62
     0
370
    -2
100
AcDbLine
 10
320.1459053052769
 20
160.5231959162134
 30
0.0
 11
320.1459053052769
 21
159.8231959162134
 31
0.0
  0
LINE
  5
1EC
330
1E6
100
AcDbEntity
  8
0
  6
ByBlock
 62
     0
370
    -2
100
AcDbLine
 10
326.0459053052769
 20
160.5231959162134
 30
0.0
 11
326.0459053052769
 21
159.8231959162134
 31
0.0
  0
LINE
  5
1ED
330
1E6
100
AcDbEntity
  8
0
  6
ByBlock
 62
     0
370
    -2
100
AcDbLine
 10
326.0459053052769
 20
160.5231959162134
 30
0.0
 11
320.1459053052769
 21
160.5231959162134
 31
0.0
  0
LINE
  5
1EE
330
1E6
100
AcDbEntity
  8
0
  6
ByBlock
 62
     0
370
    -2
100
AcDbLine
 10
322.6917601168443
 20
160.5231959162134
 30
0.0
 11
323.095905305277
 21
159.8231959162134
 31
0.0
  0
LINE
  5
1EF
330
1E6
100
AcDbEntity
  8
0
  6
ByBlock
 62
     0
370
    -2
100
AcDbLine
 10
323.095905305277
 20
160.5231959162134
 30
0.0
 11
323.5000504937097
 21
159.8231959162134
 31
0.0
  0
ENDBLK
  5
1E8
330
1E6
100
AcDbEntity
  8
0
100
AcDbBlockEnd
  0
BLOCK
  5
1F1
330
1F0
100
AcDbEntity
  8
0
100
AcDbBlockBegin
  2
BLKF040
 70
     0
 10
0.0
 20
0.0
 30
0.0
  3
BLKF040
  1
BLKF040
  0
LINE
  5
1F4
330
1F0
100
AcDbEntity
  8
0
  6
ByBlock
 62
     0
370
    -2
100
AcDbLine
 10
320.3459053052769
 20
160.5231959162134
 30
0.0
 11
320.3880267099396
 21
161.3269201960611
 31
0.0
  0
LINE
  5
1F5
330
1F0
100
AcDbEntity
  8
0
  6
ByBlock
 62
     0
370
    -2
100
AcDbLine
 10
325.8459053052769
 20
160.5231959162134
 30
0.0
 11
325.8037839006142
 21
161.3269201960611
 31
0.0
  0
LINE
  5
1F6
330
1F0
100
AcDbEntity
  8
0
  6
ByBlock
 62
     0
370
    -2
100
AcDbLine
 10
320.3459053052769
 20
160.5231959162134
 30
0.0
 11
325.8459053052769
 21
160.5231959162134
 31
0.0
  0
ARC
  5
1F7
330
1F0
100
AcDbEntity
  8
0
  6
ByBlock
 62
     0
370
    -2
100
AcDbCircle
 10
321.3866562446942
 20
161.2745842398181
 30
0.0
 40
1.0
100
AcDbArc
 50
106.5513675242226
 51
176.9999999999993
  0
ARC
  5
1F8
330
1F0
100
AcDbEntity
  8
0
  6
ByBlock
 62
     0
370
    -2
100
AcDbCircle
 10
324.8051543658597
 20
161.2745842398181
 30
0.0
 40
1.0
100
AcDbArc
 50
3.000000000000682
 51
73.44863247577746
  0
ARC
  5
1F9
330
1F0
100
AcDbEntity
  8
0
  6
ByBlock
 62
     0
370
    -2
100
AcDbCircle
 10
323.0959053052769
 20
155.5231959162134
 30
0.0
 40
7.0
100
AcDbArc
 50
73.44863247577746
 51
106.5513675242226
  0
ENDBLK
  5
1F2
330
1F0
100
AcDbEntity
  8
0
100
AcDbBlockEnd
  0
BLOCK
  5
1FB
330
1FA
100
AcDbEntity
  8
0
100
AcDbBlockBegin
  2
BLKF041
 70
     0
 10
0.0
 20
0.0
 30
0.0
  3
BLKF041
  1
BLKF041
  0
LINE
  5
1FE
330
1FA
100
AcDbEntity
  8
0
  6
ByBlock
 62
     0
370
    -2
100
AcDbLine
 10
236.6124131002161
 20
159.8231959162133
 30
0.0
 11
242.5124131002161
 21
159.8231959162133
 31
0.0
  0
LINE
  5
1FF
330
1FA
100
AcDbEntity
  8
0
  6
ByBlock
 62
     0
370
    -2
100
AcDbLine
 10
236.6124131002161
 20
160.5231959162133
 30
0.0
 11
236.6124131002161
 21
159.8231959162133
 31
0.0
  0
LINE
  5
200
330
1FA
100
AcDbEntity
  8
0
  6
ByBlock
 62
     0
370
    -2
100
AcDbLine
 10
242.5124131002161
 20
160.5231959162133
 30
0.0
 11
242.5124131002161
 21
159.8231959162133
 31
0.0
  0
LINE
  5
201
330
1FA
100
AcDbEntity
  8
0
  6
ByBlock
 62
     0
370
    -2
100
AcDbLine
 10
242.5124131002161
 20
160.5231959162133
 30
0.0
 11
236.6124131002161
 21
160.5231959162133
 31
0.0
  0
LINE
  5
202
330
1FA
100
AcDbEntity
  8
0
  6
ByBlock
 62
     0
370
    -2
100
AcDbLine
 10
239.1582679117835
 20
160.5231959162133
 30
0.0
 11
239.5624131002162
 21
159.8231959162133
 31
0.0
  0
LINE
  5
203
330
1FA
100
AcDbEntity
  8
0
  6
ByBlock
 62
     0
370
    -2
100
AcDbLine
 10
239.5624131002162
 20
160.5231959162133
 30
0.0
 11
239.9665582886489
 21
159.8231959162133
 31
0.0
  0
ENDBLK
  5
1FC
330
1FA
100
AcDbEntity
  8
0
100
AcDbBlockEnd
  0
BLOCK
  5
205
330
204
100
AcDbEntity
  8
0
100
AcDbBlockBegin
  2
BLKF042
 70
     0
 10
0.0
 20
0.0
 30
0.0
  3
BLKF042
  1
BLKF042
  0
LINE
  5
208
330
204
100
AcDbEntity
  8
0
  6
ByBlock
 62
     0
370
    -2
100
AcDbLine
 10
132.6124131002161
 20
159.8231959162134
 30
0.0
 11
138.5124131002161
 21
159.8231959162133
 31
0.0
  0
LINE
  5
209
330
204
100
AcDbEntity
  8
0
  6
ByBlock
 62
     0
370
    -2
100
AcDbLine
 10
132.6124131002161
 20
160.5231959162134
 30
0.0
 11
132.6124131002161
 21
159.8231959162134
 31
0.0
  0
LINE
  5
20A
330
204
100
AcDbEntity
  8
0
  6
ByBlock
 62
     0
370
    -2
100
AcDbLine
 10
138.5124131002161
 20
160.5231959162133
 30
0.0
 11
138.5124131002161
 21
159.8231959162133
 31
0.0
  0
LINE
  5
20B
330
204
100
AcDbEntity
  8
0
  6
ByBlock
 62
     0
370
    -2
100
AcDbLine
 10
138.5124131002161
 20
160.5231959162133
 30
0.0
 11
132.6124131002161
 21
160.5231959162134
 31
0.0
  0
LINE
  5
20C
330
204
100
AcDbEntity
  8
0
  6
ByBlock
 62
     0
370
    -2
100
AcDbLine
 10
135.1582679117835
 20
160.5231959162133
 30
0.0
 11
135.5624131002162
 21
159.8231959162133
 31
0.0
  0
LINE
  5
20D
330
204
100
AcDbEntity
  8
0
  6
ByBlock
 62
     0
370
    -2
100
AcDbLine
 10
135.5624131002162
 20
160.5231959162133
 30
0.0
 11
135.9665582886489
 21
159.8231959162133
 31
0.0
  0
ENDBLK
  5
206
330
204
100
AcDbEntity
  8
0
100
AcDbBlockEnd
  0
BLOCK
  5
20F
330
20E
100
AcDbEntity
  8
0
100
AcDbBlockBegin
  2
BLKF043
 70
     0
 10
0.0
 20
0.0
 30
0.0
  3
BLKF043
  1
BLKF043
  0
LINE
  5
212
330
20E
100
AcDbEntity
  8
0
  6
ByBlock
 62
     0
370
    -2
100
AcDbLine
 10
242.3124131002162
 20
136.8231959162134
 30
0.0
 11
236.8124131002162
 21
136.8231959162134
 31
0.0
  0
LINE
  5
213
330
20E
100
AcDbEntity
  8
0
  6
ByBlock
 62
     0
370
    -2
100
AcDbLine
 10
236.8124131002162
 20
136.8231959162134
 30
0.0
 11
236.8124131002162
 21
156.8231959162133
 31
0.0
  0
LINE
  5
214
330
20E
100
AcDbEntity
  8
0
  6
ByBlock
 62
     0
370
    -2
100
AcDbLine
 10
236.8124131002162
 20
156.8231959162133
 30
0.0
 11
242.3124131002162
 21
156.8231959162133
 31
0.0
  0
LINE
  5
215
330
20E
100
AcDbEntity
  8
0
  6
ByBlock
 62
     0
370
    -2
100
AcDbLine
 10
242.3124131002162
 20
156.8231959162133
 30
0.0
 11
242.3124131002162
 21
136.8231959162134
 31
0.0
  0
LINE
  5
216
330
20E
100
AcDbEntity
  8
0
  6
ByBlock
 62
     0
370
    -2
100
AcDbLine
 10
239.5624131002162
 20
137.0688160092752
 30
0.0
 11
239.5624131002162
 21
156.8231959162133
 31
0.0
  0
ARC
  5
217
330
20E
100
AcDbEntity
  8
0
  6
ByBlock
 62
     0
370
    -2
100
AcDbCircle
 10
240.9374131002162
 20
140.7946833580497
 30
0.0
 40
3.971487441836387
100
AcDbArc
 50
249.743841999584
 51
290.2561580004161
  0
ARC
  5
218
330
20E
100
AcDbEntity
  8
0
  6
ByBlock
 62
     0
370
    -2
100
AcDbCircle
 10
238.1874131002162
 20
140.7946833580497
 30
0.0
 40
3.971487441836387
100
AcDbArc
 50
249.743841999584
 51
290.2561580004161
  0
ARC
  5
219
330
20E
100
AcDbEntity
  8
0
  6
ByBlock
 62
     0
370
    -2
100
AcDbCircle
 10
240.9374131002162
 20
152.8517084743769
 30
0.0
 40
3.971487441836387
100
AcDbArc
 50
69.74384199958394
 51
110.2561580004161
  0
ARC
  5
21A
330
20E
100
AcDbEntity
  8
0
  6
ByBlock
 62
     0
370
    -2
100
AcDbCircle
 10
238.1874131002162
 20
152.8517084743769
 30
0.0
 40
3.971487441836387
100
AcDbArc
 50
69.74384199958394
 51
110.2561580004161
  0
ENDBLK
  5
210
330
20E
100
AcDbEntity
  8
0
100
AcDbBlockEnd
  0
BLOCK
  5
21C
330
21B
100
AcDbEntity
  8
0
100
AcDbBlockBegin
  2
BLKF044
 70
     0
 10
0.0
 20
0.0
 30
0.0
  3
BLKF044
  1
BLKF044
  0
LINE
  5
21F
330
21B
100
AcDbEntity
  8
0
  6
ByBlock
 62
     0
370
    -2
100
AcDbLine
 10
132.8124131002161
 20
136.8231959162134
 30
0.0
 11
138.3124131002161
 21
136.8231959162134
 31
0.0
  0
LINE
  5
220
330
21B
100
AcDbEntity
  8
0
  6
ByBlock
 62
     0
370
    -2
100
AcDbLine
 10
138.3124131002161
 20
136.8231959162134
 30
0.0
 11
138.3124131002162
 21
156.8231959162133
 31
0.0
  0
LINE
  5
221
330
21B
100
AcDbEntity
  8
0
  6
ByBlock
 62
     0
370
    -2
100
AcDbLine
 10
138.3124131002162
 20
156.8231959162133
 30
0.0
 11
132.8124131002162
 21
156.8231959162133
 31
0.0
  0
LINE
  5
222
330
21B
100
AcDbEntity
  8
0
  6
ByBlock
 62
     0
370
    -2
100
AcDbLine
 10
132.8124131002162
 20
156.8231959162133
 30
0.0
 11
132.8124131002161
 21
136.8231959162134
 31
0.0
  0
LINE
  5
223
330
21B
100
AcDbEntity
  8
0
  6
ByBlock
 62
     0
370
    -2
100
AcDbLine
 10
135.5624131002161
 20
137.0688160092752
 30
0.0
 11
135.5624131002162
 21
156.8231959162133
 31
0.0
  0
ARC
  5
224
330
21B
100
AcDbEntity
  8
0
  6
ByBlock
 62
     0
370
    -2
100
AcDbCircle
 10
134.1874131002161
 20
140.7946833580497
 30
0.0
 40
3.971487441836387
100
AcDbArc
 50
249.743841999584
 51
290.2561580004161
  0
ARC
  5
225
330
21B
100
AcDbEntity
  8
0
  6
ByBlock
 62
     0
370
    -2
100
AcDbCircle
 10
136.9374131002161
 20
140.7946833580497
 30
0.0
 40
3.971487441836387
100
AcDbArc
 50
249.743841999584
 51
290.2561580004161
  0
ARC
  5
226
330
21B
100
AcDbEntity
  8
0
  6
ByBlock
 62
     0
370
    -2
100
AcDbCircle
 10
134.1874131002162
 20
152.8517084743769
 30
0.0
 40
3.971487441836387
100
AcDbArc
 50
69.74384199958392
 51
110.2561580004161
  0
ARC
  5
227
330
21B
100
AcDbEntity
  8
0
  6
ByBlock
 62
     0
370
    -2
100
AcDbCircle
 10
136.9374131002162
 20
152.8517084743769
 30
0.0
 40
3.971487441836387
100
AcDbArc
 50
69.74384199958392
 51
110.2561580004161
  0
ENDBLK
  5
21D
330
21B
100
AcDbEntity
  8
0
100
AcDbBlockEnd
  0
BLOCK
  5
22E
330
22D
100
AcDbEntity
  8
0
100
AcDbBlockBegin
  2
BLKF045
 70
     0
 10
0.0
 20
0.0
 30
0.0
  3
BLKF045
  1
BLKF045
  0
LINE
  5
231
330
22D
100
AcDbEntity
  8
0
  6
ByBlock
 62
     0
370
    -2
100
AcDbLine
 10
142.5624141002162
 20
214.8769044736705
 30
0.0
 11
178.5624141002162
 21
214.8769044736705
 31
0.0
  0
LINE
  5
232
330
22D
100
AcDbEntity
  8
0
  6
ByBlock
 62
     0
370
    -2
100
AcDbLine
 10
180.5624121002162
 20
216.8769054736705
 30
0.0
 11
180.5624121002162
 21
225.8410682163701
 31
0.0
  0
LINE
  5
233
330
22D
100
AcDbEntity
  8
0
  6
ByBlock
 62
     0
370
    -2
100
AcDbLine
 10
142.5624141002162
 20
254.8769024736705
 30
0.0
 11
178.5624141002162
 21
254.8769024736705
 31
0.0
  0
LINE
  5
234
330
22D
100
AcDbEntity
  8
0
  6
ByBlock
 62
     0
370
    -2
100
AcDbLine
 10
140.5624131002162
 20
216.8769054736705
 30
0.0
 11
140.5624131002162
 21
252.8769014736705
 31
0.0
  0
ARC
  5
235
330
22D
100
AcDbEntity
  8
0
  6
ByBlock
 62
     0
370
    -2
100
AcDbCircle
 10
180.5624106060652
 20
254.8769009795193
 30
0.0
 40
1.999999505849442
100
AcDbArc
 50
179.9999571957128
 51
270.0000428042871
  0
ARC
  5
236
330
22D
100
AcDbEntity
  8
0
  6
ByBlock
 62
     0
370
    -2
100
AcDbCircle
 10
140.5624145943674
 20
254.8769009795193
 30
0.0
 40
1.999999505849442
100
AcDbArc
 50
269.9999571957128
 51
0.0000428042871295
  0
ARC
  5
237
330
22D
100
AcDbEntity
  8
0
  6
ByBlock
 62
     0
370
    -2
100
AcDbCircle
 10
140.5624145943674
 20
214.8769059678216
 30
0.0
 40
1.999999505849442
100
AcDbArc
 50
359.9999571957129
 51
90.00004280428718
  0
ARC
  5
238
330
22D
100
AcDbEntity
  8
0
  6
ByBlock
 62
     0
370
    -2
100
AcDbCircle
 10
180.5624106060652
 20
214.8769059678216
 30
0.0
 40
1.999999505849442
100
AcDbArc
 50
89.99995719571285
 51
180.0000428042872
  0
LINE
  5
239
330
22D
100
AcDbEntity
  8
作図レイヤ
  6
一点鎖線
 62
     7
370
    20
100
AcDbLine
 10
141.3075443943999
 20
217.8769044736705
 30
0.0
 11
147.2890483017645
 21
217.8769044736705
 31
0.0
  0
LINE
  5
23A
330
22D
100
AcDbEntity
  8
作図レイヤ
  6
一点鎖線
 62
     7
370
    20
100
AcDbLine
 10
143.5624131002162
 20
215.3793862393403
 30
0.0
 11
143.5624131002162
 21
220.50638958851
 31
0.0
  0
LINE
  5
23B
330
22D
100
AcDbEntity
  8
作図レイヤ
  6
一点鎖線
 62
     7
370
    20
100
AcDbLine
 10
122.3592671922056
 20
234.8769024736705
 30
0.0
 11
252.5446966850615
 21
234.8769024736705
 31
0.0
  0
INSERT
  5
240
330
22D
100
AcDbEntity
  8
作図レイヤ
  6
破線
 62
     7
370
    20
100
AcDbBlockReference
  2
BLKF046
 10
0.0
 20
0.0
 30
0.0
  0
CIRCLE
  5
252
330
22D
100
AcDbEntity
  8
0
  6
ByBlock
 62
     0
370
    -2
100
AcDbCircle
 10
161.1384121002163
 20
249.5209074736705
 30
0.0
 40
0.900801
  0
CIRCLE
  5
253
330
22D
100
AcDbEntity
  8
0
  6
ByBlock
 62
     0
370
    -2
100
AcDbCircle
 10
158.1384131002163
 20
246.9809074736705
 30
0.0
 40
0.900801
  0
CIRCLE
  5
254
330
22D
100
AcDbEntity
  8
0
  6
ByBlock
 62
     0
370
    -2
100
AcDbCircle
 10
158.1384131002163
 20
252.0609074736705
 30
0.0
 40
0.900801
  0
TEXT
  5
255
330
22D
100
AcDbEntity
  8
0
  6
ByBlock
 62
     7
370
    20
100
AcDbText
 10
168.4863128662109
 20
251.3575134277344
 30
0.0
 40
1.799999952316284
  1
ＦＥＴ
 50
270.0
 41
0.9607843228155234
  7
FX_VECTOR
 72
     5
 11
168.4863128662109
 21
247.1575134992599
 31
0.0
100
AcDbText
  0
LINE
  5
256
330
22D
100
AcDbEntity
  8
作図レイヤ
  6
破線
 62
     7
370
    20
100
AcDbLine
 10
173.0022131002163
 20
244.4409074736704
 30
0.0
 11
173.0022131002163
 21
254.6009074736704
 31
0.0
  0
LINE
  5
257
330
22D
100
AcDbEntity
  8
作図レイヤ
  6
一点鎖線
 62
     7
370
    20
100
AcDbLine
 10
177.0624121002162
 20
257.6815799912902
 30
0.0
 11
177.0624121002162
 21
245.9504822238721
 31
0.0
  0
LINE
  5
258
330
22D
100
AcDbEntity
  8
作図レイヤ
  6
一点鎖線
 62
     7
370
    20
100
AcDbLine
 10
173.4121323664851
 20
249.3769024736705
 30
0.0
 11
184.8639414076608
 21
249.3769024736705
 31
0.0
  0
LINE
  5
259
330
22D
100
AcDbEntity
  8
0
  6
ByBlock
 62
     0
370
    -2
100
AcDbLine
 10
180.5624121002162
 20
239.6670222165437
 30
0.0
 11
180.5624121002162
 21
252.8769044736705
 31
0.0
  0
LINE
  5
25A
330
22D
100
AcDbEntity
  8
0
  6
ByBlock
 62
     0
370
    -2
100
AcDbLine
 10
180.5624121002162
 20
233.273623288819
 30
0.0
 11
180.5624121002162
 21
234.743728233298
 31
0.0
  0
LINE
  5
25B
330
22D
100
AcDbEntity
  8
0
  6
ByBlock
 62
     0
370
    -2
100
AcDbLine
 10
180.5624121002162
 20
228.2171059989631
 30
0.0
 11
180.5624121002162
 21
230.8714543233407
 31
0.0
  0
ENDBLK
  5
22F
330
22D
100
AcDbEntity
  8
0
100
AcDbBlockEnd
  0
BLOCK
  5
23D
330
23C
100
AcDbEntity
  8
0
100
AcDbBlockBegin
  2
BLKF046
 70
     0
 10
0.0
 20
0.0
 30
0.0
  3
BLKF046
  1
BLKF046
  0
LINE
  5
241
330
23C
100
AcDbEntity
  8
0
  6
ByBlock
 62
     0
370
    -2
100
AcDbLine
 10
162.8824141002162
 20
249.5209074736705
 30
0.0
 11
164.4384131002163
 21
249.5209074736705
 31
0.0
  0
LINE
  5
242
330
23C
100
AcDbEntity
  8
0
  6
ByBlock
 62
     0
370
    -2
100
AcDbLine
 10
179.6784131002163
 20
244.4409074736704
 30
0.0
 11
179.6784131002163
 21
253.0828702013411
 31
0.0
  0
LINE
  5
243
330
23C
100
AcDbEntity
  8
0
  6
ByBlock
 62
     0
370
    -2
100
AcDbLine
 10
178.4084131002163
 20
244.4409074736704
 30
0.0
 11
179.6784131002162
 21
244.4409074736704
 31
0.0
  0
LINE
  5
244
330
23C
100
AcDbEntity
  8
0
  6
ByBlock
 62
     0
370
    -2
100
AcDbLine
 10
178.4084131002163
 20
244.4409074736704
 30
0.0
 11
178.4084131002163
 21
245.7109074736705
 31
0.0
  0
LINE
  5
245
330
23C
100
AcDbEntity
  8
0
  6
ByBlock
 62
     0
370
    -2
100
AcDbLine
 10
175.8684131002163
 20
245.7109074736705
 30
0.0
 11
178.4084131002163
 21
245.7109074736705
 31
0.0
  0
LINE
  5
246
330
23C
100
AcDbEntity
  8
0
  6
ByBlock
 62
     0
370
    -2
100
AcDbLine
 10
175.8684131002163
 20
244.4409074736704
 30
0.0
 11
175.8684131002163
 21
245.7109074736705
 31
0.0
  0
LINE
  5
247
330
23C
100
AcDbEntity
  8
0
  6
ByBlock
 62
     0
370
    -2
100
AcDbLine
 10
164.4384131002163
 20
244.4409074736704
 30
0.0
 11
175.8684131002162
 21
244.4409074736704
 31
0.0
  0
LINE
  5
248
330
23C
100
AcDbEntity
  8
0
  6
ByBlock
 62
     0
370
    -2
100
AcDbLine
 10
164.4384131002163
 20
244.4409074736704
 30
0.0
 11
164.4384131002163
 21
254.6009074736704
 31
0.0
  0
LINE
  5
249
330
23C
100
AcDbEntity
  8
0
  6
ByBlock
 62
     0
370
    -2
100
AcDbLine
 10
164.4384131002163
 20
254.6009074736704
 30
0.0
 11
175.8684131002162
 21
254.6009074736704
 31
0.0
  0
LINE
  5
24A
330
23C
100
AcDbEntity
  8
0
  6
ByBlock
 62
     0
370
    -2
100
AcDbLine
 10
175.8684131002163
 20
253.3309074736704
 30
0.0
 11
175.8684131002163
 21
254.6009074736704
 31
0.0
  0
LINE
  5
24B
330
23C
100
AcDbEntity
  8
0
  6
ByBlock
 62
     0
370
    -2
100
AcDbLine
 10
175.8684131002163
 20
253.3309074736704
 30
0.0
 11
178.4084131002163
 21
253.3309074736704
 31
0.0
  0
LINE
  5
24C
330
23C
100
AcDbEntity
  8
0
  6
ByBlock
 62
     0
370
    -2
100
AcDbLine
 10
178.4084131002163
 20
253.3309074736704
 30
0.0
 11
178.4084131002163
 21
254.6009074736704
 31
0.0
  0
LINE
  5
24D
330
23C
100
AcDbEntity
  8
作図レイヤ
  6
実線
 62
     3
370
    40
100
AcDbLine
 10
178.4084131002163
 20
254.6009074736704
 30
0.0
 11
179.6784131002162
 21
254.6009074736704
 31
0.0
  0
LINE
  5
24E
330
23C
100
AcDbEntity
  8
0
  6
ByBlock
 62
     0
370
    -2
100
AcDbLine
 10
160.8824131002162
 20
252.0609074736705
 30
0.0
 11
164.4384131002163
 21
252.0609074736705
 31
0.0
  0
LINE
  5
24F
330
23C
100
AcDbEntity
  8
0
  6
ByBlock
 62
     0
370
    -2
100
AcDbLine
 10
160.8824131002162
 20
246.9809074736705
 30
0.0
 11
164.4384131002163
 21
246.9809074736705
 31
0.0
  0
CIRCLE
  5
250
330
23C
100
AcDbEntity
  8
作図レイヤ
  6
実線
 62
     3
370
    40
100
AcDbCircle
 10
177.1384131002163
 20
249.5209074736705
 30
0.0
 40
3.049999
  0
LINE
  5
251
330
23C
100
AcDbEntity
  8
作図レイヤ
  6
実線
 62
     3
370
    40
100
AcDbLine
 10
179.6784131002163
 20
253.0828702013411
 30
0.0
 11
179.6784131002163
 21
254.6009074736704
 31
0.0
  0
ENDBLK
  5
23E
330
23C
100
AcDbEntity
  8
0
100
AcDbBlockEnd
  0
BLOCK
  5
268
330
267
100
AcDbEntity
  8
0
100
AcDbBlockBegin
  2
BLKF047
 70
     0
 10
0.0
 20
0.0
 30
0.0
  3
BLKF047
  1
BLKF047
  0
LINE
  5
26B
330
267
100
AcDbEntity
  8
0
  6
ByBlock
 62
     0
370
    -2
100
AcDbLine
 10
132.8124131002161
 20
160.5231959162134
 30
0.0
 11
132.8545345048788
 21
161.3269201960611
 31
0.0
  0
LINE
  5
26C
330
267
100
AcDbEntity
  8
0
  6
ByBlock
 62
     0
370
    -2
100
AcDbLine
 10
138.3124131002161
 20
160.5231959162134
 30
0.0
 11
138.2702916955535
 21
161.3269201960611
 31
0.0
  0
LINE
  5
26D
330
267
100
AcDbEntity
  8
0
  6
ByBlock
 62
     0
370
    -2
100
AcDbLine
 10
132.8124131002161
 20
160.5231959162134
 30
0.0
 11
138.3124131002161
 21
160.5231959162134
 31
0.0
  0
ARC
  5
26E
330
267
100
AcDbEntity
  8
0
  6
ByBlock
 62
     0
370
    -2
100
AcDbCircle
 10
133.8531640396333
 20
161.2745842398181
 30
0.0
 40
1.0
100
AcDbArc
 50
106.5513675242194
 51
176.9999999999993
  0
ARC
  5
26F
330
267
100
AcDbEntity
  8
0
  6
ByBlock
 62
     0
370
    -2
100
AcDbCircle
 10
137.2716621607988
 20
161.2745842398181
 30
0.0
 40
1.0
100
AcDbArc
 50
3.000000000000715
 51
73.44863247578058
  0
ARC
  5
270
330
267
100
AcDbEntity
  8
0
  6
ByBlock
 62
     0
370
    -2
100
AcDbCircle
 10
135.5624131002161
 20
155.5231959162134
 30
0.0
 40
7.0
100
AcDbArc
 50
73.44863247577905
 51
106.551367524221
  0
ENDBLK
  5
269
330
267
100
AcDbEntity
  8
0
100
AcDbBlockEnd
  0
BLOCK
  5
272
330
271
100
AcDbEntity
  8
0
100
AcDbBlockBegin
  2
BLKF048
 70
     0
 10
0.0
 20
0.0
 30
0.0
  3
BLKF048
  1
BLKF048
  0
LINE
  5
275
330
271
100
AcDbEntity
  8
0
  6
ByBlock
 62
     0
370
    -2
100
AcDbLine
 10
236.8124131002162
 20
160.5231959162133
 30
0.0
 11
236.8545345048789
 21
161.326920196061
 31
0.0
  0
LINE
  5
276
330
271
100
AcDbEntity
  8
0
  6
ByBlock
 62
     0
370
    -2
100
AcDbLine
 10
242.3124131002162
 20
160.5231959162133
 30
0.0
 11
242.2702916955535
 21
161.326920196061
 31
0.0
  0
LINE
  5
277
330
271
100
AcDbEntity
  8
0
  6
ByBlock
 62
     0
370
    -2
100
AcDbLine
 10
236.8124131002162
 20
160.5231959162133
 30
0.0
 11
242.3124131002162
 21
160.5231959162133
 31
0.0
  0
ARC
  5
278
330
271
100
AcDbEntity
  8
0
  6
ByBlock
 62
     0
370
    -2
100
AcDbCircle
 10
237.8531640396334
 20
161.2745842398181
 30
0.0
 40
1.0
100
AcDbArc
 50
106.5513675242194
 51
176.9999999999993
  0
ARC
  5
279
330
271
100
AcDbEntity
  8
0
  6
ByBlock
 62
     0
370
    -2
100
AcDbCircle
 10
241.2716621607989
 20
161.2745842398181
 30
0.0
 40
1.0
100
AcDbArc
 50
3.000000000000715
 51
73.44863247578058
  0
ARC
  5
27A
330
271
100
AcDbEntity
  8
0
  6
ByBlock
 62
     0
370
    -2
100
AcDbCircle
 10
239.5624131002162
 20
155.5231959162133
 30
0.0
 40
7.0
100
AcDbArc
 50
73.44863247577905
 51
106.551367524221
  0
ENDBLK
  5
273
330
271
100
AcDbEntity
  8
0
100
AcDbBlockEnd
  0
BLOCK
  5
295
330
294
100
AcDbEntity
  8
0
100
AcDbBlockBegin
  2
BLKF049
 70
     0
 10
0.0
 20
0.0
 30
0.0
  3
BLKF049
  1
BLKF049
  0
LINE
  5
298
330
294
100
AcDbEntity
  8
0
  6
ByBlock
 62
     0
370
    -2
100
AcDbLine
 10
261.3498438971661
 20
172.1784827333735
 30
0.0
 11
261.3498438971661
 21
167.6820173218105
 31
0.0
  0
LINE
  5
299
330
294
100
AcDbEntity
  8
0
  6
ByBlock
 62
     0
370
    -2
100
AcDbLine
 10
261.3498438971661
 20
167.6820173218105
 30
0.0
 11
264.3498438971661
 21
166.5901066190119
 31
0.0
  0
LINE
  5
29A
330
294
100
AcDbEntity
  8
0
  6
ByBlock
 62
     0
370
    -2
100
AcDbLine
 10
264.3498438971661
 20
166.5901066190119
 30
0.0
 11
258.3498438971661
 21
164.4062852134147
 31
0.0
  0
LINE
  5
29B
330
294
100
AcDbEntity
  8
0
  6
ByBlock
 62
     0
370
    -2
100
AcDbLine
 10
258.3498438971661
 20
164.4062852134147
 30
0.0
 11
261.3498438971661
 21
163.3143745106161
 31
0.0
  0
LINE
  5
29C
330
294
100
AcDbEntity
  8
0
  6
ByBlock
 62
     0
370
    -2
100
AcDbLine
 10
261.3498438971661
 20
163.3143745106161
 30
0.0
 11
261.3498438971661
 21
158.8179090990532
 31
0.0
  0
ENDBLK
  5
296
330
294
100
AcDbEntity
  8
0
100
AcDbBlockEnd
  0
BLOCK
  5
2B7
330
2B6
100
AcDbEntity
  8
0
100
AcDbBlockBegin
  2
BLKF050
 70
     0
 10
0.0
 20
0.0
 30
0.0
  3
BLKF050
  1
BLKF050
  0
LINE
  5
2BA
330
2B6
100
AcDbEntity
  8
0
  6
ByBlock
 62
     0
370
    -2
100
AcDbLine
 10
225.5624131002163
 20
155.7737089206626
 30
0.0
 11
138.3124131002162
 21
155.7737089206626
 31
0.0
  0
LINE
  5
2BB
330
2B6
100
AcDbEntity
  8
0
  6
ByBlock
 62
     0
370
    -2
100
AcDbLine
 10
125.5624131002162
 20
156.7737089206625
 30
0.0
 11
125.5624131002162
 21
155.7737089206626
 31
0.0
  0
LINE
  5
2BC
330
2B6
100
AcDbEntity
  8
0
  6
ByBlock
 62
     0
370
    -2
100
AcDbLine
 10
210.0624131002162
 20
144.2737089206626
 30
0.0
 11
141.0624131002162
 21
144.2737089206626
 31
0.0
  0
LINE
  5
2BD
330
2B6
100
AcDbEntity
  8
0
  6
ByBlock
 62
     0
370
    -2
100
AcDbLine
 10
213.0624131002163
 20
155.7737089206626
 30
0.0
 11
213.0624131002162
 21
147.2737089206626
 31
0.0
  0
LINE
  5
2BE
330
2B6
100
AcDbEntity
  8
0
  6
ByBlock
 62
     0
370
    -2
100
AcDbLine
 10
225.5624131002163
 20
156.7737089206626
 30
0.0
 11
225.5624131002163
 21
155.7737089206626
 31
0.0
  0
ARC
  5
2BF
330
2B6
100
AcDbEntity
  8
0
  6
ByBlock
 62
     0
370
    -2
100
AcDbCircle
 10
141.0624131002162
 20
147.2737089206626
 30
0.0
 40
3.0
100
AcDbArc
 50
203.556464309097
 51
270.0
  0
ARC
  5
2C0
330
2B6
100
AcDbEntity
  8
0
  6
ByBlock
 62
     0
370
    -2
100
AcDbCircle
 10
210.0624131002162
 20
147.2737089206626
 30
0.0
 40
3.0
100
AcDbArc
 50
270.0
 51
0.0
  0
LINE
  5
2C1
330
2B6
100
AcDbEntity
  8
作図レイヤ
  6
一点鎖線
 62
     7
370
    20
100
AcDbLine
 10
217.5624131002162
 20
166.840267869859
 30
0.0
 11
217.5624131002162
 21
151.340267869859
 31
0.0
  0
LINE
  5
2C2
330
2B6
100
AcDbEntity
  8
0
  6
ByBlock
 62
     0
370
    -2
100
AcDbLine
 10
132.8124131002162
 20
155.7737089206626
 30
0.0
 11
125.5624131002162
 21
155.7737089206626
 31
0.0
  0
ENDBLK
  5
2B8
330
2B6
100
AcDbEntity
  8
0
100
AcDbBlockEnd
  0
BLOCK
  5
2C5
330
2C4
100
AcDbEntity
  8
0
100
AcDbBlockBegin
  2
BLKF051
 70
     0
 10
0.0
 20
0.0
 30
0.0
  3
BLKF051
  1
BLKF051
  0
ARC
  5
2C8
330
2C4
100
AcDbEntity
  8
0
  6
ByBlock
 62
     7
370
    20
100
AcDbCircle
 10
217.5624131002162
 20
234.8769024736705
 30
0.0
 40
2.0
100
AcDbArc
 50
80.0
 51
349.9999999999999
  0
CIRCLE
  5
2C9
330
2C4
100
AcDbEntity
  8
0
  6
ByBlock
 62
     0
370
    -2
100
AcDbCircle
 10
217.5624131002162
 20
234.8769024736705
 30
0.0
 40
1.6
  0
ENDBLK
  5
2C6
330
2C4
100
AcDbEntity
  8
0
100
AcDbBlockEnd
  0
BLOCK
  5
2CD
330
2CC
100
AcDbEntity
  8
0
100
AcDbBlockBegin
  2
BLKF052
 70
     0
 10
0.0
 20
0.0
 30
0.0
  3
BLKF052
  1
BLKF052
  0
LINE
  5
2D0
330
2CC
100
AcDbEntity
  8
作図レイヤ
  6
一点鎖線
 62
     7
370
    20
100
AcDbLine
 10
133.5624131002162
 20
83.36105585929367
 30
0.0
 11
133.5624131002162
 21
71.36105585929367
 31
0.0
  0
LINE
  5
2D1
330
2CC
100
AcDbEntity
  8
0
  6
ByBlock
 62
     0
370
    -2
100
AcDbLine
 10
125.5624131002163
 20
75.01948935875622
 30
0.0
 11
129.6652987831862
 21
75.01948935875622
 31
0.0
  0
LINE
  5
2D2
330
2CC
100
AcDbEntity
  8
0
  6
ByBlock
 62
     0
370
    -2
100
AcDbLine
 10
125.5624131002163
 20
79.51948935875622
 30
0.0
 11
129.6652987831862
 21
79.51948935875622
 31
0.0
  0
LINE
  5
2D3
330
2CC
100
AcDbEntity
  8
0
  6
ByBlock
 62
     0
370
    -2
100
AcDbLine
 10
138.4829586579427
 20
60.76948935875622
 30
0.0
 11
212.6418675424899
 21
60.76948935875622
 31
0.0
  0
LINE
  5
2D4
330
2CC
100
AcDbEntity
  8
0
  6
ByBlock
 62
     0
370
    -2
100
AcDbLine
 10
138.4829586579427
 20
93.76948935875622
 30
0.0
 11
212.6418675424899
 21
93.76948935875622
 31
0.0
  0
LINE
  5
2D5
330
2CC
100
AcDbEntity
  8
0
  6
ByBlock
 62
     0
370
    -2
100
AcDbLine
 10
138.0624131002163
 20
89.26948935875623
 30
0.0
 11
138.0624131002162
 21
65.26948935875622
 31
0.0
  0
LINE
  5
2D6
330
2CC
100
AcDbEntity
  8
0
  6
ByBlock
 62
     0
370
    -2
100
AcDbLine
 10
137.6774814294107
 20
93.60011942360175
 30
0.0
 11
126.7569358716843
 21
88.79507937820215
 31
0.0
  0
LINE
  5
2D7
330
2CC
100
AcDbEntity
  8
0
  6
ByBlock
 62
     0
370
    -2
100
AcDbLine
 10
137.6774814294107
 20
60.93885929391068
 30
0.0
 11
126.7569358716842
 21
65.74389933931033
 31
0.0
  0
LINE
  5
2D8
330
2CC
100
AcDbEntity
  8
0
  6
ByBlock
 62
     0
370
    -2
100
AcDbLine
 10
141.0624131002162
 20
62.26948935875622
 30
0.0
 11
210.0624131002162
 21
62.26948935875622
 31
0.0
  0
LINE
  5
2D9
330
2CC
100
AcDbEntity
  8
0
  6
ByBlock
 62
     0
370
    -2
100
AcDbLine
 10
141.0624131002163
 20
92.26948935875623
 30
0.0
 11
210.0624131002163
 21
92.26948935875622
 31
0.0
  0
LINE
  5
2DA
330
2CC
100
AcDbEntity
  8
0
  6
ByBlock
 62
     0
370
    -2
100
AcDbLine
 10
213.0624131002163
 20
89.26948935875622
 30
0.0
 11
213.0624131002162
 21
65.26948935875622
 31
0.0
  0
LINE
  5
2DB
330
2CC
100
AcDbEntity
  8
0
  6
ByBlock
 62
     0
370
    -2
100
AcDbLine
 10
225.5624131002163
 20
86.96444931335658
 30
0.0
 11
225.5624131002163
 21
79.51948935875622
 31
0.0
  0
LINE
  5
2DC
330
2CC
100
AcDbEntity
  8
0
  6
ByBlock
 62
     0
370
    -2
100
AcDbLine
 10
224.3678903287483
 20
88.79507937820212
 30
0.0
 11
213.4473447710219
 21
93.60011942360175
 31
0.0
  0
LINE
  5
2DD
330
2CC
100
AcDbEntity
  8
0
  6
ByBlock
 62
     0
370
    -2
100
AcDbLine
 10
224.3678903287483
 20
65.74389933931029
 30
0.0
 11
213.4473447710219
 21
60.93885929391068
 31
0.0
  0
ARC
  5
2DE
330
2CC
100
AcDbEntity
  8
0
  6
ByBlock
 62
     0
370
    -2
100
AcDbCircle
 10
210.0624131002163
 20
89.26948935875622
 30
0.0
 40
3.0
100
AcDbArc
 50
0.0
 51
90.0
  0
ARC
  5
2DF
330
2CC
100
AcDbEntity
  8
0
  6
ByBlock
 62
     0
370
    -2
100
AcDbCircle
 10
141.0624131002163
 20
89.26948935875623
 30
0.0
 40
3.0
100
AcDbArc
 50
90.0
 51
180.0
  0
ARC
  5
2E0
330
2CC
100
AcDbEntity
  8
0
  6
ByBlock
 62
     0
370
    -2
100
AcDbCircle
 10
141.0624131002162
 20
65.26948935875622
 30
0.0
 40
3.0
100
AcDbArc
 50
180.0
 51
270.0
  0
ARC
  5
2E1
330
2CC
100
AcDbEntity
  8
0
  6
ByBlock
 62
     0
370
    -2
100
AcDbCircle
 10
210.0624131002162
 20
65.26948935875622
 30
0.0
 40
3.0
100
AcDbArc
 50
270.0
 51
0.0
  0
LINE
  5
2E2
330
2CC
100
AcDbEntity
  8
0
  6
ByBlock
 62
     0
370
    -2
100
AcDbLine
 10
221.4595274172462
 20
75.01948935875622
 30
0.0
 11
225.5624131002162
 21
75.01948935875622
 31
0.0
  0
LINE
  5
2E3
330
2CC
100
AcDbEntity
  8
0
  6
ByBlock
 62
     0
370
    -2
100
AcDbLine
 10
223.2085314351139
 20
79.51948935875622
 30
0.0
 11
225.5624131002162
 21
79.51948935875622
 31
0.0
  0
ARC
  5
2E4
330
2CC
100
AcDbEntity
  8
0
  6
ByBlock
 62
     0
370
    -2
100
AcDbCircle
 10
223.5624131002163
 20
86.96444931335658
 30
0.0
 40
2.0
100
AcDbArc
 50
0.0
 51
66.25050550713348
  0
ARC
  5
2E5
330
2CC
100
AcDbEntity
  8
0
  6
ByBlock
 62
     0
370
    -2
100
AcDbCircle
 10
223.5624131002163
 20
67.57452940415583
 30
0.0
 40
2.0
100
AcDbArc
 50
293.7494944928665
 51
0.0
  0
LINE
  5
2E6
330
2CC
100
AcDbEntity
  8
0
  6
ByBlock
 62
     0
370
    -2
100
AcDbLine
 10
225.5624131002163
 20
75.0194893587562
 30
0.0
 11
225.5624131002163
 21
70.87037073572866
 31
0.0
  0
ARC
  5
2E7
330
2CC
100
AcDbEntity
  8
0
  6
ByBlock
 62
     0
370
    -2
100
AcDbCircle
 10
212.6418675424899
 20
91.76948935875622
 30
0.0
 40
2.0
100
AcDbArc
 50
66.25050550713348
 51
90.0
  0
ARC
  5
2E8
330
2CC
100
AcDbEntity
  8
0
  6
ByBlock
 62
     0
370
    -2
100
AcDbCircle
 10
212.6418675424899
 20
62.76948935875622
 30
0.0
 40
2.0
100
AcDbArc
 50
270.0
 51
293.7494944928665
  0
ARC
  5
2E9
330
2CC
100
AcDbEntity
  8
0
  6
ByBlock
 62
     0
370
    -2
100
AcDbCircle
 10
138.4829586579427
 20
62.76948935875622
 30
0.0
 40
2.0
100
AcDbArc
 50
246.2505055071335
 51
270.0
  0
ARC
  5
2EA
330
2CC
100
AcDbEntity
  8
0
  6
ByBlock
 62
     0
370
    -2
100
AcDbCircle
 10
138.4829586579427
 20
91.76948935875622
 30
0.0
 40
2.0
100
AcDbArc
 50
90.0
 51
113.7494944928665
  0
LINE
  5
2EB
330
2CC
100
AcDbEntity
  8
0
  6
ByBlock
 62
     0
370
    -2
100
AcDbLine
 10
125.5624131002163
 20
86.96444931335664
 30
0.0
 11
125.5624131002162
 21
67.57452940415588
 31
0.0
  0
ARC
  5
2EC
330
2CC
100
AcDbEntity
  8
0
  6
ByBlock
 62
     0
370
    -2
100
AcDbCircle
 10
127.5624131002163
 20
86.96444931335661
 30
0.0
 40
2.0
100
AcDbArc
 50
113.7494944928665
 51
179.9999999999992
  0
ARC
  5
2ED
330
2CC
100
AcDbEntity
  8
0
  6
ByBlock
 62
     0
370
    -2
100
AcDbCircle
 10
127.5624131002162
 20
67.57452940415587
 30
0.0
 40
2.0
100
AcDbArc
 50
179.9999999999996
 51
246.2505055071335
  0
LINE
  5
2EE
330
2CC
100
AcDbEntity
  8
作図レイヤ
  6
一点鎖線
 62
     7
370
    20
100
AcDbLine
 10
213.0624131002163
 20
71.76948935875622
 30
0.0
 11
218.0624131002163
 21
71.76948935875622
 31
0.0
  0
LINE
  5
2EF
330
2CC
100
AcDbEntity
  8
作図レイヤ
  6
一点鎖線
 62
     7
370
    20
100
AcDbLine
 10
213.0624131002163
 20
82.76948935875622
 30
0.0
 11
218.0624131002163
 21
82.76948935875622
 31
0.0
  0
LINE
  5
2F0
330
2CC
100
AcDbEntity
  8
0
  6
ByBlock
 62
     0
370
    -2
100
AcDbLine
 10
213.0624131002163
 20
81.76948935875622
 30
0.0
 11
213.538221945152
 21
81.76948935875622
 31
0.0
  0
LINE
  5
2F1
330
2CC
100
AcDbEntity
  8
0
  6
ByBlock
 62
     0
370
    -2
100
AcDbLine
 10
213.0624131002163
 20
83.76948935875622
 30
0.0
 11
213.538221945152
 21
83.76948935875622
 31
0.0
  0
LINE
  5
2F2
330
2CC
100
AcDbEntity
  8
0
  6
ByBlock
 62
     0
370
    -2
100
AcDbLine
 10
213.0624131002163
 20
70.7694893587562
 30
0.0
 11
214.9568300604007
 21
70.7694893587562
 31
0.0
  0
LINE
  5
2F3
330
2CC
100
AcDbEntity
  8
0
  6
ByBlock
 62
     0
370
    -2
100
AcDbLine
 10
213.0624131002163
 20
72.76948935875622
 30
0.0
 11
214.9568300604007
 21
72.76948935875622
 31
0.0
  0
LINE
  5
2F4
330
2CC
100
AcDbEntity
  8
作図レイヤ
  6
一点鎖線
 62
     7
370
    20
100
AcDbLine
 10
217.5624131002163
 20
82.4299768379356
 30
0.0
 11
217.5624131002163
 21
71.9299768379356
 31
0.0
  0
LINE
  5
2F5
330
2CC
100
AcDbEntity
  8
0
  6
ByBlock
 62
     0
370
    -2
100
AcDbLine
 10
225.5624131002163
 20
68.76879200379885
 30
0.0
 11
225.5624131002163
 21
67.57452940415583
 31
0.0
  0
ARC
  5
2F6
330
2CC
100
AcDbEntity
  8
0
  6
ByBlock
 62
     0
370
    -2
100
AcDbCircle
 10
213.538221945152
 20
71.76948935875622
 30
0.0
 40
10.0
100
AcDbArc
 50
53.170623753506
 51
90.0
  0
ARC
  5
2F7
330
2CC
100
AcDbEntity
  8
0
  6
ByBlock
 62
     0
370
    -2
100
AcDbCircle
 10
213.538221945152
 20
71.76948935875622
 30
0.0
 40
12.0
100
AcDbArc
 50
53.17062375350623
 51
90.0
  0
ARC
  5
2F8
330
2CC
100
AcDbEntity
  8
0
  6
ByBlock
 62
     0
370
    -2
100
AcDbCircle
 10
214.9568300604007
 20
42.76948935875622
 30
0.0
 40
30.0
100
AcDbArc
 50
72.1132603532431
 51
90.0
  0
ARC
  5
2F9
330
2CC
100
AcDbEntity
  8
0
  6
ByBlock
 62
     0
370
    -2
100
AcDbCircle
 10
214.9568300604007
 20
42.7694893587562
 30
0.0
 40
28.0
100
AcDbArc
 50
72.11326035324316
 51
90.0
  0
ENDBLK
  5
2CE
330
2CC
100
AcDbEntity
  8
0
100
AcDbBlockEnd
  0
BLOCK
  5
304
330
303
100
AcDbEntity
  8
0
100
AcDbBlockBegin
  2
BLKF053
 70
     0
 10
0.0
 20
0.0
 30
0.0
  3
BLKF053
  1
BLKF053
  0
CIRCLE
  5
307
330
303
100
AcDbEntity
  8
0
  6
ByBlock
 62
     0
370
    -2
100
AcDbCircle
 10
177.0624121002162
 20
249.3769024736704
 30
0.0
 40
2.75
  0
LINE
  5
308
330
303
100
AcDbEntity
  8
0
  6
ByBlock
 62
     0
370
    -2
100
AcDbLine
 10
176.6124121002163
 20
251.1769024736705
 30
0.0
 11
177.5124121002162
 21
251.1769024736705
 31
0.0
  0
LINE
  5
309
330
303
100
AcDbEntity
  8
0
  6
ByBlock
 62
     0
370
    -2
100
AcDbLine
 10
178.8624121002163
 20
249.8269024736704
 30
0.0
 11
178.8624121002163
 21
248.9269024736705
 31
0.0
  0
LINE
  5
30A
330
303
100
AcDbEntity
  8
0
  6
ByBlock
 62
     0
370
    -2
100
AcDbLine
 10
176.6124121002163
 20
247.5769024736704
 30
0.0
 11
177.5124121002162
 21
247.5769024736704
 31
0.0
  0
LINE
  5
30B
330
303
100
AcDbEntity
  8
0
  6
ByBlock
 62
     0
370
    -2
100
AcDbLine
 10
175.2624121002162
 20
249.8269024736704
 30
0.0
 11
175.2624121002162
 21
248.9269024736705
 31
0.0
  0
LINE
  5
30C
330
303
100
AcDbEntity
  8
0
  6
ByBlock
 62
     0
370
    -2
100
AcDbLine
 10
177.5124121002162
 20
251.1769024736705
 30
0.0
 11
177.5124121002162
 21
250.2769024736705
 31
0.0
  0
LINE
  5
30D
330
303
100
AcDbEntity
  8
0
  6
ByBlock
 62
     0
370
    -2
100
AcDbLine
 10
176.6124121002163
 20
251.1769024736705
 30
0.0
 11
176.6124121002163
 21
250.2769024736705
 31
0.0
  0
LINE
  5
30E
330
303
100
AcDbEntity
  8
0
  6
ByBlock
 62
     0
370
    -2
100
AcDbLine
 10
177.5124121002162
 20
248.4769024736704
 30
0.0
 11
177.5124121002162
 21
247.5769024736704
 31
0.0
  0
LINE
  5
30F
330
303
100
AcDbEntity
  8
0
  6
ByBlock
 62
     0
370
    -2
100
AcDbLine
 10
176.6124121002163
 20
248.4769024736704
 30
0.0
 11
176.6124121002163
 21
247.5769024736704
 31
0.0
  0
LINE
  5
310
330
303
100
AcDbEntity
  8
0
  6
ByBlock
 62
     0
370
    -2
100
AcDbLine
 10
175.2624121002162
 20
249.8269024736704
 30
0.0
 11
176.1624121002162
 21
249.8269024736704
 31
0.0
  0
LINE
  5
311
330
303
100
AcDbEntity
  8
0
  6
ByBlock
 62
     0
370
    -2
100
AcDbLine
 10
175.2624121002162
 20
248.9269024736705
 30
0.0
 11
176.1624121002162
 21
248.9269024736705
 31
0.0
  0
LINE
  5
312
330
303
100
AcDbEntity
  8
0
  6
ByBlock
 62
     0
370
    -2
100
AcDbLine
 10
177.9624121002163
 20
249.8269024736704
 30
0.0
 11
178.8624121002163
 21
249.8269024736704
 31
0.0
  0
LINE
  5
313
330
303
100
AcDbEntity
  8
0
  6
ByBlock
 62
     0
370
    -2
100
AcDbLine
 10
177.9624121002163
 20
248.9269024736705
 30
0.0
 11
178.8624121002163
 21
248.9269024736705
 31
0.0
  0
ARC
  5
314
330
303
100
AcDbEntity
  8
0
  6
ByBlock
 62
     0
370
    -2
100
AcDbCircle
 10
177.9624121002163
 20
250.2769024736705
 30
0.0
 40
0.45
100
AcDbArc
 50
180.0
 51
270.0
  0
ARC
  5
315
330
303
100
AcDbEntity
  8
0
  6
ByBlock
 62
     0
370
    -2
100
AcDbCircle
 10
176.1624121002162
 20
250.2769024736705
 30
0.0
 40
0.45
100
AcDbArc
 50
270.0
 51
0.0
  0
ARC
  5
316
330
303
100
AcDbEntity
  8
0
  6
ByBlock
 62
     0
370
    -2
100
AcDbCircle
 10
176.1624121002162
 20
248.4769024736704
 30
0.0
 40
0.45
100
AcDbArc
 50
0.0
 51
90.0
  0
ARC
  5
317
330
303
100
AcDbEntity
  8
0
  6
ByBlock
 62
     0
370
    -2
100
AcDbCircle
 10
177.9624121002163
 20
248.4769024736704
 30
0.0
 40
0.45
100
AcDbArc
 50
90.0
 51
180.0
  0
CIRCLE
  5
318
330
303
100
AcDbEntity
  8
0
  6
ByBlock
 62
     0
370
    -2
100
AcDbCircle
 10
177.0624121002162
 20
249.3769024736704
 30
0.0
 40
2.95
  0
ENDBLK
  5
305
330
303
100
AcDbEntity
  8
0
100
AcDbBlockEnd
  0
BLOCK
  5
31A
330
319
100
AcDbEntity
  8
0
100
AcDbBlockBegin
  2
BLKF054
 70
     0
 10
0.0
 20
0.0
 30
0.0
  3
BLKF054
  1
BLKF054
  0
CIRCLE
  5
31D
330
319
100
AcDbEntity
  8
0
  6
ByBlock
 62
     0
370
    -2
100
AcDbCircle
 10
143.5624131002162
 20
217.8769044736705
 30
0.0
 40
2.25
  0
LINE
  5
31E
330
319
100
AcDbEntity
  8
0
  6
ByBlock
 62
     0
370
    -2
100
AcDbLine
 10
143.2374131002163
 20
219.1769044736705
 30
0.0
 11
143.8874131002162
 21
219.1769044736705
 31
0.0
  0
LINE
  5
31F
330
319
100
AcDbEntity
  8
0
  6
ByBlock
 62
     0
370
    -2
100
AcDbLine
 10
144.8624131002162
 20
218.2019044736705
 30
0.0
 11
144.8624131002162
 21
217.5519044736705
 31
0.0
  0
LINE
  5
320
330
319
100
AcDbEntity
  8
0
  6
ByBlock
 62
     0
370
    -2
100
AcDbLine
 10
143.2374131002163
 20
216.5769044736705
 30
0.0
 11
143.8874131002162
 21
216.5769044736705
 31
0.0
  0
LINE
  5
321
330
319
100
AcDbEntity
  8
0
  6
ByBlock
 62
     0
370
    -2
100
AcDbLine
 10
142.2624131002162
 20
218.2019044736705
 30
0.0
 11
142.2624131002162
 21
217.5519044736705
 31
0.0
  0
LINE
  5
322
330
319
100
AcDbEntity
  8
0
  6
ByBlock
 62
     0
370
    -2
100
AcDbLine
 10
143.8874131002162
 20
219.1769044736705
 30
0.0
 11
143.8874131002162
 21
218.5269044736705
 31
0.0
  0
LINE
  5
323
330
319
100
AcDbEntity
  8
0
  6
ByBlock
 62
     0
370
    -2
100
AcDbLine
 10
143.2374131002163
 20
219.1769044736705
 30
0.0
 11
143.2374131002163
 21
218.5269044736705
 31
0.0
  0
LINE
  5
324
330
319
100
AcDbEntity
  8
0
  6
ByBlock
 62
     0
370
    -2
100
AcDbLine
 10
143.8874131002162
 20
217.2269044736705
 30
0.0
 11
143.8874131002162
 21
216.5769044736705
 31
0.0
  0
LINE
  5
325
330
319
100
AcDbEntity
  8
0
  6
ByBlock
 62
     0
370
    -2
100
AcDbLine
 10
143.2374131002163
 20
217.2269044736705
 30
0.0
 11
143.2374131002163
 21
216.5769044736705
 31
0.0
  0
LINE
  5
326
330
319
100
AcDbEntity
  8
0
  6
ByBlock
 62
     0
370
    -2
100
AcDbLine
 10
142.2624131002162
 20
218.2019044736705
 30
0.0
 11
142.9124131002162
 21
218.2019044736705
 31
0.0
  0
LINE
  5
327
330
319
100
AcDbEntity
  8
0
  6
ByBlock
 62
     0
370
    -2
100
AcDbLine
 10
142.2624131002162
 20
217.5519044736705
 30
0.0
 11
142.9124131002162
 21
217.5519044736705
 31
0.0
  0
LINE
  5
328
330
319
100
AcDbEntity
  8
0
  6
ByBlock
 62
     0
370
    -2
100
AcDbLine
 10
144.2124131002162
 20
218.2019044736705
 30
0.0
 11
144.8624131002162
 21
218.2019044736705
 31
0.0
  0
LINE
  5
329
330
319
100
AcDbEntity
  8
0
  6
ByBlock
 62
     0
370
    -2
100
AcDbLine
 10
144.2124131002162
 20
217.5519044736705
 30
0.0
 11
144.8624131002162
 21
217.5519044736705
 31
0.0
  0
ARC
  5
32A
330
319
100
AcDbEntity
  8
0
  6
ByBlock
 62
     0
370
    -2
100
AcDbCircle
 10
144.2124131002162
 20
218.5269044736705
 30
0.0
 40
0.325
100
AcDbArc
 50
180.0
 51
270.0
  0
ARC
  5
32B
330
319
100
AcDbEntity
  8
0
  6
ByBlock
 62
     0
370
    -2
100
AcDbCircle
 10
142.9124131002162
 20
218.5269044736705
 30
0.0
 40
0.325
100
AcDbArc
 50
270.0
 51
0.0
  0
ARC
  5
32C
330
319
100
AcDbEntity
  8
0
  6
ByBlock
 62
     0
370
    -2
100
AcDbCircle
 10
142.9124131002162
 20
217.2269044736705
 30
0.0
 40
0.325
100
AcDbArc
 50
0.0
 51
90.0
  0
ARC
  5
32D
330
319
100
AcDbEntity
  8
0
  6
ByBlock
 62
     0
370
    -2
100
AcDbCircle
 10
144.2124131002162
 20
217.2269044736705
 30
0.0
 40
0.325
100
AcDbArc
 50
90.0
 51
180.0
  0
CIRCLE
  5
32E
330
319
100
AcDbEntity
  8
0
  6
ByBlock
 62
     0
370
    -2
100
AcDbCircle
 10
143.5624131002162
 20
217.8769044736705
 30
0.0
 40
2.6
  0
ENDBLK
  5
31B
330
319
100
AcDbEntity
  8
0
100
AcDbBlockEnd
  0
BLOCK
  5
358
330
357
100
AcDbEntity
  8
0
100
AcDbBlockBegin
  2
BLKF055
 70
     0
 10
0.0
 20
0.0
 30
0.0
  3
BLKF055
  1
BLKF055
  0
LINE
  5
35B
330
357
100
AcDbEntity
  8
0
  6
ByBlock
 62
     0
370
    -2
100
AcDbLine
 10
250.5624131002164
 20
222.3769024736705
 30
0.0
 11
263.3182312156839
 21
222.3769024736705
 31
0.0
  0
INSERT
  5
35F
330
357
100
AcDbEntity
  8
0
  6
ByBlock
 62
     7
370
    20
100
AcDbBlockReference
  2
BLKF056
 10
0.0
 20
0.0
 30
0.0
  0
INSERT
  5
368
330
357
100
AcDbEntity
  8
0
  6
ByBlock
 62
     7
370
    20
100
AcDbBlockReference
  2
BLKF057
 10
0.0
 20
0.0
 30
0.0
  0
LINE
  5
36E
330
357
100
AcDbEntity
  8
0
  6
ByBlock
 62
     0
370
    -2
100
AcDbLine
 10
289.5855124051156
 20
218.173899133687
 30
0.0
 11
278.0861726402803
 21
221.2551379371656
 31
0.0
  0
LINE
  5
36F
330
357
100
AcDbEntity
  8
0
  6
ByBlock
 62
     0
370
    -2
100
AcDbLine
 10
309.6872285353848
 20
213.4522508834992
 30
0.0
 11
309.6872285353848
 21
218.6522508834992
 31
0.0
  0
LINE
  5
370
330
357
100
AcDbEntity
  8
作図レイヤ
  6
一点鎖線
 62
     7
370
    20
100
AcDbLine
 10
316.4872285353848
 20
211.0756545492423
 30
0.0
 11
316.4872285353848
 21
221.3847391436254
 31
0.0
  0
LINE
  5
371
330
357
100
AcDbEntity
  8
作図レイヤ
  6
一点鎖線
 62
     7
370
    20
100
AcDbLine
 10
300.9085941187834
 20
216.0522508834992
 30
0.0
 11
322.4717627287012
 21
216.0522508834992
 31
0.0
  0
CIRCLE
  5
372
330
357
100
AcDbEntity
  8
0
  6
ByBlock
 62
     0
370
    -2
100
AcDbCircle
 10
316.4872285353848
 20
216.0522508834992
 30
0.0
 40
2.2
  0
ARC
  5
373
330
357
100
AcDbEntity
  8
0
  6
ByBlock
 62
     0
370
    -2
100
AcDbCircle
 10
316.4872285353848
 20
216.0522508834992
 30
0.0
 40
4.300000000000011
100
AcDbArc
 50
249.9908214609439
 51
110.0091785390561
  0
LINE
  5
374
330
357
100
AcDbEntity
  8
0
  6
ByBlock
 62
     0
370
    -2
100
AcDbLine
 10
309.6872285353848
 20
213.9522508834992
 30
0.0
 11
315.0158946385649
 21
212.0118082636778
 31
0.0
  0
LINE
  5
375
330
357
100
AcDbEntity
  8
0
  6
ByBlock
 62
     0
370
    -2
100
AcDbLine
 10
309.6872285353848
 20
218.1522508834992
 30
0.0
 11
315.0158946385649
 21
220.0926935033205
 31
0.0
  0
LINE
  5
376
330
357
100
AcDbEntity
  8
0
  6
ByBlock
 62
     0
370
    -2
100
AcDbLine
 10
303.9647697667987
 20
213.4522508834992
 30
0.0
 11
309.6872285353847
 21
213.4522508834992
 31
0.0
  0
LINE
  5
377
330
357
100
AcDbEntity
  8
0
  6
ByBlock
 62
     0
370
    -2
100
AcDbLine
 10
297.3004145107494
 20
214.0522508834992
 30
0.0
 11
303.3140471908061
 21
214.0522508834992
 31
0.0
  0
LINE
  5
378
330
357
100
AcDbEntity
  8
0
  6
ByBlock
 62
     0
370
    -2
100
AcDbLine
 10
303.3140471908061
 20
214.0522508834992
 30
0.0
 11
303.9647697667988
 21
213.4522508834992
 31
0.0
  0
LINE
  5
379
330
357
100
AcDbEntity
  8
0
  6
ByBlock
 62
     0
370
    -2
100
AcDbLine
 10
303.9647697667987
 20
218.6522508834992
 30
0.0
 11
309.6872285353847
 21
218.6522508834992
 31
0.0
  0
LINE
  5
37A
330
357
100
AcDbEntity
  8
0
  6
ByBlock
 62
     0
370
    -2
100
AcDbLine
 10
297.3004145107494
 20
218.0522508834992
 30
0.0
 11
303.3140471908061
 21
218.0522508834992
 31
0.0
  0
LINE
  5
37B
330
357
100
AcDbEntity
  8
0
  6
ByBlock
 62
     0
370
    -2
100
AcDbLine
 10
303.3140471908061
 20
218.0522508834992
 30
0.0
 11
303.9647697667988
 21
218.6522508834992
 31
0.0
  0
LINE
  5
37C
330
357
100
AcDbEntity
  8
0
  6
ByBlock
 62
     0
370
    -2
100
AcDbLine
 10
297.3004145107494
 20
214.0522508834992
 30
0.0
 11
297.3004145107494
 21
218.0522508834992
 31
0.0
  0
LINE
  5
37D
330
357
100
AcDbEntity
  8
0
  6
ByBlock
 62
     0
370
    -2
100
AcDbLine
 10
296.7760197447834
 20
214.8772508834992
 30
0.0
 11
297.3004145107494
 21
214.8772508834992
 31
0.0
  0
LINE
  5
37E
330
357
100
AcDbEntity
  8
0
  6
ByBlock
 62
     0
370
    -2
100
AcDbLine
 10
296.7760197447835
 20
217.2272508834993
 30
0.0
 11
297.3004145107494
 21
217.2272508834993
 31
0.0
  0
LINE
  5
37F
330
357
100
AcDbEntity
  8
0
  6
ByBlock
 62
     0
370
    -2
100
AcDbLine
 10
288.9772876491245
 20
215.9039734419077
 30
0.0
 11
277.4779478842894
 21
218.9852122453863
 31
0.0
  0
LINE
  5
380
330
357
100
AcDbEntity
  8
0
  6
ByBlock
 62
     0
370
    -2
100
AcDbLine
 10
250.5624131002164
 20
220.0269024736705
 30
0.0
 11
261.3498438971663
 21
220.0269024736705
 31
0.0
  0
LINE
  5
381
330
357
100
AcDbEntity
  8
0
  6
ByBlock
 62
     0
370
    -2
100
AcDbLine
 10
267.6590036689287
 20
220.0269024736705
 30
0.0
 11
269.5655250486138
 21
220.0269024736705
 31
0.0
  0
LINE
  5
382
330
357
100
AcDbEntity
  8
0
  6
ByBlock
 62
     0
370
    -2
100
AcDbLine
 10
303.3140471908061
 20
214.0522508834992
 30
0.0
 11
303.3140471908061
 21
218.0522508834993
 31
0.0
  0
ARC
  5
383
330
357
100
AcDbEntity
  8
0
  6
ByBlock
 62
     0
370
    -2
100
AcDbCircle
 10
296.7760197447834
 20
245.0092378575259
 30
0.0
 40
27.78198697402662
100
AcDbArc
 50
255.0000000000007
 51
270.0000000000001
  0
ARC
  5
384
330
357
100
AcDbEntity
  8
0
  6
ByBlock
 62
     0
370
    -2
100
AcDbCircle
 10
296.7760197447834
 20
245.0092378575259
 30
0.0
 40
30.13198697402661
100
AcDbArc
 50
255.0000000000007
 51
270.0
  0
ARC
  5
385
330
357
100
AcDbEntity
  8
0
  6
ByBlock
 62
     0
370
    -2
100
AcDbCircle
 10
269.5655250486138
 20
189.4556482116746
 30
0.0
 40
30.57125426199591
100
AcDbArc
 50
75.00000000000091
 51
90.0
  0
ARC
  5
386
330
357
100
AcDbEntity
  8
0
  6
ByBlock
 62
     0
370
    -2
100
AcDbCircle
 10
269.5655250486138
 20
189.4556482116746
 30
0.0
 40
32.92125426199588
100
AcDbArc
 50
75.0000000000007
 51
89.8920497526841
  0
LINE
  5
387
330
357
100
AcDbEntity
  8
0
  6
ByBlock
 62
     0
370
    -2
100
AcDbLine
 10
250.5624131002164
 20
223.3769024736705
 30
0.0
 11
260.5707537962293
 21
223.3769024736705
 31
0.0
  0
LINE
  5
388
330
357
100
AcDbEntity
  8
0
  6
ByBlock
 62
     0
370
    -2
100
AcDbLine
 10
266.8799135679917
 20
223.3769024736705
 30
0.0
 11
269.5655250486138
 21
223.3769024736705
 31
0.0
  0
LINE
  5
389
330
357
100
AcDbEntity
  8
0
  6
ByBlock
 62
     0
370
    -2
100
AcDbLine
 10
289.5855124051156
 20
227.5799058136539
 30
0.0
 11
278.0861726402803
 21
224.4986670101754
 31
0.0
  0
LINE
  5
38A
330
357
100
AcDbEntity
  8
0
  6
ByBlock
 62
     0
370
    -2
100
AcDbLine
 10
309.6872285353848
 20
232.3015540638417
 30
0.0
 11
309.6872285353848
 21
227.1015540638417
 31
0.0
  0
LINE
  5
38B
330
357
100
AcDbEntity
  8
作図レイヤ
  6
一点鎖線
 62
     7
370
    20
100
AcDbLine
 10
316.4872285353848
 20
234.6781503980986
 30
0.0
 11
316.4872285353848
 21
224.3690658037155
 31
0.0
  0
LINE
  5
38C
330
357
100
AcDbEntity
  8
作図レイヤ
  6
一点鎖線
 62
     7
370
    20
100
AcDbLine
 10
300.9085941187834
 20
229.7015540638417
 30
0.0
 11
322.4717627287012
 21
229.7015540638417
 31
0.0
  0
CIRCLE
  5
38D
330
357
100
AcDbEntity
  8
0
  6
ByBlock
 62
     0
370
    -2
100
AcDbCircle
 10
316.4872285353848
 20
229.7015540638417
 30
0.0
 40
2.2
  0
ARC
  5
38E
330
357
100
AcDbEntity
  8
0
  6
ByBlock
 62
     0
370
    -2
100
AcDbCircle
 10
316.4872285353848
 20
229.7015540638417
 30
0.0
 40
4.300000000000011
100
AcDbArc
 50
249.9908214609439
 51
110.0091785390561
  0
LINE
  5
38F
330
357
100
AcDbEntity
  8
0
  6
ByBlock
 62
     0
370
    -2
100
AcDbLine
 10
309.6872285353848
 20
231.8015540638417
 30
0.0
 11
315.0158946385649
 21
233.7419966836631
 31
0.0
  0
LINE
  5
390
330
357
100
AcDbEntity
  8
0
  6
ByBlock
 62
     0
370
    -2
100
AcDbLine
 10
309.6872285353848
 20
227.6015540638417
 30
0.0
 11
315.0158946385649
 21
225.6611114440204
 31
0.0
  0
LINE
  5
391
330
357
100
AcDbEntity
  8
0
  6
ByBlock
 62
     0
370
    -2
100
AcDbLine
 10
303.9647697667987
 20
232.3015540638417
 30
0.0
 11
309.6872285353847
 21
232.3015540638417
 31
0.0
  0
LINE
  5
392
330
357
100
AcDbEntity
  8
0
  6
ByBlock
 62
     0
370
    -2
100
AcDbLine
 10
297.3004145107494
 20
231.7015540638417
 30
0.0
 11
303.3140471908061
 21
231.7015540638417
 31
0.0
  0
LINE
  5
393
330
357
100
AcDbEntity
  8
0
  6
ByBlock
 62
     0
370
    -2
100
AcDbLine
 10
303.3140471908061
 20
231.7015540638417
 30
0.0
 11
303.9647697667988
 21
232.3015540638417
 31
0.0
  0
LINE
  5
394
330
357
100
AcDbEntity
  8
0
  6
ByBlock
 62
     0
370
    -2
100
AcDbLine
 10
303.9647697667987
 20
227.1015540638417
 30
0.0
 11
309.6872285353847
 21
227.1015540638417
 31
0.0
  0
LINE
  5
395
330
357
100
AcDbEntity
  8
0
  6
ByBlock
 62
     0
370
    -2
100
AcDbLine
 10
297.3004145107494
 20
227.7015540638417
 30
0.0
 11
303.3140471908061
 21
227.7015540638417
 31
0.0
  0
LINE
  5
396
330
357
100
AcDbEntity
  8
0
  6
ByBlock
 62
     0
370
    -2
100
AcDbLine
 10
303.3140471908061
 20
227.7015540638417
 30
0.0
 11
303.9647697667988
 21
227.1015540638417
 31
0.0
  0
LINE
  5
397
330
357
100
AcDbEntity
  8
0
  6
ByBlock
 62
     0
370
    -2
100
AcDbLine
 10
297.3004145107494
 20
231.7015540638417
 30
0.0
 11
297.3004145107494
 21
227.7015540638417
 31
0.0
  0
LINE
  5
398
330
357
100
AcDbEntity
  8
0
  6
ByBlock
 62
     0
370
    -2
100
AcDbLine
 10
296.7760197447834
 20
230.8765540638417
 30
0.0
 11
297.3004145107494
 21
230.8765540638417
 31
0.0
  0
LINE
  5
399
330
357
100
AcDbEntity
  8
0
  6
ByBlock
 62
     0
370
    -2
100
AcDbLine
 10
296.7760197447835
 20
228.5265540638417
 30
0.0
 11
297.3004145107494
 21
228.5265540638417
 31
0.0
  0
LINE
  5
39A
330
357
100
AcDbEntity
  8
0
  6
ByBlock
 62
     0
370
    -2
100
AcDbLine
 10
288.9772876491245
 20
229.8498315054332
 30
0.0
 11
277.4779478842894
 21
226.7685927019547
 31
0.0
  0
LINE
  5
39B
330
357
100
AcDbEntity
  8
0
  6
ByBlock
 62
     0
370
    -2
100
AcDbLine
 10
250.5624131002164
 20
225.7269024736705
 30
0.0
 11
261.3498438971663
 21
225.7269024736705
 31
0.0
  0
LINE
  5
39C
330
357
100
AcDbEntity
  8
0
  6
ByBlock
 62
     0
370
    -2
100
AcDbLine
 10
267.6590036689287
 20
225.7269024736705
 30
0.0
 11
269.5655250486138
 21
225.7269024736705
 31
0.0
  0
LINE
  5
39D
330
357
100
AcDbEntity
  8
0
  6
ByBlock
 62
     0
370
    -2
100
AcDbLine
 10
303.3140471908061
 20
231.7015540638417
 30
0.0
 11
303.3140471908061
 21
227.7015540638417
 31
0.0
  0
ARC
  5
39E
330
357
100
AcDbEntity
  8
0
  6
ByBlock
 62
     0
370
    -2
100
AcDbCircle
 10
296.7760197447834
 20
200.744567089815
 30
0.0
 40
27.78198697402662
100
AcDbArc
 50
89.9999999999999
 51
104.9999999999993
  0
ARC
  5
39F
330
357
100
AcDbEntity
  8
0
  6
ByBlock
 62
     0
370
    -2
100
AcDbCircle
 10
296.7760197447834
 20
200.744567089815
 30
0.0
 40
30.13198697402661
100
AcDbArc
 50
90.0
 51
104.9999999999993
  0
ARC
  5
3A0
330
357
100
AcDbEntity
  8
0
  6
ByBlock
 62
     0
370
    -2
100
AcDbCircle
 10
269.5655250486138
 20
256.2981567356663
 30
0.0
 40
30.57125426199591
100
AcDbArc
 50
270.0
 51
284.9999999999991
  0
ARC
  5
3A1
330
357
100
AcDbEntity
  8
0
  6
ByBlock
 62
     0
370
    -2
100
AcDbCircle
 10
269.5655250486138
 20
256.2981567356663
 30
0.0
 40
32.92125426199588
100
AcDbArc
 50
270.0
 51
284.9999999999993
  0
LINE
  5
3A2
330
357
100
AcDbEntity
  8
作図レイヤ
  6
一点鎖線
 62
     7
370
    20
100
AcDbLine
 10
256.7092165072096
 20
222.8769024736705
 30
0.0
 11
224.0020849144476
 21
222.8769024736705
 31
0.0
  0
LINE
  5
3A3
330
357
100
AcDbEntity
  8
0
  6
ByBlock
 62
     0
370
    -2
100
AcDbLine
 10
232.5624131002164
 20
220.0269024736705
 30
0.0
 11
223.2234396755518
 21
220.0269024736705
 31
0.0
  0
LINE
  5
3A4
330
357
100
AcDbEntity
  8
0
  6
ByBlock
 62
     0
370
    -2
100
AcDbLine
 10
232.5624131002164
 20
222.3769024736705
 30
0.0
 11
222.6556142451918
 21
222.3769024736705
 31
0.0
  0
LINE
  5
3A5
330
357
100
AcDbEntity
  8
0
  6
ByBlock
 62
     0
370
    -2
100
AcDbLine
 10
232.5624131002164
 20
223.3769024736705
 30
0.0
 11
228.7232163177679
 21
223.3769024736705
 31
0.0
  0
LINE
  5
3A6
330
357
100
AcDbEntity
  8
0
  6
ByBlock
 62
     0
370
    -2
100
AcDbLine
 10
232.5624131002164
 20
225.7269024736705
 30
0.0
 11
227.5780579528839
 21
225.7269024736705
 31
0.0
  0
LINE
  5
3A7
330
357
100
AcDbEntity
  8
0
  6
ByBlock
 62
     0
370
    -2
100
AcDbLine
 10
243.3624131002164
 20
226.2269024736705
 30
0.0
 11
243.3624131002164
 21
219.5269024736705
 31
0.0
  0
LINE
  5
3A8
330
357
100
AcDbEntity
  8
0
  6
ByBlock
 62
     0
370
    -2
100
AcDbLine
 10
239.7624131002164
 20
226.2269024736705
 30
0.0
 11
239.7624131002164
 21
219.5269024736705
 31
0.0
  0
LINE
  5
3A9
330
357
100
AcDbEntity
  8
0
  6
ByBlock
 62
     0
370
    -2
100
AcDbLine
 10
245.0624131002164
 20
231.3970376149761
 30
0.0
 11
245.0624131002164
 21
226.2269024736705
 31
0.0
  0
LINE
  5
3AA
330
357
100
AcDbEntity
  8
0
  6
ByBlock
 62
     0
370
    -2
100
AcDbLine
 10
238.0624131002164
 20
231.3970376149751
 30
0.0
 11
238.0624131002164
 21
226.2269024736705
 31
0.0
  0
LINE
  5
3AB
330
357
100
AcDbEntity
  8
0
  6
ByBlock
 62
     0
370
    -2
100
AcDbLine
 10
250.5624131002164
 20
219.5269024736705
 30
0.0
 11
243.3624131002164
 21
219.5269024736705
 31
0.0
  0
LINE
  5
3AC
330
357
100
AcDbEntity
  8
0
  6
ByBlock
 62
     0
370
    -2
100
AcDbLine
 10
250.5624131002164
 20
226.2269024736705
 30
0.0
 11
243.3624131002164
 21
226.2269024736705
 31
0.0
  0
LINE
  5
3AD
330
357
100
AcDbEntity
  8
0
  6
ByBlock
 62
     0
370
    -2
100
AcDbLine
 10
250.5624131002164
 20
219.5269024736705
 30
0.0
 11
250.5624131002164
 21
226.2269024736705
 31
0.0
  0
LINE
  5
3AE
330
357
100
AcDbEntity
  8
0
  6
ByBlock
 62
     0
370
    -2
100
AcDbLine
 10
243.0944639077853
 20
218.5269024736705
 30
0.0
 11
240.0303622926475
 21
218.5269024736705
 31
0.0
  0
LINE
  5
3AF
330
357
100
AcDbEntity
  8
0
  6
ByBlock
 62
     0
370
    -2
100
AcDbLine
 10
243.3624131002164
 20
219.5269024736705
 30
0.0
 11
243.0944639077853
 21
218.5269024736704
 31
0.0
  0
LINE
  5
3B0
330
357
100
AcDbEntity
  8
0
  6
ByBlock
 62
     0
370
    -2
100
AcDbLine
 10
239.7624131002164
 20
219.5269024736705
 30
0.0
 11
240.0303622926475
 21
218.5269024736705
 31
0.0
  0
LINE
  5
3B1
330
357
100
AcDbEntity
  8
0
  6
ByBlock
 62
     0
370
    -2
100
AcDbLine
 10
243.0944639077853
 20
227.2269024736706
 30
0.0
 11
240.0303622926475
 21
227.2269024736706
 31
0.0
  0
LINE
  5
3B2
330
357
100
AcDbEntity
  8
0
  6
ByBlock
 62
     0
370
    -2
100
AcDbLine
 10
243.3624131002164
 20
226.2269024736706
 30
0.0
 11
243.0944639077853
 21
227.2269024736706
 31
0.0
  0
LINE
  5
3B3
330
357
100
AcDbEntity
  8
0
  6
ByBlock
 62
     0
370
    -2
100
AcDbLine
 10
239.7624131002164
 20
226.2269024736706
 30
0.0
 11
240.0303622926475
 21
227.2269024736706
 31
0.0
  0
LINE
  5
3B4
330
357
100
AcDbEntity
  8
0
  6
ByBlock
 62
     0
370
    -2
100
AcDbLine
 10
239.7624131002164
 20
219.5269024736705
 30
0.0
 11
232.5624131002164
 21
219.5269024736705
 31
0.0
  0
LINE
  5
3B5
330
357
100
AcDbEntity
  8
0
  6
ByBlock
 62
     0
370
    -2
100
AcDbLine
 10
239.7624131002164
 20
226.2269024736705
 30
0.0
 11
232.5624131002164
 21
226.2269024736705
 31
0.0
  0
LINE
  5
3B6
330
357
100
AcDbEntity
  8
0
  6
ByBlock
 62
     0
370
    -2
100
AcDbLine
 10
232.5624131002164
 20
219.5269024736705
 30
0.0
 11
232.5624131002164
 21
226.2269024736705
 31
0.0
  0
ARC
  5
3B7
330
357
100
AcDbEntity
  8
0
  6
ByBlock
 62
     0
370
    -2
100
AcDbCircle
 10
228.7232163177679
 20
243.3769024736705
 30
0.0
 40
20.0
100
AcDbArc
 50
252.9727745039703
 51
270.0
  0
ARC
  5
3B8
330
357
100
AcDbEntity
  8
0
  6
ByBlock
 62
     0
370
    -2
100
AcDbCircle
 10
223.2234396755516
 20
270.0269024736705
 30
0.0
 40
50.0
100
AcDbArc
 50
261.5099478587584
 51
270.0
  0
ARC
  5
3B9
330
357
100
AcDbEntity
  8
0
  6
ByBlock
 62
     0
370
    -2
100
AcDbCircle
 10
222.6556142451918
 20
262.3769024736705
 30
0.0
 40
40.0
100
AcDbArc
 50
261.5099478587585
 51
270.0
  0
ARC
  5
3BA
330
357
100
AcDbEntity
  8
0
  6
ByBlock
 62
     0
370
    -2
100
AcDbCircle
 10
227.5780579528839
 20
235.7269024736705
 30
0.0
 40
10.0
100
AcDbArc
 50
252.9727745039704
 51
270.0
  0
ENDBLK
  5
359
330
357
100
AcDbEntity
  8
0
100
AcDbBlockEnd
  0
BLOCK
  5
35D
330
35C
100
AcDbEntity
  8
0
100
AcDbBlockBegin
  2
BLKF056
 70
     0
 10
0.0
 20
0.0
 30
0.0
  3
BLKF056
  1
BLKF056
  0
LINE
  5
360
330
35C
100
AcDbEntity
  8
0
  6
ByBlock
 62
     0
370
    -2
100
AcDbLine
 10
261.3498438971663
 20
216.4130500499577
 30
0.0
 11
261.3498438971663
 21
220.9095154615207
 31
0.0
  0
LINE
  5
361
330
35C
100
AcDbEntity
  8
0
  6
ByBlock
 62
     0
370
    -2
100
AcDbLine
 10
261.3498438971663
 20
220.9095154615207
 30
0.0
 11
264.3498438971663
 21
222.0014261643193
 31
0.0
  0
LINE
  5
362
330
35C
100
AcDbEntity
  8
0
  6
ByBlock
 62
     0
370
    -2
100
AcDbLine
 10
264.3498438971663
 20
222.0014261643193
 30
0.0
 11
258.3498438971663
 21
224.1852475699165
 31
0.0
  0
LINE
  5
363
330
35C
100
AcDbEntity
  8
0
  6
ByBlock
 62
     0
370
    -2
100
AcDbLine
 10
258.3498438971663
 20
224.1852475699165
 30
0.0
 11
261.3498438971663
 21
225.2771582727151
 31
0.0
  0
LINE
  5
364
330
35C
100
AcDbEntity
  8
0
  6
ByBlock
 62
     0
370
    -2
100
AcDbLine
 10
261.3498438971663
 20
225.2771582727151
 30
0.0
 11
261.3498438971663
 21
229.773623684278
 31
0.0
  0
ENDBLK
  5
35E
330
35C
100
AcDbEntity
  8
0
100
AcDbBlockEnd
  0
BLOCK
  5
366
330
365
100
AcDbEntity
  8
0
100
AcDbBlockBegin
  2
BLKF057
 70
     0
 10
0.0
 20
0.0
 30
0.0
  3
BLKF057
  1
BLKF057
  0
LINE
  5
369
330
365
100
AcDbEntity
  8
0
  6
ByBlock
 62
     0
370
    -2
100
AcDbLine
 10
267.6590036689287
 20
216.4130500499577
 30
0.0
 11
267.6590036689287
 21
220.9095154615207
 31
0.0
  0
LINE
  5
36A
330
365
100
AcDbEntity
  8
0
  6
ByBlock
 62
     0
370
    -2
100
AcDbLine
 10
267.6590036689287
 20
220.9095154615207
 30
0.0
 11
270.6590036689287
 21
222.0014261643193
 31
0.0
  0
LINE
  5
36B
330
365
100
AcDbEntity
  8
0
  6
ByBlock
 62
     0
370
    -2
100
AcDbLine
 10
270.6590036689287
 20
222.0014261643193
 30
0.0
 11
264.6590036689287
 21
224.1852475699165
 31
0.0
  0
LINE
  5
36C
330
365
100
AcDbEntity
  8
0
  6
ByBlock
 62
     0
370
    -2
100
AcDbLine
 10
264.6590036689287
 20
224.1852475699165
 30
0.0
 11
267.6590036689287
 21
225.2771582727151
 31
0.0
  0
LINE
  5
36D
330
365
100
AcDbEntity
  8
0
  6
ByBlock
 62
     0
370
    -2
100
AcDbLine
 10
267.6590036689287
 20
225.2771582727151
 30
0.0
 11
267.6590036689287
 21
229.773623684278
 31
0.0
  0
ENDBLK
  5
367
330
365
100
AcDbEntity
  8
0
100
AcDbBlockEnd
  0
BLOCK
  5
3CD
330
3CC
100
AcDbEntity
  8
0
100
AcDbBlockBegin
  2
BLKF058
 70
     0
 10
0.0
 20
0.0
 30
0.0
  3
BLKF058
  1
BLKF058
  0
CIRCLE
  5
3D0
330
3CC
100
AcDbEntity
  8
0
  6
ByBlock
 62
     0
370
    -2
100
AcDbCircle
 10
241.5624131002162
 20
232.8769024736704
 30
0.0
 40
3.5
  0
LINE
  5
3D1
330
3CC
100
AcDbEntity
  8
0
  6
ByBlock
 62
     0
370
    -2
100
AcDbLine
 10
241.0374131002162
 20
234.9769024736704
 30
0.0
 11
242.0874131002162
 21
234.9769024736704
 31
0.0
  0
LINE
  5
3D2
330
3CC
100
AcDbEntity
  8
0
  6
ByBlock
 62
     0
370
    -2
100
AcDbLine
 10
243.6624131002162
 20
233.4019024736704
 30
0.0
 11
243.6624131002162
 21
232.3519024736704
 31
0.0
  0
LINE
  5
3D3
330
3CC
100
AcDbEntity
  8
0
  6
ByBlock
 62
     0
370
    -2
100
AcDbLine
 10
241.0374131002162
 20
230.7769024736704
 30
0.0
 11
242.0874131002162
 21
230.7769024736704
 31
0.0
  0
LINE
  5
3D4
330
3CC
100
AcDbEntity
  8
0
  6
ByBlock
 62
     0
370
    -2
100
AcDbLine
 10
239.4624131002162
 20
233.4019024736704
 30
0.0
 11
239.4624131002162
 21
232.3519024736704
 31
0.0
  0
LINE
  5
3D5
330
3CC
100
AcDbEntity
  8
0
  6
ByBlock
 62
     0
370
    -2
100
AcDbLine
 10
242.0874131002162
 20
234.9769024736704
 30
0.0
 11
242.0874131002162
 21
233.9269024736705
 31
0.0
  0
LINE
  5
3D6
330
3CC
100
AcDbEntity
  8
0
  6
ByBlock
 62
     0
370
    -2
100
AcDbLine
 10
241.0374131002162
 20
234.9769024736704
 30
0.0
 11
241.0374131002162
 21
233.9269024736705
 31
0.0
  0
LINE
  5
3D7
330
3CC
100
AcDbEntity
  8
0
  6
ByBlock
 62
     0
370
    -2
100
AcDbLine
 10
242.0874131002162
 20
231.8269024736704
 30
0.0
 11
242.0874131002162
 21
230.7769024736704
 31
0.0
  0
LINE
  5
3D8
330
3CC
100
AcDbEntity
  8
0
  6
ByBlock
 62
     0
370
    -2
100
AcDbLine
 10
241.0374131002162
 20
231.8269024736704
 30
0.0
 11
241.0374131002162
 21
230.7769024736704
 31
0.0
  0
LINE
  5
3D9
330
3CC
100
AcDbEntity
  8
0
  6
ByBlock
 62
     0
370
    -2
100
AcDbLine
 10
239.4624131002162
 20
233.4019024736704
 30
0.0
 11
240.5124131002162
 21
233.4019024736704
 31
0.0
  0
LINE
  5
3DA
330
3CC
100
AcDbEntity
  8
0
  6
ByBlock
 62
     0
370
    -2
100
AcDbLine
 10
239.4624131002162
 20
232.3519024736704
 30
0.0
 11
240.5124131002162
 21
232.3519024736704
 31
0.0
  0
LINE
  5
3DB
330
3CC
100
AcDbEntity
  8
0
  6
ByBlock
 62
     0
370
    -2
100
AcDbLine
 10
242.6124131002162
 20
233.4019024736704
 30
0.0
 11
243.6624131002162
 21
233.4019024736704
 31
0.0
  0
LINE
  5
3DC
330
3CC
100
AcDbEntity
  8
0
  6
ByBlock
 62
     0
370
    -2
100
AcDbLine
 10
242.6124131002162
 20
232.3519024736704
 30
0.0
 11
243.6624131002162
 21
232.3519024736704
 31
0.0
  0
ARC
  5
3DD
330
3CC
100
AcDbEntity
  8
0
  6
ByBlock
 62
     0
370
    -2
100
AcDbCircle
 10
242.6124131002162
 20
233.9269024736705
 30
0.0
 40
0.525
100
AcDbArc
 50
180.0
 51
270.0
  0
ARC
  5
3DE
330
3CC
100
AcDbEntity
  8
0
  6
ByBlock
 62
     0
370
    -2
100
AcDbCircle
 10
240.5124131002162
 20
233.9269024736705
 30
0.0
 40
0.525
100
AcDbArc
 50
270.0
 51
0.0
  0
ARC
  5
3DF
330
3CC
100
AcDbEntity
  8
0
  6
ByBlock
 62
     0
370
    -2
100
AcDbCircle
 10
240.5124131002162
 20
231.8269024736704
 30
0.0
 40
0.525
100
AcDbArc
 50
0.0
 51
90.0
  0
ARC
  5
3E0
330
3CC
100
AcDbEntity
  8
0
  6
ByBlock
 62
     0
370
    -2
100
AcDbCircle
 10
242.6124131002162
 20
231.8269024736704
 30
0.0
 40
0.525
100
AcDbArc
 50
90.0
 51
180.0
  0
CIRCLE
  5
3E1
330
3CC
100
AcDbEntity
  8
0
  6
ByBlock
 62
     0
370
    -2
100
AcDbCircle
 10
241.5624131002162
 20
232.8769024736704
 30
0.0
 40
3.8
  0
ENDBLK
  5
3CE
330
3CC
100
AcDbEntity
  8
0
100
AcDbBlockEnd
  0
BLOCK
  5
3E3
330
3E2
100
AcDbEntity
  8
0
100
AcDbBlockBegin
  2
BLKF059
 70
     0
 10
0.0
 20
0.0
 30
0.0
  3
BLKF059
  1
BLKF059
  0
ARC
  5
3E6
330
3E2
100
AcDbEntity
  8
0
  6
ByBlock
 62
     7
370
    20
100
AcDbCircle
 10
133.5624131002162
 20
234.8769024736704
 30
0.0
 40
2.0
100
AcDbArc
 50
80.0
 51
349.9999999999999
  0
CIRCLE
  5
3E7
330
3E2
100
AcDbEntity
  8
0
  6
ByBlock
 62
     0
370
    -2
100
AcDbCircle
 10
133.5624131002162
 20
234.8769024736704
 30
0.0
 40
1.6
  0
ENDBLK
  5
3E4
330
3E2
100
AcDbEntity
  8
0
100
AcDbBlockEnd
  0
BLOCK
  5
3EF
330
3EE
100
AcDbEntity
  8
0
100
AcDbBlockBegin
  2
BLKF060
 70
     0
 10
0.0
 20
0.0
 30
0.0
  3
BLKF060
  1
BLKF060
  0
ARC
  5
3F2
330
3EE
100
AcDbEntity
  8
0
  6
ByBlock
 62
     7
370
    20
100
AcDbCircle
 10
241.5624131002163
 20
79.2694893587562
 30
0.0
 40
2.0
100
AcDbArc
 50
80.0
 51
349.9999999999999
  0
CIRCLE
  5
3F3
330
3EE
100
AcDbEntity
  8
0
  6
ByBlock
 62
     0
370
    -2
100
AcDbCircle
 10
241.5624131002163
 20
79.2694893587562
 30
0.0
 40
1.6
  0
ENDBLK
  5
3F0
330
3EE
100
AcDbEntity
  8
0
100
AcDbBlockEnd
  0
BLOCK
  5
403
330
402
100
AcDbEntity
  8
0
100
AcDbBlockBegin
  2
BLKF061
 70
     0
 10
0.0
 20
0.0
 30
0.0
  3
BLKF061
  1
BLKF061
  0
LINE
  5
406
330
402
100
AcDbEntity
  8
0
  6
ByBlock
 62
     0
370
    -2
100
AcDbLine
 10
238.0624131002162
 20
164.8231959162133
 30
0.0
 11
238.11811858571
 21
165.8861198991767
 31
0.0
  0
LINE
  5
407
330
402
100
AcDbEntity
  8
0
  6
ByBlock
 62
     0
370
    -2
100
AcDbLine
 10
245.0624131002162
 20
164.8231959162133
 30
0.0
 11
245.0067076147224
 21
165.8861198991767
 31
0.0
  0
LINE
  5
408
330
402
100
AcDbEntity
  8
0
  6
ByBlock
 62
     0
370
    -2
100
AcDbLine
 10
238.0624131002162
 20
164.8231959162133
 30
0.0
 11
245.0624131002162
 21
164.8231959162133
 31
0.0
  0
ARC
  5
409
330
402
100
AcDbEntity
  8
0
  6
ByBlock
 62
     0
370
    -2
100
AcDbCircle
 10
239.4163369808909
 20
165.8180831560609
 30
0.0
 40
1.3
100
AcDbArc
 50
106.183299219758
 51
176.9999999999995
  0
ARC
  5
40A
330
402
100
AcDbEntity
  8
0
  6
ByBlock
 62
     0
370
    -2
100
AcDbCircle
 10
243.7084892195414
 20
165.8180831560609
 30
0.0
 40
1.3
100
AcDbArc
 50
3.00000000000054
 51
73.81670078024206
  0
ARC
  5
40B
330
402
100
AcDbEntity
  8
0
  6
ByBlock
 62
     0
370
    -2
100
AcDbCircle
 10
241.5624131002162
 20
158.4231959162132
 30
0.0
 40
9.0
100
AcDbArc
 50
73.81670078024206
 51
106.183299219758
  0
LINE
  5
40C
330
402
100
AcDbEntity
  8
0
  6
ByBlock
 62
     0
370
    -2
100
AcDbLine
 10
243.5624131002162
 20
156.8231959162133
 30
0.0
 11
243.5624131002162
 21
154.8231959162133
 31
0.0
  0
LINE
  5
40D
330
402
100
AcDbEntity
  8
0
  6
ByBlock
 62
     0
370
    -2
100
AcDbLine
 10
239.5624131002162
 20
163.8231959162133
 30
0.0
 11
243.5624131002162
 21
163.8231959162133
 31
0.0
  0
LINE
  5
40E
330
402
100
AcDbEntity
  8
0
  6
ByBlock
 62
     0
370
    -2
100
AcDbLine
 10
242.3124131002162
 20
154.8231959162133
 30
0.0
 11
243.5624131002162
 21
154.8231959162133
 31
0.0
  0
LINE
  5
40F
330
402
100
AcDbEntity
  8
0
  6
ByBlock
 62
     7
370
    20
100
AcDbLine
 10
243.1624131002162
 20
156.8231959162133
 30
0.0
 11
243.1624131002162
 21
154.8231959162133
 31
0.0
  0
LINE
  5
410
330
402
100
AcDbEntity
  8
0
  6
ByBlock
 62
     0
370
    -2
100
AcDbLine
 10
237.7624131002162
 20
164.8231959162133
 30
0.0
 11
237.7624131002162
 21
163.8231959162133
 31
0.0
  0
LINE
  5
411
330
402
100
AcDbEntity
  8
0
  6
ByBlock
 62
     0
370
    -2
100
AcDbLine
 10
237.7624131002162
 20
163.8231959162133
 30
0.0
 11
245.3624131002162
 21
163.8231959162133
 31
0.0
  0
LINE
  5
412
330
402
100
AcDbEntity
  8
0
  6
ByBlock
 62
     0
370
    -2
100
AcDbLine
 10
245.3624131002162
 20
163.8231959162133
 30
0.0
 11
245.3624131002162
 21
164.8231959162133
 31
0.0
  0
LINE
  5
413
330
402
100
AcDbEntity
  8
0
  6
ByBlock
 62
     0
370
    -2
100
AcDbLine
 10
245.3624131002162
 20
164.8231959162133
 30
0.0
 11
237.7624131002162
 21
164.8231959162133
 31
0.0
  0
LINE
  5
414
330
402
100
AcDbEntity
  8
0
  6
ByBlock
 62
     0
370
    -2
100
AcDbLine
 10
240.9850628310266
 20
164.8231959162133
 30
0.0
 11
241.5624131002162
 21
163.8231959162133
 31
0.0
  0
LINE
  5
415
330
402
100
AcDbEntity
  8
0
  6
ByBlock
 62
     0
370
    -2
100
AcDbLine
 10
241.5624131002162
 20
164.8231959162133
 30
0.0
 11
242.1397633694058
 21
163.8231959162133
 31
0.0
  0
ENDBLK
  5
404
330
402
100
AcDbEntity
  8
0
100
AcDbBlockEnd
  0
BLOCK
  5
428
330
427
100
AcDbEntity
  8
0
100
AcDbBlockBegin
  2
BLKF062
 70
     0
 10
0.0
 20
0.0
 30
0.0
  3
BLKF062
  1
BLKF062
  0
LINE
  5
42B
330
427
100
AcDbEntity
  8
0
  6
ByBlock
 62
     0
370
    -2
100
AcDbLine
 10
221.0624131002162
 20
153.9737089206625
 30
0.0
 11
221.0067076147224
 21
152.910784937699
 31
0.0
  0
LINE
  5
42C
330
427
100
AcDbEntity
  8
0
  6
ByBlock
 62
     0
370
    -2
100
AcDbLine
 10
214.0624131002162
 20
153.9737089206625
 30
0.0
 11
214.1181185857101
 21
152.910784937699
 31
0.0
  0
LINE
  5
42D
330
427
100
AcDbEntity
  8
0
  6
ByBlock
 62
     0
370
    -2
100
AcDbLine
 10
221.0624131002162
 20
153.9737089206625
 30
0.0
 11
214.0624131002162
 21
153.9737089206625
 31
0.0
  0
ARC
  5
42E
330
427
100
AcDbEntity
  8
0
  6
ByBlock
 62
     0
370
    -2
100
AcDbCircle
 10
219.7084892195415
 20
152.9788216808149
 30
0.0
 40
1.3
100
AcDbArc
 50
340.9382924160599
 51
356.9999999999994
  0
ARC
  5
42F
330
427
100
AcDbEntity
  8
0
  6
ByBlock
 62
     0
370
    -2
100
AcDbCircle
 10
215.416336980891
 20
152.9788216808149
 30
0.0
 40
1.3
100
AcDbArc
 50
183.0000000000005
 51
247.9733961501015
  0
LINE
  5
430
330
427
100
AcDbEntity
  8
0
  6
ByBlock
 62
     0
370
    -2
100
AcDbLine
 10
219.5624131002162
 20
159.8231959162134
 30
0.0
 11
219.5624131002162
 21
159.9737089206625
 31
0.0
  0
LINE
  5
431
330
427
100
AcDbEntity
  8
0
  6
ByBlock
 62
     0
370
    -2
100
AcDbLine
 10
215.5624131002162
 20
159.8231959162134
 30
0.0
 11
215.5624131002162
 21
159.9737089206625
 31
0.0
  0
LINE
  5
432
330
427
100
AcDbEntity
  8
0
  6
ByBlock
 62
     0
370
    -2
100
AcDbLine
 10
219.5624131002162
 20
155.7737089206626
 30
0.0
 11
215.5624131002162
 21
155.7737089206626
 31
0.0
  0
LINE
  5
433
330
427
100
AcDbEntity
  8
0
  6
ByBlock
 62
     0
370
    -2
100
AcDbLine
 10
219.5624131002162
 20
159.9737089206625
 30
0.0
 11
215.5624131002162
 21
159.9737089206625
 31
0.0
  0
LINE
  5
434
330
427
100
AcDbEntity
  8
0
  6
ByBlock
 62
     7
370
    20
100
AcDbLine
 10
219.1624131002162
 20
159.8231959162134
 30
0.0
 11
219.1624131002162
 21
159.9737089206625
 31
0.0
  0
LINE
  5
435
330
427
100
AcDbEntity
  8
0
  6
ByBlock
 62
     7
370
    20
100
AcDbLine
 10
215.9624131002163
 20
159.8231959162134
 30
0.0
 11
215.9624131002163
 21
159.9737089206625
 31
0.0
  0
LINE
  5
436
330
427
100
AcDbEntity
  8
0
  6
ByBlock
 62
     0
370
    -2
100
AcDbLine
 10
222.0624131002162
 20
154.9737089206625
 30
0.0
 11
222.0624131002162
 21
155.7737089206626
 31
0.0
  0
LINE
  5
437
330
427
100
AcDbEntity
  8
0
  6
ByBlock
 62
     0
370
    -2
100
AcDbLine
 10
222.0624131002162
 20
155.7737089206626
 30
0.0
 11
213.0624131002162
 21
155.7737089206626
 31
0.0
  0
LINE
  5
438
330
427
100
AcDbEntity
  8
0
  6
ByBlock
 62
     0
370
    -2
100
AcDbLine
 10
213.0624131002162
 20
155.7737089206626
 30
0.0
 11
213.0624131002162
 21
154.9737089206625
 31
0.0
  0
LINE
  5
439
330
427
100
AcDbEntity
  8
0
  6
ByBlock
 62
     0
370
    -2
100
AcDbLine
 10
213.0624131002162
 20
154.9737089206625
 30
0.0
 11
222.0624131002162
 21
154.9737089206625
 31
0.0
  0
LINE
  5
43A
330
427
100
AcDbEntity
  8
0
  6
ByBlock
 62
     0
370
    -2
100
AcDbLine
 10
221.3624131002163
 20
153.9737089206625
 30
0.0
 11
221.3624131002163
 21
154.9737089206625
 31
0.0
  0
LINE
  5
43B
330
427
100
AcDbEntity
  8
0
  6
ByBlock
 62
     0
370
    -2
100
AcDbLine
 10
221.3624131002163
 20
154.9737089206625
 30
0.0
 11
213.7624131002162
 21
154.9737089206625
 31
0.0
  0
LINE
  5
43C
330
427
100
AcDbEntity
  8
0
  6
ByBlock
 62
     0
370
    -2
100
AcDbLine
 10
213.7624131002162
 20
154.9737089206625
 30
0.0
 11
213.7624131002162
 21
153.9737089206625
 31
0.0
  0
LINE
  5
43D
330
427
100
AcDbEntity
  8
0
  6
ByBlock
 62
     0
370
    -2
100
AcDbLine
 10
213.7624131002162
 20
153.9737089206625
 30
0.0
 11
221.3624131002163
 21
153.9737089206625
 31
0.0
  0
LINE
  5
43E
330
427
100
AcDbEntity
  8
0
  6
ByBlock
 62
     0
370
    -2
100
AcDbLine
 10
218.1397633694059
 20
153.9737089206625
 30
0.0
 11
217.5624131002162
 21
154.9737089206625
 31
0.0
  0
LINE
  5
43F
330
427
100
AcDbEntity
  8
0
  6
ByBlock
 62
     0
370
    -2
100
AcDbLine
 10
217.5624131002162
 20
153.9737089206625
 30
0.0
 11
216.9850628310266
 21
154.9737089206625
 31
0.0
  0
ENDBLK
  5
429
330
427
100
AcDbEntity
  8
0
100
AcDbBlockEnd
  0
BLOCK
  5
441
330
440
100
AcDbEntity
  8
0
100
AcDbBlockBegin
  2
BLKF063
 70
     0
 10
0.0
 20
0.0
 30
0.0
  3
BLKF063
  1
BLKF063
  0
LINE
  5
444
330
440
100
AcDbEntity
  8
0
  6
ByBlock
 62
     0
370
    -2
100
AcDbLine
 10
130.0624131002162
 20
153.9737089206625
 30
0.0
 11
130.11811858571
 21
152.910784937699
 31
0.0
  0
LINE
  5
445
330
440
100
AcDbEntity
  8
0
  6
ByBlock
 62
     0
370
    -2
100
AcDbLine
 10
132.8124131002162
 20
153.9737089206625
 30
0.0
 11
130.0624131002162
 21
153.9737089206625
 31
0.0
  0
ARC
  5
446
330
440
100
AcDbEntity
  8
0
  6
ByBlock
 62
     0
370
    -2
100
AcDbCircle
 10
131.416336980891
 20
152.9788216808149
 30
0.0
 40
1.3
100
AcDbArc
 50
183.0000000000005
 51
253.8167007802421
  0
ARC
  5
447
330
440
100
AcDbEntity
  8
0
  6
ByBlock
 62
     0
370
    -2
100
AcDbCircle
 10
133.5624131002162
 20
160.3737089206626
 30
0.0
 40
9.0
100
AcDbArc
 50
253.8167007802421
 51
265.2198081528003
  0
LINE
  5
448
330
440
100
AcDbEntity
  8
0
  6
ByBlock
 62
     0
370
    -2
100
AcDbLine
 10
131.5624131002162
 20
159.8231959162134
 30
0.0
 11
131.5624131002162
 21
159.9737089206625
 31
0.0
  0
LINE
  5
449
330
440
100
AcDbEntity
  8
0
  6
ByBlock
 62
     0
370
    -2
100
AcDbLine
 10
132.6124131002161
 20
159.9737089206625
 30
0.0
 11
131.5624131002162
 21
159.9737089206625
 31
0.0
  0
LINE
  5
44A
330
440
100
AcDbEntity
  8
0
  6
ByBlock
 62
     7
370
    20
100
AcDbLine
 10
131.9624131002163
 20
159.8231959162134
 30
0.0
 11
131.9624131002163
 21
159.9737089206625
 31
0.0
  0
LINE
  5
44B
330
440
100
AcDbEntity
  8
0
  6
ByBlock
 62
     0
370
    -2
100
AcDbLine
 10
132.8124131002162
 20
155.7737089206626
 30
0.0
 11
129.0624131002162
 21
155.7737089206626
 31
0.0
  0
LINE
  5
44C
330
440
100
AcDbEntity
  8
0
  6
ByBlock
 62
     0
370
    -2
100
AcDbLine
 10
129.0624131002162
 20
155.7737089206626
 30
0.0
 11
129.0624131002162
 21
154.9737089206625
 31
0.0
  0
LINE
  5
44D
330
440
100
AcDbEntity
  8
0
  6
ByBlock
 62
     0
370
    -2
100
AcDbLine
 10
129.0624131002162
 20
154.9737089206625
 30
0.0
 11
132.8124131002162
 21
154.9737089206625
 31
0.0
  0
LINE
  5
44E
330
440
100
AcDbEntity
  8
0
  6
ByBlock
 62
     0
370
    -2
100
AcDbLine
 10
132.8124131002162
 20
154.9737089206625
 30
0.0
 11
129.7624131002162
 21
154.9737089206625
 31
0.0
  0
LINE
  5
44F
330
440
100
AcDbEntity
  8
0
  6
ByBlock
 62
     0
370
    -2
100
AcDbLine
 10
129.7624131002162
 20
154.9737089206625
 30
0.0
 11
129.7624131002162
 21
153.9737089206625
 31
0.0
  0
LINE
  5
450
330
440
100
AcDbEntity
  8
0
  6
ByBlock
 62
     0
370
    -2
100
AcDbLine
 10
129.7624131002162
 20
153.9737089206625
 30
0.0
 11
132.8124131002162
 21
153.9737089206625
 31
0.0
  0
ENDBLK
  5
442
330
440
100
AcDbEntity
  8
0
100
AcDbBlockEnd
  0
BLOCK
  5
452
330
451
100
AcDbEntity
  8
0
100
AcDbBlockBegin
  2
BLKF064
 70
     0
 10
0.0
 20
0.0
 30
0.0
  3
BLKF064
  1
BLKF064
  0
CIRCLE
  5
455
330
451
100
AcDbEntity
  8
0
  6
ByBlock
 62
     0
370
    -2
100
AcDbCircle
 10
133.5624131002162
 20
77.26948935875619
 30
0.0
 40
3.5
  0
LINE
  5
456
330
451
100
AcDbEntity
  8
0
  6
ByBlock
 62
     0
370
    -2
100
AcDbLine
 10
133.0374131002162
 20
79.36948935875618
 30
0.0
 11
134.0874131002162
 21
79.36948935875618
 31
0.0
  0
LINE
  5
457
330
451
100
AcDbEntity
  8
0
  6
ByBlock
 62
     0
370
    -2
100
AcDbLine
 10
135.6624131002162
 20
77.7944893587562
 30
0.0
 11
135.6624131002162
 21
76.74448935875618
 31
0.0
  0
LINE
  5
458
330
451
100
AcDbEntity
  8
0
  6
ByBlock
 62
     0
370
    -2
100
AcDbLine
 10
133.0374131002162
 20
75.1694893587562
 30
0.0
 11
134.0874131002162
 21
75.1694893587562
 31
0.0
  0
LINE
  5
459
330
451
100
AcDbEntity
  8
0
  6
ByBlock
 62
     0
370
    -2
100
AcDbLine
 10
131.4624131002162
 20
77.7944893587562
 30
0.0
 11
131.4624131002162
 21
76.74448935875618
 31
0.0
  0
LINE
  5
45A
330
451
100
AcDbEntity
  8
0
  6
ByBlock
 62
     0
370
    -2
100
AcDbLine
 10
134.0874131002162
 20
79.36948935875618
 30
0.0
 11
134.0874131002162
 21
78.31948935875619
 31
0.0
  0
LINE
  5
45B
330
451
100
AcDbEntity
  8
0
  6
ByBlock
 62
     0
370
    -2
100
AcDbLine
 10
133.0374131002162
 20
79.36948935875618
 30
0.0
 11
133.0374131002162
 21
78.31948935875619
 31
0.0
  0
LINE
  5
45C
330
451
100
AcDbEntity
  8
0
  6
ByBlock
 62
     0
370
    -2
100
AcDbLine
 10
134.0874131002162
 20
76.21948935875619
 30
0.0
 11
134.0874131002162
 21
75.1694893587562
 31
0.0
  0
LINE
  5
45D
330
451
100
AcDbEntity
  8
0
  6
ByBlock
 62
     0
370
    -2
100
AcDbLine
 10
133.0374131002162
 20
76.21948935875619
 30
0.0
 11
133.0374131002162
 21
75.1694893587562
 31
0.0
  0
LINE
  5
45E
330
451
100
AcDbEntity
  8
0
  6
ByBlock
 62
     0
370
    -2
100
AcDbLine
 10
131.4624131002162
 20
77.7944893587562
 30
0.0
 11
132.5124131002162
 21
77.7944893587562
 31
0.0
  0
LINE
  5
45F
330
451
100
AcDbEntity
  8
0
  6
ByBlock
 62
     0
370
    -2
100
AcDbLine
 10
131.4624131002162
 20
76.74448935875618
 30
0.0
 11
132.5124131002162
 21
76.74448935875618
 31
0.0
  0
LINE
  5
460
330
451
100
AcDbEntity
  8
0
  6
ByBlock
 62
     0
370
    -2
100
AcDbLine
 10
134.6124131002163
 20
77.7944893587562
 30
0.0
 11
135.6624131002162
 21
77.7944893587562
 31
0.0
  0
LINE
  5
461
330
451
100
AcDbEntity
  8
0
  6
ByBlock
 62
     0
370
    -2
100
AcDbLine
 10
134.6124131002163
 20
76.74448935875618
 30
0.0
 11
135.6624131002162
 21
76.74448935875618
 31
0.0
  0
ARC
  5
462
330
451
100
AcDbEntity
  8
0
  6
ByBlock
 62
     0
370
    -2
100
AcDbCircle
 10
134.6124131002163
 20
78.31948935875619
 30
0.0
 40
0.525
100
AcDbArc
 50
180.0
 51
270.0
  0
ARC
  5
463
330
451
100
AcDbEntity
  8
0
  6
ByBlock
 62
     0
370
    -2
100
AcDbCircle
 10
132.5124131002162
 20
78.31948935875619
 30
0.0
 40
0.525
100
AcDbArc
 50
270.0
 51
0.0
  0
ARC
  5
464
330
451
100
AcDbEntity
  8
0
  6
ByBlock
 62
     0
370
    -2
100
AcDbCircle
 10
132.5124131002162
 20
76.21948935875619
 30
0.0
 40
0.525
100
AcDbArc
 50
0.0
 51
90.0
  0
ARC
  5
465
330
451
100
AcDbEntity
  8
0
  6
ByBlock
 62
     0
370
    -2
100
AcDbCircle
 10
134.6124131002163
 20
76.21948935875619
 30
0.0
 40
0.525
100
AcDbArc
 50
90.0
 51
180.0
  0
CIRCLE
  5
466
330
451
100
AcDbEntity
  8
0
  6
ByBlock
 62
     0
370
    -2
100
AcDbCircle
 10
133.5624131002162
 20
77.26948935875619
 30
0.0
 40
4.5
  0
CIRCLE
  5
467
330
451
100
AcDbEntity
  8
0
  6
ByBlock
 62
     0
370
    -2
100
AcDbCircle
 10
133.5624131002162
 20
77.26948935875619
 30
0.0
 40
3.8
  0
ENDBLK
  5
453
330
451
100
AcDbEntity
  8
0
100
AcDbBlockEnd
  0
BLOCK
  5
469
330
468
100
AcDbEntity
  8
0
100
AcDbBlockBegin
  2
BLKF065
 70
     0
 10
0.0
 20
0.0
 30
0.0
  3
BLKF065
  1
BLKF065
  0
ARC
  5
46C
330
468
100
AcDbEntity
  8
0
  6
ByBlock
 62
     0
370
    -2
100
AcDbCircle
 10
217.5624131002163
 20
77.2694893587562
 30
0.0
 40
3.5
100
AcDbArc
 50
83.82689171995699
 51
28.69295776427753
  0
LINE
  5
46D
330
468
100
AcDbEntity
  8
0
  6
ByBlock
 62
     0
370
    -2
100
AcDbLine
 10
217.0374131002163
 20
79.3694893587562
 30
0.0
 11
218.0874131002163
 21
79.3694893587562
 31
0.0
  0
LINE
  5
46E
330
468
100
AcDbEntity
  8
0
  6
ByBlock
 62
     0
370
    -2
100
AcDbLine
 10
219.6624131002163
 20
77.79448935875621
 30
0.0
 11
219.6624131002163
 21
76.7444893587562
 31
0.0
  0
LINE
  5
46F
330
468
100
AcDbEntity
  8
0
  6
ByBlock
 62
     0
370
    -2
100
AcDbLine
 10
217.0374131002163
 20
75.16948935875621
 30
0.0
 11
218.0874131002163
 21
75.16948935875621
 31
0.0
  0
LINE
  5
470
330
468
100
AcDbEntity
  8
0
  6
ByBlock
 62
     0
370
    -2
100
AcDbLine
 10
215.4624131002163
 20
77.79448935875621
 30
0.0
 11
215.4624131002163
 21
76.7444893587562
 31
0.0
  0
LINE
  5
471
330
468
100
AcDbEntity
  8
0
  6
ByBlock
 62
     0
370
    -2
100
AcDbLine
 10
218.0874131002163
 20
79.3694893587562
 30
0.0
 11
218.0874131002163
 21
78.3194893587562
 31
0.0
  0
LINE
  5
472
330
468
100
AcDbEntity
  8
0
  6
ByBlock
 62
     0
370
    -2
100
AcDbLine
 10
217.0374131002163
 20
79.3694893587562
 30
0.0
 11
217.0374131002163
 21
78.3194893587562
 31
0.0
  0
LINE
  5
473
330
468
100
AcDbEntity
  8
0
  6
ByBlock
 62
     0
370
    -2
100
AcDbLine
 10
218.0874131002163
 20
76.2194893587562
 30
0.0
 11
218.0874131002163
 21
75.16948935875621
 31
0.0
  0
LINE
  5
474
330
468
100
AcDbEntity
  8
0
  6
ByBlock
 62
     0
370
    -2
100
AcDbLine
 10
217.0374131002163
 20
76.2194893587562
 30
0.0
 11
217.0374131002163
 21
75.16948935875621
 31
0.0
  0
LINE
  5
475
330
468
100
AcDbEntity
  8
0
  6
ByBlock
 62
     0
370
    -2
100
AcDbLine
 10
215.4624131002163
 20
77.79448935875621
 30
0.0
 11
216.5124131002163
 21
77.79448935875621
 31
0.0
  0
LINE
  5
476
330
468
100
AcDbEntity
  8
0
  6
ByBlock
 62
     0
370
    -2
100
AcDbLine
 10
215.4624131002163
 20
76.7444893587562
 30
0.0
 11
216.5124131002163
 21
76.7444893587562
 31
0.0
  0
LINE
  5
477
330
468
100
AcDbEntity
  8
0
  6
ByBlock
 62
     0
370
    -2
100
AcDbLine
 10
218.6124131002163
 20
77.79448935875621
 30
0.0
 11
219.6624131002163
 21
77.79448935875621
 31
0.0
  0
LINE
  5
478
330
468
100
AcDbEntity
  8
0
  6
ByBlock
 62
     0
370
    -2
100
AcDbLine
 10
218.6124131002163
 20
76.7444893587562
 30
0.0
 11
219.6624131002163
 21
76.7444893587562
 31
0.0
  0
ARC
  5
479
330
468
100
AcDbEntity
  8
0
  6
ByBlock
 62
     0
370
    -2
100
AcDbCircle
 10
218.6124131002163
 20
78.3194893587562
 30
0.0
 40
0.525
100
AcDbArc
 50
180.0
 51
270.0
  0
ARC
  5
47A
330
468
100
AcDbEntity
  8
0
  6
ByBlock
 62
     0
370
    -2
100
AcDbCircle
 10
216.5124131002163
 20
78.3194893587562
 30
0.0
 40
0.525
100
AcDbArc
 50
270.0
 51
0.0
  0
ARC
  5
47B
330
468
100
AcDbEntity
  8
0
  6
ByBlock
 62
     0
370
    -2
100
AcDbCircle
 10
216.5124131002163
 20
76.2194893587562
 30
0.0
 40
0.525
100
AcDbArc
 50
0.0
 51
90.0
  0
ARC
  5
47C
330
468
100
AcDbEntity
  8
0
  6
ByBlock
 62
     0
370
    -2
100
AcDbCircle
 10
218.6124131002163
 20
76.2194893587562
 30
0.0
 40
0.525
100
AcDbArc
 50
90.0
 51
180.0
  0
ARC
  5
47D
330
468
100
AcDbEntity
  8
0
  6
ByBlock
 62
     0
370
    -2
100
AcDbCircle
 10
217.5624131002163
 20
77.2694893587562
 30
0.0
 40
4.5
100
AcDbArc
 50
110.9189123001902
 51
8.232769565493646
  0
ARC
  5
47E
330
468
100
AcDbEntity
  8
0
  6
ByBlock
 62
     0
370
    -2
100
AcDbCircle
 10
217.5624131002163
 20
77.2694893587562
 30
0.0
 40
3.8
100
AcDbArc
 50
94.7634331228218
 51
20.12861793922413
  0
ENDBLK
  5
46A
330
468
100
AcDbEntity
  8
0
100
AcDbBlockEnd
  0
BLOCK
  5
480
330
47F
100
AcDbEntity
  8
0
100
AcDbBlockBegin
  2
BLKF066
 70
     0
 10
0.0
 20
0.0
 30
0.0
  3
BLKF066
  1
BLKF066
  0
LINE
  5
483
330
47F
100
AcDbEntity
  8
0
  6
ByBlock
 62
     0
370
    -2
100
AcDbLine
 10
346.595905305277
 20
154.0231959162133
 30
0.0
 11
346.5401998197833
 21
152.9602719332498
 31
0.0
  0
LINE
  5
484
330
47F
100
AcDbEntity
  8
0
  6
ByBlock
 62
     0
370
    -2
100
AcDbLine
 10
339.595905305277
 20
154.0231959162133
 30
0.0
 11
339.6516107907708
 21
152.9602719332498
 31
0.0
  0
LINE
  5
485
330
47F
100
AcDbEntity
  8
0
  6
ByBlock
 62
     0
370
    -2
100
AcDbLine
 10
346.595905305277
 20
154.0231959162133
 30
0.0
 11
339.595905305277
 21
154.0231959162133
 31
0.0
  0
ARC
  5
486
330
47F
100
AcDbEntity
  8
0
  6
ByBlock
 62
     0
370
    -2
100
AcDbCircle
 10
345.2419814246023
 20
153.0283086763656
 30
0.0
 40
1.3
100
AcDbArc
 50
286.1832992197579
 51
357.0000000000005
  0
ARC
  5
487
330
47F
100
AcDbEntity
  8
0
  6
ByBlock
 62
     0
370
    -2
100
AcDbCircle
 10
340.9498291859517
 20
153.0283086763656
 30
0.0
 40
1.3
100
AcDbArc
 50
182.9999999999994
 51
253.8167007802421
  0
ARC
  5
488
330
47F
100
AcDbEntity
  8
0
  6
ByBlock
 62
     0
370
    -2
100
AcDbCircle
 10
343.095905305277
 20
160.4231959162133
 30
0.0
 40
9.0
100
AcDbArc
 50
253.8167007802421
 51
286.1832992197579
  0
LINE
  5
489
330
47F
100
AcDbEntity
  8
0
  6
ByBlock
 62
     0
370
    -2
100
AcDbLine
 10
345.095905305277
 20
159.8231959162133
 30
0.0
 11
345.095905305277
 21
160.0231959162133
 31
0.0
  0
LINE
  5
48A
330
47F
100
AcDbEntity
  8
0
  6
ByBlock
 62
     0
370
    -2
100
AcDbLine
 10
341.095905305277
 20
159.8231959162133
 30
0.0
 11
341.095905305277
 21
160.0231959162133
 31
0.0
  0
LINE
  5
48B
330
47F
100
AcDbEntity
  8
0
  6
ByBlock
 62
     0
370
    -2
100
AcDbLine
 10
345.095905305277
 20
155.8231959162133
 30
0.0
 11
341.095905305277
 21
155.8231959162133
 31
0.0
  0
LINE
  5
48C
330
47F
100
AcDbEntity
  8
0
  6
ByBlock
 62
     0
370
    -2
100
AcDbLine
 10
345.095905305277
 20
160.0231959162133
 30
0.0
 11
341.095905305277
 21
160.0231959162133
 31
0.0
  0
LINE
  5
48D
330
47F
100
AcDbEntity
  8
0
  6
ByBlock
 62
     7
370
    20
100
AcDbLine
 10
344.6959053052771
 20
159.8231959162133
 30
0.0
 11
344.6959053052771
 21
160.0231959162133
 31
0.0
  0
LINE
  5
48E
330
47F
100
AcDbEntity
  8
0
  6
ByBlock
 62
     7
370
    20
100
AcDbLine
 10
341.495905305277
 20
159.8231959162133
 30
0.0
 11
341.495905305277
 21
160.0231959162133
 31
0.0
  0
LINE
  5
48F
330
47F
100
AcDbEntity
  8
0
  6
ByBlock
 62
     0
370
    -2
100
AcDbLine
 10
347.595905305277
 20
155.0231959162133
 30
0.0
 11
347.595905305277
 21
155.8231959162133
 31
0.0
  0
LINE
  5
490
330
47F
100
AcDbEntity
  8
0
  6
ByBlock
 62
     0
370
    -2
100
AcDbLine
 10
347.595905305277
 20
155.8231959162133
 30
0.0
 11
338.595905305277
 21
155.8231959162133
 31
0.0
  0
LINE
  5
491
330
47F
100
AcDbEntity
  8
0
  6
ByBlock
 62
     0
370
    -2
100
AcDbLine
 10
338.595905305277
 20
155.8231959162133
 30
0.0
 11
338.595905305277
 21
155.0231959162133
 31
0.0
  0
LINE
  5
492
330
47F
100
AcDbEntity
  8
0
  6
ByBlock
 62
     0
370
    -2
100
AcDbLine
 10
338.595905305277
 20
155.0231959162133
 30
0.0
 11
347.595905305277
 21
155.0231959162133
 31
0.0
  0
LINE
  5
493
330
47F
100
AcDbEntity
  8
0
  6
ByBlock
 62
     0
370
    -2
100
AcDbLine
 10
346.895905305277
 20
154.0231959162133
 30
0.0
 11
346.895905305277
 21
155.0231959162133
 31
0.0
  0
LINE
  5
494
330
47F
100
AcDbEntity
  8
0
  6
ByBlock
 62
     0
370
    -2
100
AcDbLine
 10
346.895905305277
 20
155.0231959162133
 30
0.0
 11
339.295905305277
 21
155.0231959162133
 31
0.0
  0
LINE
  5
495
330
47F
100
AcDbEntity
  8
0
  6
ByBlock
 62
     0
370
    -2
100
AcDbLine
 10
339.295905305277
 20
155.0231959162133
 30
0.0
 11
339.295905305277
 21
154.0231959162133
 31
0.0
  0
LINE
  5
496
330
47F
100
AcDbEntity
  8
0
  6
ByBlock
 62
     0
370
    -2
100
AcDbLine
 10
339.295905305277
 20
154.0231959162133
 30
0.0
 11
346.895905305277
 21
154.0231959162133
 31
0.0
  0
LINE
  5
497
330
47F
100
AcDbEntity
  8
0
  6
ByBlock
 62
     0
370
    -2
100
AcDbLine
 10
343.6732555744667
 20
154.0231959162133
 30
0.0
 11
343.095905305277
 21
155.0231959162133
 31
0.0
  0
LINE
  5
498
330
47F
100
AcDbEntity
  8
0
  6
ByBlock
 62
     0
370
    -2
100
AcDbLine
 10
343.095905305277
 20
154.0231959162133
 30
0.0
 11
342.5185550360874
 21
155.0231959162133
 31
0.0
  0
ENDBLK
  5
481
330
47F
100
AcDbEntity
  8
0
100
AcDbBlockEnd
  0
BLOCK
  5
49A
330
499
100
AcDbEntity
  8
0
100
AcDbBlockBegin
  2
BLKF067
 70
     0
 10
0.0
 20
0.0
 30
0.0
  3
BLKF067
  1
BLKF067
  0
CIRCLE
  5
49D
330
499
100
AcDbEntity
  8
0
  6
ByBlock
 62
     0
370
    -2
100
AcDbCircle
 10
135.5624131002162
 20
254.8769024736704
 30
0.0
 40
2.75
  0
LINE
  5
49E
330
499
100
AcDbEntity
  8
0
  6
ByBlock
 62
     0
370
    -2
100
AcDbLine
 10
135.1124131002163
 20
256.6769024736705
 30
0.0
 11
136.0124131002162
 21
256.6769024736705
 31
0.0
  0
LINE
  5
49F
330
499
100
AcDbEntity
  8
0
  6
ByBlock
 62
     0
370
    -2
100
AcDbLine
 10
137.3624131002163
 20
255.3269024736704
 30
0.0
 11
137.3624131002163
 21
254.4269024736705
 31
0.0
  0
LINE
  5
4A0
330
499
100
AcDbEntity
  8
0
  6
ByBlock
 62
     0
370
    -2
100
AcDbLine
 10
135.1124131002163
 20
253.0769024736704
 30
0.0
 11
136.0124131002162
 21
253.0769024736704
 31
0.0
  0
LINE
  5
4A1
330
499
100
AcDbEntity
  8
0
  6
ByBlock
 62
     0
370
    -2
100
AcDbLine
 10
133.7624131002162
 20
255.3269024736704
 30
0.0
 11
133.7624131002162
 21
254.4269024736705
 31
0.0
  0
LINE
  5
4A2
330
499
100
AcDbEntity
  8
0
  6
ByBlock
 62
     0
370
    -2
100
AcDbLine
 10
136.0124131002162
 20
256.6769024736705
 30
0.0
 11
136.0124131002162
 21
255.7769024736705
 31
0.0
  0
LINE
  5
4A3
330
499
100
AcDbEntity
  8
0
  6
ByBlock
 62
     0
370
    -2
100
AcDbLine
 10
135.1124131002163
 20
256.6769024736705
 30
0.0
 11
135.1124131002163
 21
255.7769024736705
 31
0.0
  0
LINE
  5
4A4
330
499
100
AcDbEntity
  8
0
  6
ByBlock
 62
     0
370
    -2
100
AcDbLine
 10
136.0124131002162
 20
253.9769024736704
 30
0.0
 11
136.0124131002162
 21
253.0769024736704
 31
0.0
  0
LINE
  5
4A5
330
499
100
AcDbEntity
  8
0
  6
ByBlock
 62
     0
370
    -2
100
AcDbLine
 10
135.1124131002163
 20
253.9769024736704
 30
0.0
 11
135.1124131002163
 21
253.0769024736704
 31
0.0
  0
LINE
  5
4A6
330
499
100
AcDbEntity
  8
0
  6
ByBlock
 62
     0
370
    -2
100
AcDbLine
 10
133.7624131002162
 20
255.3269024736704
 30
0.0
 11
134.6624131002162
 21
255.3269024736704
 31
0.0
  0
LINE
  5
4A7
330
499
100
AcDbEntity
  8
0
  6
ByBlock
 62
     0
370
    -2
100
AcDbLine
 10
133.7624131002162
 20
254.4269024736705
 30
0.0
 11
134.6624131002162
 21
254.4269024736705
 31
0.0
  0
LINE
  5
4A8
330
499
100
AcDbEntity
  8
0
  6
ByBlock
 62
     0
370
    -2
100
AcDbLine
 10
136.4624131002162
 20
255.3269024736704
 30
0.0
 11
137.3624131002163
 21
255.3269024736704
 31
0.0
  0
LINE
  5
4A9
330
499
100
AcDbEntity
  8
0
  6
ByBlock
 62
     0
370
    -2
100
AcDbLine
 10
136.4624131002162
 20
254.4269024736705
 30
0.0
 11
137.3624131002163
 21
254.4269024736705
 31
0.0
  0
ARC
  5
4AA
330
499
100
AcDbEntity
  8
0
  6
ByBlock
 62
     0
370
    -2
100
AcDbCircle
 10
136.4624131002162
 20
255.7769024736705
 30
0.0
 40
0.45
100
AcDbArc
 50
180.0
 51
270.0
  0
ARC
  5
4AB
330
499
100
AcDbEntity
  8
0
  6
ByBlock
 62
     0
370
    -2
100
AcDbCircle
 10
134.6624131002162
 20
255.7769024736705
 30
0.0
 40
0.45
100
AcDbArc
 50
270.0
 51
0.0
  0
ARC
  5
4AC
330
499
100
AcDbEntity
  8
0
  6
ByBlock
 62
     0
370
    -2
100
AcDbCircle
 10
134.6624131002162
 20
253.9769024736704
 30
0.0
 40
0.45
100
AcDbArc
 50
0.0
 51
90.0
  0
ARC
  5
4AD
330
499
100
AcDbEntity
  8
0
  6
ByBlock
 62
     0
370
    -2
100
AcDbCircle
 10
136.4624131002162
 20
253.9769024736704
 30
0.0
 40
0.45
100
AcDbArc
 50
90.0
 51
180.0
  0
CIRCLE
  5
4AE
330
499
100
AcDbEntity
  8
0
  6
ByBlock
 62
     0
370
    -2
100
AcDbCircle
 10
135.5624131002162
 20
254.8769024736704
 30
0.0
 40
2.95
  0
ENDBLK
  5
49B
330
499
100
AcDbEntity
  8
0
100
AcDbBlockEnd
  0
BLOCK
  5
4B0
330
4AF
100
AcDbEntity
  8
0
100
AcDbBlockBegin
  2
BLKF068
 70
     0
 10
0.0
 20
0.0
 30
0.0
  3
BLKF068
  1
BLKF068
  0
CIRCLE
  5
4B3
330
4AF
100
AcDbEntity
  8
0
  6
ByBlock
 62
     0
370
    -2
100
AcDbCircle
 10
135.5624131002162
 20
214.8769024736704
 30
0.0
 40
2.75
  0
LINE
  5
4B4
330
4AF
100
AcDbEntity
  8
0
  6
ByBlock
 62
     0
370
    -2
100
AcDbLine
 10
135.1124131002163
 20
216.6769024736704
 30
0.0
 11
136.0124131002162
 21
216.6769024736704
 31
0.0
  0
LINE
  5
4B5
330
4AF
100
AcDbEntity
  8
0
  6
ByBlock
 62
     0
370
    -2
100
AcDbLine
 10
137.3624131002163
 20
215.3269024736704
 30
0.0
 11
137.3624131002163
 21
214.4269024736704
 31
0.0
  0
LINE
  5
4B6
330
4AF
100
AcDbEntity
  8
0
  6
ByBlock
 62
     0
370
    -2
100
AcDbLine
 10
135.1124131002163
 20
213.0769024736704
 30
0.0
 11
136.0124131002162
 21
213.0769024736704
 31
0.0
  0
LINE
  5
4B7
330
4AF
100
AcDbEntity
  8
0
  6
ByBlock
 62
     0
370
    -2
100
AcDbLine
 10
133.7624131002162
 20
215.3269024736704
 30
0.0
 11
133.7624131002162
 21
214.4269024736704
 31
0.0
  0
LINE
  5
4B8
330
4AF
100
AcDbEntity
  8
0
  6
ByBlock
 62
     0
370
    -2
100
AcDbLine
 10
136.0124131002162
 20
216.6769024736704
 30
0.0
 11
136.0124131002162
 21
215.7769024736704
 31
0.0
  0
LINE
  5
4B9
330
4AF
100
AcDbEntity
  8
0
  6
ByBlock
 62
     0
370
    -2
100
AcDbLine
 10
135.1124131002163
 20
216.6769024736704
 30
0.0
 11
135.1124131002163
 21
215.7769024736704
 31
0.0
  0
LINE
  5
4BA
330
4AF
100
AcDbEntity
  8
0
  6
ByBlock
 62
     0
370
    -2
100
AcDbLine
 10
136.0124131002162
 20
213.9769024736704
 30
0.0
 11
136.0124131002162
 21
213.0769024736704
 31
0.0
  0
LINE
  5
4BB
330
4AF
100
AcDbEntity
  8
0
  6
ByBlock
 62
     0
370
    -2
100
AcDbLine
 10
135.1124131002163
 20
213.9769024736704
 30
0.0
 11
135.1124131002163
 21
213.0769024736704
 31
0.0
  0
LINE
  5
4BC
330
4AF
100
AcDbEntity
  8
0
  6
ByBlock
 62
     0
370
    -2
100
AcDbLine
 10
133.7624131002162
 20
215.3269024736704
 30
0.0
 11
134.6624131002163
 21
215.3269024736704
 31
0.0
  0
LINE
  5
4BD
330
4AF
100
AcDbEntity
  8
0
  6
ByBlock
 62
     0
370
    -2
100
AcDbLine
 10
133.7624131002162
 20
214.4269024736704
 30
0.0
 11
134.6624131002163
 21
214.4269024736704
 31
0.0
  0
LINE
  5
4BE
330
4AF
100
AcDbEntity
  8
0
  6
ByBlock
 62
     0
370
    -2
100
AcDbLine
 10
136.4624131002162
 20
215.3269024736704
 30
0.0
 11
137.3624131002163
 21
215.3269024736704
 31
0.0
  0
LINE
  5
4BF
330
4AF
100
AcDbEntity
  8
0
  6
ByBlock
 62
     0
370
    -2
100
AcDbLine
 10
136.4624131002162
 20
214.4269024736704
 30
0.0
 11
137.3624131002163
 21
214.4269024736704
 31
0.0
  0
ARC
  5
4C0
330
4AF
100
AcDbEntity
  8
0
  6
ByBlock
 62
     0
370
    -2
100
AcDbCircle
 10
136.4624131002162
 20
215.7769024736704
 30
0.0
 40
0.45
100
AcDbArc
 50
180.0
 51
270.0
  0
ARC
  5
4C1
330
4AF
100
AcDbEntity
  8
0
  6
ByBlock
 62
     0
370
    -2
100
AcDbCircle
 10
134.6624131002163
 20
215.7769024736704
 30
0.0
 40
0.45
100
AcDbArc
 50
270.0
 51
0.0
  0
ARC
  5
4C2
330
4AF
100
AcDbEntity
  8
0
  6
ByBlock
 62
     0
370
    -2
100
AcDbCircle
 10
134.6624131002163
 20
213.9769024736704
 30
0.0
 40
0.45
100
AcDbArc
 50
0.0
 51
90.0
  0
ARC
  5
4C3
330
4AF
100
AcDbEntity
  8
0
  6
ByBlock
 62
     0
370
    -2
100
AcDbCircle
 10
136.4624131002162
 20
213.9769024736704
 30
0.0
 40
0.45
100
AcDbArc
 50
90.0
 51
180.0
  0
CIRCLE
  5
4C4
330
4AF
100
AcDbEntity
  8
0
  6
ByBlock
 62
     0
370
    -2
100
AcDbCircle
 10
135.5624131002162
 20
214.8769024736704
 30
0.0
 40
2.95
  0
ENDBLK
  5
4B1
330
4AF
100
AcDbEntity
  8
0
100
AcDbBlockEnd
  0
BLOCK
  5
4C6
330
4C5
100
AcDbEntity
  8
0
100
AcDbBlockBegin
  2
BLKF069
 70
     0
 10
0.0
 20
0.0
 30
0.0
  3
BLKF069
  1
BLKF069
  0
CIRCLE
  5
4C9
330
4C5
100
AcDbEntity
  8
0
  6
ByBlock
 62
     0
370
    -2
100
AcDbCircle
 10
239.5624131002162
 20
214.8769024736704
 30
0.0
 40
2.75
  0
LINE
  5
4CA
330
4C5
100
AcDbEntity
  8
0
  6
ByBlock
 62
     0
370
    -2
100
AcDbLine
 10
239.1124131002162
 20
216.6769024736704
 30
0.0
 11
240.0124131002162
 21
216.6769024736704
 31
0.0
  0
LINE
  5
4CB
330
4C5
100
AcDbEntity
  8
0
  6
ByBlock
 62
     0
370
    -2
100
AcDbLine
 10
241.3624131002162
 20
215.3269024736704
 30
0.0
 11
241.3624131002162
 21
214.4269024736704
 31
0.0
  0
LINE
  5
4CC
330
4C5
100
AcDbEntity
  8
0
  6
ByBlock
 62
     0
370
    -2
100
AcDbLine
 10
239.1124131002162
 20
213.0769024736704
 30
0.0
 11
240.0124131002162
 21
213.0769024736704
 31
0.0
  0
LINE
  5
4CD
330
4C5
100
AcDbEntity
  8
0
  6
ByBlock
 62
     0
370
    -2
100
AcDbLine
 10
237.7624131002162
 20
215.3269024736704
 30
0.0
 11
237.7624131002162
 21
214.4269024736704
 31
0.0
  0
LINE
  5
4CE
330
4C5
100
AcDbEntity
  8
0
  6
ByBlock
 62
     0
370
    -2
100
AcDbLine
 10
240.0124131002162
 20
216.6769024736704
 30
0.0
 11
240.0124131002162
 21
215.7769024736704
 31
0.0
  0
LINE
  5
4CF
330
4C5
100
AcDbEntity
  8
0
  6
ByBlock
 62
     0
370
    -2
100
AcDbLine
 10
239.1124131002162
 20
216.6769024736704
 30
0.0
 11
239.1124131002162
 21
215.7769024736704
 31
0.0
  0
LINE
  5
4D0
330
4C5
100
AcDbEntity
  8
0
  6
ByBlock
 62
     0
370
    -2
100
AcDbLine
 10
240.0124131002162
 20
213.9769024736704
 30
0.0
 11
240.0124131002162
 21
213.0769024736704
 31
0.0
  0
LINE
  5
4D1
330
4C5
100
AcDbEntity
  8
0
  6
ByBlock
 62
     0
370
    -2
100
AcDbLine
 10
239.1124131002162
 20
213.9769024736704
 30
0.0
 11
239.1124131002162
 21
213.0769024736704
 31
0.0
  0
LINE
  5
4D2
330
4C5
100
AcDbEntity
  8
0
  6
ByBlock
 62
     0
370
    -2
100
AcDbLine
 10
237.7624131002162
 20
215.3269024736704
 30
0.0
 11
238.6624131002162
 21
215.3269024736704
 31
0.0
  0
LINE
  5
4D3
330
4C5
100
AcDbEntity
  8
0
  6
ByBlock
 62
     0
370
    -2
100
AcDbLine
 10
237.7624131002162
 20
214.4269024736704
 30
0.0
 11
238.6624131002162
 21
214.4269024736704
 31
0.0
  0
LINE
  5
4D4
330
4C5
100
AcDbEntity
  8
0
  6
ByBlock
 62
     0
370
    -2
100
AcDbLine
 10
240.4624131002162
 20
215.3269024736704
 30
0.0
 11
241.3624131002162
 21
215.3269024736704
 31
0.0
  0
LINE
  5
4D5
330
4C5
100
AcDbEntity
  8
0
  6
ByBlock
 62
     0
370
    -2
100
AcDbLine
 10
240.4624131002162
 20
214.4269024736704
 30
0.0
 11
241.3624131002162
 21
214.4269024736704
 31
0.0
  0
ARC
  5
4D6
330
4C5
100
AcDbEntity
  8
0
  6
ByBlock
 62
     0
370
    -2
100
AcDbCircle
 10
240.4624131002162
 20
215.7769024736704
 30
0.0
 40
0.45
100
AcDbArc
 50
180.0
 51
270.0
  0
ARC
  5
4D7
330
4C5
100
AcDbEntity
  8
0
  6
ByBlock
 62
     0
370
    -2
100
AcDbCircle
 10
238.6624131002162
 20
215.7769024736704
 30
0.0
 40
0.45
100
AcDbArc
 50
270.0
 51
0.0
  0
ARC
  5
4D8
330
4C5
100
AcDbEntity
  8
0
  6
ByBlock
 62
     0
370
    -2
100
AcDbCircle
 10
238.6624131002162
 20
213.9769024736704
 30
0.0
 40
0.45
100
AcDbArc
 50
0.0
 51
90.0
  0
ARC
  5
4D9
330
4C5
100
AcDbEntity
  8
0
  6
ByBlock
 62
     0
370
    -2
100
AcDbCircle
 10
240.4624131002162
 20
213.9769024736704
 30
0.0
 40
0.45
100
AcDbArc
 50
90.0
 51
180.0
  0
CIRCLE
  5
4DA
330
4C5
100
AcDbEntity
  8
0
  6
ByBlock
 62
     0
370
    -2
100
AcDbCircle
 10
239.5624131002162
 20
214.8769024736704
 30
0.0
 40
2.95
  0
ENDBLK
  5
4C7
330
4C5
100
AcDbEntity
  8
0
100
AcDbBlockEnd
  0
BLOCK
  5
4DC
330
4DB
100
AcDbEntity
  8
0
100
AcDbBlockBegin
  2
BLKF070
 70
     0
 10
0.0
 20
0.0
 30
0.0
  3
BLKF070
  1
BLKF070
  0
CIRCLE
  5
4DF
330
4DB
100
AcDbEntity
  8
0
  6
ByBlock
 62
     0
370
    -2
100
AcDbCircle
 10
239.5624131002162
 20
254.8769024736704
 30
0.0
 40
2.75
  0
LINE
  5
4E0
330
4DB
100
AcDbEntity
  8
0
  6
ByBlock
 62
     0
370
    -2
100
AcDbLine
 10
239.1124131002163
 20
256.6769024736705
 30
0.0
 11
240.0124131002162
 21
256.6769024736705
 31
0.0
  0
LINE
  5
4E1
330
4DB
100
AcDbEntity
  8
0
  6
ByBlock
 62
     0
370
    -2
100
AcDbLine
 10
241.3624131002163
 20
255.3269024736704
 30
0.0
 11
241.3624131002163
 21
254.4269024736705
 31
0.0
  0
LINE
  5
4E2
330
4DB
100
AcDbEntity
  8
0
  6
ByBlock
 62
     0
370
    -2
100
AcDbLine
 10
239.1124131002163
 20
253.0769024736704
 30
0.0
 11
240.0124131002162
 21
253.0769024736704
 31
0.0
  0
LINE
  5
4E3
330
4DB
100
AcDbEntity
  8
0
  6
ByBlock
 62
     0
370
    -2
100
AcDbLine
 10
237.7624131002162
 20
255.3269024736704
 30
0.0
 11
237.7624131002162
 21
254.4269024736705
 31
0.0
  0
LINE
  5
4E4
330
4DB
100
AcDbEntity
  8
0
  6
ByBlock
 62
     0
370
    -2
100
AcDbLine
 10
240.0124131002162
 20
256.6769024736705
 30
0.0
 11
240.0124131002162
 21
255.7769024736705
 31
0.0
  0
LINE
  5
4E5
330
4DB
100
AcDbEntity
  8
0
  6
ByBlock
 62
     0
370
    -2
100
AcDbLine
 10
239.1124131002163
 20
256.6769024736705
 30
0.0
 11
239.1124131002163
 21
255.7769024736705
 31
0.0
  0
LINE
  5
4E6
330
4DB
100
AcDbEntity
  8
0
  6
ByBlock
 62
     0
370
    -2
100
AcDbLine
 10
240.0124131002162
 20
253.9769024736704
 30
0.0
 11
240.0124131002162
 21
253.0769024736704
 31
0.0
  0
LINE
  5
4E7
330
4DB
100
AcDbEntity
  8
0
  6
ByBlock
 62
     0
370
    -2
100
AcDbLine
 10
239.1124131002163
 20
253.9769024736704
 30
0.0
 11
239.1124131002163
 21
253.0769024736704
 31
0.0
  0
LINE
  5
4E8
330
4DB
100
AcDbEntity
  8
0
  6
ByBlock
 62
     0
370
    -2
100
AcDbLine
 10
237.7624131002162
 20
255.3269024736704
 30
0.0
 11
238.6624131002162
 21
255.3269024736704
 31
0.0
  0
LINE
  5
4E9
330
4DB
100
AcDbEntity
  8
0
  6
ByBlock
 62
     0
370
    -2
100
AcDbLine
 10
237.7624131002162
 20
254.4269024736705
 30
0.0
 11
238.6624131002162
 21
254.4269024736705
 31
0.0
  0
LINE
  5
4EA
330
4DB
100
AcDbEntity
  8
0
  6
ByBlock
 62
     0
370
    -2
100
AcDbLine
 10
240.4624131002163
 20
255.3269024736704
 30
0.0
 11
241.3624131002163
 21
255.3269024736704
 31
0.0
  0
LINE
  5
4EB
330
4DB
100
AcDbEntity
  8
0
  6
ByBlock
 62
     0
370
    -2
100
AcDbLine
 10
240.4624131002163
 20
254.4269024736705
 30
0.0
 11
241.3624131002163
 21
254.4269024736705
 31
0.0
  0
ARC
  5
4EC
330
4DB
100
AcDbEntity
  8
0
  6
ByBlock
 62
     0
370
    -2
100
AcDbCircle
 10
240.4624131002163
 20
255.7769024736705
 30
0.0
 40
0.45
100
AcDbArc
 50
180.0
 51
270.0
  0
ARC
  5
4ED
330
4DB
100
AcDbEntity
  8
0
  6
ByBlock
 62
     0
370
    -2
100
AcDbCircle
 10
238.6624131002162
 20
255.7769024736705
 30
0.0
 40
0.45
100
AcDbArc
 50
270.0
 51
0.0
  0
ARC
  5
4EE
330
4DB
100
AcDbEntity
  8
0
  6
ByBlock
 62
     0
370
    -2
100
AcDbCircle
 10
238.6624131002162
 20
253.9769024736704
 30
0.0
 40
0.45
100
AcDbArc
 50
0.0
 51
90.0
  0
ARC
  5
4EF
330
4DB
100
AcDbEntity
  8
0
  6
ByBlock
 62
     0
370
    -2
100
AcDbCircle
 10
240.4624131002163
 20
253.9769024736704
 30
0.0
 40
0.45
100
AcDbArc
 50
90.0
 51
180.0
  0
CIRCLE
  5
4F0
330
4DB
100
AcDbEntity
  8
0
  6
ByBlock
 62
     0
370
    -2
100
AcDbCircle
 10
239.5624131002162
 20
254.8769024736704
 30
0.0
 40
2.95
  0
ENDBLK
  5
4DD
330
4DB
100
AcDbEntity
  8
0
100
AcDbBlockEnd
  0
ENDSEC
  0
SECTION
  2
ENTITIES
  0
INSERT
  5
DF
330
1F
100
AcDbEntity
  8
基準ﾚｲﾔｸﾞﾙｰﾌﾟ_01
 62
     7
100
AcDbBlockReference
  2
BLKF023
 10
0.0
 20
0.0
 30
0.0
  0
TEXT
  5
F2
330
1F
100
AcDbEntity
  8
基準ﾚｲﾔｸﾞﾙｰﾌﾟ_01
 62
     7
100
AcDbText
 10
336.7079162597656
 20
12.6154899597168
 30
0.0
 40
4.0
  1
ＳＲＣＡ－３５
 41
1.195121951219512
 51
10.0
  7
FX_VECTOR
 72
     5
 11
364.7079162597656
 21
12.6154899597168
 31
0.0
100
AcDbText
  0
TEXT
  5
F3
330
1F
100
AcDbEntity
  8
基準ﾚｲﾔｸﾞﾙｰﾌﾟ_01
 62
     7
100
AcDbText
 10
336.7119140625
 20
18.54879760742188
 30
0.0
 40
3.5
  1
１：１　Ａ３
 41
1.2
 51
10.0
  7
FX_VECTOR
 72
     5
 11
357.7119140625
 21
18.54879760742188
 31
0.0
100
AcDbText
  0
LINE
  5
F6
330
1F
100
AcDbEntity
  8
作図レイヤ
  6
一点鎖線
 62
     7
100
AcDbLine
 10
187.5624131002162
 20
104.438526503771
 30
0.0
 11
187.5624131002162
 21
49.9273860757379
 31
0.0
  0
LINE
  5
F7
330
1F
100
AcDbEntity
  8
作図レイヤ
  6
一点鎖線
 62
     7
100
AcDbLine
 10
236.5624131002162
 20
74.81752023924088
 30
0.0
 11
236.5624131002162
 21
58.81752023924088
 31
0.0
  0
LINE
  5
F8
330
1F
100
AcDbEntity
  8
作図レイヤ
 62
     3
370
    40
100
AcDbLine
 10
319.095905305277
 20
156.8231959162133
 30
0.0
 11
367.095905305277
 21
156.8231959162133
 31
0.0
  0
LINE
  5
F9
330
1F
100
AcDbEntity
  8
作図レイヤ
 62
     3
370
    40
100
AcDbLine
 10
140.5624146002162
 20
164.3231959162134
 30
0.0
 11
143.5624171002161
 21
164.3231959162134
 31
0.0
  0
LINE
  5
FA
330
1F
100
AcDbEntity
  8
作図レイヤ
 62
     3
370
    40
100
AcDbLine
 10
140.5624146002162
 20
164.3231959162134
 30
0.0
 11
140.5624146002162
 21
165.9231959162134
 31
0.0
  0
LINE
  5
FB
330
1F
100
AcDbEntity
  8
作図レイヤ
 62
     3
370
    40
100
AcDbLine
 10
180.5624126002162
 20
164.3231959162134
 30
0.0
 11
180.5624126002162
 21
165.9231959162134
 31
0.0
  0
LINE
  5
FC
330
1F
100
AcDbEntity
  8
作図レイヤ
  6
一点鎖線
 62
     7
100
AcDbLine
 10
177.0624151002161
 20
154.158959230279
 30
0.0
 11
177.0624151002161
 21
167.6998756615637
 31
0.0
  0
LINE
  5
FD
330
1F
100
AcDbEntity
  8
作図レイヤ
  6
一点鎖線
 62
     7
100
AcDbLine
 10
143.5624171002161
 20
155.2455777255064
 30
0.0
 11
143.5624171002161
 21
170.0151401281993
 31
0.0
  0
LINE
  5
FE
330
1F
100
AcDbEntity
  8
作図レイヤ
 62
     3
370
    40
100
AcDbLine
 10
140.5624146002162
 20
165.9231959162134
 30
0.0
 11
180.5624126002162
 21
165.9231959162134
 31
0.0
  0
INSERT
  5
102
330
1F
100
AcDbEntity
  8
作図レイヤ
 62
     3
370
    40
100
AcDbBlockReference
  2
BLKF025
 10
0.0
 20
0.0
 30
0.0
  0
LINE
  5
109
330
1F
100
AcDbEntity
  8
作図レイヤ
 62
     3
370
    40
100
AcDbLine
 10
143.5624171002161
 20
164.3231959162134
 30
0.0
 11
180.5624126002162
 21
164.3231959162134
 31
0.0
  0
LINE
  5
10A
330
1F
100
AcDbEntity
  8
作図レイヤ
 62
     3
370
    40
100
AcDbLine
 10
141.7124171002162
 20
159.8231959162134
 30
0.0
 11
141.7124171002162
 21
164.3231959162134
 31
0.0
  0
LINE
  5
10B
330
1F
100
AcDbEntity
  8
作図レイヤ
 62
     3
370
    40
100
AcDbLine
 10
145.4124171002161
 20
159.8231959162134
 30
0.0
 11
145.4124171002161
 21
164.3231959162134
 31
0.0
  0
LINE
  5
10C
330
1F
100
AcDbEntity
  8
作図レイヤ
 62
     3
370
    40
100
AcDbLine
 10
172.9262151002161
 20
162.5231959162134
 30
0.0
 11
179.5262151002161
 21
162.5231959162134
 31
0.0
  0
INSERT
  5
110
330
1F
100
AcDbEntity
  8
作図レイヤ
 62
     3
370
    40
100
AcDbBlockReference
  2
BLKF026
 10
0.0
 20
0.0
 30
0.0
  0
INSERT
  5
11A
330
1F
100
AcDbEntity
  8
作図レイヤ
 62
     3
370
    40
100
AcDbBlockReference
  2
BLKF027
 10
0.0
 20
0.0
 30
0.0
  0
LINE
  5
120
330
1F
100
AcDbEntity
  8
作図レイヤ
 62
     3
370
    40
100
AcDbLine
 10
179.5262151002161
 20
162.5231959162134
 30
0.0
 11
179.5262151002161
 21
159.8231959162134
 31
0.0
  0
LINE
  5
121
330
1F
100
AcDbEntity
  8
作図レイヤ
 62
     3
370
    40
100
AcDbLine
 10
164.3624151002161
 20
164.3231959162134
 30
0.0
 11
164.3624151002161
 21
159.8231959162133
 31
0.0
  0
LINE
  5
122
330
1F
100
AcDbEntity
  8
作図レイヤ
 62
     3
370
    40
100
AcDbLine
 10
172.9262151002161
 20
164.3231959162134
 30
0.0
 11
172.9262151002161
 21
162.5231959162134
 31
0.0
  0
LINE
  5
123
330
1F
100
AcDbEntity
  8
作図レイヤ
 62
     3
370
    40
100
AcDbLine
 10
164.4384161002161
 20
162.2731959162134
 30
0.0
 11
159.3384161002161
 21
162.2731959162133
 31
0.0
  0
LINE
  5
124
330
1F
100
AcDbEntity
  8
作図レイヤ
 62
     3
370
    40
100
AcDbLine
 10
164.4384161002161
 20
161.8731959162134
 30
0.0
 11
159.3384161002162
 21
161.8731959162134
 31
0.0
  0
LINE
  5
125
330
1F
100
AcDbEntity
  8
作図レイヤ
 62
     3
370
    40
100
AcDbLine
 10
158.3384161002161
 20
164.3231959162134
 30
0.0
 11
158.3384161002161
 21
163.2731959162134
 31
0.0
  0
LINE
  5
126
330
1F
100
AcDbEntity
  8
作図レイヤ
 62
     3
370
    40
100
AcDbLine
 10
157.9384161002162
 20
164.3231959162134
 30
0.0
 11
157.9384161002162
 21
163.2731959162134
 31
0.0
  0
ARC
  5
127
330
1F
100
AcDbEntity
  8
作図レイヤ
 62
     3
370
    40
100
AcDbCircle
 10
159.3384161002161
 20
163.2731959162134
 30
0.0
 40
1.0
100
AcDbArc
 50
180.0
 51
270.0
  0
ARC
  5
128
330
1F
100
AcDbEntity
  8
作図レイヤ
 62
     3
370
    40
100
AcDbCircle
 10
159.3384161002162
 20
163.2731959162134
 30
0.0
 40
1.4
100
AcDbArc
 50
180.0
 51
270.0
  0
LINE
  5
129
330
1F
100
AcDbEntity
  8
作図レイヤ
 62
     3
370
    40
100
AcDbLine
 10
161.3384151002161
 20
164.3231959162134
 30
0.0
 11
161.3384151002161
 21
163.2731959162134
 31
0.0
  0
LINE
  5
12A
330
1F
100
AcDbEntity
  8
作図レイヤ
 62
     3
370
    40
100
AcDbLine
 10
160.9384151002162
 20
164.3231959162134
 30
0.0
 11
160.9384151002162
 21
163.2731959162134
 31
0.0
  0
ARC
  5
12B
330
1F
100
AcDbEntity
  8
作図レイヤ
 62
     3
370
    40
100
AcDbCircle
 10
162.3384151002161
 20
163.2731959162134
 30
0.0
 40
1.0
100
AcDbArc
 50
180.0
 51
270.0
  0
ARC
  5
12C
330
1F
100
AcDbEntity
  8
作図レイヤ
 62
     3
370
    40
100
AcDbCircle
 10
162.3384151002162
 20
163.2731959162134
 30
0.0
 40
1.4
100
AcDbArc
 50
180.0
 51
225.5846914028106
  0
LINE
  5
12D
330
1F
100
AcDbEntity
  8
作図レイヤ
 62
     3
370
    40
100
AcDbLine
 10
160.9384151002162
 20
166.9231959162134
 30
0.0
 11
161.3384151002161
 21
166.9231959162134
 31
0.0
  0
ARC
  5
12E
330
1F
100
AcDbEntity
  8
作図レイヤ
 62
     3
370
    40
100
AcDbCircle
 10
162.3384151002161
 20
166.9231959162134
 30
0.0
 40
1.0
100
AcDbArc
 50
180.0
 51
270.0
  0
ARC
  5
12F
330
1F
100
AcDbEntity
  8
作図レイヤ
 62
     3
370
    40
100
AcDbCircle
 10
159.9384151002162
 20
166.9231959162134
 30
0.0
 40
1.0
100
AcDbArc
 50
270.0
 51
0.0
  0
LINE
  5
130
330
1F
100
AcDbEntity
  8
作図レイヤ
 62
     3
370
    40
100
AcDbLine
 10
157.9384161002161
 20
166.9231959162134
 30
0.0
 11
158.3384161002161
 21
166.9231959162134
 31
0.0
  0
ARC
  5
131
330
1F
100
AcDbEntity
  8
作図レイヤ
 62
     3
370
    40
100
AcDbCircle
 10
159.3384161002161
 20
166.9231959162134
 30
0.0
 40
1.0
100
AcDbArc
 50
180.0
 51
270.0
  0
ARC
  5
132
330
1F
100
AcDbEntity
  8
作図レイヤ
 62
     3
370
    40
100
AcDbCircle
 10
156.9384161002161
 20
166.9231959162134
 30
0.0
 40
1.0
100
AcDbArc
 50
270.0
 51
0.0
  0
TEXT
  5
133
330
1F
100
AcDbEntity
  8
作図レイヤ
 62
     7
100
AcDbText
 10
168.2092742919922
 20
164.1283874511719
 30
0.0
 40
1.799999952316284
  1
ＦＥＴ
 50
270.0
 41
0.9607843228155234
  7
FX_VECTOR
 72
     5
 11
168.2092742919922
 21
159.9283875226974
 31
0.0
100
AcDbText
  0
LINE
  5
134
330
1F
100
AcDbEntity
  8
作図レイヤ
 62
     7
100
AcDbLine
 10
160.5624151002162
 20
155.220653952896
 30
0.0
 11
160.5624151002162
 21
168.7397213880621
 31
0.0
  0
LINE
  5
135
330
1F
100
AcDbEntity
  8
作図レイヤ
 62
     3
370
    40
100
AcDbLine
 10
249.5624131002163
 20
156.8231959162133
 30
0.0
 11
125.5624131002162
 21
156.8231959162133
 31
0.0
  0
LINE
  5
136
330
1F
100
AcDbEntity
  8
作図レイヤ
 62
     3
370
    40
100
AcDbLine
 10
249.5624131002163
 20
159.8231959162133
 30
0.0
 11
143.5624171002161
 21
159.8231959162135
 31
0.0
  0
LINE
  5
137
330
1F
100
AcDbEntity
  8
作図レイヤ
 62
     3
370
    40
100
AcDbLine
 10
249.5624131002163
 20
159.8231959162133
 30
0.0
 11
249.5624131002163
 21
156.8231959162134
 31
0.0
  0
LINE
  5
138
330
1F
100
AcDbEntity
  8
作図レイヤ
 62
     3
370
    40
100
AcDbLine
 10
125.5624131002162
 20
159.8231959162134
 30
0.0
 11
125.5624131002162
 21
156.8231959162133
 31
0.0
  0
LINE
  5
139
330
1F
100
AcDbEntity
  8
作図レイヤ
  6
一点鎖線
 62
     7
100
AcDbLine
 10
133.5624131002162
 20
163.0551954286239
 30
0.0
 11
133.5624131002162
 21
150.5551954286239
 31
0.0
  0
LINE
  5
13A
330
1F
100
AcDbEntity
  8
作図レイヤ
  6
一点鎖線
 62
     7
100
AcDbLine
 10
236.5624131002162
 20
163.8162723423339
 30
0.0
 11
236.5624131002162
 21
152.8162723423339
 31
0.0
  0
LINE
  5
13B
330
1F
100
AcDbEntity
  8
作図レイヤ
  6
一点鎖線
 62
     7
100
AcDbLine
 10
239.5624131002162
 20
91.76948935875622
 30
0.0
 11
239.5624131002162
 21
102.7694893587562
 31
0.0
  0
LINE
  5
13C
330
1F
100
AcDbEntity
  8
作図レイヤ
  6
一点鎖線
 62
     7
100
AcDbLine
 10
234.0624131002162
 20
97.26948935875622
 30
0.0
 11
245.0624131002162
 21
97.26948935875622
 31
0.0
  0
LINE
  5
13D
330
1F
100
AcDbEntity
  8
作図レイヤ
  6
一点鎖線
 62
     7
100
AcDbLine
 10
239.5624131002162
 20
51.76948935875622
 30
0.0
 11
239.5624131002162
 21
62.76948935875622
 31
0.0
  0
LINE
  5
13E
330
1F
100
AcDbEntity
  8
作図レイヤ
  6
一点鎖線
 62
     7
100
AcDbLine
 10
234.0624131002162
 20
57.26948935875622
 30
0.0
 11
245.0624131002162
 21
57.26948935875622
 31
0.0
  0
LINE
  5
13F
330
1F
100
AcDbEntity
  8
作図レイヤ
  6
一点鎖線
 62
     7
100
AcDbLine
 10
122.3592671922056
 20
77.2694893587562
 30
0.0
 11
252.5446966850615
 21
77.2694893587562
 31
0.0
  0
LINE
  5
140
330
1F
100
AcDbEntity
  8
作図レイヤ
  6
一点鎖線
 62
     7
100
AcDbLine
 10
135.5624131002162
 20
91.76948935875622
 30
0.0
 11
135.5624131002162
 21
102.7694893587562
 31
0.0
  0
LINE
  5
141
330
1F
100
AcDbEntity
  8
作図レイヤ
  6
一点鎖線
 62
     7
100
AcDbLine
 10
135.5624131002162
 20
51.76948935875622
 30
0.0
 11
135.5624131002162
 21
62.76948935875622
 31
0.0
  0
LINE
  5
142
330
1F
100
AcDbEntity
  8
作図レイヤ
  6
一点鎖線
 62
     7
100
AcDbLine
 10
141.0624131002162
 20
57.26948935875622
 30
0.0
 11
130.0624131002162
 21
57.26948935875622
 31
0.0
  0
LINE
  5
143
330
1F
100
AcDbEntity
  8
作図レイヤ
 62
     3
370
    40
100
AcDbLine
 10
126.0624131002162
 20
101.2694893587563
 30
0.0
 11
249.0624131002163
 21
101.2694893587562
 31
0.0
  0
LINE
  5
144
330
1F
100
AcDbEntity
  8
作図レイヤ
 62
     3
370
    40
100
AcDbLine
 10
126.0624131002162
 20
53.26948935875623
 30
0.0
 11
249.0624131002163
 21
53.26948935875623
 31
0.0
  0
LINE
  5
145
330
1F
100
AcDbEntity
  8
作図レイヤ
  6
一点鎖線
 62
     7
100
AcDbLine
 10
239.5624131002162
 20
165.1062543176311
 30
0.0
 11
239.5624131002162
 21
133.0162723423338
 31
0.0
  0
LINE
  5
146
330
1F
100
AcDbEntity
  8
作図レイヤ
  6
一点鎖線
 62
     7
100
AcDbLine
 10
135.5624131002162
 20
165.1062543176311
 30
0.0
 11
135.5624131002162
 21
133.0162723423338
 31
0.0
  0
LINE
  5
147
330
1F
100
AcDbEntity
  8
作図レイヤ
 62
     3
370
    40
100
AcDbLine
 10
249.5624131002163
 20
100.7694893587562
 30
0.0
 11
249.5624131002163
 21
53.76948935875623
 31
0.0
  0
LINE
  5
148
330
1F
100
AcDbEntity
  8
作図レイヤ
 62
     3
370
    40
100
AcDbLine
 10
125.5624131002162
 20
100.7694893587563
 30
0.0
 11
125.5624131002162
 21
53.76948935875622
 31
0.0
  0
LINE
  5
149
330
1F
100
AcDbEntity
  8
作図レイヤ
 62
     3
370
    40
100
AcDbLine
 10
319.095905305277
 20
159.8231959162133
 30
0.0
 11
367.095905305277
 21
159.8231959162133
 31
0.0
  0
LINE
  5
14A
330
1F
100
AcDbEntity
  8
作図レイヤ
 62
     3
370
    40
100
AcDbLine
 10
319.095905305277
 20
156.8231959162133
 30
0.0
 11
319.095905305277
 21
159.8231959162133
 31
0.0
  0
LINE
  5
14B
330
1F
100
AcDbEntity
  8
作図レイヤ
 62
     3
370
    40
100
AcDbLine
 10
367.095905305277
 20
156.8231959162133
 30
0.0
 11
367.095905305277
 21
159.8231959162133
 31
0.0
  0
LINE
  5
14C
330
1F
100
AcDbEntity
  8
作図レイヤ
 62
     3
370
    40
100
AcDbLine
 10
363.095905805277
 20
164.3231959162133
 30
0.0
 11
363.095905805277
 21
165.9231959162133
 31
0.0
  0
LINE
  5
14D
330
1F
100
AcDbEntity
  8
作図レイヤ
 62
     3
370
    40
100
AcDbLine
 10
323.095907805277
 20
164.3231959162133
 30
0.0
 11
323.095907805277
 21
165.9231959162133
 31
0.0
  0
LINE
  5
14E
330
1F
100
AcDbEntity
  8
作図レイヤ
 62
     3
370
    40
100
AcDbLine
 10
363.095905805277
 20
165.9231959162133
 30
0.0
 11
323.095907805277
 21
165.9231959162133
 31
0.0
  0
LINE
  5
14F
330
1F
100
AcDbEntity
  8
作図レイヤ
  6
一点鎖線
 62
     7
100
AcDbLine
 10
343.095905305277
 20
148.8194683055228
 30
0.0
 11
343.095905305277
 21
168.239721388062
 31
0.0
  0
LINE
  5
150
330
1F
100
AcDbEntity
  8
作図レイヤ
  6
一点鎖線
 62
     7
100
AcDbLine
 10
326.095907305277
 20
155.2206539528959
 30
0.0
 11
326.095907305277
 21
168.8484683248543
 31
0.0
  0
LINE
  5
151
330
1F
100
AcDbEntity
  8
作図レイヤ
  6
一点鎖線
 62
     7
100
AcDbLine
 10
357.639907305277
 20
155.2206539528959
 30
0.0
 11
357.639907305277
 21
168.5048321717081
 31
0.0
  0
LINE
  5
152
330
1F
100
AcDbEntity
  8
作図レイヤ
 62
     3
370
    40
100
AcDbLine
 10
362.819910305277
 20
162.5231959162134
 30
0.0
 11
362.819910305277
 21
164.3231959162133
 31
0.0
  0
LINE
  5
153
330
1F
100
AcDbEntity
  8
作図レイヤ
 62
     3
370
    40
100
AcDbLine
 10
352.659910305277
 20
161.3231959162133
 30
0.0
 11
352.659910305277
 21
164.3231959162133
 31
0.0
  0
LINE
  5
154
330
1F
100
AcDbEntity
  8
作図レイヤ
 62
     3
370
    40
100
AcDbLine
 10
362.819910305277
 20
162.5231959162134
 30
0.0
 11
352.659910305277
 21
162.5231959162134
 31
0.0
  0
INSERT
  5
158
330
1F
100
AcDbEntity
  8
作図レイヤ
 62
     3
370
    40
100
AcDbBlockReference
  2
BLKF028
 10
0.0
 20
0.0
 30
0.0
  0
INSERT
  5
162
330
1F
100
AcDbEntity
  8
作図レイヤ
 62
     3
370
    40
100
AcDbBlockReference
  2
BLKF029
 10
0.0
 20
0.0
 30
0.0
  0
INSERT
  5
16B
330
1F
100
AcDbEntity
  8
作図レイヤ
 62
     3
370
    40
100
AcDbBlockReference
  2
BLKF030
 10
0.0
 20
0.0
 30
0.0
  0
LINE
  5
172
330
1F
100
AcDbEntity
  8
作図レイヤ
 62
     3
370
    40
100
AcDbLine
 10
327.9459073052769
 20
159.8231959162133
 30
0.0
 11
327.9459073052769
 21
164.3231959162133
 31
0.0
  0
LINE
  5
173
330
1F
100
AcDbEntity
  8
作図レイヤ
 62
     3
370
    40
100
AcDbLine
 10
324.245907305277
 20
162.4280851550061
 30
0.0
 11
324.245907305277
 21
164.3231959162133
 31
0.0
  0
LINE
  5
174
330
1F
100
AcDbEntity
  8
作図レイヤ
  6
一点鎖線
 62
     7
100
AcDbLine
 10
323.095905305277
 20
163.8209484166856
 30
0.0
 11
323.095905305277
 21
134.088921153545
 31
0.0
  0
LINE
  5
175
330
1F
100
AcDbEntity
  8
作図レイヤ
  6
一点鎖線
 62
     7
100
AcDbLine
 10
363.095905305277
 20
163.9880390159662
 30
0.0
 11
363.095905305277
 21
134.0889211535449
 31
0.0
  0
INSERT
  5
179
330
1F
100
AcDbEntity
  8
作図レイヤ
 62
     3
370
    40
100
AcDbBlockReference
  2
BLKF031
 10
0.0
 20
0.0
 30
0.0
  0
INSERT
  5
18D
330
1F
100
AcDbEntity
  8
作図レイヤ
 62
     3
370
    40
100
AcDbBlockReference
  2
BLKF032
 10
0.0
 20
0.0
 30
0.0
  0
INSERT
  5
19A
330
1F
100
AcDbEntity
  8
作図レイヤ
 62
     3
370
    40
100
AcDbBlockReference
  2
BLKF033
 10
0.0
 20
0.0
 30
0.0
  0
INSERT
  5
1A7
330
1F
100
AcDbEntity
  8
作図レイヤ
 62
     3
370
    40
100
AcDbBlockReference
  2
BLKF034
 10
0.0
 20
0.0
 30
0.0
  0
INSERT
  5
1B4
330
1F
100
AcDbEntity
  8
作図レイヤ
 62
     3
370
    40
100
AcDbBlockReference
  2
BLKF035
 10
0.0
 20
0.0
 30
0.0
  0
INSERT
  5
1C1
330
1F
100
AcDbEntity
  8
作図レイヤ
 62
     3
370
    40
100
AcDbBlockReference
  2
BLKF036
 10
0.0
 20
0.0
 30
0.0
  0
INSERT
  5
1D5
330
1F
100
AcDbEntity
  8
作図レイヤ
 62
     3
370
    40
100
AcDbBlockReference
  2
BLKF037
 10
0.0
 20
0.0
 30
0.0
  0
INSERT
  5
1DF
330
1F
100
AcDbEntity
  8
作図レイヤ
 62
     3
370
    40
100
AcDbBlockReference
  2
BLKF038
 10
0.0
 20
0.0
 30
0.0
  0
INSERT
  5
1E9
330
1F
100
AcDbEntity
  8
作図レイヤ
 62
     3
370
    40
100
AcDbBlockReference
  2
BLKF039
 10
0.0
 20
0.0
 30
0.0
  0
INSERT
  5
1F3
330
1F
100
AcDbEntity
  8
作図レイヤ
 62
     3
370
    40
100
AcDbBlockReference
  2
BLKF040
 10
0.0
 20
0.0
 30
0.0
  0
INSERT
  5
1FD
330
1F
100
AcDbEntity
  8
作図レイヤ
 62
     3
370
    40
100
AcDbBlockReference
  2
BLKF041
 10
0.0
 20
0.0
 30
0.0
  0
INSERT
  5
207
330
1F
100
AcDbEntity
  8
作図レイヤ
 62
     3
370
    40
100
AcDbBlockReference
  2
BLKF042
 10
0.0
 20
0.0
 30
0.0
  0
INSERT
  5
211
330
1F
100
AcDbEntity
  8
作図レイヤ
 62
     3
370
    40
100
AcDbBlockReference
  2
BLKF043
 10
0.0
 20
0.0
 30
0.0
  0
INSERT
  5
21E
330
1F
100
AcDbEntity
  8
作図レイヤ
 62
     3
370
    40
100
AcDbBlockReference
  2
BLKF044
 10
0.0
 20
0.0
 30
0.0
  0
LINE
  5
228
330
1F
100
AcDbEntity
  8
作図レイヤ
 62
     3
370
    40
100
AcDbLine
 10
143.5624171002161
 20
159.8231959162134
 30
0.0
 11
125.5624131002162
 21
159.8231959162133
 31
0.0
  0
LINE
  5
229
330
1F
100
AcDbEntity
  8
作図レイヤ
  6
一点鎖線
 62
     7
100
AcDbLine
 10
239.5624131002162
 20
220.3769024736704
 30
0.0
 11
239.5624131002162
 21
209.3769024736704
 31
0.0
  0
LINE
  5
22A
330
1F
100
AcDbEntity
  8
作図レイヤ
  6
一点鎖線
 62
     7
100
AcDbLine
 10
234.0624131002162
 20
214.8769024736704
 30
0.0
 11
245.0624131002162
 21
214.8769024736704
 31
0.0
  0
LINE
  5
22B
330
1F
100
AcDbEntity
  8
作図レイヤ
  6
一点鎖線
 62
     7
100
AcDbLine
 10
239.5624131002162
 20
260.3769024736704
 30
0.0
 11
239.5624131002162
 21
249.3769024736704
 31
0.0
  0
LINE
  5
22C
330
1F
100
AcDbEntity
  8
作図レイヤ
  6
一点鎖線
 62
     7
100
AcDbLine
 10
234.0624131002162
 20
254.8769024736704
 30
0.0
 11
245.0624131002162
 21
254.8769024736704
 31
0.0
  0
INSERT
  5
230
330
1F
100
AcDbEntity
  8
作図レイヤ
 62
     3
370
    40
100
AcDbBlockReference
  2
BLKF045
 10
0.0
 20
0.0
 30
0.0
  0
LINE
  5
25C
330
1F
100
AcDbEntity
  8
作図レイヤ
  6
一点鎖線
 62
     7
100
AcDbLine
 10
135.5624131002162
 20
220.3769024736704
 30
0.0
 11
135.5624131002162
 21
209.3769024736704
 31
0.0
  0
LINE
  5
25D
330
1F
100
AcDbEntity
  8
作図レイヤ
  6
一点鎖線
 62
     7
100
AcDbLine
 10
141.0624131002162
 20
214.8769024736704
 30
0.0
 11
130.0624131002162
 21
214.8769024736704
 31
0.0
  0
LINE
  5
25E
330
1F
100
AcDbEntity
  8
作図レイヤ
  6
一点鎖線
 62
     7
100
AcDbLine
 10
135.5624131002162
 20
260.3769024736704
 30
0.0
 11
135.5624131002162
 21
249.3769024736704
 31
0.0
  0
LINE
  5
25F
330
1F
100
AcDbEntity
  8
作図レイヤ
  6
一点鎖線
 62
     7
100
AcDbLine
 10
141.0624131002162
 20
254.8769024736704
 30
0.0
 11
130.0624131002162
 21
254.8769024736704
 31
0.0
  0
LINE
  5
260
330
1F
100
AcDbEntity
  8
作図レイヤ
 62
     3
370
    40
100
AcDbLine
 10
126.0624131002162
 20
210.8769024736704
 30
0.0
 11
249.0624131002163
 21
210.8769024736705
 31
0.0
  0
LINE
  5
261
330
1F
100
AcDbEntity
  8
作図レイヤ
 62
     3
370
    40
100
AcDbLine
 10
126.0624131002162
 20
258.8769024736704
 30
0.0
 11
249.0624131002163
 21
258.8769024736704
 31
0.0
  0
LINE
  5
262
330
1F
100
AcDbEntity
  8
作図レイヤ
 62
     3
370
    40
100
AcDbLine
 10
249.5624131002163
 20
211.3769024736705
 30
0.0
 11
249.5624131002163
 21
219.5269024736705
 31
0.0
  0
LINE
  5
263
330
1F
100
AcDbEntity
  8
作図レイヤ
 62
     3
370
    40
100
AcDbLine
 10
125.5624131002162
 20
211.3769024736704
 30
0.0
 11
125.5624131002162
 21
258.3769024736704
 31
0.0
  0
LINE
  5
264
330
1F
100
AcDbEntity
  8
作図レイヤ
  6
一点鎖線
 62
     7
100
AcDbLine
 10
133.5624131002162
 20
229.8769024736705
 30
0.0
 11
133.5624131002162
 21
239.8769024736705
 31
0.0
  0
LINE
  5
265
330
1F
100
AcDbEntity
  8
作図レイヤ
  6
一点鎖線
 62
     7
100
AcDbLine
 10
241.5624131002162
 20
217.2205913934607
 30
0.0
 11
241.5624131002162
 21
240.2205913934607
 31
0.0
  0
ARC
  5
266
330
1F
100
AcDbEntity
  8
作図レイヤ
 62
     3
370
    40
100
AcDbCircle
 10
177.5624131002162
 20
239.3569064736704
 30
0.0
 40
1.2
100
AcDbArc
 50
14.43498926912895
 51
311.5105597388131
  0
INSERT
  5
26A
330
1F
100
AcDbEntity
  8
作図レイヤ
 62
     3
370
    40
100
AcDbBlockReference
  2
BLKF047
 10
0.0
 20
0.0
 30
0.0
  0
INSERT
  5
274
330
1F
100
AcDbEntity
  8
作図レイヤ
 62
     3
370
    40
100
AcDbBlockReference
  2
BLKF048
 10
0.0
 20
0.0
 30
0.0
  0
LINE
  5
27B
330
1F
100
AcDbEntity
  8
作図レイヤ
 62
     3
370
    40
100
AcDbLine
 10
249.5624131002163
 20
258.3769024736704
 30
0.0
 11
249.0624131002163
 21
258.8769024736704
 31
0.0
  0
LINE
  5
27C
330
1F
100
AcDbEntity
  8
作図レイヤ
 62
     3
370
    40
100
AcDbLine
 10
125.5624131002162
 20
211.3769024736704
 30
0.0
 11
126.0624131002162
 21
210.8769024736704
 31
0.0
  0
LINE
  5
27D
330
1F
100
AcDbEntity
  8
作図レイヤ
 62
     3
370
    40
100
AcDbLine
 10
126.0624131002162
 20
258.8769024736704
 30
0.0
 11
125.5624131002162
 21
258.3769024736704
 31
0.0
  0
LINE
  5
27E
330
1F
100
AcDbEntity
  8
作図レイヤ
 62
     3
370
    40
100
AcDbLine
 10
126.0624131002162
 20
101.2694893587563
 30
0.0
 11
125.5624131002162
 21
100.7694893587563
 31
0.0
  0
LINE
  5
27F
330
1F
100
AcDbEntity
  8
作図レイヤ
 62
     3
370
    40
100
AcDbLine
 10
125.5624131002162
 20
53.76948935875623
 30
0.0
 11
126.0624131002162
 21
53.26948935875623
 31
0.0
  0
LINE
  5
280
330
1F
100
AcDbEntity
  8
作図レイヤ
 62
     3
370
    40
100
AcDbLine
 10
249.5624131002163
 20
53.76948935875623
 30
0.0
 11
249.0624131002163
 21
53.26948935875623
 31
0.0
  0
LINE
  5
281
330
1F
100
AcDbEntity
  8
作図レイヤ
 62
     3
370
    40
100
AcDbLine
 10
249.0624131002163
 20
101.2694893587562
 30
0.0
 11
249.5624131002163
 21
100.7694893587562
 31
0.0
  0
LINE
  5
282
330
1F
100
AcDbEntity
  8
作図レイヤ
 62
     3
370
    40
100
AcDbLine
 10
178.1970559616036
 20
237.9336804006272
 30
0.0
 11
178.8851972575387
 21
240.1806698435994
 31
0.0
  0
LINE
  5
283
330
1F
100
AcDbEntity
  8
作図レイヤ
 62
     3
370
    40
100
AcDbLine
 10
177.4160000585279
 20
238.8788236134636
 30
0.0
 11
178.3947135678829
 21
238.5790922619064
 31
0.0
  0
LINE
  5
284
330
1F
100
AcDbEntity
  8
作図レイヤ
 62
     3
370
    40
100
AcDbLine
 10
177.7088261419046
 20
239.8349893338773
 30
0.0
 11
178.6875396512595
 21
239.5352579823202
 31
0.0
  0
ARC
  5
285
330
1F
100
AcDbEntity
  8
作図レイヤ
 62
     3
370
    40
100
AcDbCircle
 10
177.5624131002162
 20
239.3569064736704
 30
0.0
 40
0.5
100
AcDbArc
 50
72.97277450397053
 51
252.9727745039705
  0
LINE
  5
286
330
1F
100
AcDbEntity
  8
作図レイヤ
 62
     3
370
    40
100
AcDbLine
 10
250.5624131002162
 20
167.1731959162133
 30
0.0
 11
243.5624131002162
 21
167.1731959162133
 31
0.0
  0
LINE
  5
287
330
1F
100
AcDbEntity
  8
作図レイヤ
 62
     3
370
    40
100
AcDbLine
 10
250.5624131002162
 20
167.1731959162132
 30
0.0
 11
250.5624131002162
 21
163.8231959162133
 31
0.0
  0
LINE
  5
288
330
1F
100
AcDbEntity
  8
作図レイヤ
 62
     3
370
    40
100
AcDbLine
 10
245.0624131002162
 20
163.8231959162133
 30
0.0
 11
250.5624131002162
 21
163.8231959162132
 31
0.0
  0
LINE
  5
289
330
1F
100
AcDbEntity
  8
作図レイヤ
 62
     3
370
    40
100
AcDbLine
 10
244.9224131002161
 20
163.8231959162133
 30
0.0
 11
238.2024131002162
 21
163.8231959162133
 31
0.0
  0
LINE
  5
28A
330
1F
100
AcDbEntity
  8
作図レイヤ
 62
     3
370
    40
100
AcDbLine
 10
177.384274238944
 20
166.4812754287825
 30
0.0
 11
175.1472616715614
 21
167.0806811396709
 31
0.0
  0
LINE
  5
28B
330
1F
100
AcDbEntity
  8
作図レイヤ
 62
     3
370
    40
100
AcDbLine
 10
175.7345247007719
 20
166.6643768711109
 30
0.0
 11
175.7992616043065
 21
166.9059782842267
 31
0.0
  0
LINE
  5
28C
330
1F
100
AcDbEntity
  8
作図レイヤ
 62
     3
370
    40
100
AcDbLine
 10
177.3842742389439
 20
166.4812754287825
 30
0.0
 11
177.4853437814797
 21
166.8584720966235
 31
0.0
  0
LINE
  5
28D
330
1F
100
AcDbEntity
  8
作図レイヤ
 62
     3
370
    40
100
AcDbLine
 10
175.1472616715614
 20
167.0806811396709
 30
0.0
 11
175.2506942701103
 21
167.4666968526144
 31
0.0
  0
ARC
  5
28E
330
1F
100
AcDbEntity
  8
作図レイヤ
 62
     3
370
    40
100
AcDbCircle
 10
181.3490470866359
 20
165.8231959162134
 30
0.0
 40
4.0
100
AcDbArc
 50
99.60324745979044
 51
164.9999999999988
  0
ARC
  5
28F
330
1F
100
AcDbEntity
  8
作図レイヤ
 62
     3
370
    40
100
AcDbCircle
 10
181.3843232670459
 20
165.8231959162135
 30
0.0
 40
6.35
100
AcDbArc
 50
99.23815605921511
 51
165.0000000000003
  0
ARC
  5
290
330
1F
100
AcDbEntity
  8
作図レイヤ
 62
     3
370
    40
100
AcDbCircle
 10
174.7685988744829
 20
166.9231959162134
 30
0.0
 40
1.0
100
AcDbArc
 50
270.0
 51
345.0000000000004
  0
ARC
  5
291
330
1F
100
AcDbEntity
  8
作図レイヤ
 62
     3
370
    40
100
AcDbCircle
 10
177.8391512353031
 20
166.9231959162134
 30
0.0
 40
1.0
100
AcDbArc
 50
197.9968715836543
 51
270.0
  0
LINE
  5
292
330
1F
100
AcDbEntity
  8
作図レイヤ
 62
     3
370
    40
100
AcDbLine
 10
250.5624131002162
 20
166.6731959162133
 30
0.0
 11
264.1215579293069
 21
166.6731959162133
 31
0.0
  0
LINE
  5
293
330
1F
100
AcDbEntity
  8
作図レイヤ
 62
     3
370
    40
100
AcDbLine
 10
250.5624131002162
 20
164.3231959162133
 30
0.0
 11
258.5781298650253
 21
164.3231959162133
 31
0.0
  0
INSERT
  5
297
330
1F
100
AcDbEntity
  8
作図レイヤ
 62
     7
100
AcDbBlockReference
  2
BLKF049
 10
0.0
 20
0.0
 30
0.0
  0
LINE
  5
29D
330
1F
100
AcDbEntity
  8
作図レイヤ
 62
     3
370
    40
100
AcDbLine
 10
178.4013033706378
 20
226.1636644913203
 30
0.0
 11
178.7482519494494
 21
228.4879120434671
 31
0.0
  0
LINE
  5
29E
330
1F
100
AcDbEntity
  8
作図レイヤ
 62
     3
370
    40
100
AcDbLine
 10
177.4885942536606
 20
226.9823867178945
 30
0.0
 11
178.500958813488
 21
226.8312675116178
 31
0.0
  0
LINE
  5
29F
330
1F
100
AcDbEntity
  8
作図レイヤ
 62
     3
370
    40
100
AcDbLine
 10
177.6362319467719
 20
227.9714282294464
 30
0.0
 11
178.6485965065992
 21
227.8203090231696
 31
0.0
  0
ARC
  5
2A0
330
1F
100
AcDbEntity
  8
作図レイヤ
 62
     3
370
    40
100
AcDbCircle
 10
177.5624131002162
 20
227.4769074736705
 30
0.0
 40
0.5
100
AcDbArc
 50
81.50994785875969
 51
261.5099478587596
  0
LINE
  5
2A1
330
1F
100
AcDbEntity
  8
作図レイヤ
 62
     3
370
    40
100
AcDbLine
 10
245.1144194925464
 20
163.6233557244689
 30
0.0
 11
244.973933483756
 21
160.1112055047086
 31
0.0
  0
LINE
  5
2A2
330
1F
100
AcDbEntity
  8
作図レイヤ
 62
     3
370
    40
100
AcDbLine
 10
244.9224131002161
 20
163.8231959162133
 30
0.0
 11
245.1144194925464
 21
163.6233557244689
 31
0.0
  0
ARC
  5
2A3
330
1F
100
AcDbEntity
  8
作図レイヤ
 62
     3
370
    40
100
AcDbCircle
 10
244.6741731961395
 20
160.1231959162133
 30
0.0
 40
0.3
100
AcDbArc
 50
270.0
 51
357.7093899573628
  0
LINE
  5
2A4
330
1F
100
AcDbEntity
  8
作図レイヤ
 62
     3
370
    40
100
AcDbLine
 10
238.0104067078859
 20
163.6233557244689
 30
0.0
 11
238.0609302328942
 21
162.3602675992614
 31
0.0
  0
LINE
  5
2A5
330
1F
100
AcDbEntity
  8
作図レイヤ
 62
     3
370
    40
100
AcDbLine
 10
238.2024131002162
 20
163.8231959162133
 30
0.0
 11
238.0104067078859
 21
163.6233557244689
 31
0.0
  0
ARC
  5
2A6
330
1F
100
AcDbEntity
  8
作図レイヤ
 62
     3
370
    40
100
AcDbCircle
 10
194.322750080601
 20
89.14448866999737
 30
0.0
 40
84.11252959144224
100
AcDbArc
 50
84.63567545930904
 51
99.55199269464777
  0
ARC
  5
2A7
330
1F
100
AcDbEntity
  8
作図レイヤ
 62
     3
370
    40
100
AcDbCircle
 10
194.322750080601
 20
89.14448866999737
 30
0.0
 40
81.7685097859443
100
AcDbArc
 50
84.78736563727509
 51
99.60324745979037
  0
LINE
  5
2A8
330
1F
100
AcDbEntity
  8
作図レイヤ
 62
     3
370
    40
100
AcDbLine
 10
178.3202159870439
 20
232.7985530961492
 30
0.0
 11
178.8073140019032
 21
230.499589085139
 31
0.0
  0
LINE
  5
2A9
330
1F
100
AcDbEntity
  8
作図レイヤ
 62
     3
370
    40
100
AcDbLine
 10
178.3202159870439
 20
232.7985530961492
 30
0.0
 11
188.1583527917485
 21
234.8830297928418
 31
0.0
  0
LINE
  5
2AA
330
1F
100
AcDbEntity
  8
作図レイヤ
 62
     3
370
    40
100
AcDbLine
 10
178.8073140019032
 20
230.499589085139
 30
0.0
 11
192.7946032032375
 21
233.4631764969484
 31
0.0
  0
LINE
  5
2AB
330
1F
100
AcDbEntity
  8
作図レイヤ
 62
     3
370
    40
100
AcDbLine
 10
177.4587752247143
 20
231.9260487526088
 30
0.0
 11
178.4601271189716
 21
232.1382123695825
 31
0.0
  0
LINE
  5
2AC
330
1F
100
AcDbEntity
  8
作図レイヤ
 62
     3
370
    40
100
AcDbLine
 10
177.6660509757182
 20
230.9477661947321
 30
0.0
 11
178.6674028699755
 21
231.1599298117058
 31
0.0
  0
ARC
  5
2AD
330
1F
100
AcDbEntity
  8
作図レイヤ
 62
     3
370
    40
100
AcDbCircle
 10
177.5624131002162
 20
231.4369074736705
 30
0.0
 40
0.5
100
AcDbArc
 50
101.9627518867346
 51
281.9627518867346
  0
LINE
  5
2AE
330
1F
100
AcDbEntity
  8
作図レイヤ
 62
     3
370
    40
100
AcDbLine
 10
178.3613232717449
 20
236.7348486361765
 30
0.0
 11
178.7781978806394
 21
234.4221196074187
 31
0.0
  0
LINE
  5
2AF
330
1F
100
AcDbEntity
  8
作図レイヤ
 62
     3
370
    40
100
AcDbLine
 10
178.3613232717449
 20
236.7348486361765
 30
0.0
 11
180.7221017214198
 21
237.1603842612573
 31
0.0
  0
LINE
  5
2B0
330
1F
100
AcDbEntity
  8
作図レイヤ
 62
     3
370
    40
100
AcDbLine
 10
178.7781978806394
 20
234.4221196074187
 30
0.0
 11
185.6303419557424
 21
235.6572339878229
 31
0.0
  0
LINE
  5
2B1
330
1F
100
AcDbEntity
  8
作図レイヤ
 62
     3
370
    40
100
AcDbLine
 10
177.4737163749195
 20
235.8889774797891
 30
0.0
 11
178.4810638508955
 21
236.0705541279163
 31
0.0
  0
LINE
  5
2B2
330
1F
100
AcDbEntity
  8
作図レイヤ
 62
     3
370
    40
100
AcDbLine
 10
177.6511098255129
 20
234.9048374675517
 30
0.0
 11
178.6584573014888
 21
235.0864141156789
 31
0.0
  0
ARC
  5
2B3
330
1F
100
AcDbEntity
  8
作図レイヤ
 62
     3
370
    40
100
AcDbCircle
 10
177.5624131002162
 20
235.3969074736704
 30
0.0
 40
0.5
100
AcDbArc
 50
100.2179723370912
 51
280.2179723370913
  0
ARC
  5
2B4
330
1F
100
AcDbEntity
  8
作図レイヤ
 62
     3
370
    40
100
AcDbCircle
 10
177.5624131002162
 20
235.3969074736704
 30
0.0
 40
1.2
100
AcDbArc
 50
41.68018710225011
 51
338.7557575719305
  0
ARC
  5
2B5
330
1F
100
AcDbEntity
  8
作図レイヤ
 62
     3
370
    40
100
AcDbCircle
 10
177.5624131002162
 20
231.4369074736705
 30
0.0
 40
1.2
100
AcDbArc
 50
43.42496665189345
 51
340.5005371215738
  0
INSERT
  5
2B9
330
1F
100
AcDbEntity
  8
作図レイヤ
 62
     3
370
    40
100
AcDbBlockReference
  2
BLKF050
 10
0.0
 20
0.0
 30
0.0
  0
LINE
  5
2C3
330
1F
100
AcDbEntity
  8
作図レイヤ
  6
一点鎖線
 62
     7
100
AcDbLine
 10
217.5624131002162
 20
229.8769024736704
 30
0.0
 11
217.5624131002162
 21
239.8769024736704
 31
0.0
  0
INSERT
  5
2C7
330
1F
100
AcDbEntity
  8
作図レイヤ
 62
     3
370
    40
100
AcDbBlockReference
  2
BLKF051
 10
0.0
 20
0.0
 30
0.0
  0
LINE
  5
2CA
330
1F
100
AcDbEntity
  8
作図レイヤ
 62
     3
370
    40
100
AcDbLine
 10
216.1332752666351
 20
149.7737089206626
 30
0.0
 11
213.0624131002163
 21
149.7737089206626
 31
0.0
  0
LINE
  5
2CB
330
1F
100
AcDbEntity
  8
作図レイヤ
 62
     3
370
    40
100
AcDbLine
 10
215.8983769939561
 20
151.7737089206626
 30
0.0
 11
213.0624131002163
 21
151.7737089206626
 31
0.0
  0
INSERT
  5
2CF
330
1F
100
AcDbEntity
  8
作図レイヤ
 62
     3
370
    40
100
AcDbBlockReference
  2
BLKF052
 10
0.0
 20
0.0
 30
0.0
  0
ARC
  5
2FA
330
1F
100
AcDbEntity
  8
作図レイヤ
 62
     3
370
    40
100
AcDbCircle
 10
236.5624131002162
 20
67.2694893587562
 30
0.0
 40
5.5
100
AcDbArc
 50
145.2501447384354
 51
161.6097334781151
  0
ARC
  5
2FB
330
1F
100
AcDbEntity
  8
作図レイヤ
 62
     3
370
    40
100
AcDbCircle
 10
236.5624131002162
 20
67.2694893587562
 30
0.0
 40
2.5
100
AcDbArc
 50
147.7494377502305
 51
161.0054464637623
  0
ARC
  5
2FC
330
1F
100
AcDbEntity
  8
作図レイヤ
 62
     3
370
    40
100
AcDbCircle
 10
236.5624131002162
 20
67.2694893587562
 30
0.0
 40
2.5
100
AcDbArc
 50
213.4348733728833
 51
97.10213445953535
  0
ARC
  5
2FD
330
1F
100
AcDbEntity
  8
作図レイヤ
 62
     3
370
    40
100
AcDbCircle
 10
236.5624131002162
 20
67.2694893587562
 30
0.0
 40
5.5
100
AcDbArc
 50
182.8974061429868
 51
124.0626232740845
  0
ARC
  5
2FE
330
1F
100
AcDbEntity
  8
作図レイヤ
 62
     3
370
    40
100
AcDbCircle
 10
236.5624131002163
 20
244.8769024736705
 30
0.0
 40
5.5
100
AcDbArc
 50
212.9895675305775
 51
168.9207897360166
  0
ARC
  5
2FF
330
1F
100
AcDbEntity
  8
作図レイヤ
 62
     3
370
    40
100
AcDbCircle
 10
236.5624131002163
 20
244.8769024736705
 30
0.0
 40
2.5
100
AcDbArc
 50
244.2222986752411
 51
137.5268471856369
  0
ARC
  5
300
330
1F
100
AcDbEntity
  8
作図レイヤ
 62
     3
370
    40
100
AcDbCircle
 10
177.5624131002162
 20
227.4769074736705
 30
0.0
 40
1.200799999999987
100
AcDbArc
 50
23.03449015731246
 51
319.9854055602079
  0
ARC
  5
301
330
1F
100
AcDbEntity
  8
作図レイヤ
 62
     3
370
    40
100
AcDbCircle
 10
236.5624131002162
 20
245.8769024736704
 30
0.0
 40
1.0
100
AcDbArc
 50
280.0722253905578
 51
100.0722253905573
  0
ARC
  5
302
330
1F
100
AcDbEntity
  8
作図レイヤ
 62
     3
370
    40
100
AcDbCircle
 10
236.5624131002162
 20
243.8769024736704
 30
0.0
 40
1.0
100
AcDbArc
 50
281.9062714166038
 51
101.9062714166031
  0
INSERT
  5
306
330
1F
100
AcDbEntity
  8
作図レイヤ
 62
     3
370
    40
100
AcDbBlockReference
  2
BLKF053
 10
0.0
 20
0.0
 30
0.0
  0
INSERT
  5
31C
330
1F
100
AcDbEntity
  8
作図レイヤ
 62
     3
370
    40
100
AcDbBlockReference
  2
BLKF054
 10
0.0
 20
0.0
 30
0.0
  0
ARC
  5
32F
330
1F
100
AcDbEntity
  8
作図レイヤ
 62
     3
370
    40
100
AcDbCircle
 10
236.5624131002162
 20
68.2694893587562
 30
0.0
 40
1.0
100
AcDbArc
 50
233.1706237535064
 51
53.17062375350688
  0
ARC
  5
330
330
1F
100
AcDbEntity
  8
作図レイヤ
 62
     3
370
    40
100
AcDbCircle
 10
236.5624131002162
 20
66.2694893587562
 30
0.0
 40
1.0
100
AcDbArc
 50
252.113260353243
 51
72.11326035324305
  0
LINE
  5
331
330
1F
100
AcDbEntity
  8
作図レイヤ
  6
一点鎖線
 62
     7
100
AcDbLine
 10
211.3978138386039
 20
150.7737089206626
 30
0.0
 11
214.6756715379022
 21
150.7737089206626
 31
0.0
  0
LINE
  5
332
330
1F
100
AcDbEntity
  8
作図レイヤ
 62
     3
370
    40
100
AcDbLine
 10
236.8124131002162
 20
155.3231959162134
 30
0.0
 11
231.8124131002163
 21
155.3231959162134
 31
0.0
  0
LINE
  5
333
330
1F
100
AcDbEntity
  8
作図レイヤ
 62
     3
370
    40
100
AcDbLine
 10
236.8543393236426
 20
161.3231959162134
 30
0.0
 11
231.8543393236428
 21
161.3231959162134
 31
0.0
  0
LINE
  5
334
330
1F
100
AcDbEntity
  8
作図レイヤ
 62
     3
370
    40
100
AcDbLine
 10
231.0624131002162
 20
160.7231959162134
 30
0.0
 11
231.0624131002162
 21
159.8231959162134
 31
0.0
  0
ARC
  5
335
330
1F
100
AcDbEntity
  8
作図レイヤ
 62
     3
370
    40
100
AcDbCircle
 10
231.6624131002162
 20
155.9231959162134
 30
0.0
 40
0.6
100
AcDbArc
 50
180.0
 51
270.0
  0
ARC
  5
336
330
1F
100
AcDbEntity
  8
作図レイヤ
 62
     3
370
    40
100
AcDbCircle
 10
231.6624131002162
 20
160.7231959162134
 30
0.0
 40
0.6
100
AcDbArc
 50
90.0
 51
180.0
  0
ARC
  5
337
330
1F
100
AcDbEntity
  8
作図レイヤ
 62
     3
370
    40
100
AcDbCircle
 10
215.8983769939561
 20
166.7737089206626
 30
0.0
 40
15.0
100
AcDbArc
 50
270.0
 51
283.3973024839112
  0
LINE
  5
338
330
1F
100
AcDbEntity
  8
作図レイヤ
 62
     3
370
    40
100
AcDbLine
 10
231.0624131002162
 20
156.8231959162134
 30
0.0
 11
231.0624131002162
 21
155.9231959162134
 31
0.0
  0
LINE
  5
339
330
1F
100
AcDbEntity
  8
作図レイヤ
 62
     3
370
    40
100
AcDbLine
 10
231.8124131002163
 20
155.3231959162134
 30
0.0
 11
231.6624131002162
 21
155.3231959162134
 31
0.0
  0
ARC
  5
33A
330
1F
100
AcDbEntity
  8
作図レイヤ
 62
     3
370
    40
100
AcDbCircle
 10
181.5700999868713
 20
139.8237488289652
 30
0.0
 40
30.0
100
AcDbArc
 50
80.99324951370627
 51
91.11520072590659
  0
LINE
  5
33B
330
1F
100
AcDbEntity
  8
作図レイヤ
 62
     3
370
    40
100
AcDbLine
 10
231.8543393236428
 20
161.3231959162134
 30
0.0
 11
231.6624131002162
 21
161.3231959162134
 31
0.0
  0
LINE
  5
33C
330
1F
100
AcDbEntity
  8
作図レイヤ
 62
     3
370
    40
100
AcDbLine
 10
326.595905305277
 20
155.8231959162133
 30
0.0
 11
326.595905305277
 21
156.8231959162133
 31
0.0
  0
LINE
  5
33D
330
1F
100
AcDbEntity
  8
作図レイヤ
 62
     3
370
    40
100
AcDbLine
 10
359.595905305277
 20
155.8231959162133
 30
0.0
 11
359.595905305277
 21
156.8231959162133
 31
0.0
  0
LINE
  5
33E
330
1F
100
AcDbEntity
  8
作図レイヤ
 62
     3
370
    40
100
AcDbLine
 10
332.0959053052771
 20
155.8231959162133
 30
0.0
 11
332.095905305277
 21
156.8231959162133
 31
0.0
  0
LINE
  5
33F
330
1F
100
AcDbEntity
  8
作図レイヤ
 62
     3
370
    40
100
AcDbLine
 10
328.095905305277
 20
147.3231959162133
 30
0.0
 11
328.095905305277
 21
155.8231959162133
 31
0.0
  0
LINE
  5
340
330
1F
100
AcDbEntity
  8
作図レイヤ
 62
     3
370
    40
100
AcDbLine
 10
358.095905305277
 20
147.3231959162133
 30
0.0
 11
358.095905305277
 21
155.3315879379033
 31
0.0
  0
LINE
  5
341
330
1F
100
AcDbEntity
  8
作図レイヤ
 62
     3
370
    40
100
AcDbLine
 10
331.095905305277
 20
144.3231959162133
 30
0.0
 11
355.095905305277
 21
144.3231959162133
 31
0.0
  0
ARC
  5
342
330
1F
100
AcDbEntity
  8
作図レイヤ
 62
     3
370
    40
100
AcDbCircle
 10
331.095905305277
 20
147.3231959162133
 30
0.0
 40
3.0
100
AcDbArc
 50
180.0
 51
270.0
  0
ARC
  5
343
330
1F
100
AcDbEntity
  8
作図レイヤ
 62
     3
370
    40
100
AcDbCircle
 10
355.095905305277
 20
147.3231959162133
 30
0.0
 40
3.0
100
AcDbArc
 50
270.0
 51
0.0
  0
LINE
  5
344
330
1F
100
AcDbEntity
  8
作図レイヤ
 62
     3
370
    40
100
AcDbLine
 10
357.9959053052771
 20
155.3231959162133
 30
0.0
 11
348.195905305277
 21
155.3231959162133
 31
0.0
  0
LINE
  5
345
330
1F
100
AcDbEntity
  8
作図レイヤ
 62
     3
370
    40
100
AcDbLine
 10
357.9959053052771
 20
161.3231959162133
 30
0.0
 11
348.195905305277
 21
161.3231959162133
 31
0.0
  0
LINE
  5
346
330
1F
100
AcDbEntity
  8
作図レイヤ
 62
     3
370
    40
100
AcDbLine
 10
347.595905305277
 20
160.7231959162133
 30
0.0
 11
347.595905305277
 21
159.8231959162133
 31
0.0
  0
LINE
  5
347
330
1F
100
AcDbEntity
  8
作図レイヤ
 62
     3
370
    40
100
AcDbLine
 10
358.5959053052771
 20
160.7231959162133
 30
0.0
 11
358.5959053052771
 21
159.8231959162133
 31
0.0
  0
ARC
  5
348
330
1F
100
AcDbEntity
  8
作図レイヤ
 62
     3
370
    40
100
AcDbCircle
 10
357.9959053052771
 20
160.7231959162133
 30
0.0
 40
0.6
100
AcDbArc
 50
0.0
 51
90.0
  0
ARC
  5
349
330
1F
100
AcDbEntity
  8
作図レイヤ
 62
     3
370
    40
100
AcDbCircle
 10
357.9959053052771
 20
155.9231959162133
 30
0.0
 40
0.6
100
AcDbArc
 50
270.0
 51
0.0
  0
ARC
  5
34A
330
1F
100
AcDbEntity
  8
作図レイヤ
 62
     3
370
    40
100
AcDbCircle
 10
348.195905305277
 20
155.9231959162133
 30
0.0
 40
0.6
100
AcDbArc
 50
180.0
 51
270.0
  0
ARC
  5
34B
330
1F
100
AcDbEntity
  8
作図レイヤ
 62
     3
370
    40
100
AcDbCircle
 10
348.195905305277
 20
160.7231959162133
 30
0.0
 40
0.6
100
AcDbArc
 50
90.0
 51
180.0
  0
LINE
  5
34C
330
1F
100
AcDbEntity
  8
作図レイヤ
 62
     3
370
    40
100
AcDbLine
 10
358.595905305277
 20
156.8231959162133
 30
0.0
 11
358.595905305277
 21
155.9231959162133
 31
0.0
  0
LINE
  5
34D
330
1F
100
AcDbEntity
  8
作図レイヤ
 62
     3
370
    40
100
AcDbLine
 10
347.595905305277
 20
156.8231959162133
 30
0.0
 11
347.595905305277
 21
155.9231959162133
 31
0.0
  0
LINE
  5
34E
330
1F
100
AcDbEntity
  8
作図レイヤ
 62
     3
370
    40
100
AcDbLine
 10
359.595905305277
 20
155.8231959162133
 30
0.0
 11
358.587513283587
 21
155.8231959162133
 31
0.0
  0
LINE
  5
34F
330
1F
100
AcDbEntity
  8
作図レイヤ
 62
     3
370
    40
100
AcDbLine
 10
347.595905305277
 20
155.8231959162133
 30
0.0
 11
326.595905305277
 21
155.8231959162133
 31
0.0
  0
LINE
  5
350
330
1F
100
AcDbEntity
  8
作図レイヤ
 62
     3
370
    40
100
AcDbLine
 10
363.095905805277
 20
164.3231959162133
 30
0.0
 11
323.095907805277
 21
164.3231959162133
 31
0.0
  0
LINE
  5
351
330
1F
100
AcDbEntity
  8
作図レイヤ
  6
一点鎖線
 62
     7
100
AcDbLine
 10
334.64394519908
 20
150.7737089206625
 30
0.0
 11
340.64394519908
 21
150.7737089206625
 31
0.0
  0
LINE
  5
352
330
1F
100
AcDbEntity
  8
作図レイヤ
  6
一点鎖線
 62
     7
100
AcDbLine
 10
337.595905305277
 20
148.3067778043588
 30
0.0
 11
337.595905305277
 21
152.6897418137076
 31
0.0
  0
LINE
  5
353
330
1F
100
AcDbEntity
  8
作図レイヤ
  6
一点鎖線
 62
     7
100
AcDbLine
 10
348.595905305277
 20
148.3067778043588
 30
0.0
 11
348.595905305277
 21
152.6897418137076
 31
0.0
  0
CIRCLE
  5
354
330
1F
100
AcDbEntity
  8
作図レイヤ
 62
     3
370
    40
100
AcDbCircle
 10
337.595905305277
 20
150.7737089206625
 30
0.0
 40
1.0
  0
CIRCLE
  5
355
330
1F
100
AcDbEntity
  8
作図レイヤ
 62
     3
370
    40
100
AcDbCircle
 10
348.5959053052771
 20
150.7737089206625
 30
0.0
 40
1.0
  0
LINE
  5
356
330
1F
100
AcDbEntity
  8
作図レイヤ
  6
一点鎖線
 62
     7
100
AcDbLine
 10
345.8990152837333
 20
150.7737089206625
 30
0.0
 11
350.8990152837333
 21
150.7737089206625
 31
0.0
  0
INSERT
  5
35A
330
1F
100
AcDbEntity
  8
作図レイヤ
 62
     3
370
    40
100
AcDbBlockReference
  2
BLKF055
 10
0.0
 20
0.0
 30
0.0
  0
LINE
  5
3BB
330
1F
100
AcDbEntity
  8
作図レイヤ
 62
     3
370
    40
100
AcDbLine
 10
249.5624131002163
 20
211.3769024736705
 30
0.0
 11
249.0624131002163
 21
210.8769024736705
 31
0.0
  0
LINE
  5
3BC
330
1F
100
AcDbEntity
  8
作図レイヤ
  6
一点鎖線
 62
     7
100
AcDbLine
 10
236.5624131002162
 20
237.4162926626877
 30
0.0
 11
236.5624131002162
 21
252.4162926626877
 31
0.0
  0
LINE
  5
3BD
330
1F
100
AcDbEntity
  8
作図レイヤ
  6
一点鎖線
 62
     7
100
AcDbLine
 10
245.4745300059682
 20
244.8769024736704
 30
0.0
 11
226.4745300059682
 21
244.8769024736704
 31
0.0
  0
LINE
  5
3BE
330
1F
100
AcDbEntity
  8
作図レイヤ
  6
一点鎖線
 62
     7
100
AcDbLine
 10
227.4449434325178
 20
67.2694893587562
 30
0.0
 11
245.4449434325178
 21
67.2694893587562
 31
0.0
  0
LINE
  5
3BF
330
1F
100
AcDbEntity
  8
作図レイヤ
 62
     3
370
    40
100
AcDbLine
 10
178.8851972575387
 20
240.1806698435994
 30
0.0
 11
224.6497971191173
 21
226.1652452695333
 31
0.0
  0
LINE
  5
3C0
330
1F
100
AcDbEntity
  8
作図レイヤ
 62
     3
370
    40
100
AcDbLine
 10
178.1970559616036
 20
237.9336804006272
 30
0.0
 11
222.8666946502346
 21
224.2535880653961
 31
0.0
  0
LINE
  5
3C1
330
1F
100
AcDbEntity
  8
作図レイヤ
 62
     3
370
    40
100
AcDbLine
 10
178.7482519494494
 20
228.4879120434671
 30
0.0
 11
216.7501065207398
 21
222.8152420115964
 31
0.0
  0
LINE
  5
3C2
330
1F
100
AcDbEntity
  8
作図レイヤ
 62
     3
370
    40
100
AcDbLine
 10
178.4013033706378
 20
226.1636644913203
 30
0.0
 11
215.8415550199869
 21
220.5748268960778
 31
0.0
  0
LINE
  5
3C3
330
1F
100
AcDbEntity
  8
作図レイヤ
 62
     3
370
    40
100
AcDbLine
 10
236.7373025595523
 20
244.8923143988833
 30
0.0
 11
216.372772030399
 21
241.2750232442583
 31
0.0
  0
LINE
  5
3C4
330
1F
100
AcDbEntity
  8
作図レイヤ
 62
     3
370
    40
100
AcDbLine
 10
236.3875236408801
 20
246.8614905484577
 30
0.0
 11
216.0229931117268
 21
243.2441993938326
 31
0.0
  0
LINE
  5
3C5
330
1F
100
AcDbEntity
  8
作図レイヤ
 62
     3
370
    40
100
AcDbLine
 10
236.7687243889067
 20
242.8984160648947
 30
0.0
 11
208.5590930499768
 21
236.9504894071298
 31
0.0
  0
LINE
  5
3C6
330
1F
100
AcDbEntity
  8
作図レイヤ
 62
     3
370
    40
100
AcDbLine
 10
236.3561018115258
 20
244.8553888824462
 30
0.0
 11
208.1464704725958
 21
238.9074622246813
 31
0.0
  0
LINE
  5
3C7
330
1F
100
AcDbEntity
  8
作図レイヤ
 62
     3
370
    40
100
AcDbLine
 10
195.5085780886747
 20
237.4378082675063
 30
0.0
 11
216.372772030399
 21
241.2750232442583
 31
0.0
  0
LINE
  5
3C8
330
1F
100
AcDbEntity
  8
作図レイヤ
 62
     3
370
    40
100
AcDbLine
 10
216.0229931117268
 20
243.2441993938326
 30
0.0
 11
194.7551858967099
 21
239.6898792450688
 31
0.0
  0
LINE
  5
3C9
330
1F
100
AcDbEntity
  8
作図レイヤ
 62
     3
370
    40
100
AcDbLine
 10
197.8838238804986
 20
234.541466229716
 30
0.0
 11
208.5590930499768
 21
236.9504894071298
 31
0.0
  0
LINE
  5
3CA
330
1F
100
AcDbEntity
  8
作図レイヤ
 62
     3
370
    40
100
AcDbLine
 10
195.9293020288243
 20
236.5295166142203
 30
0.0
 11
208.1464704725958
 21
238.9074622246813
 31
0.0
  0
LINE
  5
3CB
330
1F
100
AcDbEntity
  8
作図レイヤ
  6
一点鎖線
 62
     7
100
AcDbLine
 10
234.0084789281035
 20
232.8769024736705
 30
0.0
 11
248.0378238331398
 21
232.8769024736705
 31
0.0
  0
INSERT
  5
3CF
330
1F
100
AcDbEntity
  8
作図レイヤ
 62
     3
370
    40
100
AcDbBlockReference
  2
BLKF058
 10
0.0
 20
0.0
 30
0.0
  0
INSERT
  5
3E5
330
1F
100
AcDbEntity
  8
作図レイヤ
 62
     3
370
    40
100
AcDbBlockReference
  2
BLKF059
 10
0.0
 20
0.0
 30
0.0
  0
LINE
  5
3E8
330
1F
100
AcDbEntity
  8
作図レイヤ
 62
     3
370
    40
100
AcDbLine
 10
185.7739410638504
 20
238.0709896646084
 30
0.0
 11
194.7551858967099
 21
239.6898792450688
 31
0.0
  0
LINE
  5
3E9
330
1F
100
AcDbEntity
  8
作図レイヤ
 62
     3
370
    40
100
AcDbLine
 10
190.6821812981734
 20
236.5678393911739
 30
0.0
 11
195.5085780886747
 21
237.4378082675063
 31
0.0
  0
LINE
  5
3EA
330
1F
100
AcDbEntity
  8
作図レイヤ
 62
     3
370
    40
100
AcDbLine
 10
192.9018431874779
 20
235.8880671680239
 30
0.0
 11
195.9293020288243
 21
236.5295166142203
 31
0.0
  0
LINE
  5
3EB
330
1F
100
AcDbEntity
  8
作図レイヤ
 62
     3
370
    40
100
AcDbLine
 10
197.5380935989668
 20
234.4682138721305
 30
0.0
 11
197.8838238804986
 21
234.541466229716
 31
0.0
  0
LINE
  5
3EC
330
1F
100
AcDbEntity
  8
作図レイヤ
  6
一点鎖線
 62
     7
100
AcDbLine
 10
236.0260653922235
 20
79.2694893587562
 30
0.0
 11
246.0260653922235
 21
79.2694893587562
 31
0.0
  0
LINE
  5
3ED
330
1F
100
AcDbEntity
  8
作図レイヤ
  6
一点鎖線
 62
     7
100
AcDbLine
 10
241.5624131002163
 20
91.05601526701155
 30
0.0
 11
241.5624131002163
 21
75.05601526701155
 31
0.0
  0
INSERT
  5
3F1
330
1F
100
AcDbEntity
  8
作図レイヤ
 62
     3
370
    40
100
AcDbBlockReference
  2
BLKF060
 10
0.0
 20
0.0
 30
0.0
  0
LINE
  5
3F4
330
1F
100
AcDbEntity
  8
作図レイヤ
  6
一点鎖線
 62
     7
100
AcDbLine
 10
236.667058018649
 20
87.2694893587562
 30
0.0
 11
245.3375064248731
 21
87.2694893587562
 31
0.0
  0
CIRCLE
  5
3F5
330
1F
100
AcDbEntity
  8
作図レイヤ
 62
     3
370
    40
100
AcDbCircle
 10
241.5624131002163
 20
87.2694893587562
 30
0.0
 40
2.25
  0
LINE
  5
3F6
330
1F
100
AcDbEntity
  8
作図レイヤ
 62
     3
370
    40
100
AcDbLine
 10
235.9629790356911
 20
67.46906521976062
 30
0.0
 11
219.5325625904038
 21
79.77373074871213
 31
0.0
  0
LINE
  5
3F7
330
1F
100
AcDbEntity
  8
作図レイヤ
 62
     3
370
    40
100
AcDbLine
 10
237.1618471647414
 20
69.0699134977518
 30
0.0
 11
220.731430719454
 21
81.37457902670334
 31
0.0
  0
LINE
  5
3F8
330
1F
100
AcDbEntity
  8
作図レイヤ
 62
     3
370
    40
100
AcDbLine
 10
236.2552767246326
 20
65.31782384672304
 30
0.0
 11
223.5566485767433
 21
69.4161236956846
 31
0.0
  0
LINE
  5
3F9
330
1F
100
AcDbEntity
  8
作図レイヤ
 62
     3
370
    40
100
AcDbLine
 10
236.8695494757999
 20
67.22115487078936
 30
0.0
 11
224.1709213279107
 21
71.31945471975092
 31
0.0
  0
LINE
  5
3FA
330
1F
100
AcDbEntity
  8
作図レイヤ
 62
     3
370
    40
100
AcDbLine
 10
232.5624131002162
 20
155.3231959162134
 30
0.0
 11
219.3739085603497
 21
152.1819071014559
 31
0.0
  0
LINE
  5
3FB
330
1F
100
AcDbEntity
  8
作図レイヤ
 62
     3
370
    40
100
AcDbLine
 10
233.3639124279567
 20
153.4581511381124
 30
0.0
 11
219.6088068330287
 21
150.1819071014559
 31
0.0
  0
ARC
  5
3FC
330
1F
100
AcDbEntity
  8
作図レイヤ
 62
     3
370
    40
100
AcDbCircle
 10
232.5624131002162
 20
156.8231959162133
 30
0.0
 40
3.459180181920625
100
AcDbArc
 50
283.3973024839111
 51
334.3019284372847
  0
ARC
  5
3FD
330
1F
100
AcDbEntity
  8
作図レイヤ
 62
     3
370
    40
100
AcDbCircle
 10
216.1332752666351
 20
164.7737089206626
 30
0.0
 40
15.0
100
AcDbArc
 50
270.0
 51
283.3973024839112
  0
LINE
  5
3FE
330
1F
100
AcDbEntity
  8
作図レイヤ
 62
     3
370
    40
100
AcDbLine
 10
186.266624935725
 20
169.4538459162984
 30
0.0
 11
232.5624131002162
 21
161.3231959162134
 31
0.0
  0
LINE
  5
3FF
330
1F
100
AcDbEntity
  8
作図レイヤ
 62
     3
370
    40
100
AcDbLine
 10
190.1322908338203
 20
170.8055518758799
 30
0.0
 11
233.1639200103863
 21
163.2481664280939
 31
0.0
  0
ARC
  5
400
330
1F
100
AcDbEntity
  8
作図レイヤ
 62
     3
370
    40
100
AcDbCircle
 10
232.5624131002162
 20
159.8231959162134
 30
0.0
 40
3.47738890120643
100
AcDbArc
 50
25.55378188081558
 51
80.03906979461188
  0
LINE
  5
401
330
1F
100
AcDbEntity
  8
作図レイヤ
  6
一点鎖線
 62
     7
100
AcDbLine
 10
241.5624131002162
 20
169.566591763308
 30
0.0
 11
241.5624131002162
 21
159.8231959162133
 31
0.0
  0
INSERT
  5
405
330
1F
100
AcDbEntity
  8
作図レイヤ
 62
     3
370
    40
100
AcDbBlockReference
  2
BLKF061
 10
0.0
 20
0.0
 30
0.0
  0
LINE
  5
416
330
1F
100
AcDbEntity
  8
作図レイヤ
 62
     3
370
    40
100
AcDbLine
 10
232.7529279829263
 20
167.8090746760172
 30
0.0
 11
240.0177026871046
 21
167.2896422020498
 31
0.0
  0
LINE
  5
417
330
1F
100
AcDbEntity
  8
作図レイヤ
 62
     3
370
    40
100
AcDbLine
 10
232.7529279829263
 20
167.8090746760172
 30
0.0
 11
232.5140124057964
 21
164.4676050372198
 31
0.0
  0
LINE
  5
418
330
1F
100
AcDbEntity
  8
作図レイヤ
 62
     3
370
    40
100
AcDbLine
 10
237.7624131002162
 20
164.0923436054363
 30
0.0
 11
232.5140124057964
 21
164.4676050372198
 31
0.0
  0
LINE
  5
419
330
1F
100
AcDbEntity
  8
作図レイヤ
 62
     3
370
    40
100
AcDbLine
 10
231.4567063850924
 20
165.0798479655022
 30
0.0
 11
232.4461601864844
 21
164.9652602469757
 31
0.0
  0
LINE
  5
41A
330
1F
100
AcDbEntity
  8
作図レイヤ
 62
     3
370
    40
100
AcDbLine
 10
231.8983565781324
 20
167.3944071769038
 30
0.0
 11
232.7165046301812
 21
167.299658216852
 31
0.0
  0
LINE
  5
41B
330
1F
100
AcDbEntity
  8
作図レイヤ
 62
     3
370
    40
100
AcDbLine
 10
223.8359366874751
 20
167.0109228869136
 30
0.0
 11
230.0189178221387
 21
165.3541980850636
 31
0.0
  0
LINE
  5
41C
330
1F
100
AcDbEntity
  8
作図レイヤ
 62
     3
370
    40
100
AcDbLine
 10
224.3524910628085
 20
169.3054115831599
 30
0.0
 11
230.4605680151786
 21
167.6687572964651
 31
0.0
  0
LINE
  5
41D
330
1F
100
AcDbEntity
  8
作図レイヤ
 62
     3
370
    40
100
AcDbLine
 10
211.0111553279938
 20
169.3919784760483
 30
0.0
 11
223.0486050117954
 21
167.1881735408725
 31
0.0
  0
LINE
  5
41E
330
1F
100
AcDbEntity
  8
作図レイヤ
 62
     3
370
    40
100
AcDbLine
 10
211.3699890783607
 20
171.7153425155618
 30
0.0
 11
223.5651593871289
 21
169.4826622371187
 31
0.0
  0
LINE
  5
41F
330
1F
100
AcDbEntity
  8
作図レイヤ
 62
     3
370
    40
100
AcDbLine
 10
210.460975887422
 20
169.4769513639278
 30
0.0
 11
201.7515975877535
 21
170.5748356994037
 31
0.0
  0
LINE
  5
420
330
1F
100
AcDbEntity
  8
作図レイヤ
 62
     3
370
    40
100
AcDbLine
 10
210.8198096377889
 20
171.8003154034413
 30
0.0
 11
202.1862962495485
 21
172.8886363814648
 31
0.0
  0
ARC
  5
421
330
1F
100
AcDbEntity
  8
作図レイヤ
 62
     3
370
    40
100
AcDbCircle
 10
233.0487584662039
 20
177.3280155593558
 30
0.0
 40
10.0
100
AcDbArc
 50
254.9999999999998
 51
263.3940569178275
  0
ARC
  5
422
330
1F
100
AcDbEntity
  8
作図レイヤ
 62
     3
370
    40
100
AcDbCircle
 10
232.607108273164
 20
175.0134563479543
 30
0.0
 40
10.0
100
AcDbArc
 50
254.9999999999998
 51
263.3940569178268
  0
ARC
  5
423
330
1F
100
AcDbEntity
  8
作図レイヤ
 62
     3
370
    40
100
AcDbCircle
 10
221.7643006117833
 20
159.6461533202692
 30
0.0
 40
10.0
100
AcDbArc
 50
75.00000000000014
 51
79.62523803266781
  0
ARC
  5
424
330
1F
100
AcDbEntity
  8
作図レイヤ
 62
     3
370
    40
100
AcDbCircle
 10
221.2477462364499
 20
157.3516646240229
 30
0.0
 40
10.0
100
AcDbArc
 50
74.99999999999983
 51
79.62523803266835
  0
ARC
  5
425
330
1F
100
AcDbEntity
  8
作図レイヤ
 62
     3
370
    40
100
AcDbCircle
 10
209.5691303030151
 20
161.8788335987122
 30
0.0
 40
10.0
100
AcDbArc
 50
79.62523803266787
 51
82.81532113041476
  0
ARC
  5
426
330
1F
100
AcDbEntity
  8
作図レイヤ
 62
     3
370
    40
100
AcDbCircle
 10
209.2102965526483
 20
159.5554695591987
 30
0.0
 40
10.0
100
AcDbArc
 50
79.62523803266835
 51
82.81532113041573
  0
INSERT
  5
42A
330
1F
100
AcDbEntity
  8
作図レイヤ
 62
     3
370
    40
100
AcDbBlockReference
  2
BLKF062
 10
0.0
 20
0.0
 30
0.0
  0
INSERT
  5
443
330
1F
100
AcDbEntity
  8
作図レイヤ
 62
     3
370
    40
100
AcDbBlockReference
  2
BLKF063
 10
0.0
 20
0.0
 30
0.0
  0
INSERT
  5
454
330
1F
100
AcDbEntity
  8
作図レイヤ
 62
     3
370
    40
100
AcDbBlockReference
  2
BLKF064
 10
0.0
 20
0.0
 30
0.0
  0
INSERT
  5
46B
330
1F
100
AcDbEntity
  8
作図レイヤ
 62
     3
370
    40
100
AcDbBlockReference
  2
BLKF065
 10
0.0
 20
0.0
 30
0.0
  0
INSERT
  5
482
330
1F
100
AcDbEntity
  8
作図レイヤ
 62
     3
370
    40
100
AcDbBlockReference
  2
BLKF066
 10
0.0
 20
0.0
 30
0.0
  0
INSERT
  5
49C
330
1F
100
AcDbEntity
  8
作図レイヤ
 62
     3
370
    40
100
AcDbBlockReference
  2
BLKF067
 10
0.0
 20
0.0
 30
0.0
  0
INSERT
  5
4B2
330
1F
100
AcDbEntity
  8
作図レイヤ
 62
     3
370
    40
100
AcDbBlockReference
  2
BLKF068
 10
0.0
 20
0.0
 30
0.0
  0
INSERT
  5
4C8
330
1F
100
AcDbEntity
  8
作図レイヤ
 62
     3
370
    40
100
AcDbBlockReference
  2
BLKF069
 10
0.0
 20
0.0
 30
0.0
  0
INSERT
  5
4DE
330
1F
100
AcDbEntity
  8
作図レイヤ
 62
     3
370
    40
100
AcDbBlockReference
  2
BLKF070
 10
0.0
 20
0.0
 30
0.0
  0
LINE
  5
4F1
330
1F
100
AcDbEntity
  8
作図レイヤ
  6
一点鎖線
 62
     7
100
AcDbLine
 10
140.1177457538034
 20
97.26948935875622
 30
0.0
 11
130.1177457538034
 21
97.26948935875622
 31
0.0
  0
LINE
  5
4F2
330
1F
100
AcDbEntity
  8
作図レイヤ
 62
     3
370
    40
100
AcDbLine
 10
249.5624131002163
 20
226.2269024736705
 30
0.0
 11
249.5624131002163
 21
258.3769024736704
 31
0.0
  0
ENDSEC
  0
SECTION
  2
OBJECTS
  0
DICTIONARY
  5
C
330
0
100
AcDbDictionary
281
     1
  3
ACAD_GROUP
350
D
  3
ACAD_LAYOUT
350
1A
  3
ACAD_MATERIAL
350
43
  3
ACAD_MLEADERSTYLE
350
6B
  3
ACAD_MLINESTYLE
350
17
  3
ACAD_PLOTSETTINGS
350
19
  3
ACAD_PLOTSTYLENAME
350
E
  3
ACAD_SCALELIST
350
47
  3
ACAD_TABLESTYLE
350
69
  3
ACAD_VISUALSTYLE
350
2A
  3
AcDbVariableDictionary
350
4F3
  0
DICTIONARY
  5
4FC
330
8
100
AcDbDictionary
280
     1
281
     1
  3
ACAD_XREC_ROUNDTRIP
360
4FD
  0
DICTIONARY
  5
D
102
{ACAD_REACTORS
330
C
102
}
330
C
100
AcDbDictionary
281
     1
  0
DICTIONARY
  5
1A
102
{ACAD_REACTORS
330
C
102
}
330
C
100
AcDbDictionary
281
     1
  3
Layout1
350
1E
  3
Layout2
350
26
  3
Model
350
22
  0
DICTIONARY
  5
43
102
{ACAD_REACTORS
330
C
102
}
330
C
100
AcDbDictionary
281
     1
  3
ByBlock
350
45
  3
ByLayer
350
44
  3
Global
350
46
  0
DICTIONARY
  5
6B
102
{ACAD_REACTORS
330
C
102
}
330
C
100
AcDbDictionary
281
     1
  3
Standard
350
6C
  0
DICTIONARY
  5
17
102
{ACAD_REACTORS
330
C
102
}
330
C
100
AcDbDictionary
281
     1
  3
Standard
350
18
  0
DICTIONARY
  5
19
102
{ACAD_REACTORS
330
C
102
}
330
C
100
AcDbDictionary
281
     1
  0
ACDBDICTIONARYWDFLT
  5
E
102
{ACAD_REACTORS
330
C
102
}
330
C
100
AcDbDictionary
281
     1
  3
Normal
350
F
100
AcDbDictionaryWithDefault
340
F
  0
DICTIONARY
  5
47
102
{ACAD_REACTORS
330
C
102
}
330
C
100
AcDbDictionary
281
     1
  3
A0
350
48
  3
A1
350
49
  3
A2
350
4A
  3
A3
350
4B
  3
A4
350
4C
  3
A5
350
4D
  3
A6
350
4E
  3
A7
350
4F
  3
A8
350
50
  3
A9
350
51
  3
B0
350
52
  3
B1
350
53
  3
B2
350
54
  3
B3
350
55
  3
B4
350
56
  3
B5
350
57
  3
B6
350
58
  3
B7
350
59
  3
B8
350
5A
  3
B9
350
5B
  3
C0
350
5C
  3
C1
350
5D
  3
C2
350
5E
  3
C3
350
5F
  3
C4
350
60
  3
C5
350
61
  3
C6
350
62
  3
C7
350
63
  3
C8
350
64
  3
C9
350
65
  3
D0
350
66
  3
D1
350
67
  3
D2
350
68
  0
DICTIONARY
  5
69
102
{ACAD_REACTORS
330
C
102
}
330
C
100
AcDbDictionary
281
     1
  3
Standard
350
6A
  0
DICTIONARY
  5
2A
102
{ACAD_REACTORS
330
C
102
}
330
C
100
AcDbDictionary
281
     1
  3
2dWireframe
350
2F
  3
Basic
350
32
  3
Brighten
350
36
  3
ColorChange
350
3A
  3
Conceptual
350
34
  3
Dim
350
35
  3
EdgeColorOff
350
3D
  3
Facepattern
350
39
  3
Flat
350
2B
  3
FlatWithEdges
350
2C
  3
Gouraud
350
2D
  3
GouraudWithEdges
350
2E
  3
Hidden
350
31
  3
JitterOff
350
3B
  3
Linepattern
350
38
  3
OverhangOff
350
3C
  3
Realistic
350
33
  3
Shaded
350
42
  3
Shaded with edges
350
41
  3
Shades of Gray
350
3E
  3
Sketchy
350
3F
  3
Thicken
350
37
  3
Wireframe
350
30
  3
X-Ray
350
40
  0
DICTIONARY
  5
4F3
102
{ACAD_REACTORS
330
C
102
}
330
C
100
AcDbDictionary
281
     1
  3
CANNOSCALE
350
4FE
  3
CMLEADERSTYLE
350
4F5
  3
CTABLESTYLE
350
4F4
  3
DIMASSOC
350
4FA
  3
HIDETEXT
350
4FB
  3
MSLTSCALE
350
4FF
  3
PSOLHEIGHT
350
4F7
  3
PSOLWIDTH
350
4F6
  0
XRECORD
  5
4FD
102
{ACAD_REACTORS
330
4FC
102
}
330
4FC
100
AcDbXrecord
280
     1
102
VTR_0.000_0.000_1.000_1.000_GRIDDISPLAY
 70
     3
102
VTR_0.000_0.000_1.000_1.000_GRIDMAJOR
 70
     5
102
VTR_0.000_0.000_1.000_1.000_DEFAULTLIGHTING
280
     1
102
VTR_0.000_0.000_1.000_1.000_DEFAULTLIGHTINGTYPE
 70
     1
102
VTR_0.000_0.000_1.000_1.000_BRIGHTNESS
141
0.0
102
VTR_0.000_0.000_1.000_1.000_CONTRAST
142
0.0
  0
LAYOUT
  5
1E
102
{ACAD_REACTORS
330
1A
102
}
330
1A
100
AcDbPlotSettings
  1

  2
none_device
  4

  6

 40
0.0
 41
0.0
 42
0.0
 43
0.0
 44
0.0
 45
0.0
 46
0.0
 47
0.0
 48
0.0
 49
0.0
140
0.0
141
0.0
142
1.0
143
1.0
 70
   688
 72
     1
 73
     0
 74
     5
  7

 75
    16
147
1.0
148
0.0
149
0.0
100
AcDbLayout
  1
Layout1
 70
     1
 71
     1
 10
0.0
 20
0.0
 11
420.0
 21
297.0
 12
0.0
 22
0.0
 32
0.0
 14
1.000000000000000E+20
 24
1.000000000000000E+20
 34
1.000000000000000E+20
 15
-1.000000000000000E+20
 25
-1.000000000000000E+20
 35
-1.000000000000000E+20
146
0.0
 13
0.0
 23
0.0
 33
0.0
 16
1.0
 26
0.0
 36
0.0
 17
0.0
 27
1.0
 37
0.0
 76
     0
330
1B
  0
LAYOUT
  5
26
102
{ACAD_REACTORS
330
1A
102
}
330
1A
100
AcDbPlotSettings
  1

  2
none_device
  4

  6

 40
0.0
 41
0.0
 42
0.0
 43
0.0
 44
0.0
 45
0.0
 46
0.0
 47
0.0
 48
0.0
 49
0.0
140
0.0
141
0.0
142
1.0
143
1.0
 70
   688
 72
     1
 73
     0
 74
     5
  7

 75
    16
147
1.0
148
0.0
149
0.0
100
AcDbLayout
  1
Layout2
 70
     1
 71
     2
 10
0.0
 20
0.0
 11
0.0
 21
0.0
 12
0.0
 22
0.0
 32
0.0
 14
0.0
 24
0.0
 34
0.0
 15
0.0
 25
0.0
 35
0.0
146
0.0
 13
0.0
 23
0.0
 33
0.0
 16
1.0
 26
0.0
 36
0.0
 17
0.0
 27
1.0
 37
0.0
 76
     0
330
23
  0
LAYOUT
  5
22
102
{ACAD_REACTORS
330
1A
102
}
330
1A
100
AcDbPlotSettings
  1

  2
none_device
  4
Letter_(8.50_x_11.00_Inches)
  6

 40
6.35
 41
6.35
 42
6.35000508
 43
6.35000508
 44
215.9
 45
279.4
 46
0.0
 47
0.0
 48
0.0
 49
0.0
140
0.0
141
0.0
142
1.0
143
1.0
 70
  1712
 72
     1
 73
     0
 74
     0
  7

 75
     0
147
1.0
148
0.0
149
0.0
100
AcDbLayout
  1
Model
 70
     1
 71
     0
 10
0.0
 20
0.0
 11
420.0
 21
297.0
 12
0.0
 22
0.0
 32
0.0
 14
0.0
 24
0.0
 34
0.0
 15
420.0
 25
297.0
 35
0.0
146
0.0
 13
0.0
 23
0.0
 33
0.0
 16
1.0
 26
0.0
 36
0.0
 17
0.0
 27
1.0
 37
0.0
 76
     0
330
1F
331
29
  0
MATERIAL
  5
45
102
{ACAD_REACTORS
330
43
102
}
102
{ACAD_XDICTIONARY
360
532
102
}
330
43
100
AcDbMaterial
  1
ByBlock
  0
MATERIAL
  5
44
102
{ACAD_REACTORS
330
43
102
}
102
{ACAD_XDICTIONARY
360
530
102
}
330
43
100
AcDbMaterial
  1
ByLayer
  0
MATERIAL
  5
46
102
{ACAD_REACTORS
330
43
102
}
102
{ACAD_XDICTIONARY
360
534
102
}
330
43
100
AcDbMaterial
  1
Global
  0
MLEADERSTYLE
  5
6C
102
{ACAD_REACTORS
330
6B
102
}
102
{ACAD_XDICTIONARY
360
537
102
}
330
6B
100
AcDbMLeaderStyle
170
     2
171
     1
172
     0
 90
        2
 40
0.0
 41
0.0
173
     1
 91
-1056964608
340
14
 92
       -2
290
     1
 42
2.0
291
     1
 43
8.0
  3
Standard
341
0
 44
4.0
300

342
11
174
     1
178
     6
175
     1
176
     0
 93
-1056964608
 45
4.0
292
     0
297
     0
 46
4.0
343
0
 94
-1056964608
 47
1.0
 49
1.0
140
1.0
293
     1
141
0.0
294
     1
177
     0
142
1.0
295
     0
296
     0
143
3.75
1001
ACAD_MLEADERVER
1070
     2
  0
MLINESTYLE
  5
18
102
{ACAD_REACTORS
330
17
102
}
330
17
100
AcDbMlineStyle
  2
Standard
 70
     0
  3

 62
   256
 51
90.0
 52
90.0
 71
     2
 49
0.5
 62
   256
  6
BYLAYER
 49
-0.5
 62
   256
  6
BYLAYER
  0
ACDBPLACEHOLDER
  5
F
102
{ACAD_REACTORS
330
E
102
}
330
E
  0
SCALE
  5
48
102
{ACAD_REACTORS
330
47
102
}
330
47
100
AcDbScale
 70
     0
300
1:1
140
1.0
141
1.0
290
     1
  0
SCALE
  5
49
102
{ACAD_REACTORS
330
47
102
}
330
47
100
AcDbScale
 70
     0
300
1:2
140
1.0
141
2.0
290
     0
  0
SCALE
  5
4A
102
{ACAD_REACTORS
330
47
102
}
330
47
100
AcDbScale
 70
     0
300
1:4
140
1.0
141
4.0
290
     0
  0
SCALE
  5
4B
102
{ACAD_REACTORS
330
47
102
}
330
47
100
AcDbScale
 70
     0
300
1:5
140
1.0
141
5.0
290
     0
  0
SCALE
  5
4C
102
{ACAD_REACTORS
330
47
102
}
330
47
100
AcDbScale
 70
     0
300
1:8
140
1.0
141
8.0
290
     0
  0
SCALE
  5
4D
102
{ACAD_REACTORS
330
47
102
}
330
47
100
AcDbScale
 70
     0
300
1:10
140
1.0
141
10.0
290
     0
  0
SCALE
  5
4E
102
{ACAD_REACTORS
330
47
102
}
330
47
100
AcDbScale
 70
     0
300
1:16
140
1.0
141
16.0
290
     0
  0
SCALE
  5
4F
102
{ACAD_REACTORS
330
47
102
}
330
47
100
AcDbScale
 70
     0
300
1:20
140
1.0
141
20.0
290
     0
  0
SCALE
  5
50
102
{ACAD_REACTORS
330
47
102
}
330
47
100
AcDbScale
 70
     0
300
1:30
140
1.0
141
30.0
290
     0
  0
SCALE
  5
51
102
{ACAD_REACTORS
330
47
102
}
330
47
100
AcDbScale
 70
     0
300
1:40
140
1.0
141
40.0
290
     0
  0
SCALE
  5
52
102
{ACAD_REACTORS
330
47
102
}
330
47
100
AcDbScale
 70
     0
300
1:50
140
1.0
141
50.0
290
     0
  0
SCALE
  5
53
102
{ACAD_REACTORS
330
47
102
}
330
47
100
AcDbScale
 70
     0
300
1:100
140
1.0
141
100.0
290
     0
  0
SCALE
  5
54
102
{ACAD_REACTORS
330
47
102
}
330
47
100
AcDbScale
 70
     0
300
2:1
140
2.0
141
1.0
290
     0
  0
SCALE
  5
55
102
{ACAD_REACTORS
330
47
102
}
330
47
100
AcDbScale
 70
     0
300
4:1
140
4.0
141
1.0
290
     0
  0
SCALE
  5
56
102
{ACAD_REACTORS
330
47
102
}
330
47
100
AcDbScale
 70
     0
300
8:1
140
8.0
141
1.0
290
     0
  0
SCALE
  5
57
102
{ACAD_REACTORS
330
47
102
}
330
47
100
AcDbScale
 70
     0
300
10:1
140
10.0
141
1.0
290
     0
  0
SCALE
  5
58
102
{ACAD_REACTORS
330
47
102
}
330
47
100
AcDbScale
 70
     0
300
100:1
140
100.0
141
1.0
290
     0
  0
SCALE
  5
59
102
{ACAD_REACTORS
330
47
102
}
330
47
100
AcDbScale
 70
     0
300
1/128" = 1'-0"
140
0.0078125
141
12.0
290
     0
  0
SCALE
  5
5A
102
{ACAD_REACTORS
330
47
102
}
330
47
100
AcDbScale
 70
     0
300
1/64" = 1'-0"
140
0.015625
141
12.0
290
     0
  0
SCALE
  5
5B
102
{ACAD_REACTORS
330
47
102
}
330
47
100
AcDbScale
 70
     0
300
1/32" = 1'-0"
140
0.03125
141
12.0
290
     0
  0
SCALE
  5
5C
102
{ACAD_REACTORS
330
47
102
}
330
47
100
AcDbScale
 70
     0
300
1/16" = 1'-0"
140
0.0625
141
12.0
290
     0
  0
SCALE
  5
5D
102
{ACAD_REACTORS
330
47
102
}
330
47
100
AcDbScale
 70
     0
300
3/32" = 1'-0"
140
0.09375
141
12.0
290
     0
  0
SCALE
  5
5E
102
{ACAD_REACTORS
330
47
102
}
330
47
100
AcDbScale
 70
     0
300
1/8" = 1'-0"
140
0.125
141
12.0
290
     0
  0
SCALE
  5
5F
102
{ACAD_REACTORS
330
47
102
}
330
47
100
AcDbScale
 70
     0
300
3/16" = 1'-0"
140
0.1875
141
12.0
290
     0
  0
SCALE
  5
60
102
{ACAD_REACTORS
330
47
102
}
330
47
100
AcDbScale
 70
     0
300
1/4" = 1'-0"
140
0.25
141
12.0
290
     0
  0
SCALE
  5
61
102
{ACAD_REACTORS
330
47
102
}
330
47
100
AcDbScale
 70
     0
300
3/8" = 1'-0"
140
0.375
141
12.0
290
     0
  0
SCALE
  5
62
102
{ACAD_REACTORS
330
47
102
}
330
47
100
AcDbScale
 70
     0
300
1/2" = 1'-0"
140
0.5
141
12.0
290
     0
  0
SCALE
  5
63
102
{ACAD_REACTORS
330
47
102
}
330
47
100
AcDbScale
 70
     0
300
3/4" = 1'-0"
140
0.75
141
12.0
290
     0
  0
SCALE
  5
64
102
{ACAD_REACTORS
330
47
102
}
330
47
100
AcDbScale
 70
     0
300
1" = 1'-0"
140
1.0
141
12.0
290
     0
  0
SCALE
  5
65
102
{ACAD_REACTORS
330
47
102
}
330
47
100
AcDbScale
 70
     0
300
1-1/2" = 1'-0"
140
1.5
141
12.0
290
     0
  0
SCALE
  5
66
102
{ACAD_REACTORS
330
47
102
}
330
47
100
AcDbScale
 70
     0
300
3" = 1'-0"
140
3.0
141
12.0
290
     0
  0
SCALE
  5
67
102
{ACAD_REACTORS
330
47
102
}
330
47
100
AcDbScale
 70
     0
300
6" = 1'-0"
140
6.0
141
12.0
290
     0
  0
SCALE
  5
68
102
{ACAD_REACTORS
330
47
102
}
330
47
100
AcDbScale
 70
     0
300
1'-0" = 1'-0"
140
12.0
141
12.0
290
     0
  0
TABLESTYLE
  5
6A
102
{ACAD_REACTORS
330
69
102
}
330
69
100
AcDbTableStyle
  3
Standard
 70
     0
 71
     0
 40
1.5
 41
1.5
280
     0
281
     0
  7
Standard
140
4.5
170
     2
 62
     0
 63
   257
283
     0
274
    -2
284
     1
 64
     0
275
    -2
285
     1
 65
     0
276
    -2
286
     1
 66
     0
277
    -2
287
     1
 67
     0
278
    -2
288
     1
 68
     0
279
    -2
289
     1
 69
     0
  7
Standard
140
6.0
170
     5
 62
     0
 63
   257
283
     0
274
    -2
284
     1
 64
     0
275
    -2
285
     1
 65
     0
276
    -2
286
     1
 66
     0
277
    -2
287
     1
 67
     0
278
    -2
288
     1
 68
     0
279
    -2
289
     1
 69
     0
  7
Standard
140
4.5
170
     5
 62
     0
 63
   257
283
     0
274
    -2
284
     1
 64
     0
275
    -2
285
     1
 65
     0
276
    -2
286
     1
 66
     0
277
    -2
287
     1
 67
     0
278
    -2
288
     1
 68
     0
279
    -2
289
     1
 69
     0
  0
VISUALSTYLE
  5
2F
102
{ACAD_REACTORS
330
2A
102
}
102
{ACAD_XDICTIONARY
360
508
102
}
330
2A
100
AcDbVisualStyle
  2
2dWireframe
 70
     4
 71
     0
 72
     2
 73
     0
 90
        0
 40
0.6
 41
30.0
 62
     5
 63
     7
 74
     1
 91
        4
 64
     7
 65
   257
 75
     1
175
     1
 42
1.0
 92
        0
 66
   257
 43
1.0
 76
     1
 77
     6
 78
     2
 67
     7
 79
     5
170
     0
171
     0
290
     0
174
     0
 93
        1
 44
0.0
173
     0
291
     0
 45
0.0
1001
ACAD
1000
AcDbSavedByObjectVersion
1070
     0
  0
VISUALSTYLE
  5
32
102
{ACAD_REACTORS
330
2A
102
}
102
{ACAD_XDICTIONARY
360
50E
102
}
330
2A
100
AcDbVisualStyle
  2
Basic
 70
     7
 71
     1
 72
     0
 73
     1
 90
        0
 40
0.6
 41
30.0
 62
     5
 63
     7
 74
     0
 91
        4
 64
     7
 65
   257
 75
     1
175
     1
 42
1.0
 92
        8
 66
     7
 43
1.0
 76
     1
 77
     6
 78
     2
 67
     7
 79
     5
170
     0
171
     0
290
     0
174
     0
 93
        1
 44
0.0
173
     0
291
     1
 45
0.0
1001
ACAD
1000
AcDbSavedByObjectVersion
1070
     0
  0
VISUALSTYLE
  5
36
102
{ACAD_REACTORS
330
2A
102
}
102
{ACAD_XDICTIONARY
360
516
102
}
330
2A
100
AcDbVisualStyle
  2
Brighten
 70
    12
 71
     2
 72
     2
 73
     0
 90
        0
 40
0.6
 41
30.0
 62
     5
 63
     7
 74
     1
 91
        4
 64
     7
 65
   257
 75
     1
175
     1
 42
1.0
 92
        8
 66
     7
 43
1.0
 76
     1
 77
     6
 78
     2
 67
     7
 79
     5
170
     0
171
     0
290
     0
174
     0
 93
        1
 44
50.0
173
     0
291
     1
 45
0.0
1001
ACAD
1000
AcDbSavedByObjectVersion
1070
     0
  0
VISUALSTYLE
  5
3A
102
{ACAD_REACTORS
330
2A
102
}
102
{ACAD_XDICTIONARY
360
51E
102
}
330
2A
100
AcDbVisualStyle
  2
ColorChange
 70
    16
 71
     2
 72
     2
 73
     3
 90
        0
 40
0.6
 41
30.0
 62
     5
 63
     8
 74
     1
 91
        4
 64
     7
 65
   257
 75
     1
175
     1
 42
1.0
 92
        8
 66
     8
 43
1.0
 76
     1
 77
     6
 78
     2
 67
     7
 79
     5
170
     0
171
     0
290
     0
174
     0
 93
        1
 44
0.0
173
     0
291
     1
 45
0.0
1001
ACAD
1000
AcDbSavedByObjectVersion
1070
     0
  0
VISUALSTYLE
  5
34
102
{ACAD_REACTORS
330
2A
102
}
102
{ACAD_XDICTIONARY
360
512
102
}
330
2A
100
AcDbVisualStyle
  2
Conceptual
 70
     9
 71
     3
 72
     2
 73
     0
 90
        0
 40
0.6
 41
30.0
 62
     5
 63
     7
 74
     2
 91
        2
 64
     7
 65
   257
 75
     1
175
     1
 42
179.0
 92
        8
 66
     7
 43
1.0
 76
     1
 77
     6
 78
     2
 67
     7
 79
     3
170
     0
171
     0
290
     0
174
     0
 93
        1
 44
0.0
173
     0
291
     0
 45
0.0
1001
ACAD
1000
AcDbSavedByObjectVersion
1070
     0
  0
VISUALSTYLE
  5
35
102
{ACAD_REACTORS
330
2A
102
}
102
{ACAD_XDICTIONARY
360
514
102
}
330
2A
100
AcDbVisualStyle
  2
Dim
 70
    11
 71
     2
 72
     2
 73
     0
 90
        0
 40
0.6
 41
30.0
 62
     5
 63
     7
 74
     1
 91
        4
 64
     7
 65
   257
 75
     1
175
     1
 42
1.0
 92
        8
 66
     7
 43
1.0
 76
     1
 77
     6
 78
     2
 67
     7
 79
     5
170
     0
171
     0
290
     0
174
     0
 93
        1
 44
-50.0
173
     0
291
     1
 45
0.0
1001
ACAD
1000
AcDbSavedByObjectVersion
1070
     0
  0
VISUALSTYLE
  5
3D
102
{ACAD_REACTORS
330
2A
102
}
102
{ACAD_XDICTIONARY
360
524
102
}
330
2A
100
AcDbVisualStyle
  2
EdgeColorOff
 70
    22
 71
     2
 72
     2
 73
     0
 90
        0
 40
0.6
 41
30.0
 62
     5
 63
     7
 74
     1
 91
        4
 64
     7
 65
   257
 75
     1
175
     1
 42
1.0
 92
        8
 66
     7
 43
1.0
 76
     1
 77
     6
 78
     2
 67
     7
 79
     5
170
     0
171
     0
290
     0
174
     0
 93
        1
 44
0.0
173
     0
291
     1
 45
0.0
1001
ACAD
1000
AcDbSavedByObjectVersion
1070
     0
  0
VISUALSTYLE
  5
39
102
{ACAD_REACTORS
330
2A
102
}
102
{ACAD_XDICTIONARY
360
51C
102
}
330
2A
100
AcDbVisualStyle
  2
Facepattern
 70
    15
 71
     2
 72
     2
 73
     0
 90
        0
 40
0.6
 41
30.0
 62
     5
 63
     7
 74
     1
 91
        4
 64
     7
 65
   257
 75
     1
175
     1
 42
1.0
 92
        8
 66
     7
 43
1.0
 76
     1
 77
     6
 78
     2
 67
     7
 79
     5
170
     0
171
     0
290
     0
174
     0
 93
        1
 44
0.0
173
     0
291
     1
 45
0.0
1001
ACAD
1000
AcDbSavedByObjectVersion
1070
     0
  0
VISUALSTYLE
  5
2B
102
{ACAD_REACTORS
330
2A
102
}
102
{ACAD_XDICTIONARY
360
500
102
}
330
2A
100
AcDbVisualStyle
  2
Flat
 70
     0
 71
     2
 72
     1
 73
     1
 90
        2
 40
0.6
 41
30.0
 62
     5
 63
     7
 74
     0
 91
        0
 64
     7
 65
   257
 75
     1
175
     1
 42
1.0
 92
        8
 66
     7
 43
1.0
 76
     1
 77
     6
 78
     2
 67
     7
 79
     5
170
     0
171
     0
290
     0
174
     0
 93
       13
 44
0.0
173
     0
291
     1
 45
0.0
1001
ACAD
1000
AcDbSavedByObjectVersion
1070
     0
  0
VISUALSTYLE
  5
2C
102
{ACAD_REACTORS
330
2A
102
}
102
{ACAD_XDICTIONARY
360
502
102
}
330
2A
100
AcDbVisualStyle
  2
FlatWithEdges
 70
     1
 71
     2
 72
     1
 73
     1
 90
        2
 40
0.6
 41
30.0
 62
     5
 63
     7
 74
     1
 91
        0
 64
     7
 65
   257
 75
     1
175
     1
 42
1.0
 92
        0
 66
   257
 43
1.0
 76
     1
 77
     6
 78
     2
 67
     7
 79
     5
170
     0
171
     0
290
     0
174
     0
 93
       13
 44
0.0
173
     0
291
     1
 45
0.0
1001
ACAD
1000
AcDbSavedByObjectVersion
1070
     0
  0
VISUALSTYLE
  5
2D
102
{ACAD_REACTORS
330
2A
102
}
102
{ACAD_XDICTIONARY
360
504
102
}
330
2A
100
AcDbVisualStyle
  2
Gouraud
 70
     2
 71
     2
 72
     2
 73
     1
 90
        2
 40
0.6
 41
30.0
 62
     5
 63
     7
 74
     0
 91
        0
 64
     7
 65
   257
 75
     1
175
     1
 42
1.0
 92
        0
 66
     7
 43
1.0
 76
     1
 77
     6
 78
     2
 67
     7
 79
     5
170
     0
171
     0
290
     0
174
     0
 93
       13
 44
0.0
173
     0
291
     1
 45
0.0
1001
ACAD
1000
AcDbSavedByObjectVersion
1070
     0
  0
VISUALSTYLE
  5
2E
102
{ACAD_REACTORS
330
2A
102
}
102
{ACAD_XDICTIONARY
360
506
102
}
330
2A
100
AcDbVisualStyle
  2
GouraudWithEdges
 70
     3
 71
     2
 72
     2
 73
     1
 90
        2
 40
0.6
 41
30.0
 62
     5
 63
     7
 74
     1
 91
        0
 64
     7
 65
   257
 75
     1
175
     1
 42
1.0
 92
        0
 66
   257
 43
1.0
 76
     1
 77
     6
 78
     2
 67
     7
 79
     5
170
     0
171
     0
290
     0
174
     0
 93
       13
 44
0.0
173
     0
291
     1
 45
0.0
1001
ACAD
1000
AcDbSavedByObjectVersion
1070
     0
  0
VISUALSTYLE
  5
31
102
{ACAD_REACTORS
330
2A
102
}
102
{ACAD_XDICTIONARY
360
50C
102
}
330
2A
100
AcDbVisualStyle
  2
Hidden
 70
     6
 71
     1
 72
     2
 73
     2
 90
        0
 40
0.6
 41
30.0
 62
     5
 63
     7
 74
     2
 91
        2
 64
     7
 65
   257
 75
     2
175
     1
 42
40.0
 92
        0
 66
   257
 43
1.0
 76
     1
 77
     6
 78
     2
 67
     7
 79
     3
170
     0
171
     0
290
     0
174
     0
 93
        1
 44
0.0
173
     0
291
     0
 45
0.0
1001
ACAD
1000
AcDbSavedByObjectVersion
1070
     0
  0
VISUALSTYLE
  5
3B
102
{ACAD_REACTORS
330
2A
102
}
102
{ACAD_XDICTIONARY
360
520
102
}
330
2A
100
AcDbVisualStyle
  2
JitterOff
 70
    20
 71
     2
 72
     2
 73
     0
 90
        0
 40
0.6
 41
30.0
 62
     5
 63
     7
 74
     1
 91
        4
 64
     7
 65
   257
 75
     1
175
     1
 42
1.0
 92
       10
 66
     7
 43
1.0
 76
     1
 77
     6
 78
     2
 67
     7
 79
     5
170
     0
171
     0
290
     0
174
     0
 93
        1
 44
0.0
173
     0
291
     1
 45
0.0
1001
ACAD
1000
AcDbSavedByObjectVersion
1070
     0
  0
VISUALSTYLE
  5
38
102
{ACAD_REACTORS
330
2A
102
}
102
{ACAD_XDICTIONARY
360
51A
102
}
330
2A
100
AcDbVisualStyle
  2
Linepattern
 70
    14
 71
     2
 72
     2
 73
     0
 90
        0
 40
0.6
 41
30.0
 62
     5
 63
     7
 74
     1
 91
        4
 64
     7
 65
   257
 75
     7
175
     7
 42
1.0
 92
        8
 66
     7
 43
1.0
 76
     1
 77
     6
 78
     2
 67
     7
 79
     5
170
     0
171
     0
290
     0
174
     0
 93
        1
 44
0.0
173
     0
291
     1
 45
0.0
1001
ACAD
1000
AcDbSavedByObjectVersion
1070
     0
  0
VISUALSTYLE
  5
3C
102
{ACAD_REACTORS
330
2A
102
}
102
{ACAD_XDICTIONARY
360
522
102
}
330
2A
100
AcDbVisualStyle
  2
OverhangOff
 70
    21
 71
     2
 72
     2
 73
     0
 90
        0
 40
0.6
 41
30.0
 62
     5
 63
     7
 74
     1
 91
        4
 64
     7
 65
   257
 75
     1
175
     1
 42
1.0
 92
        9
 66
     7
 43
1.0
 76
     1
 77
     6
 78
     2
 67
     7
 79
     5
170
     0
171
     0
290
     0
174
     0
 93
        1
 44
0.0
173
     0
291
     1
 45
0.0
1001
ACAD
1000
AcDbSavedByObjectVersion
1070
     0
  0
VISUALSTYLE
  5
33
102
{ACAD_REACTORS
330
2A
102
}
102
{ACAD_XDICTIONARY
360
510
102
}
330
2A
100
AcDbVisualStyle
  2
Realistic
 70
     8
 71
     2
 72
     3
 73
     0
 90
        2
 40
0.6
 41
30.0
 62
     5
 63
     7
 74
     0
 91
        0
 64
     7
 65
   257
 75
     1
175
     1
 42
1.0
 92
        8
 66
   257
 43
1.0
 76
     1
 77
     6
 78
     2
 67
     7
 79
     3
170
     0
171
     0
290
     0
174
     0
 93
       13
 44
0.0
173
     0
291
     0
 45
0.0
1001
ACAD
1000
AcDbSavedByObjectVersion
1070
     0
  0
VISUALSTYLE
  5
42
102
{ACAD_REACTORS
330
2A
102
}
102
{ACAD_XDICTIONARY
360
52E
102
}
330
2A
100
AcDbVisualStyle
  2
Shaded
 70
    27
 71
     2
 72
     2
 73
     1
 90
        2
 40
0.6
 41
30.0
 62
     5
 63
     7
 74
     0
 91
        4
 64
     7
 65
   257
 75
     1
175
     1
 42
1.0
 92
        8
 66
   257
 43
1.0
 76
     1
 77
     6
 78
     2
 67
     8
 79
     3
170
     0
171
     0
290
     0
174
     0
 93
        5
 44
0.0
173
     0
291
     0
 45
0.0
1001
ACAD
1000
AcDbSavedByObjectVersion
1070
     0
  0
VISUALSTYLE
  5
41
102
{ACAD_REACTORS
330
2A
102
}
102
{ACAD_XDICTIONARY
360
52C
102
}
330
2A
100
AcDbVisualStyle
  2
Shaded with edges
 70
    26
 71
     2
 72
     2
 73
     1
 90
        2
 40
0.6
 41
30.0
 62
     5
 63
     7
 74
     1
 91
       10
 64
     7
 65
   257
 75
     2
175
     1
 42
1.0
 92
        8
 66
   257
 43
1.0
 76
     1
 77
     6
 78
     2
 67
     7
 79
     3
170
     0
171
     0
290
     0
174
     0
 93
        5
 44
0.0
173
     0
291
     0
 45
0.0
1001
ACAD
1000
AcDbSavedByObjectVersion
1070
     0
  0
VISUALSTYLE
  5
3E
102
{ACAD_REACTORS
330
2A
102
}
102
{ACAD_XDICTIONARY
360
526
102
}
330
2A
100
AcDbVisualStyle
  2
Shades of Gray
 70
    23
 71
     2
 72
     2
 73
     3
 90
        0
 40
0.6
 41
30.0
 62
     5
 63
     7
 74
     2
 91
        2
 64
     7
 65
     7
 75
     1
175
     1
 42
40.0
 92
        8
 66
     7
 43
1.0
 76
     1
 77
     6
 78
     2
 67
     7
 79
     3
170
     0
171
     0
290
     0
174
     0
 93
        1
 44
0.0
173
     0
291
     0
 45
0.0
1001
ACAD
1000
AcDbSavedByObjectVersion
1070
     0
  0
VISUALSTYLE
  5
3F
102
{ACAD_REACTORS
330
2A
102
}
102
{ACAD_XDICTIONARY
360
528
102
}
330
2A
100
AcDbVisualStyle
  2
Sketchy
 70
    24
 71
     1
 72
     2
 73
     2
 90
        0
 40
0.6
 41
30.0
 62
     5
 63
     7
 74
     2
 91
        2
 64
     7
 65
     7
 75
     1
175
     1
 42
40.0
 92
       11
 66
     7
 43
1.0
 76
     1
 77
     6
 78
     2
 67
     7
 79
     6
170
     0
171
     0
290
     0
174
     0
 93
        1
 44
0.0
173
     0
291
     0
 45
0.0
1001
ACAD
1000
AcDbSavedByObjectVersion
1070
     0
  0
VISUALSTYLE
  5
37
102
{ACAD_REACTORS
330
2A
102
}
102
{ACAD_XDICTIONARY
360
518
102
}
330
2A
100
AcDbVisualStyle
  2
Thicken
 70
    13
 71
     2
 72
     2
 73
     0
 90
        0
 40
0.6
 41
30.0
 62
     5
 63
     7
 74
     1
 91
        4
 64
     7
 65
   257
 75
     1
175
     1
 42
1.0
 92
       12
 66
     7
 43
1.0
 76
     1
 77
     6
 78
     2
 67
     7
 79
     5
170
     0
171
     0
290
     0
174
     0
 93
        1
 44
0.0
173
     0
291
     1
 45
0.0
1001
ACAD
1000
AcDbSavedByObjectVersion
1070
     0
  0
VISUALSTYLE
  5
30
102
{ACAD_REACTORS
330
2A
102
}
102
{ACAD_XDICTIONARY
360
50A
102
}
330
2A
100
AcDbVisualStyle
  2
Wireframe
 70
     5
 71
     0
 72
     2
 73
     0
 90
        0
 40
0.6
 41
30.0
 62
     5
 63
     7
 74
     1
 91
        4
 64
     7
 65
   257
 75
     1
175
     1
 42
1.0
 92
        0
 66
   257
 43
1.0
 76
     1
 77
     6
 78
     2
 67
     7
 79
     3
170
     0
171
     0
290
     0
174
     0
 93
        1
 44
0.0
173
     0
291
     0
 45
0.0
1001
ACAD
1000
AcDbSavedByObjectVersion
1070
     0
  0
VISUALSTYLE
  5
40
102
{ACAD_REACTORS
330
2A
102
}
102
{ACAD_XDICTIONARY
360
52A
102
}
330
2A
100
AcDbVisualStyle
  2
X-Ray
 70
    25
 71
     2
 72
     2
 73
     1
 90
        1
 40
0.5
 41
30.0
 62
     5
 63
     7
 74
     1
 91
        0
 64
     7
 65
   257
 75
     1
175
     1
 42
1.0
 92
        8
 66
     7
 43
1.0
 76
     1
 77
     6
 78
     2
 67
     7
 79
     3
170
     0
171
     0
290
     0
174
     0
 93
       13
 44
0.0
173
     0
291
     0
 45
0.0
1001
ACAD
1000
AcDbSavedByObjectVersion
1070
     0
  0
DICTIONARYVAR
  5
4FE
102
{ACAD_REACTORS
330
4F3
102
}
330
4F3
100
DictionaryVariables
280
     0
  1
1:1
  0
DICTIONARYVAR
  5
4F5
102
{ACAD_REACTORS
330
4F3
102
}
330
4F3
100
DictionaryVariables
280
     0
  1
Standard
  0
DICTIONARYVAR
  5
4F4
102
{ACAD_REACTORS
330
4F3
102
}
330
4F3
100
DictionaryVariables
280
     0
  1
Standard
  0
DICTIONARYVAR
  5
4FA
102
{ACAD_REACTORS
330
4F3
102
}
330
4F3
100
DictionaryVariables
280
     0
  1
2
  0
DICTIONARYVAR
  5
4FB
102
{ACAD_REACTORS
330
4F3
102
}
330
4F3
100
DictionaryVariables
280
     0
  1
1
  0
DICTIONARYVAR
  5
4FF
102
{ACAD_REACTORS
330
4F3
102
}
330
4F3
100
DictionaryVariables
280
     0
  1
1
  0
DICTIONARYVAR
  5
4F7
102
{ACAD_REACTORS
330
4F3
102
}
330
4F3
100
DictionaryVariables
280
     0
  1
80.000000
  0
DICTIONARYVAR
  5
4F6
102
{ACAD_REACTORS
330
4F3
102
}
330
4F3
100
DictionaryVariables
280
     0
  1
5.000000
  0
DICTIONARY
  5
532
330
45
100
AcDbDictionary
280
     1
281
     1
  3
ACAD_XREC_ROUNDTRIP
360
533
  0
DICTIONARY
  5
530
330
44
100
AcDbDictionary
280
     1
281
     1
  3
ACAD_XREC_ROUNDTRIP
360
531
  0
DICTIONARY
  5
534
330
46
100
AcDbDictionary
280
     1
281
     1
  3
ACAD_XREC_ROUNDTRIP
360
535
  0
DICTIONARY
  5
537
330
6C
100
AcDbDictionary
280
     1
281
     1
  3
ACAD_XREC_ROUNDTRIP
360
538
  0
DICTIONARY
  5
508
330
2F
100
AcDbDictionary
280
     1
281
     1
  3
ACAD_XREC_ROUNDTRIP
360
509
  0
DICTIONARY
  5
50E
330
32
100
AcDbDictionary
280
     1
281
     1
  3
ACAD_XREC_ROUNDTRIP
360
50F
  0
DICTIONARY
  5
516
330
36
100
AcDbDictionary
280
     1
281
     1
  3
ACAD_XREC_ROUNDTRIP
360
517
  0
DICTIONARY
  5
51E
330
3A
100
AcDbDictionary
280
     1
281
     1
  3
ACAD_XREC_ROUNDTRIP
360
51F
  0
DICTIONARY
  5
512
330
34
100
AcDbDictionary
280
     1
281
     1
  3
ACAD_XREC_ROUNDTRIP
360
513
  0
DICTIONARY
  5
514
330
35
100
AcDbDictionary
280
     1
281
     1
  3
ACAD_XREC_ROUNDTRIP
360
515
  0
DICTIONARY
  5
524
330
3D
100
AcDbDictionary
280
     1
281
     1
  3
ACAD_XREC_ROUNDTRIP
360
525
  0
DICTIONARY
  5
51C
330
39
100
AcDbDictionary
280
     1
281
     1
  3
ACAD_XREC_ROUNDTRIP
360
51D
  0
DICTIONARY
  5
500
330
2B
100
AcDbDictionary
280
     1
281
     1
  3
ACAD_XREC_ROUNDTRIP
360
501
  0
DICTIONARY
  5
502
330
2C
100
AcDbDictionary
280
     1
281
     1
  3
ACAD_XREC_ROUNDTRIP
360
503
  0
DICTIONARY
  5
504
330
2D
100
AcDbDictionary
280
     1
281
     1
  3
ACAD_XREC_ROUNDTRIP
360
505
  0
DICTIONARY
  5
506
330
2E
100
AcDbDictionary
280
     1
281
     1
  3
ACAD_XREC_ROUNDTRIP
360
507
  0
DICTIONARY
  5
50C
330
31
100
AcDbDictionary
280
     1
281
     1
  3
ACAD_XREC_ROUNDTRIP
360
50D
  0
DICTIONARY
  5
520
330
3B
100
AcDbDictionary
280
     1
281
     1
  3
ACAD_XREC_ROUNDTRIP
360
521
  0
DICTIONARY
  5
51A
330
38
100
AcDbDictionary
280
     1
281
     1
  3
ACAD_XREC_ROUNDTRIP
360
51B
  0
DICTIONARY
  5
522
330
3C
100
AcDbDictionary
280
     1
281
     1
  3
ACAD_XREC_ROUNDTRIP
360
523
  0
DICTIONARY
  5
510
330
33
100
AcDbDictionary
280
     1
281
     1
  3
ACAD_XREC_ROUNDTRIP
360
511
  0
DICTIONARY
  5
52E
330
42
100
AcDbDictionary
280
     1
281
     1
  3
ACAD_XREC_ROUNDTRIP
360
52F
  0
DICTIONARY
  5
52C
330
41
100
AcDbDictionary
280
     1
281
     1
  3
ACAD_XREC_ROUNDTRIP
360
52D
  0
DICTIONARY
  5
526
330
3E
100
AcDbDictionary
280
     1
281
     1
  3
ACAD_XREC_ROUNDTRIP
360
527
  0
DICTIONARY
  5
528
330
3F
100
AcDbDictionary
280
     1
281
     1
  3
ACAD_XREC_ROUNDTRIP
360
529
  0
DICTIONARY
  5
518
330
37
100
AcDbDictionary
280
     1
281
     1
  3
ACAD_XREC_ROUNDTRIP
360
519
  0
DICTIONARY
  5
50A
330
30
100
AcDbDictionary
280
     1
281
     1
  3
ACAD_XREC_ROUNDTRIP
360
50B
  0
DICTIONARY
  5
52A
330
40
100
AcDbDictionary
280
     1
281
     1
  3
ACAD_XREC_ROUNDTRIP
360
52B
  0
XRECORD
  5
533
102
{ACAD_REACTORS
330
532
102
}
330
532
100
AcDbXrecord
280
     1
102
MATERIAL
148
0.0
149
0.0
149
0.0
 93
        0
 94
      127
282
     0
 72
     1
 77
     1
171
     1
175
     1
179
     1
273
     0
  0
XRECORD
  5
531
102
{ACAD_REACTORS
330
530
102
}
330
530
100
AcDbXrecord
280
     1
102
MATERIAL
148
0.0
149
0.0
149
0.0
 93
        0
 94
      127
282
     0
 72
     1
 77
     1
171
     1
175
     1
179
     1
273
     0
  0
XRECORD
  5
535
102
{ACAD_REACTORS
330
534
102
}
330
534
100
AcDbXrecord
280
     1
102
MATERIAL
148
0.0
149
0.0
149
0.0
 93
        0
 94
      127
282
     0
 72
     1
 77
     1
171
     1
175
     1
179
     1
273
     0
  0
XRECORD
  5
538
102
{ACAD_REACTORS
330
537
102
}
330
537
100
AcDbXrecord
280
     1
102
ACAD_ROUNDTRIP_2010_MLEADER_STYLE
  0
XRECORD
  5
509
102
{ACAD_REACTORS
330
508
102
}
330
508
100
AcDbXrecord
280
     1
102
RTVSPropertyOp0
 70
     1
102
RTVSPropertyOp1
 70
     1
102
RTVSPropertyOp2
 70
     1
102
RTVSPropertyOp3
 70
     1
102
RTVSPropertyOp4
 70
     1
102
RTVSPropertyOp5
 70
     1
102
RTVSPropertyOp6
 70
     1
102
RTVSPropertyOp7
 70
     1
102
RTVSPropertyOp8
 70
     1
102
RTVSPropertyOp9
 70
     1
102
RTVSPropertyOp10
 70
     1
102
RTVSPropertyOp11
 70
     1
102
RTVSPropertyOp12
 70
     1
102
RTVSPropertyOp13
 70
     1
102
RTVSPropertyOp14
 70
     1
102
RTVSPropertyOp15
 70
     1
102
RTVSPropertyOp16
 70
     1
102
RTVSPropertyOp17
 70
     1
102
RTVSPropertyOp18
 70
     1
102
RTVSPropertyOp19
 70
     1
102
RTVSPropertyOp20
 70
     1
102
RTVSPropertyOp21
 70
     1
102
RTVSPropertyOp22
 70
     1
102
RTVSPropertyOp23
 70
     1
102
RTVSPropertyOp24
 70
     1
102
RTVSPropertyOp25
 70
     1
102
RTVSPropertyOp26
 70
     1
102
RTVSPropertyOp27
 70
     1
102
RTVSPropertyOp28
 70
     1
102
RTVSPropertyOp29
 70
     1
102
RTVSPropertyOp30
 70
     1
102
RTVSPropertyOp31
 70
     1
102
RTVSPropertyOp32
 70
     1
102
RTVSPropertyOp33
 70
     1
102
RTVSPropertyOp34
 70
     1
102
RTVSPropertyOp35
 70
     1
102
RTVSPropertyOp36
 70
     1
102
RTVSPropertyOp37
 70
     1
102
RTVSPropertyOp38
 70
     1
102
RTVSPropertyOp39
 70
     1
102
RTVSPropertyOp40
 70
     1
102
RTVSPropertyOp41
 70
     1
102
RTVSPropertyOp42
 70
     1
102
RTVSPropertyOp43
 70
     1
102
RTVSPropertyOp44
 70
     1
102
RTVSPropertyOp45
 70
     1
102
RTVSPropertyOp46
 70
     1
102
RTVSPropertyOp47
 70
     1
102
RTVSPropertyOp48
 70
     1
102
RTVSPropertyOp49
 70
     1
102
RTVSPropertyOp50
 70
     1
102
RTVSPropertyOp51
 70
     0
102
RTVSPropertyOp52
 70
     0
102
RTVSPropertyOp53
 70
     1
102
RTVSPropertyOp54
 70
     1
102
RTVSPropertyOp55
 70
     1
102
RTVSPropertyOp56
 70
     1
102
RTVSPropertyOp57
 70
     1
102
RTVSPost2010Prop28
280
     1
102
RTVSPost2010PropOp28
 70
     1
102
RTVSPost2010Prop29
280
     1
102
RTVSPost2010PropOp29
 70
     1
102
RTVSPost2010Prop30
280
     0
102
RTVSPost2010PropOp30
 70
     1
102
RTVSPost2010Prop31
280
     0
102
RTVSPost2010PropOp31
 70
     1
102
RTVSPost2010Prop32
280
     0
102
RTVSPost2010PropOp32
 70
     1
102
RTVSPost2010Prop33
280
     0
102
RTVSPost2010PropOp33
 70
     1
102
RTVSPost2010Prop34
280
     0
102
RTVSPost2010PropOp34
 70
     1
102
RTVSPost2010Prop35
280
     0
102
RTVSPost2010PropOp35
 70
     1
102
RTVSPost2010Prop36
280
     0
102
RTVSPost2010PropOp36
 70
     1
102
RTVSPost2010Prop37
 90
       50
102
RTVSPost2010PropOp37
 70
     1
102
RTVSPost2010Prop38
140
0.0
102
RTVSPost2010PropOp38
 70
     1
102
RTVSPost2010Prop39
140
1.0
102
RTVSPost2010PropOp39
 70
     1
102
RTVSPost2010Prop40
 90
        0
102
RTVSPost2010PropOp40
 70
     1
102
RTVSPost2010Prop41ColorIndex
 90
       18
102
RTVSPost2010Prop41ColorRGB
 90
        0
102
RTVSPost2010PropOp41
 70
     1
102
RTVSPost2010Prop42
 90
       50
102
RTVSPost2010PropOp42
 70
     1
102
RTVSPost2010Prop43
 90
        3
102
RTVSPost2010PropOp43
 70
     1
102
RTVSPost2010Prop44ColorIndex
 90
        5
102
RTVSPost2010Prop44ColorRGB
 90
      255
102
RTVSPost2010PropOp44
 70
     1
102
RTVSPost2010Prop45
280
     0
102
RTVSPost2010PropOp45
 70
     1
102
RTVSPost2010Prop46
 90
       50
102
RTVSPost2010PropOp46
 70
     1
102
RTVSPost2010Prop47
 90
       50
102
RTVSPost2010PropOp47
 70
     1
102
RTVSPost2010Prop48
 90
       50
102
RTVSPost2010PropOp48
 70
     1
102
RTVSPost2010Prop49
280
     0
102
RTVSPost2010PropOp49
 70
     1
102
RTVSPost2010Prop50
 90
       50
102
RTVSPost2010PropOp50
 70
     1
102
RTVSPost2010Prop51ColorIndex
 90
      256
102
RTVSPost2010Prop51ColorRGB
 90
-16777216
102
RTVSPost2010PropOp51
 70
     0
102
RTVSPost2010Prop52
140
1.0
102
RTVSPost2010PropOp52
 70
     0
102
RTVSPost2010Prop53
 90
        2
102
RTVSPost2010PropOp53
 70
     1
102
RTVSPost2010Prop54
  1
strokes_ogs.tif
102
RTVSPost2010PropOp54
 70
     1
102
RTVSPost2010Prop55
280
     0
102
RTVSPost2010PropOp55
 70
     1
102
RTVSPost2010Prop56
140
1.0
102
RTVSPost2010PropOp56
 70
     1
102
RTVSPost2010Prop57
140
1.0
102
RTVSPost2010PropOp57
 70
     1
  0
XRECORD
  5
50F
102
{ACAD_REACTORS
330
50E
102
}
330
50E
100
AcDbXrecord
280
     1
102
RTVSPropertyOp0
 70
     1
102
RTVSPropertyOp1
 70
     1
102
RTVSPropertyOp2
 70
     1
102
RTVSPropertyOp3
 70
     1
102
RTVSPropertyOp4
 70
     1
102
RTVSPropertyOp5
 70
     1
102
RTVSPropertyOp6
 70
     1
102
RTVSPropertyOp7
 70
     1
102
RTVSPropertyOp8
 70
     1
102
RTVSPropertyOp9
 70
     1
102
RTVSPropertyOp10
 70
     1
102
RTVSPropertyOp11
 70
     1
102
RTVSPropertyOp12
 70
     1
102
RTVSPropertyOp13
 70
     1
102
RTVSPropertyOp14
 70
     1
102
RTVSPropertyOp15
 70
     1
102
RTVSPropertyOp16
 70
     1
102
RTVSPropertyOp17
 70
     1
102
RTVSPropertyOp18
 70
     1
102
RTVSPropertyOp19
 70
     1
102
RTVSPropertyOp20
 70
     1
102
RTVSPropertyOp21
 70
     1
102
RTVSPropertyOp22
 70
     1
102
RTVSPropertyOp23
 70
     1
102
RTVSPropertyOp24
 70
     1
102
RTVSPropertyOp25
 70
     1
102
RTVSPropertyOp26
 70
     1
102
RTVSPropertyOp27
 70
     1
102
RTVSPropertyOp28
 70
     1
102
RTVSPropertyOp29
 70
     1
102
RTVSPropertyOp30
 70
     1
102
RTVSPropertyOp31
 70
     1
102
RTVSPropertyOp32
 70
     1
102
RTVSPropertyOp33
 70
     1
102
RTVSPropertyOp34
 70
     1
102
RTVSPropertyOp35
 70
     1
102
RTVSPropertyOp36
 70
     1
102
RTVSPropertyOp37
 70
     1
102
RTVSPropertyOp38
 70
     1
102
RTVSPropertyOp39
 70
     1
102
RTVSPropertyOp40
 70
     1
102
RTVSPropertyOp41
 70
     1
102
RTVSPropertyOp42
 70
     1
102
RTVSPropertyOp43
 70
     1
102
RTVSPropertyOp44
 70
     1
102
RTVSPropertyOp45
 70
     1
102
RTVSPropertyOp46
 70
     1
102
RTVSPropertyOp47
 70
     1
102
RTVSPropertyOp48
 70
     1
102
RTVSPropertyOp49
 70
     1
102
RTVSPropertyOp50
 70
     1
102
RTVSPropertyOp51
 70
     0
102
RTVSPropertyOp52
 70
     0
102
RTVSPropertyOp53
 70
     1
102
RTVSPropertyOp54
 70
     1
102
RTVSPropertyOp55
 70
     1
102
RTVSPropertyOp56
 70
     1
102
RTVSPropertyOp57
 70
     1
102
RTVSPost2010Prop28
280
     0
102
RTVSPost2010PropOp28
 70
     1
102
RTVSPost2010Prop29
280
     1
102
RTVSPost2010PropOp29
 70
     1
102
RTVSPost2010Prop30
280
     1
102
RTVSPost2010PropOp30
 70
     1
102
RTVSPost2010Prop31
280
     0
102
RTVSPost2010PropOp31
 70
     1
102
RTVSPost2010Prop32
280
     0
102
RTVSPost2010PropOp32
 70
     1
102
RTVSPost2010Prop33
280
     0
102
RTVSPost2010PropOp33
 70
     1
102
RTVSPost2010Prop34
280
     0
102
RTVSPost2010PropOp34
 70
     1
102
RTVSPost2010Prop35
280
     0
102
RTVSPost2010PropOp35
 70
     1
102
RTVSPost2010Prop36
280
     0
102
RTVSPost2010PropOp36
 70
     1
102
RTVSPost2010Prop37
 90
       50
102
RTVSPost2010PropOp37
 70
     1
102
RTVSPost2010Prop38
140
0.0
102
RTVSPost2010PropOp38
 70
     1
102
RTVSPost2010Prop39
140
1.0
102
RTVSPost2010PropOp39
 70
     1
102
RTVSPost2010Prop40
 90
        0
102
RTVSPost2010PropOp40
 70
     1
102
RTVSPost2010Prop41ColorIndex
 90
       18
102
RTVSPost2010Prop41ColorRGB
 90
        0
102
RTVSPost2010PropOp41
 70
     1
102
RTVSPost2010Prop42
 90
       50
102
RTVSPost2010PropOp42
 70
     1
102
RTVSPost2010Prop43
 90
        3
102
RTVSPost2010PropOp43
 70
     1
102
RTVSPost2010Prop44ColorIndex
 90
        5
102
RTVSPost2010Prop44ColorRGB
 90
      255
102
RTVSPost2010PropOp44
 70
     1
102
RTVSPost2010Prop45
280
     0
102
RTVSPost2010PropOp45
 70
     1
102
RTVSPost2010Prop46
 90
       50
102
RTVSPost2010PropOp46
 70
     1
102
RTVSPost2010Prop47
 90
       50
102
RTVSPost2010PropOp47
 70
     1
102
RTVSPost2010Prop48
 90
       50
102
RTVSPost2010PropOp48
 70
     1
102
RTVSPost2010Prop49
280
     0
102
RTVSPost2010PropOp49
 70
     1
102
RTVSPost2010Prop50
 90
       50
102
RTVSPost2010PropOp50
 70
     1
102
RTVSPost2010Prop51ColorIndex
 90
      256
102
RTVSPost2010Prop51ColorRGB
 90
-16777216
102
RTVSPost2010PropOp51
 70
     0
102
RTVSPost2010Prop52
140
1.0
102
RTVSPost2010PropOp52
 70
     0
102
RTVSPost2010Prop53
 90
        2
102
RTVSPost2010PropOp53
 70
     1
102
RTVSPost2010Prop54
  1
strokes_ogs.tif
102
RTVSPost2010PropOp54
 70
     1
102
RTVSPost2010Prop55
280
     0
102
RTVSPost2010PropOp55
 70
     1
102
RTVSPost2010Prop56
140
1.0
102
RTVSPost2010PropOp56
 70
     1
102
RTVSPost2010Prop57
140
1.0
102
RTVSPost2010PropOp57
 70
     1
  0
XRECORD
  5
517
102
{ACAD_REACTORS
330
516
102
}
330
516
100
AcDbXrecord
280
     1
102
RTVSPropertyOp0
 70
     1
102
RTVSPropertyOp1
 70
     1
102
RTVSPropertyOp2
 70
     1
102
RTVSPropertyOp3
 70
     1
102
RTVSPropertyOp4
 70
     1
102
RTVSPropertyOp5
 70
     1
102
RTVSPropertyOp6
 70
     1
102
RTVSPropertyOp7
 70
     1
102
RTVSPropertyOp8
 70
     1
102
RTVSPropertyOp9
 70
     1
102
RTVSPropertyOp10
 70
     1
102
RTVSPropertyOp11
 70
     1
102
RTVSPropertyOp12
 70
     1
102
RTVSPropertyOp13
 70
     1
102
RTVSPropertyOp14
 70
     1
102
RTVSPropertyOp15
 70
     1
102
RTVSPropertyOp16
 70
     1
102
RTVSPropertyOp17
 70
     1
102
RTVSPropertyOp18
 70
     1
102
RTVSPropertyOp19
 70
     1
102
RTVSPropertyOp20
 70
     1
102
RTVSPropertyOp21
 70
     1
102
RTVSPropertyOp22
 70
     1
102
RTVSPropertyOp23
 70
     1
102
RTVSPropertyOp24
 70
     1
102
RTVSPropertyOp25
 70
     1
102
RTVSPropertyOp26
 70
     1
102
RTVSPropertyOp27
 70
     1
102
RTVSPropertyOp28
 70
     1
102
RTVSPropertyOp29
 70
     1
102
RTVSPropertyOp30
 70
     1
102
RTVSPropertyOp31
 70
     1
102
RTVSPropertyOp32
 70
     1
102
RTVSPropertyOp33
 70
     1
102
RTVSPropertyOp34
 70
     1
102
RTVSPropertyOp35
 70
     1
102
RTVSPropertyOp36
 70
     1
102
RTVSPropertyOp37
 70
     1
102
RTVSPropertyOp38
 70
     1
102
RTVSPropertyOp39
 70
     1
102
RTVSPropertyOp40
 70
     1
102
RTVSPropertyOp41
 70
     1
102
RTVSPropertyOp42
 70
     1
102
RTVSPropertyOp43
 70
     1
102
RTVSPropertyOp44
 70
     1
102
RTVSPropertyOp45
 70
     1
102
RTVSPropertyOp46
 70
     1
102
RTVSPropertyOp47
 70
     1
102
RTVSPropertyOp48
 70
     1
102
RTVSPropertyOp49
 70
     1
102
RTVSPropertyOp50
 70
     1
102
RTVSPropertyOp51
 70
     0
102
RTVSPropertyOp52
 70
     0
102
RTVSPropertyOp53
 70
     1
102
RTVSPropertyOp54
 70
     1
102
RTVSPropertyOp55
 70
     1
102
RTVSPropertyOp56
 70
     1
102
RTVSPropertyOp57
 70
     1
102
RTVSPost2010Prop28
280
     0
102
RTVSPost2010PropOp28
 70
     1
102
RTVSPost2010Prop29
280
     1
102
RTVSPost2010PropOp29
 70
     1
102
RTVSPost2010Prop30
280
     1
102
RTVSPost2010PropOp30
 70
     1
102
RTVSPost2010Prop31
280
     0
102
RTVSPost2010PropOp31
 70
     1
102
RTVSPost2010Prop32
280
     0
102
RTVSPost2010PropOp32
 70
     1
102
RTVSPost2010Prop33
280
     0
102
RTVSPost2010PropOp33
 70
     1
102
RTVSPost2010Prop34
280
     0
102
RTVSPost2010PropOp34
 70
     1
102
RTVSPost2010Prop35
280
     0
102
RTVSPost2010PropOp35
 70
     1
102
RTVSPost2010Prop36
280
     0
102
RTVSPost2010PropOp36
 70
     1
102
RTVSPost2010Prop37
 90
       50
102
RTVSPost2010PropOp37
 70
     1
102
RTVSPost2010Prop38
140
0.0
102
RTVSPost2010PropOp38
 70
     1
102
RTVSPost2010Prop39
140
1.0
102
RTVSPost2010PropOp39
 70
     1
102
RTVSPost2010Prop40
 90
        0
102
RTVSPost2010PropOp40
 70
     1
102
RTVSPost2010Prop41ColorIndex
 90
       18
102
RTVSPost2010Prop41ColorRGB
 90
        0
102
RTVSPost2010PropOp41
 70
     1
102
RTVSPost2010Prop42
 90
       50
102
RTVSPost2010PropOp42
 70
     1
102
RTVSPost2010Prop43
 90
        3
102
RTVSPost2010PropOp43
 70
     1
102
RTVSPost2010Prop44ColorIndex
 90
        5
102
RTVSPost2010Prop44ColorRGB
 90
      255
102
RTVSPost2010PropOp44
 70
     1
102
RTVSPost2010Prop45
280
     0
102
RTVSPost2010PropOp45
 70
     1
102
RTVSPost2010Prop46
 90
       50
102
RTVSPost2010PropOp46
 70
     1
102
RTVSPost2010Prop47
 90
       50
102
RTVSPost2010PropOp47
 70
     1
102
RTVSPost2010Prop48
 90
       50
102
RTVSPost2010PropOp48
 70
     1
102
RTVSPost2010Prop49
280
     0
102
RTVSPost2010PropOp49
 70
     1
102
RTVSPost2010Prop50
 90
       50
102
RTVSPost2010PropOp50
 70
     1
102
RTVSPost2010Prop51ColorIndex
 90
      256
102
RTVSPost2010Prop51ColorRGB
 90
-16777216
102
RTVSPost2010PropOp51
 70
     0
102
RTVSPost2010Prop52
140
1.0
102
RTVSPost2010PropOp52
 70
     0
102
RTVSPost2010Prop53
 90
        2
102
RTVSPost2010PropOp53
 70
     1
102
RTVSPost2010Prop54
  1
strokes_ogs.tif
102
RTVSPost2010PropOp54
 70
     1
102
RTVSPost2010Prop55
280
     0
102
RTVSPost2010PropOp55
 70
     1
102
RTVSPost2010Prop56
140
1.0
102
RTVSPost2010PropOp56
 70
     1
102
RTVSPost2010Prop57
140
1.0
102
RTVSPost2010PropOp57
 70
     1
  0
XRECORD
  5
51F
102
{ACAD_REACTORS
330
51E
102
}
330
51E
100
AcDbXrecord
280
     1
102
RTVSPropertyOp0
 70
     1
102
RTVSPropertyOp1
 70
     1
102
RTVSPropertyOp2
 70
     1
102
RTVSPropertyOp3
 70
     1
102
RTVSPropertyOp4
 70
     1
102
RTVSPropertyOp5
 70
     1
102
RTVSPropertyOp6
 70
     1
102
RTVSPropertyOp7
 70
     1
102
RTVSPropertyOp8
 70
     1
102
RTVSPropertyOp9
 70
     1
102
RTVSPropertyOp10
 70
     1
102
RTVSPropertyOp11
 70
     1
102
RTVSPropertyOp12
 70
     1
102
RTVSPropertyOp13
 70
     1
102
RTVSPropertyOp14
 70
     1
102
RTVSPropertyOp15
 70
     1
102
RTVSPropertyOp16
 70
     1
102
RTVSPropertyOp17
 70
     1
102
RTVSPropertyOp18
 70
     1
102
RTVSPropertyOp19
 70
     1
102
RTVSPropertyOp20
 70
     1
102
RTVSPropertyOp21
 70
     1
102
RTVSPropertyOp22
 70
     1
102
RTVSPropertyOp23
 70
     1
102
RTVSPropertyOp24
 70
     1
102
RTVSPropertyOp25
 70
     1
102
RTVSPropertyOp26
 70
     1
102
RTVSPropertyOp27
 70
     1
102
RTVSPropertyOp28
 70
     1
102
RTVSPropertyOp29
 70
     1
102
RTVSPropertyOp30
 70
     1
102
RTVSPropertyOp31
 70
     1
102
RTVSPropertyOp32
 70
     1
102
RTVSPropertyOp33
 70
     1
102
RTVSPropertyOp34
 70
     1
102
RTVSPropertyOp35
 70
     1
102
RTVSPropertyOp36
 70
     1
102
RTVSPropertyOp37
 70
     1
102
RTVSPropertyOp38
 70
     1
102
RTVSPropertyOp39
 70
     1
102
RTVSPropertyOp40
 70
     1
102
RTVSPropertyOp41
 70
     1
102
RTVSPropertyOp42
 70
     1
102
RTVSPropertyOp43
 70
     1
102
RTVSPropertyOp44
 70
     1
102
RTVSPropertyOp45
 70
     1
102
RTVSPropertyOp46
 70
     1
102
RTVSPropertyOp47
 70
     1
102
RTVSPropertyOp48
 70
     1
102
RTVSPropertyOp49
 70
     1
102
RTVSPropertyOp50
 70
     1
102
RTVSPropertyOp51
 70
     0
102
RTVSPropertyOp52
 70
     0
102
RTVSPropertyOp53
 70
     1
102
RTVSPropertyOp54
 70
     1
102
RTVSPropertyOp55
 70
     1
102
RTVSPropertyOp56
 70
     1
102
RTVSPropertyOp57
 70
     1
102
RTVSPost2010Prop28
280
     0
102
RTVSPost2010PropOp28
 70
     1
102
RTVSPost2010Prop29
280
     1
102
RTVSPost2010PropOp29
 70
     1
102
RTVSPost2010Prop30
280
     1
102
RTVSPost2010PropOp30
 70
     1
102
RTVSPost2010Prop31
280
     0
102
RTVSPost2010PropOp31
 70
     1
102
RTVSPost2010Prop32
280
     0
102
RTVSPost2010PropOp32
 70
     1
102
RTVSPost2010Prop33
280
     0
102
RTVSPost2010PropOp33
 70
     1
102
RTVSPost2010Prop34
280
     0
102
RTVSPost2010PropOp34
 70
     1
102
RTVSPost2010Prop35
280
     0
102
RTVSPost2010PropOp35
 70
     1
102
RTVSPost2010Prop36
280
     0
102
RTVSPost2010PropOp36
 70
     1
102
RTVSPost2010Prop37
 90
       50
102
RTVSPost2010PropOp37
 70
     1
102
RTVSPost2010Prop38
140
0.0
102
RTVSPost2010PropOp38
 70
     1
102
RTVSPost2010Prop39
140
1.0
102
RTVSPost2010PropOp39
 70
     1
102
RTVSPost2010Prop40
 90
        0
102
RTVSPost2010PropOp40
 70
     1
102
RTVSPost2010Prop41ColorIndex
 90
       18
102
RTVSPost2010Prop41ColorRGB
 90
        0
102
RTVSPost2010PropOp41
 70
     1
102
RTVSPost2010Prop42
 90
       50
102
RTVSPost2010PropOp42
 70
     1
102
RTVSPost2010Prop43
 90
        3
102
RTVSPost2010PropOp43
 70
     1
102
RTVSPost2010Prop44ColorIndex
 90
        5
102
RTVSPost2010Prop44ColorRGB
 90
      255
102
RTVSPost2010PropOp44
 70
     1
102
RTVSPost2010Prop45
280
     0
102
RTVSPost2010PropOp45
 70
     1
102
RTVSPost2010Prop46
 90
       50
102
RTVSPost2010PropOp46
 70
     1
102
RTVSPost2010Prop47
 90
       50
102
RTVSPost2010PropOp47
 70
     1
102
RTVSPost2010Prop48
 90
       50
102
RTVSPost2010PropOp48
 70
     1
102
RTVSPost2010Prop49
280
     0
102
RTVSPost2010PropOp49
 70
     1
102
RTVSPost2010Prop50
 90
       50
102
RTVSPost2010PropOp50
 70
     1
102
RTVSPost2010Prop51ColorIndex
 90
      256
102
RTVSPost2010Prop51ColorRGB
 90
-16777216
102
RTVSPost2010PropOp51
 70
     0
102
RTVSPost2010Prop52
140
1.0
102
RTVSPost2010PropOp52
 70
     0
102
RTVSPost2010Prop53
 90
        2
102
RTVSPost2010PropOp53
 70
     1
102
RTVSPost2010Prop54
  1
strokes_ogs.tif
102
RTVSPost2010PropOp54
 70
     1
102
RTVSPost2010Prop55
280
     0
102
RTVSPost2010PropOp55
 70
     1
102
RTVSPost2010Prop56
140
1.0
102
RTVSPost2010PropOp56
 70
     1
102
RTVSPost2010Prop57
140
1.0
102
RTVSPost2010PropOp57
 70
     1
  0
XRECORD
  5
513
102
{ACAD_REACTORS
330
512
102
}
330
512
100
AcDbXrecord
280
     1
102
RTVSPropertyOp0
 70
     1
102
RTVSPropertyOp1
 70
     1
102
RTVSPropertyOp2
 70
     1
102
RTVSPropertyOp3
 70
     1
102
RTVSPropertyOp4
 70
     1
102
RTVSPropertyOp5
 70
     1
102
RTVSPropertyOp6
 70
     1
102
RTVSPropertyOp7
 70
     1
102
RTVSPropertyOp8
 70
     1
102
RTVSPropertyOp9
 70
     1
102
RTVSPropertyOp10
 70
     1
102
RTVSPropertyOp11
 70
     1
102
RTVSPropertyOp12
 70
     1
102
RTVSPropertyOp13
 70
     1
102
RTVSPropertyOp14
 70
     1
102
RTVSPropertyOp15
 70
     1
102
RTVSPropertyOp16
 70
     1
102
RTVSPropertyOp17
 70
     1
102
RTVSPropertyOp18
 70
     1
102
RTVSPropertyOp19
 70
     1
102
RTVSPropertyOp20
 70
     1
102
RTVSPropertyOp21
 70
     1
102
RTVSPropertyOp22
 70
     1
102
RTVSPropertyOp23
 70
     1
102
RTVSPropertyOp24
 70
     1
102
RTVSPropertyOp25
 70
     1
102
RTVSPropertyOp26
 70
     1
102
RTVSPropertyOp27
 70
     1
102
RTVSPropertyOp28
 70
     1
102
RTVSPropertyOp29
 70
     1
102
RTVSPropertyOp30
 70
     1
102
RTVSPropertyOp31
 70
     1
102
RTVSPropertyOp32
 70
     1
102
RTVSPropertyOp33
 70
     1
102
RTVSPropertyOp34
 70
     1
102
RTVSPropertyOp35
 70
     1
102
RTVSPropertyOp36
 70
     1
102
RTVSPropertyOp37
 70
     1
102
RTVSPropertyOp38
 70
     1
102
RTVSPropertyOp39
 70
     1
102
RTVSPropertyOp40
 70
     1
102
RTVSPropertyOp41
 70
     1
102
RTVSPropertyOp42
 70
     1
102
RTVSPropertyOp43
 70
     1
102
RTVSPropertyOp44
 70
     1
102
RTVSPropertyOp45
 70
     1
102
RTVSPropertyOp46
 70
     1
102
RTVSPropertyOp47
 70
     1
102
RTVSPropertyOp48
 70
     1
102
RTVSPropertyOp49
 70
     1
102
RTVSPropertyOp50
 70
     1
102
RTVSPropertyOp51
 70
     0
102
RTVSPropertyOp52
 70
     0
102
RTVSPropertyOp53
 70
     1
102
RTVSPropertyOp54
 70
     1
102
RTVSPropertyOp55
 70
     1
102
RTVSPropertyOp56
 70
     1
102
RTVSPropertyOp57
 70
     1
102
RTVSPost2010Prop28
280
     0
102
RTVSPost2010PropOp28
 70
     1
102
RTVSPost2010Prop29
280
     1
102
RTVSPost2010PropOp29
 70
     1
102
RTVSPost2010Prop30
280
     1
102
RTVSPost2010PropOp30
 70
     1
102
RTVSPost2010Prop31
280
     0
102
RTVSPost2010PropOp31
 70
     1
102
RTVSPost2010Prop32
280
     0
102
RTVSPost2010PropOp32
 70
     1
102
RTVSPost2010Prop33
280
     0
102
RTVSPost2010PropOp33
 70
     1
102
RTVSPost2010Prop34
280
     0
102
RTVSPost2010PropOp34
 70
     1
102
RTVSPost2010Prop35
280
     0
102
RTVSPost2010PropOp35
 70
     1
102
RTVSPost2010Prop36
280
     0
102
RTVSPost2010PropOp36
 70
     1
102
RTVSPost2010Prop37
 90
       50
102
RTVSPost2010PropOp37
 70
     1
102
RTVSPost2010Prop38
140
0.0
102
RTVSPost2010PropOp38
 70
     1
102
RTVSPost2010Prop39
140
1.0
102
RTVSPost2010PropOp39
 70
     1
102
RTVSPost2010Prop40
 90
        0
102
RTVSPost2010PropOp40
 70
     1
102
RTVSPost2010Prop41ColorIndex
 90
       18
102
RTVSPost2010Prop41ColorRGB
 90
        0
102
RTVSPost2010PropOp41
 70
     1
102
RTVSPost2010Prop42
 90
       50
102
RTVSPost2010PropOp42
 70
     1
102
RTVSPost2010Prop43
 90
        3
102
RTVSPost2010PropOp43
 70
     1
102
RTVSPost2010Prop44ColorIndex
 90
        5
102
RTVSPost2010Prop44ColorRGB
 90
      255
102
RTVSPost2010PropOp44
 70
     1
102
RTVSPost2010Prop45
280
     0
102
RTVSPost2010PropOp45
 70
     1
102
RTVSPost2010Prop46
 90
       50
102
RTVSPost2010PropOp46
 70
     1
102
RTVSPost2010Prop47
 90
       50
102
RTVSPost2010PropOp47
 70
     1
102
RTVSPost2010Prop48
 90
       50
102
RTVSPost2010PropOp48
 70
     1
102
RTVSPost2010Prop49
280
     0
102
RTVSPost2010PropOp49
 70
     1
102
RTVSPost2010Prop50
 90
       50
102
RTVSPost2010PropOp50
 70
     1
102
RTVSPost2010Prop51ColorIndex
 90
      256
102
RTVSPost2010Prop51ColorRGB
 90
-16777216
102
RTVSPost2010PropOp51
 70
     0
102
RTVSPost2010Prop52
140
1.0
102
RTVSPost2010PropOp52
 70
     0
102
RTVSPost2010Prop53
 90
        2
102
RTVSPost2010PropOp53
 70
     1
102
RTVSPost2010Prop54
  1
strokes_ogs.tif
102
RTVSPost2010PropOp54
 70
     1
102
RTVSPost2010Prop55
280
     0
102
RTVSPost2010PropOp55
 70
     1
102
RTVSPost2010Prop56
140
1.0
102
RTVSPost2010PropOp56
 70
     1
102
RTVSPost2010Prop57
140
1.0
102
RTVSPost2010PropOp57
 70
     1
  0
XRECORD
  5
515
102
{ACAD_REACTORS
330
514
102
}
330
514
100
AcDbXrecord
280
     1
102
RTVSPropertyOp0
 70
     1
102
RTVSPropertyOp1
 70
     1
102
RTVSPropertyOp2
 70
     1
102
RTVSPropertyOp3
 70
     1
102
RTVSPropertyOp4
 70
     1
102
RTVSPropertyOp5
 70
     1
102
RTVSPropertyOp6
 70
     1
102
RTVSPropertyOp7
 70
     1
102
RTVSPropertyOp8
 70
     1
102
RTVSPropertyOp9
 70
     1
102
RTVSPropertyOp10
 70
     1
102
RTVSPropertyOp11
 70
     1
102
RTVSPropertyOp12
 70
     1
102
RTVSPropertyOp13
 70
     1
102
RTVSPropertyOp14
 70
     1
102
RTVSPropertyOp15
 70
     1
102
RTVSPropertyOp16
 70
     1
102
RTVSPropertyOp17
 70
     1
102
RTVSPropertyOp18
 70
     1
102
RTVSPropertyOp19
 70
     1
102
RTVSPropertyOp20
 70
     1
102
RTVSPropertyOp21
 70
     1
102
RTVSPropertyOp22
 70
     1
102
RTVSPropertyOp23
 70
     1
102
RTVSPropertyOp24
 70
     1
102
RTVSPropertyOp25
 70
     1
102
RTVSPropertyOp26
 70
     1
102
RTVSPropertyOp27
 70
     1
102
RTVSPropertyOp28
 70
     1
102
RTVSPropertyOp29
 70
     1
102
RTVSPropertyOp30
 70
     1
102
RTVSPropertyOp31
 70
     1
102
RTVSPropertyOp32
 70
     1
102
RTVSPropertyOp33
 70
     1
102
RTVSPropertyOp34
 70
     1
102
RTVSPropertyOp35
 70
     1
102
RTVSPropertyOp36
 70
     1
102
RTVSPropertyOp37
 70
     1
102
RTVSPropertyOp38
 70
     1
102
RTVSPropertyOp39
 70
     1
102
RTVSPropertyOp40
 70
     1
102
RTVSPropertyOp41
 70
     1
102
RTVSPropertyOp42
 70
     1
102
RTVSPropertyOp43
 70
     1
102
RTVSPropertyOp44
 70
     1
102
RTVSPropertyOp45
 70
     1
102
RTVSPropertyOp46
 70
     1
102
RTVSPropertyOp47
 70
     1
102
RTVSPropertyOp48
 70
     1
102
RTVSPropertyOp49
 70
     1
102
RTVSPropertyOp50
 70
     1
102
RTVSPropertyOp51
 70
     0
102
RTVSPropertyOp52
 70
     0
102
RTVSPropertyOp53
 70
     1
102
RTVSPropertyOp54
 70
     1
102
RTVSPropertyOp55
 70
     1
102
RTVSPropertyOp56
 70
     1
102
RTVSPropertyOp57
 70
     1
102
RTVSPost2010Prop28
280
     0
102
RTVSPost2010PropOp28
 70
     1
102
RTVSPost2010Prop29
280
     1
102
RTVSPost2010PropOp29
 70
     1
102
RTVSPost2010Prop30
280
     1
102
RTVSPost2010PropOp30
 70
     1
102
RTVSPost2010Prop31
280
     0
102
RTVSPost2010PropOp31
 70
     1
102
RTVSPost2010Prop32
280
     0
102
RTVSPost2010PropOp32
 70
     1
102
RTVSPost2010Prop33
280
     0
102
RTVSPost2010PropOp33
 70
     1
102
RTVSPost2010Prop34
280
     0
102
RTVSPost2010PropOp34
 70
     1
102
RTVSPost2010Prop35
280
     0
102
RTVSPost2010PropOp35
 70
     1
102
RTVSPost2010Prop36
280
     0
102
RTVSPost2010PropOp36
 70
     1
102
RTVSPost2010Prop37
 90
       50
102
RTVSPost2010PropOp37
 70
     1
102
RTVSPost2010Prop38
140
0.0
102
RTVSPost2010PropOp38
 70
     1
102
RTVSPost2010Prop39
140
1.0
102
RTVSPost2010PropOp39
 70
     1
102
RTVSPost2010Prop40
 90
        0
102
RTVSPost2010PropOp40
 70
     1
102
RTVSPost2010Prop41ColorIndex
 90
       18
102
RTVSPost2010Prop41ColorRGB
 90
        0
102
RTVSPost2010PropOp41
 70
     1
102
RTVSPost2010Prop42
 90
       50
102
RTVSPost2010PropOp42
 70
     1
102
RTVSPost2010Prop43
 90
        3
102
RTVSPost2010PropOp43
 70
     1
102
RTVSPost2010Prop44ColorIndex
 90
        5
102
RTVSPost2010Prop44ColorRGB
 90
      255
102
RTVSPost2010PropOp44
 70
     1
102
RTVSPost2010Prop45
280
     0
102
RTVSPost2010PropOp45
 70
     1
102
RTVSPost2010Prop46
 90
       50
102
RTVSPost2010PropOp46
 70
     1
102
RTVSPost2010Prop47
 90
       50
102
RTVSPost2010PropOp47
 70
     1
102
RTVSPost2010Prop48
 90
       50
102
RTVSPost2010PropOp48
 70
     1
102
RTVSPost2010Prop49
280
     0
102
RTVSPost2010PropOp49
 70
     1
102
RTVSPost2010Prop50
 90
       50
102
RTVSPost2010PropOp50
 70
     1
102
RTVSPost2010Prop51ColorIndex
 90
      256
102
RTVSPost2010Prop51ColorRGB
 90
-16777216
102
RTVSPost2010PropOp51
 70
     0
102
RTVSPost2010Prop52
140
1.0
102
RTVSPost2010PropOp52
 70
     0
102
RTVSPost2010Prop53
 90
        2
102
RTVSPost2010PropOp53
 70
     1
102
RTVSPost2010Prop54
  1
strokes_ogs.tif
102
RTVSPost2010PropOp54
 70
     1
102
RTVSPost2010Prop55
280
     0
102
RTVSPost2010PropOp55
 70
     1
102
RTVSPost2010Prop56
140
1.0
102
RTVSPost2010PropOp56
 70
     1
102
RTVSPost2010Prop57
140
1.0
102
RTVSPost2010PropOp57
 70
     1
  0
XRECORD
  5
525
102
{ACAD_REACTORS
330
524
102
}
330
524
100
AcDbXrecord
280
     1
102
RTVSPropertyOp0
 70
     0
102
RTVSPropertyOp1
 70
     0
102
RTVSPropertyOp2
 70
     0
102
RTVSPropertyOp3
 70
     0
102
RTVSPropertyOp4
 70
     0
102
RTVSPropertyOp5
 70
     0
102
RTVSPropertyOp6
 70
     0
102
RTVSPropertyOp7
 70
     0
102
RTVSPropertyOp8
 70
     0
102
RTVSPropertyOp9
 70
     0
102
RTVSPropertyOp10
 70
     0
102
RTVSPropertyOp11
 70
     0
102
RTVSPropertyOp12
 70
     0
102
RTVSPropertyOp13
 70
     0
102
RTVSPropertyOp14
 70
     2
102
RTVSPropertyOp15
 70
     0
102
RTVSPropertyOp16
 70
     0
102
RTVSPropertyOp17
 70
     0
102
RTVSPropertyOp18
 70
     0
102
RTVSPropertyOp19
 70
     0
102
RTVSPropertyOp20
 70
     0
102
RTVSPropertyOp21
 70
     0
102
RTVSPropertyOp22
 70
     0
102
RTVSPropertyOp23
 70
     0
102
RTVSPropertyOp24
 70
     0
102
RTVSPropertyOp25
 70
     0
102
RTVSPropertyOp26
 70
     0
102
RTVSPropertyOp27
 70
     0
102
RTVSPropertyOp28
 70
     0
102
RTVSPropertyOp29
 70
     0
102
RTVSPropertyOp30
 70
     0
102
RTVSPropertyOp31
 70
     0
102
RTVSPropertyOp32
 70
     0
102
RTVSPropertyOp33
 70
     0
102
RTVSPropertyOp34
 70
     0
102
RTVSPropertyOp35
 70
     0
102
RTVSPropertyOp36
 70
     0
102
RTVSPropertyOp37
 70
     0
102
RTVSPropertyOp38
 70
     0
102
RTVSPropertyOp39
 70
     0
102
RTVSPropertyOp40
 70
     0
102
RTVSPropertyOp41
 70
     0
102
RTVSPropertyOp42
 70
     0
102
RTVSPropertyOp43
 70
     0
102
RTVSPropertyOp44
 70
     0
102
RTVSPropertyOp45
 70
     0
102
RTVSPropertyOp46
 70
     0
102
RTVSPropertyOp47
 70
     0
102
RTVSPropertyOp48
 70
     0
102
RTVSPropertyOp49
 70
     0
102
RTVSPropertyOp50
 70
     0
102
RTVSPropertyOp51
 70
     0
102
RTVSPropertyOp52
 70
     0
102
RTVSPropertyOp53
 70
     0
102
RTVSPropertyOp54
 70
     0
102
RTVSPropertyOp55
 70
     0
102
RTVSPropertyOp56
 70
     0
102
RTVSPropertyOp57
 70
     0
102
RTVSPost2010Prop28
280
     0
102
RTVSPost2010PropOp28
 70
     0
102
RTVSPost2010Prop29
280
     1
102
RTVSPost2010PropOp29
 70
     0
102
RTVSPost2010Prop30
280
     1
102
RTVSPost2010PropOp30
 70
     0
102
RTVSPost2010Prop31
280
     0
102
RTVSPost2010PropOp31
 70
     0
102
RTVSPost2010Prop32
280
     0
102
RTVSPost2010PropOp32
 70
     0
102
RTVSPost2010Prop33
280
     0
102
RTVSPost2010PropOp33
 70
     0
102
RTVSPost2010Prop34
280
     0
102
RTVSPost2010PropOp34
 70
     0
102
RTVSPost2010Prop35
280
     0
102
RTVSPost2010PropOp35
 70
     0
102
RTVSPost2010Prop36
280
     0
102
RTVSPost2010PropOp36
 70
     0
102
RTVSPost2010Prop37
 90
       50
102
RTVSPost2010PropOp37
 70
     0
102
RTVSPost2010Prop38
140
0.0
102
RTVSPost2010PropOp38
 70
     0
102
RTVSPost2010Prop39
140
1.0
102
RTVSPost2010PropOp39
 70
     0
102
RTVSPost2010Prop40
 90
        0
102
RTVSPost2010PropOp40
 70
     0
102
RTVSPost2010Prop41ColorIndex
 90
       18
102
RTVSPost2010Prop41ColorRGB
 90
        0
102
RTVSPost2010PropOp41
 70
     0
102
RTVSPost2010Prop42
 90
       50
102
RTVSPost2010PropOp42
 70
     0
102
RTVSPost2010Prop43
 90
        3
102
RTVSPost2010PropOp43
 70
     0
102
RTVSPost2010Prop44ColorIndex
 90
        5
102
RTVSPost2010Prop44ColorRGB
 90
      255
102
RTVSPost2010PropOp44
 70
     0
102
RTVSPost2010Prop45
280
     0
102
RTVSPost2010PropOp45
 70
     0
102
RTVSPost2010Prop46
 90
       50
102
RTVSPost2010PropOp46
 70
     0
102
RTVSPost2010Prop47
 90
       50
102
RTVSPost2010PropOp47
 70
     0
102
RTVSPost2010Prop48
 90
       50
102
RTVSPost2010PropOp48
 70
     0
102
RTVSPost2010Prop49
280
     0
102
RTVSPost2010PropOp49
 70
     0
102
RTVSPost2010Prop50
 90
       50
102
RTVSPost2010PropOp50
 70
     0
102
RTVSPost2010Prop51ColorIndex
 90
      256
102
RTVSPost2010Prop51ColorRGB
 90
-16777216
102
RTVSPost2010PropOp51
 70
     0
102
RTVSPost2010Prop52
140
1.0
102
RTVSPost2010PropOp52
 70
     0
102
RTVSPost2010Prop53
 90
        2
102
RTVSPost2010PropOp53
 70
     0
102
RTVSPost2010Prop54
  1
strokes_ogs.tif
102
RTVSPost2010PropOp54
 70
     0
102
RTVSPost2010Prop55
280
     0
102
RTVSPost2010PropOp55
 70
     0
102
RTVSPost2010Prop56
140
1.0
102
RTVSPost2010PropOp56
 70
     0
102
RTVSPost2010Prop57
140
1.0
102
RTVSPost2010PropOp57
 70
     0
  0
XRECORD
  5
51D
102
{ACAD_REACTORS
330
51C
102
}
330
51C
100
AcDbXrecord
280
     1
102
RTVSPropertyOp0
 70
     1
102
RTVSPropertyOp1
 70
     1
102
RTVSPropertyOp2
 70
     1
102
RTVSPropertyOp3
 70
     1
102
RTVSPropertyOp4
 70
     1
102
RTVSPropertyOp5
 70
     1
102
RTVSPropertyOp6
 70
     1
102
RTVSPropertyOp7
 70
     1
102
RTVSPropertyOp8
 70
     1
102
RTVSPropertyOp9
 70
     1
102
RTVSPropertyOp10
 70
     1
102
RTVSPropertyOp11
 70
     1
102
RTVSPropertyOp12
 70
     1
102
RTVSPropertyOp13
 70
     1
102
RTVSPropertyOp14
 70
     1
102
RTVSPropertyOp15
 70
     1
102
RTVSPropertyOp16
 70
     1
102
RTVSPropertyOp17
 70
     1
102
RTVSPropertyOp18
 70
     1
102
RTVSPropertyOp19
 70
     1
102
RTVSPropertyOp20
 70
     1
102
RTVSPropertyOp21
 70
     1
102
RTVSPropertyOp22
 70
     1
102
RTVSPropertyOp23
 70
     1
102
RTVSPropertyOp24
 70
     1
102
RTVSPropertyOp25
 70
     1
102
RTVSPropertyOp26
 70
     1
102
RTVSPropertyOp27
 70
     1
102
RTVSPropertyOp28
 70
     1
102
RTVSPropertyOp29
 70
     1
102
RTVSPropertyOp30
 70
     1
102
RTVSPropertyOp31
 70
     1
102
RTVSPropertyOp32
 70
     1
102
RTVSPropertyOp33
 70
     1
102
RTVSPropertyOp34
 70
     1
102
RTVSPropertyOp35
 70
     1
102
RTVSPropertyOp36
 70
     1
102
RTVSPropertyOp37
 70
     1
102
RTVSPropertyOp38
 70
     1
102
RTVSPropertyOp39
 70
     1
102
RTVSPropertyOp40
 70
     1
102
RTVSPropertyOp41
 70
     1
102
RTVSPropertyOp42
 70
     1
102
RTVSPropertyOp43
 70
     1
102
RTVSPropertyOp44
 70
     1
102
RTVSPropertyOp45
 70
     1
102
RTVSPropertyOp46
 70
     1
102
RTVSPropertyOp47
 70
     1
102
RTVSPropertyOp48
 70
     1
102
RTVSPropertyOp49
 70
     1
102
RTVSPropertyOp50
 70
     1
102
RTVSPropertyOp51
 70
     0
102
RTVSPropertyOp52
 70
     0
102
RTVSPropertyOp53
 70
     1
102
RTVSPropertyOp54
 70
     1
102
RTVSPropertyOp55
 70
     1
102
RTVSPropertyOp56
 70
     1
102
RTVSPropertyOp57
 70
     1
102
RTVSPost2010Prop28
280
     0
102
RTVSPost2010PropOp28
 70
     1
102
RTVSPost2010Prop29
280
     1
102
RTVSPost2010PropOp29
 70
     1
102
RTVSPost2010Prop30
280
     1
102
RTVSPost2010PropOp30
 70
     1
102
RTVSPost2010Prop31
280
     0
102
RTVSPost2010PropOp31
 70
     1
102
RTVSPost2010Prop32
280
     0
102
RTVSPost2010PropOp32
 70
     1
102
RTVSPost2010Prop33
280
     0
102
RTVSPost2010PropOp33
 70
     1
102
RTVSPost2010Prop34
280
     0
102
RTVSPost2010PropOp34
 70
     1
102
RTVSPost2010Prop35
280
     0
102
RTVSPost2010PropOp35
 70
     1
102
RTVSPost2010Prop36
280
     0
102
RTVSPost2010PropOp36
 70
     1
102
RTVSPost2010Prop37
 90
       50
102
RTVSPost2010PropOp37
 70
     1
102
RTVSPost2010Prop38
140
0.0
102
RTVSPost2010PropOp38
 70
     1
102
RTVSPost2010Prop39
140
1.0
102
RTVSPost2010PropOp39
 70
     1
102
RTVSPost2010Prop40
 90
        0
102
RTVSPost2010PropOp40
 70
     1
102
RTVSPost2010Prop41ColorIndex
 90
       18
102
RTVSPost2010Prop41ColorRGB
 90
        0
102
RTVSPost2010PropOp41
 70
     1
102
RTVSPost2010Prop42
 90
       50
102
RTVSPost2010PropOp42
 70
     1
102
RTVSPost2010Prop43
 90
        3
102
RTVSPost2010PropOp43
 70
     1
102
RTVSPost2010Prop44ColorIndex
 90
        5
102
RTVSPost2010Prop44ColorRGB
 90
      255
102
RTVSPost2010PropOp44
 70
     1
102
RTVSPost2010Prop45
280
     0
102
RTVSPost2010PropOp45
 70
     1
102
RTVSPost2010Prop46
 90
       50
102
RTVSPost2010PropOp46
 70
     1
102
RTVSPost2010Prop47
 90
       50
102
RTVSPost2010PropOp47
 70
     1
102
RTVSPost2010Prop48
 90
       50
102
RTVSPost2010PropOp48
 70
     1
102
RTVSPost2010Prop49
280
     0
102
RTVSPost2010PropOp49
 70
     1
102
RTVSPost2010Prop50
 90
       50
102
RTVSPost2010PropOp50
 70
     1
102
RTVSPost2010Prop51ColorIndex
 90
      256
102
RTVSPost2010Prop51ColorRGB
 90
-16777216
102
RTVSPost2010PropOp51
 70
     0
102
RTVSPost2010Prop52
140
1.0
102
RTVSPost2010PropOp52
 70
     0
102
RTVSPost2010Prop53
 90
        2
102
RTVSPost2010PropOp53
 70
     1
102
RTVSPost2010Prop54
  1
strokes_ogs.tif
102
RTVSPost2010PropOp54
 70
     1
102
RTVSPost2010Prop55
280
     0
102
RTVSPost2010PropOp55
 70
     1
102
RTVSPost2010Prop56
140
1.0
102
RTVSPost2010PropOp56
 70
     1
102
RTVSPost2010Prop57
140
1.0
102
RTVSPost2010PropOp57
 70
     1
  0
XRECORD
  5
501
102
{ACAD_REACTORS
330
500
102
}
330
500
100
AcDbXrecord
280
     1
102
RTVSPropertyOp0
 70
     1
102
RTVSPropertyOp1
 70
     1
102
RTVSPropertyOp2
 70
     1
102
RTVSPropertyOp3
 70
     1
102
RTVSPropertyOp4
 70
     1
102
RTVSPropertyOp5
 70
     1
102
RTVSPropertyOp6
 70
     1
102
RTVSPropertyOp7
 70
     1
102
RTVSPropertyOp8
 70
     1
102
RTVSPropertyOp9
 70
     1
102
RTVSPropertyOp10
 70
     1
102
RTVSPropertyOp11
 70
     1
102
RTVSPropertyOp12
 70
     1
102
RTVSPropertyOp13
 70
     1
102
RTVSPropertyOp14
 70
     1
102
RTVSPropertyOp15
 70
     1
102
RTVSPropertyOp16
 70
     1
102
RTVSPropertyOp17
 70
     1
102
RTVSPropertyOp18
 70
     1
102
RTVSPropertyOp19
 70
     1
102
RTVSPropertyOp20
 70
     1
102
RTVSPropertyOp21
 70
     1
102
RTVSPropertyOp22
 70
     1
102
RTVSPropertyOp23
 70
     1
102
RTVSPropertyOp24
 70
     1
102
RTVSPropertyOp25
 70
     1
102
RTVSPropertyOp26
 70
     1
102
RTVSPropertyOp27
 70
     1
102
RTVSPropertyOp28
 70
     1
102
RTVSPropertyOp29
 70
     1
102
RTVSPropertyOp30
 70
     1
102
RTVSPropertyOp31
 70
     1
102
RTVSPropertyOp32
 70
     1
102
RTVSPropertyOp33
 70
     1
102
RTVSPropertyOp34
 70
     1
102
RTVSPropertyOp35
 70
     1
102
RTVSPropertyOp36
 70
     1
102
RTVSPropertyOp37
 70
     1
102
RTVSPropertyOp38
 70
     1
102
RTVSPropertyOp39
 70
     1
102
RTVSPropertyOp40
 70
     1
102
RTVSPropertyOp41
 70
     1
102
RTVSPropertyOp42
 70
     1
102
RTVSPropertyOp43
 70
     1
102
RTVSPropertyOp44
 70
     1
102
RTVSPropertyOp45
 70
     1
102
RTVSPropertyOp46
 70
     1
102
RTVSPropertyOp47
 70
     1
102
RTVSPropertyOp48
 70
     1
102
RTVSPropertyOp49
 70
     1
102
RTVSPropertyOp50
 70
     1
102
RTVSPropertyOp51
 70
     0
102
RTVSPropertyOp52
 70
     0
102
RTVSPropertyOp53
 70
     1
102
RTVSPropertyOp54
 70
     1
102
RTVSPropertyOp55
 70
     1
102
RTVSPropertyOp56
 70
     1
102
RTVSPropertyOp57
 70
     1
102
RTVSPost2010Prop28
280
     0
102
RTVSPost2010PropOp28
 70
     1
102
RTVSPost2010Prop29
280
     1
102
RTVSPost2010PropOp29
 70
     1
102
RTVSPost2010Prop30
280
     1
102
RTVSPost2010PropOp30
 70
     1
102
RTVSPost2010Prop31
280
     0
102
RTVSPost2010PropOp31
 70
     1
102
RTVSPost2010Prop32
280
     0
102
RTVSPost2010PropOp32
 70
     1
102
RTVSPost2010Prop33
280
     0
102
RTVSPost2010PropOp33
 70
     1
102
RTVSPost2010Prop34
280
     0
102
RTVSPost2010PropOp34
 70
     1
102
RTVSPost2010Prop35
280
     0
102
RTVSPost2010PropOp35
 70
     1
102
RTVSPost2010Prop36
280
     0
102
RTVSPost2010PropOp36
 70
     1
102
RTVSPost2010Prop37
 90
       50
102
RTVSPost2010PropOp37
 70
     1
102
RTVSPost2010Prop38
140
0.0
102
RTVSPost2010PropOp38
 70
     1
102
RTVSPost2010Prop39
140
1.0
102
RTVSPost2010PropOp39
 70
     1
102
RTVSPost2010Prop40
 90
        0
102
RTVSPost2010PropOp40
 70
     1
102
RTVSPost2010Prop41ColorIndex
 90
       18
102
RTVSPost2010Prop41ColorRGB
 90
        0
102
RTVSPost2010PropOp41
 70
     1
102
RTVSPost2010Prop42
 90
       50
102
RTVSPost2010PropOp42
 70
     1
102
RTVSPost2010Prop43
 90
        3
102
RTVSPost2010PropOp43
 70
     1
102
RTVSPost2010Prop44ColorIndex
 90
        5
102
RTVSPost2010Prop44ColorRGB
 90
      255
102
RTVSPost2010PropOp44
 70
     1
102
RTVSPost2010Prop45
280
     0
102
RTVSPost2010PropOp45
 70
     1
102
RTVSPost2010Prop46
 90
       50
102
RTVSPost2010PropOp46
 70
     1
102
RTVSPost2010Prop47
 90
       50
102
RTVSPost2010PropOp47
 70
     1
102
RTVSPost2010Prop48
 90
       50
102
RTVSPost2010PropOp48
 70
     1
102
RTVSPost2010Prop49
280
     0
102
RTVSPost2010PropOp49
 70
     1
102
RTVSPost2010Prop50
 90
       50
102
RTVSPost2010PropOp50
 70
     1
102
RTVSPost2010Prop51ColorIndex
 90
      256
102
RTVSPost2010Prop51ColorRGB
 90
-16777216
102
RTVSPost2010PropOp51
 70
     0
102
RTVSPost2010Prop52
140
1.0
102
RTVSPost2010PropOp52
 70
     0
102
RTVSPost2010Prop53
 90
        2
102
RTVSPost2010PropOp53
 70
     1
102
RTVSPost2010Prop54
  1
strokes_ogs.tif
102
RTVSPost2010PropOp54
 70
     1
102
RTVSPost2010Prop55
280
     0
102
RTVSPost2010PropOp55
 70
     1
102
RTVSPost2010Prop56
140
1.0
102
RTVSPost2010PropOp56
 70
     1
102
RTVSPost2010Prop57
140
1.0
102
RTVSPost2010PropOp57
 70
     1
  0
XRECORD
  5
503
102
{ACAD_REACTORS
330
502
102
}
330
502
100
AcDbXrecord
280
     1
102
RTVSPropertyOp0
 70
     1
102
RTVSPropertyOp1
 70
     1
102
RTVSPropertyOp2
 70
     1
102
RTVSPropertyOp3
 70
     1
102
RTVSPropertyOp4
 70
     1
102
RTVSPropertyOp5
 70
     1
102
RTVSPropertyOp6
 70
     1
102
RTVSPropertyOp7
 70
     1
102
RTVSPropertyOp8
 70
     1
102
RTVSPropertyOp9
 70
     1
102
RTVSPropertyOp10
 70
     1
102
RTVSPropertyOp11
 70
     1
102
RTVSPropertyOp12
 70
     1
102
RTVSPropertyOp13
 70
     1
102
RTVSPropertyOp14
 70
     1
102
RTVSPropertyOp15
 70
     1
102
RTVSPropertyOp16
 70
     1
102
RTVSPropertyOp17
 70
     1
102
RTVSPropertyOp18
 70
     1
102
RTVSPropertyOp19
 70
     1
102
RTVSPropertyOp20
 70
     1
102
RTVSPropertyOp21
 70
     1
102
RTVSPropertyOp22
 70
     1
102
RTVSPropertyOp23
 70
     1
102
RTVSPropertyOp24
 70
     1
102
RTVSPropertyOp25
 70
     1
102
RTVSPropertyOp26
 70
     1
102
RTVSPropertyOp27
 70
     1
102
RTVSPropertyOp28
 70
     1
102
RTVSPropertyOp29
 70
     1
102
RTVSPropertyOp30
 70
     1
102
RTVSPropertyOp31
 70
     1
102
RTVSPropertyOp32
 70
     1
102
RTVSPropertyOp33
 70
     1
102
RTVSPropertyOp34
 70
     1
102
RTVSPropertyOp35
 70
     1
102
RTVSPropertyOp36
 70
     1
102
RTVSPropertyOp37
 70
     1
102
RTVSPropertyOp38
 70
     1
102
RTVSPropertyOp39
 70
     1
102
RTVSPropertyOp40
 70
     1
102
RTVSPropertyOp41
 70
     1
102
RTVSPropertyOp42
 70
     1
102
RTVSPropertyOp43
 70
     1
102
RTVSPropertyOp44
 70
     1
102
RTVSPropertyOp45
 70
     1
102
RTVSPropertyOp46
 70
     1
102
RTVSPropertyOp47
 70
     1
102
RTVSPropertyOp48
 70
     1
102
RTVSPropertyOp49
 70
     1
102
RTVSPropertyOp50
 70
     1
102
RTVSPropertyOp51
 70
     0
102
RTVSPropertyOp52
 70
     0
102
RTVSPropertyOp53
 70
     1
102
RTVSPropertyOp54
 70
     1
102
RTVSPropertyOp55
 70
     1
102
RTVSPropertyOp56
 70
     1
102
RTVSPropertyOp57
 70
     1
102
RTVSPost2010Prop28
280
     0
102
RTVSPost2010PropOp28
 70
     1
102
RTVSPost2010Prop29
280
     1
102
RTVSPost2010PropOp29
 70
     1
102
RTVSPost2010Prop30
280
     1
102
RTVSPost2010PropOp30
 70
     1
102
RTVSPost2010Prop31
280
     0
102
RTVSPost2010PropOp31
 70
     1
102
RTVSPost2010Prop32
280
     0
102
RTVSPost2010PropOp32
 70
     1
102
RTVSPost2010Prop33
280
     0
102
RTVSPost2010PropOp33
 70
     1
102
RTVSPost2010Prop34
280
     0
102
RTVSPost2010PropOp34
 70
     1
102
RTVSPost2010Prop35
280
     0
102
RTVSPost2010PropOp35
 70
     1
102
RTVSPost2010Prop36
280
     0
102
RTVSPost2010PropOp36
 70
     1
102
RTVSPost2010Prop37
 90
       50
102
RTVSPost2010PropOp37
 70
     1
102
RTVSPost2010Prop38
140
0.0
102
RTVSPost2010PropOp38
 70
     1
102
RTVSPost2010Prop39
140
1.0
102
RTVSPost2010PropOp39
 70
     1
102
RTVSPost2010Prop40
 90
        0
102
RTVSPost2010PropOp40
 70
     1
102
RTVSPost2010Prop41ColorIndex
 90
       18
102
RTVSPost2010Prop41ColorRGB
 90
        0
102
RTVSPost2010PropOp41
 70
     1
102
RTVSPost2010Prop42
 90
       50
102
RTVSPost2010PropOp42
 70
     1
102
RTVSPost2010Prop43
 90
        3
102
RTVSPost2010PropOp43
 70
     1
102
RTVSPost2010Prop44ColorIndex
 90
        5
102
RTVSPost2010Prop44ColorRGB
 90
      255
102
RTVSPost2010PropOp44
 70
     1
102
RTVSPost2010Prop45
280
     0
102
RTVSPost2010PropOp45
 70
     1
102
RTVSPost2010Prop46
 90
       50
102
RTVSPost2010PropOp46
 70
     1
102
RTVSPost2010Prop47
 90
       50
102
RTVSPost2010PropOp47
 70
     1
102
RTVSPost2010Prop48
 90
       50
102
RTVSPost2010PropOp48
 70
     1
102
RTVSPost2010Prop49
280
     0
102
RTVSPost2010PropOp49
 70
     1
102
RTVSPost2010Prop50
 90
       50
102
RTVSPost2010PropOp50
 70
     1
102
RTVSPost2010Prop51ColorIndex
 90
      256
102
RTVSPost2010Prop51ColorRGB
 90
-16777216
102
RTVSPost2010PropOp51
 70
     0
102
RTVSPost2010Prop52
140
1.0
102
RTVSPost2010PropOp52
 70
     0
102
RTVSPost2010Prop53
 90
        2
102
RTVSPost2010PropOp53
 70
     1
102
RTVSPost2010Prop54
  1
strokes_ogs.tif
102
RTVSPost2010PropOp54
 70
     1
102
RTVSPost2010Prop55
280
     0
102
RTVSPost2010PropOp55
 70
     1
102
RTVSPost2010Prop56
140
1.0
102
RTVSPost2010PropOp56
 70
     1
102
RTVSPost2010Prop57
140
1.0
102
RTVSPost2010PropOp57
 70
     1
  0
XRECORD
  5
505
102
{ACAD_REACTORS
330
504
102
}
330
504
100
AcDbXrecord
280
     1
102
RTVSPropertyOp0
 70
     1
102
RTVSPropertyOp1
 70
     1
102
RTVSPropertyOp2
 70
     1
102
RTVSPropertyOp3
 70
     1
102
RTVSPropertyOp4
 70
     1
102
RTVSPropertyOp5
 70
     1
102
RTVSPropertyOp6
 70
     1
102
RTVSPropertyOp7
 70
     1
102
RTVSPropertyOp8
 70
     1
102
RTVSPropertyOp9
 70
     1
102
RTVSPropertyOp10
 70
     1
102
RTVSPropertyOp11
 70
     1
102
RTVSPropertyOp12
 70
     1
102
RTVSPropertyOp13
 70
     1
102
RTVSPropertyOp14
 70
     1
102
RTVSPropertyOp15
 70
     1
102
RTVSPropertyOp16
 70
     1
102
RTVSPropertyOp17
 70
     1
102
RTVSPropertyOp18
 70
     1
102
RTVSPropertyOp19
 70
     1
102
RTVSPropertyOp20
 70
     1
102
RTVSPropertyOp21
 70
     1
102
RTVSPropertyOp22
 70
     1
102
RTVSPropertyOp23
 70
     1
102
RTVSPropertyOp24
 70
     1
102
RTVSPropertyOp25
 70
     1
102
RTVSPropertyOp26
 70
     1
102
RTVSPropertyOp27
 70
     1
102
RTVSPropertyOp28
 70
     1
102
RTVSPropertyOp29
 70
     1
102
RTVSPropertyOp30
 70
     1
102
RTVSPropertyOp31
 70
     1
102
RTVSPropertyOp32
 70
     1
102
RTVSPropertyOp33
 70
     1
102
RTVSPropertyOp34
 70
     1
102
RTVSPropertyOp35
 70
     1
102
RTVSPropertyOp36
 70
     1
102
RTVSPropertyOp37
 70
     1
102
RTVSPropertyOp38
 70
     1
102
RTVSPropertyOp39
 70
     1
102
RTVSPropertyOp40
 70
     1
102
RTVSPropertyOp41
 70
     1
102
RTVSPropertyOp42
 70
     1
102
RTVSPropertyOp43
 70
     1
102
RTVSPropertyOp44
 70
     1
102
RTVSPropertyOp45
 70
     1
102
RTVSPropertyOp46
 70
     1
102
RTVSPropertyOp47
 70
     1
102
RTVSPropertyOp48
 70
     1
102
RTVSPropertyOp49
 70
     1
102
RTVSPropertyOp50
 70
     1
102
RTVSPropertyOp51
 70
     0
102
RTVSPropertyOp52
 70
     0
102
RTVSPropertyOp53
 70
     1
102
RTVSPropertyOp54
 70
     1
102
RTVSPropertyOp55
 70
     1
102
RTVSPropertyOp56
 70
     1
102
RTVSPropertyOp57
 70
     1
102
RTVSPost2010Prop28
280
     0
102
RTVSPost2010PropOp28
 70
     1
102
RTVSPost2010Prop29
280
     1
102
RTVSPost2010PropOp29
 70
     1
102
RTVSPost2010Prop30
280
     1
102
RTVSPost2010PropOp30
 70
     1
102
RTVSPost2010Prop31
280
     0
102
RTVSPost2010PropOp31
 70
     1
102
RTVSPost2010Prop32
280
     0
102
RTVSPost2010PropOp32
 70
     1
102
RTVSPost2010Prop33
280
     0
102
RTVSPost2010PropOp33
 70
     1
102
RTVSPost2010Prop34
280
     0
102
RTVSPost2010PropOp34
 70
     1
102
RTVSPost2010Prop35
280
     0
102
RTVSPost2010PropOp35
 70
     1
102
RTVSPost2010Prop36
280
     0
102
RTVSPost2010PropOp36
 70
     1
102
RTVSPost2010Prop37
 90
       50
102
RTVSPost2010PropOp37
 70
     1
102
RTVSPost2010Prop38
140
0.0
102
RTVSPost2010PropOp38
 70
     1
102
RTVSPost2010Prop39
140
1.0
102
RTVSPost2010PropOp39
 70
     1
102
RTVSPost2010Prop40
 90
        0
102
RTVSPost2010PropOp40
 70
     1
102
RTVSPost2010Prop41ColorIndex
 90
       18
102
RTVSPost2010Prop41ColorRGB
 90
        0
102
RTVSPost2010PropOp41
 70
     1
102
RTVSPost2010Prop42
 90
       50
102
RTVSPost2010PropOp42
 70
     1
102
RTVSPost2010Prop43
 90
        3
102
RTVSPost2010PropOp43
 70
     1
102
RTVSPost2010Prop44ColorIndex
 90
        5
102
RTVSPost2010Prop44ColorRGB
 90
      255
102
RTVSPost2010PropOp44
 70
     1
102
RTVSPost2010Prop45
280
     0
102
RTVSPost2010PropOp45
 70
     1
102
RTVSPost2010Prop46
 90
       50
102
RTVSPost2010PropOp46
 70
     1
102
RTVSPost2010Prop47
 90
       50
102
RTVSPost2010PropOp47
 70
     1
102
RTVSPost2010Prop48
 90
       50
102
RTVSPost2010PropOp48
 70
     1
102
RTVSPost2010Prop49
280
     0
102
RTVSPost2010PropOp49
 70
     1
102
RTVSPost2010Prop50
 90
       50
102
RTVSPost2010PropOp50
 70
     1
102
RTVSPost2010Prop51ColorIndex
 90
      256
102
RTVSPost2010Prop51ColorRGB
 90
-16777216
102
RTVSPost2010PropOp51
 70
     0
102
RTVSPost2010Prop52
140
1.0
102
RTVSPost2010PropOp52
 70
     0
102
RTVSPost2010Prop53
 90
        2
102
RTVSPost2010PropOp53
 70
     1
102
RTVSPost2010Prop54
  1
strokes_ogs.tif
102
RTVSPost2010PropOp54
 70
     1
102
RTVSPost2010Prop55
280
     0
102
RTVSPost2010PropOp55
 70
     1
102
RTVSPost2010Prop56
140
1.0
102
RTVSPost2010PropOp56
 70
     1
102
RTVSPost2010Prop57
140
1.0
102
RTVSPost2010PropOp57
 70
     1
  0
XRECORD
  5
507
102
{ACAD_REACTORS
330
506
102
}
330
506
100
AcDbXrecord
280
     1
102
RTVSPropertyOp0
 70
     1
102
RTVSPropertyOp1
 70
     1
102
RTVSPropertyOp2
 70
     1
102
RTVSPropertyOp3
 70
     1
102
RTVSPropertyOp4
 70
     1
102
RTVSPropertyOp5
 70
     1
102
RTVSPropertyOp6
 70
     1
102
RTVSPropertyOp7
 70
     1
102
RTVSPropertyOp8
 70
     1
102
RTVSPropertyOp9
 70
     1
102
RTVSPropertyOp10
 70
     1
102
RTVSPropertyOp11
 70
     1
102
RTVSPropertyOp12
 70
     1
102
RTVSPropertyOp13
 70
     1
102
RTVSPropertyOp14
 70
     1
102
RTVSPropertyOp15
 70
     1
102
RTVSPropertyOp16
 70
     1
102
RTVSPropertyOp17
 70
     1
102
RTVSPropertyOp18
 70
     1
102
RTVSPropertyOp19
 70
     1
102
RTVSPropertyOp20
 70
     1
102
RTVSPropertyOp21
 70
     1
102
RTVSPropertyOp22
 70
     1
102
RTVSPropertyOp23
 70
     1
102
RTVSPropertyOp24
 70
     1
102
RTVSPropertyOp25
 70
     1
102
RTVSPropertyOp26
 70
     1
102
RTVSPropertyOp27
 70
     1
102
RTVSPropertyOp28
 70
     1
102
RTVSPropertyOp29
 70
     1
102
RTVSPropertyOp30
 70
     1
102
RTVSPropertyOp31
 70
     1
102
RTVSPropertyOp32
 70
     1
102
RTVSPropertyOp33
 70
     1
102
RTVSPropertyOp34
 70
     1
102
RTVSPropertyOp35
 70
     1
102
RTVSPropertyOp36
 70
     1
102
RTVSPropertyOp37
 70
     1
102
RTVSPropertyOp38
 70
     1
102
RTVSPropertyOp39
 70
     1
102
RTVSPropertyOp40
 70
     1
102
RTVSPropertyOp41
 70
     1
102
RTVSPropertyOp42
 70
     1
102
RTVSPropertyOp43
 70
     1
102
RTVSPropertyOp44
 70
     1
102
RTVSPropertyOp45
 70
     1
102
RTVSPropertyOp46
 70
     1
102
RTVSPropertyOp47
 70
     1
102
RTVSPropertyOp48
 70
     1
102
RTVSPropertyOp49
 70
     1
102
RTVSPropertyOp50
 70
     1
102
RTVSPropertyOp51
 70
     0
102
RTVSPropertyOp52
 70
     0
102
RTVSPropertyOp53
 70
     1
102
RTVSPropertyOp54
 70
     1
102
RTVSPropertyOp55
 70
     1
102
RTVSPropertyOp56
 70
     1
102
RTVSPropertyOp57
 70
     1
102
RTVSPost2010Prop28
280
     0
102
RTVSPost2010PropOp28
 70
     1
102
RTVSPost2010Prop29
280
     1
102
RTVSPost2010PropOp29
 70
     1
102
RTVSPost2010Prop30
280
     1
102
RTVSPost2010PropOp30
 70
     1
102
RTVSPost2010Prop31
280
     0
102
RTVSPost2010PropOp31
 70
     1
102
RTVSPost2010Prop32
280
     0
102
RTVSPost2010PropOp32
 70
     1
102
RTVSPost2010Prop33
280
     0
102
RTVSPost2010PropOp33
 70
     1
102
RTVSPost2010Prop34
280
     0
102
RTVSPost2010PropOp34
 70
     1
102
RTVSPost2010Prop35
280
     0
102
RTVSPost2010PropOp35
 70
     1
102
RTVSPost2010Prop36
280
     0
102
RTVSPost2010PropOp36
 70
     1
102
RTVSPost2010Prop37
 90
       50
102
RTVSPost2010PropOp37
 70
     1
102
RTVSPost2010Prop38
140
0.0
102
RTVSPost2010PropOp38
 70
     1
102
RTVSPost2010Prop39
140
1.0
102
RTVSPost2010PropOp39
 70
     1
102
RTVSPost2010Prop40
 90
        0
102
RTVSPost2010PropOp40
 70
     1
102
RTVSPost2010Prop41ColorIndex
 90
       18
102
RTVSPost2010Prop41ColorRGB
 90
        0
102
RTVSPost2010PropOp41
 70
     1
102
RTVSPost2010Prop42
 90
       50
102
RTVSPost2010PropOp42
 70
     1
102
RTVSPost2010Prop43
 90
        3
102
RTVSPost2010PropOp43
 70
     1
102
RTVSPost2010Prop44ColorIndex
 90
        5
102
RTVSPost2010Prop44ColorRGB
 90
      255
102
RTVSPost2010PropOp44
 70
     1
102
RTVSPost2010Prop45
280
     0
102
RTVSPost2010PropOp45
 70
     1
102
RTVSPost2010Prop46
 90
       50
102
RTVSPost2010PropOp46
 70
     1
102
RTVSPost2010Prop47
 90
       50
102
RTVSPost2010PropOp47
 70
     1
102
RTVSPost2010Prop48
 90
       50
102
RTVSPost2010PropOp48
 70
     1
102
RTVSPost2010Prop49
280
     0
102
RTVSPost2010PropOp49
 70
     1
102
RTVSPost2010Prop50
 90
       50
102
RTVSPost2010PropOp50
 70
     1
102
RTVSPost2010Prop51ColorIndex
 90
      256
102
RTVSPost2010Prop51ColorRGB
 90
-16777216
102
RTVSPost2010PropOp51
 70
     0
102
RTVSPost2010Prop52
140
1.0
102
RTVSPost2010PropOp52
 70
     0
102
RTVSPost2010Prop53
 90
        2
102
RTVSPost2010PropOp53
 70
     1
102
RTVSPost2010Prop54
  1
strokes_ogs.tif
102
RTVSPost2010PropOp54
 70
     1
102
RTVSPost2010Prop55
280
     0
102
RTVSPost2010PropOp55
 70
     1
102
RTVSPost2010Prop56
140
1.0
102
RTVSPost2010PropOp56
 70
     1
102
RTVSPost2010Prop57
140
1.0
102
RTVSPost2010PropOp57
 70
     1
  0
XRECORD
  5
50D
102
{ACAD_REACTORS
330
50C
102
}
330
50C
100
AcDbXrecord
280
     1
102
RTVSPropertyOp0
 70
     1
102
RTVSPropertyOp1
 70
     1
102
RTVSPropertyOp2
 70
     1
102
RTVSPropertyOp3
 70
     1
102
RTVSPropertyOp4
 70
     1
102
RTVSPropertyOp5
 70
     1
102
RTVSPropertyOp6
 70
     1
102
RTVSPropertyOp7
 70
     1
102
RTVSPropertyOp8
 70
     1
102
RTVSPropertyOp9
 70
     1
102
RTVSPropertyOp10
 70
     1
102
RTVSPropertyOp11
 70
     1
102
RTVSPropertyOp12
 70
     1
102
RTVSPropertyOp13
 70
     1
102
RTVSPropertyOp14
 70
     1
102
RTVSPropertyOp15
 70
     1
102
RTVSPropertyOp16
 70
     1
102
RTVSPropertyOp17
 70
     1
102
RTVSPropertyOp18
 70
     1
102
RTVSPropertyOp19
 70
     1
102
RTVSPropertyOp20
 70
     1
102
RTVSPropertyOp21
 70
     1
102
RTVSPropertyOp22
 70
     1
102
RTVSPropertyOp23
 70
     1
102
RTVSPropertyOp24
 70
     1
102
RTVSPropertyOp25
 70
     1
102
RTVSPropertyOp26
 70
     1
102
RTVSPropertyOp27
 70
     1
102
RTVSPropertyOp28
 70
     1
102
RTVSPropertyOp29
 70
     1
102
RTVSPropertyOp30
 70
     1
102
RTVSPropertyOp31
 70
     1
102
RTVSPropertyOp32
 70
     1
102
RTVSPropertyOp33
 70
     1
102
RTVSPropertyOp34
 70
     1
102
RTVSPropertyOp35
 70
     1
102
RTVSPropertyOp36
 70
     1
102
RTVSPropertyOp37
 70
     1
102
RTVSPropertyOp38
 70
     1
102
RTVSPropertyOp39
 70
     1
102
RTVSPropertyOp40
 70
     1
102
RTVSPropertyOp41
 70
     1
102
RTVSPropertyOp42
 70
     1
102
RTVSPropertyOp43
 70
     1
102
RTVSPropertyOp44
 70
     1
102
RTVSPropertyOp45
 70
     1
102
RTVSPropertyOp46
 70
     1
102
RTVSPropertyOp47
 70
     1
102
RTVSPropertyOp48
 70
     1
102
RTVSPropertyOp49
 70
     1
102
RTVSPropertyOp50
 70
     1
102
RTVSPropertyOp51
 70
     0
102
RTVSPropertyOp52
 70
     0
102
RTVSPropertyOp53
 70
     1
102
RTVSPropertyOp54
 70
     1
102
RTVSPropertyOp55
 70
     1
102
RTVSPropertyOp56
 70
     1
102
RTVSPropertyOp57
 70
     1
102
RTVSPost2010Prop28
280
     0
102
RTVSPost2010PropOp28
 70
     1
102
RTVSPost2010Prop29
280
     1
102
RTVSPost2010PropOp29
 70
     1
102
RTVSPost2010Prop30
280
     1
102
RTVSPost2010PropOp30
 70
     1
102
RTVSPost2010Prop31
280
     0
102
RTVSPost2010PropOp31
 70
     1
102
RTVSPost2010Prop32
280
     0
102
RTVSPost2010PropOp32
 70
     1
102
RTVSPost2010Prop33
280
     0
102
RTVSPost2010PropOp33
 70
     1
102
RTVSPost2010Prop34
280
     0
102
RTVSPost2010PropOp34
 70
     1
102
RTVSPost2010Prop35
280
     0
102
RTVSPost2010PropOp35
 70
     1
102
RTVSPost2010Prop36
280
     0
102
RTVSPost2010PropOp36
 70
     1
102
RTVSPost2010Prop37
 90
       50
102
RTVSPost2010PropOp37
 70
     1
102
RTVSPost2010Prop38
140
0.0
102
RTVSPost2010PropOp38
 70
     1
102
RTVSPost2010Prop39
140
1.0
102
RTVSPost2010PropOp39
 70
     1
102
RTVSPost2010Prop40
 90
        0
102
RTVSPost2010PropOp40
 70
     1
102
RTVSPost2010Prop41ColorIndex
 90
       18
102
RTVSPost2010Prop41ColorRGB
 90
        0
102
RTVSPost2010PropOp41
 70
     1
102
RTVSPost2010Prop42
 90
       50
102
RTVSPost2010PropOp42
 70
     1
102
RTVSPost2010Prop43
 90
        3
102
RTVSPost2010PropOp43
 70
     1
102
RTVSPost2010Prop44ColorIndex
 90
        5
102
RTVSPost2010Prop44ColorRGB
 90
      255
102
RTVSPost2010PropOp44
 70
     1
102
RTVSPost2010Prop45
280
     0
102
RTVSPost2010PropOp45
 70
     1
102
RTVSPost2010Prop46
 90
       50
102
RTVSPost2010PropOp46
 70
     1
102
RTVSPost2010Prop47
 90
       50
102
RTVSPost2010PropOp47
 70
     1
102
RTVSPost2010Prop48
 90
       50
102
RTVSPost2010PropOp48
 70
     1
102
RTVSPost2010Prop49
280
     0
102
RTVSPost2010PropOp49
 70
     1
102
RTVSPost2010Prop50
 90
       50
102
RTVSPost2010PropOp50
 70
     1
102
RTVSPost2010Prop51ColorIndex
 90
      256
102
RTVSPost2010Prop51ColorRGB
 90
-16777216
102
RTVSPost2010PropOp51
 70
     0
102
RTVSPost2010Prop52
140
1.0
102
RTVSPost2010PropOp52
 70
     0
102
RTVSPost2010Prop53
 90
        2
102
RTVSPost2010PropOp53
 70
     1
102
RTVSPost2010Prop54
  1
strokes_ogs.tif
102
RTVSPost2010PropOp54
 70
     1
102
RTVSPost2010Prop55
280
     0
102
RTVSPost2010PropOp55
 70
     1
102
RTVSPost2010Prop56
140
1.0
102
RTVSPost2010PropOp56
 70
     1
102
RTVSPost2010Prop57
140
1.0
102
RTVSPost2010PropOp57
 70
     1
  0
XRECORD
  5
521
102
{ACAD_REACTORS
330
520
102
}
330
520
100
AcDbXrecord
280
     1
102
RTVSPropertyOp0
 70
     0
102
RTVSPropertyOp1
 70
     0
102
RTVSPropertyOp2
 70
     0
102
RTVSPropertyOp3
 70
     0
102
RTVSPropertyOp4
 70
     0
102
RTVSPropertyOp5
 70
     0
102
RTVSPropertyOp6
 70
     0
102
RTVSPropertyOp7
 70
     0
102
RTVSPropertyOp8
 70
     0
102
RTVSPropertyOp9
 70
     0
102
RTVSPropertyOp10
 70
     0
102
RTVSPropertyOp11
 70
     0
102
RTVSPropertyOp12
 70
     0
102
RTVSPropertyOp13
 70
     0
102
RTVSPropertyOp14
 70
     2
102
RTVSPropertyOp15
 70
     0
102
RTVSPropertyOp16
 70
     0
102
RTVSPropertyOp17
 70
     0
102
RTVSPropertyOp18
 70
     0
102
RTVSPropertyOp19
 70
     0
102
RTVSPropertyOp20
 70
     0
102
RTVSPropertyOp21
 70
     0
102
RTVSPropertyOp22
 70
     0
102
RTVSPropertyOp23
 70
     0
102
RTVSPropertyOp24
 70
     0
102
RTVSPropertyOp25
 70
     0
102
RTVSPropertyOp26
 70
     0
102
RTVSPropertyOp27
 70
     0
102
RTVSPropertyOp28
 70
     0
102
RTVSPropertyOp29
 70
     0
102
RTVSPropertyOp30
 70
     0
102
RTVSPropertyOp31
 70
     0
102
RTVSPropertyOp32
 70
     0
102
RTVSPropertyOp33
 70
     0
102
RTVSPropertyOp34
 70
     0
102
RTVSPropertyOp35
 70
     0
102
RTVSPropertyOp36
 70
     0
102
RTVSPropertyOp37
 70
     0
102
RTVSPropertyOp38
 70
     0
102
RTVSPropertyOp39
 70
     0
102
RTVSPropertyOp40
 70
     0
102
RTVSPropertyOp41
 70
     0
102
RTVSPropertyOp42
 70
     0
102
RTVSPropertyOp43
 70
     0
102
RTVSPropertyOp44
 70
     0
102
RTVSPropertyOp45
 70
     0
102
RTVSPropertyOp46
 70
     0
102
RTVSPropertyOp47
 70
     0
102
RTVSPropertyOp48
 70
     0
102
RTVSPropertyOp49
 70
     0
102
RTVSPropertyOp50
 70
     0
102
RTVSPropertyOp51
 70
     0
102
RTVSPropertyOp52
 70
     0
102
RTVSPropertyOp53
 70
     0
102
RTVSPropertyOp54
 70
     0
102
RTVSPropertyOp55
 70
     0
102
RTVSPropertyOp56
 70
     0
102
RTVSPropertyOp57
 70
     0
102
RTVSPost2010Prop28
280
     0
102
RTVSPost2010PropOp28
 70
     0
102
RTVSPost2010Prop29
280
     1
102
RTVSPost2010PropOp29
 70
     0
102
RTVSPost2010Prop30
280
     1
102
RTVSPost2010PropOp30
 70
     0
102
RTVSPost2010Prop31
280
     0
102
RTVSPost2010PropOp31
 70
     0
102
RTVSPost2010Prop32
280
     0
102
RTVSPost2010PropOp32
 70
     0
102
RTVSPost2010Prop33
280
     0
102
RTVSPost2010PropOp33
 70
     0
102
RTVSPost2010Prop34
280
     0
102
RTVSPost2010PropOp34
 70
     0
102
RTVSPost2010Prop35
280
     0
102
RTVSPost2010PropOp35
 70
     0
102
RTVSPost2010Prop36
280
     0
102
RTVSPost2010PropOp36
 70
     0
102
RTVSPost2010Prop37
 90
       50
102
RTVSPost2010PropOp37
 70
     0
102
RTVSPost2010Prop38
140
0.0
102
RTVSPost2010PropOp38
 70
     0
102
RTVSPost2010Prop39
140
1.0
102
RTVSPost2010PropOp39
 70
     0
102
RTVSPost2010Prop40
 90
        0
102
RTVSPost2010PropOp40
 70
     0
102
RTVSPost2010Prop41ColorIndex
 90
       18
102
RTVSPost2010Prop41ColorRGB
 90
        0
102
RTVSPost2010PropOp41
 70
     0
102
RTVSPost2010Prop42
 90
       50
102
RTVSPost2010PropOp42
 70
     0
102
RTVSPost2010Prop43
 90
        3
102
RTVSPost2010PropOp43
 70
     0
102
RTVSPost2010Prop44ColorIndex
 90
        5
102
RTVSPost2010Prop44ColorRGB
 90
      255
102
RTVSPost2010PropOp44
 70
     0
102
RTVSPost2010Prop45
280
     0
102
RTVSPost2010PropOp45
 70
     0
102
RTVSPost2010Prop46
 90
       50
102
RTVSPost2010PropOp46
 70
     0
102
RTVSPost2010Prop47
 90
       50
102
RTVSPost2010PropOp47
 70
     0
102
RTVSPost2010Prop48
 90
       50
102
RTVSPost2010PropOp48
 70
     0
102
RTVSPost2010Prop49
280
     0
102
RTVSPost2010PropOp49
 70
     0
102
RTVSPost2010Prop50
 90
       50
102
RTVSPost2010PropOp50
 70
     0
102
RTVSPost2010Prop51ColorIndex
 90
      256
102
RTVSPost2010Prop51ColorRGB
 90
-16777216
102
RTVSPost2010PropOp51
 70
     0
102
RTVSPost2010Prop52
140
1.0
102
RTVSPost2010PropOp52
 70
     0
102
RTVSPost2010Prop53
 90
        2
102
RTVSPost2010PropOp53
 70
     0
102
RTVSPost2010Prop54
  1
strokes_ogs.tif
102
RTVSPost2010PropOp54
 70
     0
102
RTVSPost2010Prop55
280
     0
102
RTVSPost2010PropOp55
 70
     0
102
RTVSPost2010Prop56
140
1.0
102
RTVSPost2010PropOp56
 70
     0
102
RTVSPost2010Prop57
140
1.0
102
RTVSPost2010PropOp57
 70
     0
  0
XRECORD
  5
51B
102
{ACAD_REACTORS
330
51A
102
}
330
51A
100
AcDbXrecord
280
     1
102
RTVSPropertyOp0
 70
     1
102
RTVSPropertyOp1
 70
     1
102
RTVSPropertyOp2
 70
     1
102
RTVSPropertyOp3
 70
     1
102
RTVSPropertyOp4
 70
     1
102
RTVSPropertyOp5
 70
     1
102
RTVSPropertyOp6
 70
     1
102
RTVSPropertyOp7
 70
     1
102
RTVSPropertyOp8
 70
     1
102
RTVSPropertyOp9
 70
     1
102
RTVSPropertyOp10
 70
     1
102
RTVSPropertyOp11
 70
     1
102
RTVSPropertyOp12
 70
     1
102
RTVSPropertyOp13
 70
     1
102
RTVSPropertyOp14
 70
     1
102
RTVSPropertyOp15
 70
     1
102
RTVSPropertyOp16
 70
     1
102
RTVSPropertyOp17
 70
     1
102
RTVSPropertyOp18
 70
     1
102
RTVSPropertyOp19
 70
     1
102
RTVSPropertyOp20
 70
     1
102
RTVSPropertyOp21
 70
     1
102
RTVSPropertyOp22
 70
     1
102
RTVSPropertyOp23
 70
     1
102
RTVSPropertyOp24
 70
     1
102
RTVSPropertyOp25
 70
     1
102
RTVSPropertyOp26
 70
     1
102
RTVSPropertyOp27
 70
     1
102
RTVSPropertyOp28
 70
     1
102
RTVSPropertyOp29
 70
     1
102
RTVSPropertyOp30
 70
     1
102
RTVSPropertyOp31
 70
     1
102
RTVSPropertyOp32
 70
     1
102
RTVSPropertyOp33
 70
     1
102
RTVSPropertyOp34
 70
     1
102
RTVSPropertyOp35
 70
     1
102
RTVSPropertyOp36
 70
     1
102
RTVSPropertyOp37
 70
     1
102
RTVSPropertyOp38
 70
     1
102
RTVSPropertyOp39
 70
     1
102
RTVSPropertyOp40
 70
     1
102
RTVSPropertyOp41
 70
     1
102
RTVSPropertyOp42
 70
     1
102
RTVSPropertyOp43
 70
     1
102
RTVSPropertyOp44
 70
     1
102
RTVSPropertyOp45
 70
     1
102
RTVSPropertyOp46
 70
     1
102
RTVSPropertyOp47
 70
     1
102
RTVSPropertyOp48
 70
     1
102
RTVSPropertyOp49
 70
     1
102
RTVSPropertyOp50
 70
     1
102
RTVSPropertyOp51
 70
     0
102
RTVSPropertyOp52
 70
     0
102
RTVSPropertyOp53
 70
     1
102
RTVSPropertyOp54
 70
     1
102
RTVSPropertyOp55
 70
     1
102
RTVSPropertyOp56
 70
     1
102
RTVSPropertyOp57
 70
     1
102
RTVSPost2010Prop28
280
     0
102
RTVSPost2010PropOp28
 70
     1
102
RTVSPost2010Prop29
280
     1
102
RTVSPost2010PropOp29
 70
     1
102
RTVSPost2010Prop30
280
     1
102
RTVSPost2010PropOp30
 70
     1
102
RTVSPost2010Prop31
280
     0
102
RTVSPost2010PropOp31
 70
     1
102
RTVSPost2010Prop32
280
     0
102
RTVSPost2010PropOp32
 70
     1
102
RTVSPost2010Prop33
280
     0
102
RTVSPost2010PropOp33
 70
     1
102
RTVSPost2010Prop34
280
     0
102
RTVSPost2010PropOp34
 70
     1
102
RTVSPost2010Prop35
280
     0
102
RTVSPost2010PropOp35
 70
     1
102
RTVSPost2010Prop36
280
     0
102
RTVSPost2010PropOp36
 70
     1
102
RTVSPost2010Prop37
 90
       50
102
RTVSPost2010PropOp37
 70
     1
102
RTVSPost2010Prop38
140
0.0
102
RTVSPost2010PropOp38
 70
     1
102
RTVSPost2010Prop39
140
1.0
102
RTVSPost2010PropOp39
 70
     1
102
RTVSPost2010Prop40
 90
        0
102
RTVSPost2010PropOp40
 70
     1
102
RTVSPost2010Prop41ColorIndex
 90
       18
102
RTVSPost2010Prop41ColorRGB
 90
        0
102
RTVSPost2010PropOp41
 70
     1
102
RTVSPost2010Prop42
 90
       50
102
RTVSPost2010PropOp42
 70
     1
102
RTVSPost2010Prop43
 90
        3
102
RTVSPost2010PropOp43
 70
     1
102
RTVSPost2010Prop44ColorIndex
 90
        5
102
RTVSPost2010Prop44ColorRGB
 90
      255
102
RTVSPost2010PropOp44
 70
     1
102
RTVSPost2010Prop45
280
     0
102
RTVSPost2010PropOp45
 70
     1
102
RTVSPost2010Prop46
 90
       50
102
RTVSPost2010PropOp46
 70
     1
102
RTVSPost2010Prop47
 90
       50
102
RTVSPost2010PropOp47
 70
     1
102
RTVSPost2010Prop48
 90
       50
102
RTVSPost2010PropOp48
 70
     1
102
RTVSPost2010Prop49
280
     0
102
RTVSPost2010PropOp49
 70
     1
102
RTVSPost2010Prop50
 90
       50
102
RTVSPost2010PropOp50
 70
     1
102
RTVSPost2010Prop51ColorIndex
 90
      256
102
RTVSPost2010Prop51ColorRGB
 90
-16777216
102
RTVSPost2010PropOp51
 70
     0
102
RTVSPost2010Prop52
140
1.0
102
RTVSPost2010PropOp52
 70
     0
102
RTVSPost2010Prop53
 90
        2
102
RTVSPost2010PropOp53
 70
     1
102
RTVSPost2010Prop54
  1
strokes_ogs.tif
102
RTVSPost2010PropOp54
 70
     1
102
RTVSPost2010Prop55
280
     0
102
RTVSPost2010PropOp55
 70
     1
102
RTVSPost2010Prop56
140
1.0
102
RTVSPost2010PropOp56
 70
     1
102
RTVSPost2010Prop57
140
1.0
102
RTVSPost2010PropOp57
 70
     1
  0
XRECORD
  5
523
102
{ACAD_REACTORS
330
522
102
}
330
522
100
AcDbXrecord
280
     1
102
RTVSPropertyOp0
 70
     0
102
RTVSPropertyOp1
 70
     0
102
RTVSPropertyOp2
 70
     0
102
RTVSPropertyOp3
 70
     0
102
RTVSPropertyOp4
 70
     0
102
RTVSPropertyOp5
 70
     0
102
RTVSPropertyOp6
 70
     0
102
RTVSPropertyOp7
 70
     0
102
RTVSPropertyOp8
 70
     0
102
RTVSPropertyOp9
 70
     0
102
RTVSPropertyOp10
 70
     0
102
RTVSPropertyOp11
 70
     0
102
RTVSPropertyOp12
 70
     0
102
RTVSPropertyOp13
 70
     0
102
RTVSPropertyOp14
 70
     2
102
RTVSPropertyOp15
 70
     0
102
RTVSPropertyOp16
 70
     0
102
RTVSPropertyOp17
 70
     0
102
RTVSPropertyOp18
 70
     0
102
RTVSPropertyOp19
 70
     0
102
RTVSPropertyOp20
 70
     0
102
RTVSPropertyOp21
 70
     0
102
RTVSPropertyOp22
 70
     0
102
RTVSPropertyOp23
 70
     0
102
RTVSPropertyOp24
 70
     0
102
RTVSPropertyOp25
 70
     0
102
RTVSPropertyOp26
 70
     0
102
RTVSPropertyOp27
 70
     0
102
RTVSPropertyOp28
 70
     0
102
RTVSPropertyOp29
 70
     0
102
RTVSPropertyOp30
 70
     0
102
RTVSPropertyOp31
 70
     0
102
RTVSPropertyOp32
 70
     0
102
RTVSPropertyOp33
 70
     0
102
RTVSPropertyOp34
 70
     0
102
RTVSPropertyOp35
 70
     0
102
RTVSPropertyOp36
 70
     0
102
RTVSPropertyOp37
 70
     0
102
RTVSPropertyOp38
 70
     0
102
RTVSPropertyOp39
 70
     0
102
RTVSPropertyOp40
 70
     0
102
RTVSPropertyOp41
 70
     0
102
RTVSPropertyOp42
 70
     0
102
RTVSPropertyOp43
 70
     0
102
RTVSPropertyOp44
 70
     0
102
RTVSPropertyOp45
 70
     0
102
RTVSPropertyOp46
 70
     0
102
RTVSPropertyOp47
 70
     0
102
RTVSPropertyOp48
 70
     0
102
RTVSPropertyOp49
 70
     0
102
RTVSPropertyOp50
 70
     0
102
RTVSPropertyOp51
 70
     0
102
RTVSPropertyOp52
 70
     0
102
RTVSPropertyOp53
 70
     0
102
RTVSPropertyOp54
 70
     0
102
RTVSPropertyOp55
 70
     0
102
RTVSPropertyOp56
 70
     0
102
RTVSPropertyOp57
 70
     0
102
RTVSPost2010Prop28
280
     0
102
RTVSPost2010PropOp28
 70
     0
102
RTVSPost2010Prop29
280
     1
102
RTVSPost2010PropOp29
 70
     0
102
RTVSPost2010Prop30
280
     1
102
RTVSPost2010PropOp30
 70
     0
102
RTVSPost2010Prop31
280
     0
102
RTVSPost2010PropOp31
 70
     0
102
RTVSPost2010Prop32
280
     0
102
RTVSPost2010PropOp32
 70
     0
102
RTVSPost2010Prop33
280
     0
102
RTVSPost2010PropOp33
 70
     0
102
RTVSPost2010Prop34
280
     0
102
RTVSPost2010PropOp34
 70
     0
102
RTVSPost2010Prop35
280
     0
102
RTVSPost2010PropOp35
 70
     0
102
RTVSPost2010Prop36
280
     0
102
RTVSPost2010PropOp36
 70
     0
102
RTVSPost2010Prop37
 90
       50
102
RTVSPost2010PropOp37
 70
     0
102
RTVSPost2010Prop38
140
0.0
102
RTVSPost2010PropOp38
 70
     0
102
RTVSPost2010Prop39
140
1.0
102
RTVSPost2010PropOp39
 70
     0
102
RTVSPost2010Prop40
 90
        0
102
RTVSPost2010PropOp40
 70
     0
102
RTVSPost2010Prop41ColorIndex
 90
       18
102
RTVSPost2010Prop41ColorRGB
 90
        0
102
RTVSPost2010PropOp41
 70
     0
102
RTVSPost2010Prop42
 90
       50
102
RTVSPost2010PropOp42
 70
     0
102
RTVSPost2010Prop43
 90
        3
102
RTVSPost2010PropOp43
 70
     0
102
RTVSPost2010Prop44ColorIndex
 90
        5
102
RTVSPost2010Prop44ColorRGB
 90
      255
102
RTVSPost2010PropOp44
 70
     0
102
RTVSPost2010Prop45
280
     0
102
RTVSPost2010PropOp45
 70
     0
102
RTVSPost2010Prop46
 90
       50
102
RTVSPost2010PropOp46
 70
     0
102
RTVSPost2010Prop47
 90
       50
102
RTVSPost2010PropOp47
 70
     0
102
RTVSPost2010Prop48
 90
       50
102
RTVSPost2010PropOp48
 70
     0
102
RTVSPost2010Prop49
280
     0
102
RTVSPost2010PropOp49
 70
     0
102
RTVSPost2010Prop50
 90
       50
102
RTVSPost2010PropOp50
 70
     0
102
RTVSPost2010Prop51ColorIndex
 90
      256
102
RTVSPost2010Prop51ColorRGB
 90
-16777216
102
RTVSPost2010PropOp51
 70
     0
102
RTVSPost2010Prop52
140
1.0
102
RTVSPost2010PropOp52
 70
     0
102
RTVSPost2010Prop53
 90
        2
102
RTVSPost2010PropOp53
 70
     0
102
RTVSPost2010Prop54
  1
strokes_ogs.tif
102
RTVSPost2010PropOp54
 70
     0
102
RTVSPost2010Prop55
280
     0
102
RTVSPost2010PropOp55
 70
     0
102
RTVSPost2010Prop56
140
1.0
102
RTVSPost2010PropOp56
 70
     0
102
RTVSPost2010Prop57
140
1.0
102
RTVSPost2010PropOp57
 70
     0
  0
XRECORD
  5
511
102
{ACAD_REACTORS
330
510
102
}
330
510
100
AcDbXrecord
280
     1
102
RTVSPropertyOp0
 70
     1
102
RTVSPropertyOp1
 70
     1
102
RTVSPropertyOp2
 70
     1
102
RTVSPropertyOp3
 70
     1
102
RTVSPropertyOp4
 70
     1
102
RTVSPropertyOp5
 70
     1
102
RTVSPropertyOp6
 70
     1
102
RTVSPropertyOp7
 70
     1
102
RTVSPropertyOp8
 70
     1
102
RTVSPropertyOp9
 70
     1
102
RTVSPropertyOp10
 70
     1
102
RTVSPropertyOp11
 70
     1
102
RTVSPropertyOp12
 70
     1
102
RTVSPropertyOp13
 70
     1
102
RTVSPropertyOp14
 70
     1
102
RTVSPropertyOp15
 70
     1
102
RTVSPropertyOp16
 70
     1
102
RTVSPropertyOp17
 70
     1
102
RTVSPropertyOp18
 70
     1
102
RTVSPropertyOp19
 70
     1
102
RTVSPropertyOp20
 70
     1
102
RTVSPropertyOp21
 70
     1
102
RTVSPropertyOp22
 70
     1
102
RTVSPropertyOp23
 70
     1
102
RTVSPropertyOp24
 70
     1
102
RTVSPropertyOp25
 70
     1
102
RTVSPropertyOp26
 70
     1
102
RTVSPropertyOp27
 70
     1
102
RTVSPropertyOp28
 70
     1
102
RTVSPropertyOp29
 70
     1
102
RTVSPropertyOp30
 70
     1
102
RTVSPropertyOp31
 70
     1
102
RTVSPropertyOp32
 70
     1
102
RTVSPropertyOp33
 70
     1
102
RTVSPropertyOp34
 70
     1
102
RTVSPropertyOp35
 70
     1
102
RTVSPropertyOp36
 70
     1
102
RTVSPropertyOp37
 70
     1
102
RTVSPropertyOp38
 70
     1
102
RTVSPropertyOp39
 70
     1
102
RTVSPropertyOp40
 70
     1
102
RTVSPropertyOp41
 70
     1
102
RTVSPropertyOp42
 70
     1
102
RTVSPropertyOp43
 70
     1
102
RTVSPropertyOp44
 70
     1
102
RTVSPropertyOp45
 70
     1
102
RTVSPropertyOp46
 70
     1
102
RTVSPropertyOp47
 70
     1
102
RTVSPropertyOp48
 70
     1
102
RTVSPropertyOp49
 70
     1
102
RTVSPropertyOp50
 70
     1
102
RTVSPropertyOp51
 70
     0
102
RTVSPropertyOp52
 70
     0
102
RTVSPropertyOp53
 70
     1
102
RTVSPropertyOp54
 70
     1
102
RTVSPropertyOp55
 70
     1
102
RTVSPropertyOp56
 70
     1
102
RTVSPropertyOp57
 70
     1
102
RTVSPost2010Prop28
280
     0
102
RTVSPost2010PropOp28
 70
     1
102
RTVSPost2010Prop29
280
     1
102
RTVSPost2010PropOp29
 70
     1
102
RTVSPost2010Prop30
280
     1
102
RTVSPost2010PropOp30
 70
     1
102
RTVSPost2010Prop31
280
     0
102
RTVSPost2010PropOp31
 70
     1
102
RTVSPost2010Prop32
280
     0
102
RTVSPost2010PropOp32
 70
     1
102
RTVSPost2010Prop33
280
     0
102
RTVSPost2010PropOp33
 70
     1
102
RTVSPost2010Prop34
280
     0
102
RTVSPost2010PropOp34
 70
     1
102
RTVSPost2010Prop35
280
     0
102
RTVSPost2010PropOp35
 70
     1
102
RTVSPost2010Prop36
280
     0
102
RTVSPost2010PropOp36
 70
     1
102
RTVSPost2010Prop37
 90
       50
102
RTVSPost2010PropOp37
 70
     1
102
RTVSPost2010Prop38
140
0.0
102
RTVSPost2010PropOp38
 70
     1
102
RTVSPost2010Prop39
140
1.0
102
RTVSPost2010PropOp39
 70
     1
102
RTVSPost2010Prop40
 90
        0
102
RTVSPost2010PropOp40
 70
     1
102
RTVSPost2010Prop41ColorIndex
 90
       18
102
RTVSPost2010Prop41ColorRGB
 90
        0
102
RTVSPost2010PropOp41
 70
     1
102
RTVSPost2010Prop42
 90
       50
102
RTVSPost2010PropOp42
 70
     1
102
RTVSPost2010Prop43
 90
        3
102
RTVSPost2010PropOp43
 70
     1
102
RTVSPost2010Prop44ColorIndex
 90
        5
102
RTVSPost2010Prop44ColorRGB
 90
      255
102
RTVSPost2010PropOp44
 70
     1
102
RTVSPost2010Prop45
280
     0
102
RTVSPost2010PropOp45
 70
     1
102
RTVSPost2010Prop46
 90
       50
102
RTVSPost2010PropOp46
 70
     1
102
RTVSPost2010Prop47
 90
       50
102
RTVSPost2010PropOp47
 70
     1
102
RTVSPost2010Prop48
 90
       50
102
RTVSPost2010PropOp48
 70
     1
102
RTVSPost2010Prop49
280
     0
102
RTVSPost2010PropOp49
 70
     1
102
RTVSPost2010Prop50
 90
       50
102
RTVSPost2010PropOp50
 70
     1
102
RTVSPost2010Prop51ColorIndex
 90
      256
102
RTVSPost2010Prop51ColorRGB
 90
-16777216
102
RTVSPost2010PropOp51
 70
     0
102
RTVSPost2010Prop52
140
1.0
102
RTVSPost2010PropOp52
 70
     0
102
RTVSPost2010Prop53
 90
        2
102
RTVSPost2010PropOp53
 70
     1
102
RTVSPost2010Prop54
  1
strokes_ogs.tif
102
RTVSPost2010PropOp54
 70
     1
102
RTVSPost2010Prop55
280
     0
102
RTVSPost2010PropOp55
 70
     1
102
RTVSPost2010Prop56
140
1.0
102
RTVSPost2010PropOp56
 70
     1
102
RTVSPost2010Prop57
140
1.0
102
RTVSPost2010PropOp57
 70
     1
  0
XRECORD
  5
52F
102
{ACAD_REACTORS
330
52E
102
}
330
52E
100
AcDbXrecord
280
     1
102
RTVSPropertyOp0
 70
     1
102
RTVSPropertyOp1
 70
     1
102
RTVSPropertyOp2
 70
     1
102
RTVSPropertyOp3
 70
     1
102
RTVSPropertyOp4
 70
     1
102
RTVSPropertyOp5
 70
     1
102
RTVSPropertyOp6
 70
     1
102
RTVSPropertyOp7
 70
     1
102
RTVSPropertyOp8
 70
     1
102
RTVSPropertyOp9
 70
     1
102
RTVSPropertyOp10
 70
     1
102
RTVSPropertyOp11
 70
     1
102
RTVSPropertyOp12
 70
     1
102
RTVSPropertyOp13
 70
     1
102
RTVSPropertyOp14
 70
     1
102
RTVSPropertyOp15
 70
     1
102
RTVSPropertyOp16
 70
     1
102
RTVSPropertyOp17
 70
     1
102
RTVSPropertyOp18
 70
     1
102
RTVSPropertyOp19
 70
     1
102
RTVSPropertyOp20
 70
     1
102
RTVSPropertyOp21
 70
     1
102
RTVSPropertyOp22
 70
     1
102
RTVSPropertyOp23
 70
     1
102
RTVSPropertyOp24
 70
     1
102
RTVSPropertyOp25
 70
     1
102
RTVSPropertyOp26
 70
     1
102
RTVSPropertyOp27
 70
     1
102
RTVSPropertyOp28
 70
     1
102
RTVSPropertyOp29
 70
     1
102
RTVSPropertyOp30
 70
     1
102
RTVSPropertyOp31
 70
     1
102
RTVSPropertyOp32
 70
     1
102
RTVSPropertyOp33
 70
     1
102
RTVSPropertyOp34
 70
     1
102
RTVSPropertyOp35
 70
     1
102
RTVSPropertyOp36
 70
     1
102
RTVSPropertyOp37
 70
     1
102
RTVSPropertyOp38
 70
     1
102
RTVSPropertyOp39
 70
     1
102
RTVSPropertyOp40
 70
     1
102
RTVSPropertyOp41
 70
     1
102
RTVSPropertyOp42
 70
     1
102
RTVSPropertyOp43
 70
     1
102
RTVSPropertyOp44
 70
     1
102
RTVSPropertyOp45
 70
     1
102
RTVSPropertyOp46
 70
     1
102
RTVSPropertyOp47
 70
     1
102
RTVSPropertyOp48
 70
     1
102
RTVSPropertyOp49
 70
     1
102
RTVSPropertyOp50
 70
     1
102
RTVSPropertyOp51
 70
     0
102
RTVSPropertyOp52
 70
     0
102
RTVSPropertyOp53
 70
     1
102
RTVSPropertyOp54
 70
     1
102
RTVSPropertyOp55
 70
     1
102
RTVSPropertyOp56
 70
     1
102
RTVSPropertyOp57
 70
     1
102
RTVSPost2010Prop28
280
     0
102
RTVSPost2010PropOp28
 70
     1
102
RTVSPost2010Prop29
280
     1
102
RTVSPost2010PropOp29
 70
     1
102
RTVSPost2010Prop30
280
     1
102
RTVSPost2010PropOp30
 70
     1
102
RTVSPost2010Prop31
280
     0
102
RTVSPost2010PropOp31
 70
     1
102
RTVSPost2010Prop32
280
     0
102
RTVSPost2010PropOp32
 70
     1
102
RTVSPost2010Prop33
280
     0
102
RTVSPost2010PropOp33
 70
     1
102
RTVSPost2010Prop34
280
     0
102
RTVSPost2010PropOp34
 70
     1
102
RTVSPost2010Prop35
280
     0
102
RTVSPost2010PropOp35
 70
     1
102
RTVSPost2010Prop36
280
     0
102
RTVSPost2010PropOp36
 70
     1
102
RTVSPost2010Prop37
 90
       50
102
RTVSPost2010PropOp37
 70
     1
102
RTVSPost2010Prop38
140
0.0
102
RTVSPost2010PropOp38
 70
     1
102
RTVSPost2010Prop39
140
1.0
102
RTVSPost2010PropOp39
 70
     1
102
RTVSPost2010Prop40
 90
        0
102
RTVSPost2010PropOp40
 70
     1
102
RTVSPost2010Prop41ColorIndex
 90
       18
102
RTVSPost2010Prop41ColorRGB
 90
        0
102
RTVSPost2010PropOp41
 70
     1
102
RTVSPost2010Prop42
 90
       50
102
RTVSPost2010PropOp42
 70
     1
102
RTVSPost2010Prop43
 90
        3
102
RTVSPost2010PropOp43
 70
     1
102
RTVSPost2010Prop44ColorIndex
 90
        5
102
RTVSPost2010Prop44ColorRGB
 90
      255
102
RTVSPost2010PropOp44
 70
     1
102
RTVSPost2010Prop45
280
     0
102
RTVSPost2010PropOp45
 70
     1
102
RTVSPost2010Prop46
 90
       50
102
RTVSPost2010PropOp46
 70
     1
102
RTVSPost2010Prop47
 90
       50
102
RTVSPost2010PropOp47
 70
     1
102
RTVSPost2010Prop48
 90
       50
102
RTVSPost2010PropOp48
 70
     1
102
RTVSPost2010Prop49
280
     0
102
RTVSPost2010PropOp49
 70
     1
102
RTVSPost2010Prop50
 90
       50
102
RTVSPost2010PropOp50
 70
     1
102
RTVSPost2010Prop51ColorIndex
 90
      256
102
RTVSPost2010Prop51ColorRGB
 90
-16777216
102
RTVSPost2010PropOp51
 70
     0
102
RTVSPost2010Prop52
140
1.0
102
RTVSPost2010PropOp52
 70
     0
102
RTVSPost2010Prop53
 90
        2
102
RTVSPost2010PropOp53
 70
     1
102
RTVSPost2010Prop54
  1
strokes_ogs.tif
102
RTVSPost2010PropOp54
 70
     1
102
RTVSPost2010Prop55
280
     0
102
RTVSPost2010PropOp55
 70
     1
102
RTVSPost2010Prop56
140
1.0
102
RTVSPost2010PropOp56
 70
     1
102
RTVSPost2010Prop57
140
1.0
102
RTVSPost2010PropOp57
 70
     1
  0
XRECORD
  5
52D
102
{ACAD_REACTORS
330
52C
102
}
330
52C
100
AcDbXrecord
280
     1
102
RTVSPropertyOp0
 70
     1
102
RTVSPropertyOp1
 70
     1
102
RTVSPropertyOp2
 70
     1
102
RTVSPropertyOp3
 70
     1
102
RTVSPropertyOp4
 70
     1
102
RTVSPropertyOp5
 70
     1
102
RTVSPropertyOp6
 70
     1
102
RTVSPropertyOp7
 70
     1
102
RTVSPropertyOp8
 70
     1
102
RTVSPropertyOp9
 70
     1
102
RTVSPropertyOp10
 70
     1
102
RTVSPropertyOp11
 70
     1
102
RTVSPropertyOp12
 70
     1
102
RTVSPropertyOp13
 70
     1
102
RTVSPropertyOp14
 70
     1
102
RTVSPropertyOp15
 70
     1
102
RTVSPropertyOp16
 70
     1
102
RTVSPropertyOp17
 70
     1
102
RTVSPropertyOp18
 70
     1
102
RTVSPropertyOp19
 70
     1
102
RTVSPropertyOp20
 70
     1
102
RTVSPropertyOp21
 70
     1
102
RTVSPropertyOp22
 70
     1
102
RTVSPropertyOp23
 70
     1
102
RTVSPropertyOp24
 70
     1
102
RTVSPropertyOp25
 70
     1
102
RTVSPropertyOp26
 70
     1
102
RTVSPropertyOp27
 70
     1
102
RTVSPropertyOp28
 70
     1
102
RTVSPropertyOp29
 70
     1
102
RTVSPropertyOp30
 70
     1
102
RTVSPropertyOp31
 70
     1
102
RTVSPropertyOp32
 70
     1
102
RTVSPropertyOp33
 70
     1
102
RTVSPropertyOp34
 70
     1
102
RTVSPropertyOp35
 70
     1
102
RTVSPropertyOp36
 70
     1
102
RTVSPropertyOp37
 70
     1
102
RTVSPropertyOp38
 70
     1
102
RTVSPropertyOp39
 70
     1
102
RTVSPropertyOp40
 70
     1
102
RTVSPropertyOp41
 70
     1
102
RTVSPropertyOp42
 70
     1
102
RTVSPropertyOp43
 70
     1
102
RTVSPropertyOp44
 70
     1
102
RTVSPropertyOp45
 70
     1
102
RTVSPropertyOp46
 70
     1
102
RTVSPropertyOp47
 70
     1
102
RTVSPropertyOp48
 70
     1
102
RTVSPropertyOp49
 70
     1
102
RTVSPropertyOp50
 70
     1
102
RTVSPropertyOp51
 70
     0
102
RTVSPropertyOp52
 70
     0
102
RTVSPropertyOp53
 70
     1
102
RTVSPropertyOp54
 70
     1
102
RTVSPropertyOp55
 70
     1
102
RTVSPropertyOp56
 70
     1
102
RTVSPropertyOp57
 70
     1
102
RTVSPost2010Prop28
280
     0
102
RTVSPost2010PropOp28
 70
     1
102
RTVSPost2010Prop29
280
     1
102
RTVSPost2010PropOp29
 70
     1
102
RTVSPost2010Prop30
280
     1
102
RTVSPost2010PropOp30
 70
     1
102
RTVSPost2010Prop31
280
     0
102
RTVSPost2010PropOp31
 70
     1
102
RTVSPost2010Prop32
280
     0
102
RTVSPost2010PropOp32
 70
     1
102
RTVSPost2010Prop33
280
     0
102
RTVSPost2010PropOp33
 70
     1
102
RTVSPost2010Prop34
280
     0
102
RTVSPost2010PropOp34
 70
     1
102
RTVSPost2010Prop35
280
     0
102
RTVSPost2010PropOp35
 70
     1
102
RTVSPost2010Prop36
280
     0
102
RTVSPost2010PropOp36
 70
     1
102
RTVSPost2010Prop37
 90
       50
102
RTVSPost2010PropOp37
 70
     1
102
RTVSPost2010Prop38
140
0.0
102
RTVSPost2010PropOp38
 70
     1
102
RTVSPost2010Prop39
140
1.0
102
RTVSPost2010PropOp39
 70
     1
102
RTVSPost2010Prop40
 90
        0
102
RTVSPost2010PropOp40
 70
     1
102
RTVSPost2010Prop41ColorIndex
 90
       18
102
RTVSPost2010Prop41ColorRGB
 90
        0
102
RTVSPost2010PropOp41
 70
     1
102
RTVSPost2010Prop42
 90
       50
102
RTVSPost2010PropOp42
 70
     1
102
RTVSPost2010Prop43
 90
        3
102
RTVSPost2010PropOp43
 70
     1
102
RTVSPost2010Prop44ColorIndex
 90
        5
102
RTVSPost2010Prop44ColorRGB
 90
      255
102
RTVSPost2010PropOp44
 70
     1
102
RTVSPost2010Prop45
280
     0
102
RTVSPost2010PropOp45
 70
     1
102
RTVSPost2010Prop46
 90
       50
102
RTVSPost2010PropOp46
 70
     1
102
RTVSPost2010Prop47
 90
       50
102
RTVSPost2010PropOp47
 70
     1
102
RTVSPost2010Prop48
 90
       50
102
RTVSPost2010PropOp48
 70
     1
102
RTVSPost2010Prop49
280
     0
102
RTVSPost2010PropOp49
 70
     1
102
RTVSPost2010Prop50
 90
       50
102
RTVSPost2010PropOp50
 70
     1
102
RTVSPost2010Prop51ColorIndex
 90
      256
102
RTVSPost2010Prop51ColorRGB
 90
-16777216
102
RTVSPost2010PropOp51
 70
     0
102
RTVSPost2010Prop52
140
1.0
102
RTVSPost2010PropOp52
 70
     0
102
RTVSPost2010Prop53
 90
        2
102
RTVSPost2010PropOp53
 70
     1
102
RTVSPost2010Prop54
  1
strokes_ogs.tif
102
RTVSPost2010PropOp54
 70
     1
102
RTVSPost2010Prop55
280
     0
102
RTVSPost2010PropOp55
 70
     1
102
RTVSPost2010Prop56
140
1.0
102
RTVSPost2010PropOp56
 70
     1
102
RTVSPost2010Prop57
140
1.0
102
RTVSPost2010PropOp57
 70
     1
  0
XRECORD
  5
527
102
{ACAD_REACTORS
330
526
102
}
330
526
100
AcDbXrecord
280
     1
102
RTVSPropertyOp0
 70
     1
102
RTVSPropertyOp1
 70
     1
102
RTVSPropertyOp2
 70
     1
102
RTVSPropertyOp3
 70
     1
102
RTVSPropertyOp4
 70
     1
102
RTVSPropertyOp5
 70
     1
102
RTVSPropertyOp6
 70
     1
102
RTVSPropertyOp7
 70
     1
102
RTVSPropertyOp8
 70
     1
102
RTVSPropertyOp9
 70
     1
102
RTVSPropertyOp10
 70
     1
102
RTVSPropertyOp11
 70
     1
102
RTVSPropertyOp12
 70
     1
102
RTVSPropertyOp13
 70
     1
102
RTVSPropertyOp14
 70
     1
102
RTVSPropertyOp15
 70
     1
102
RTVSPropertyOp16
 70
     1
102
RTVSPropertyOp17
 70
     1
102
RTVSPropertyOp18
 70
     1
102
RTVSPropertyOp19
 70
     1
102
RTVSPropertyOp20
 70
     1
102
RTVSPropertyOp21
 70
     1
102
RTVSPropertyOp22
 70
     1
102
RTVSPropertyOp23
 70
     1
102
RTVSPropertyOp24
 70
     1
102
RTVSPropertyOp25
 70
     1
102
RTVSPropertyOp26
 70
     1
102
RTVSPropertyOp27
 70
     1
102
RTVSPropertyOp28
 70
     1
102
RTVSPropertyOp29
 70
     1
102
RTVSPropertyOp30
 70
     1
102
RTVSPropertyOp31
 70
     1
102
RTVSPropertyOp32
 70
     1
102
RTVSPropertyOp33
 70
     1
102
RTVSPropertyOp34
 70
     1
102
RTVSPropertyOp35
 70
     1
102
RTVSPropertyOp36
 70
     1
102
RTVSPropertyOp37
 70
     1
102
RTVSPropertyOp38
 70
     1
102
RTVSPropertyOp39
 70
     1
102
RTVSPropertyOp40
 70
     1
102
RTVSPropertyOp41
 70
     1
102
RTVSPropertyOp42
 70
     1
102
RTVSPropertyOp43
 70
     1
102
RTVSPropertyOp44
 70
     1
102
RTVSPropertyOp45
 70
     1
102
RTVSPropertyOp46
 70
     1
102
RTVSPropertyOp47
 70
     1
102
RTVSPropertyOp48
 70
     1
102
RTVSPropertyOp49
 70
     1
102
RTVSPropertyOp50
 70
     1
102
RTVSPropertyOp51
 70
     0
102
RTVSPropertyOp52
 70
     0
102
RTVSPropertyOp53
 70
     1
102
RTVSPropertyOp54
 70
     1
102
RTVSPropertyOp55
 70
     1
102
RTVSPropertyOp56
 70
     1
102
RTVSPropertyOp57
 70
     1
102
RTVSPost2010Prop28
280
     0
102
RTVSPost2010PropOp28
 70
     1
102
RTVSPost2010Prop29
280
     1
102
RTVSPost2010PropOp29
 70
     1
102
RTVSPost2010Prop30
280
     1
102
RTVSPost2010PropOp30
 70
     1
102
RTVSPost2010Prop31
280
     0
102
RTVSPost2010PropOp31
 70
     1
102
RTVSPost2010Prop32
280
     0
102
RTVSPost2010PropOp32
 70
     1
102
RTVSPost2010Prop33
280
     0
102
RTVSPost2010PropOp33
 70
     1
102
RTVSPost2010Prop34
280
     0
102
RTVSPost2010PropOp34
 70
     1
102
RTVSPost2010Prop35
280
     0
102
RTVSPost2010PropOp35
 70
     1
102
RTVSPost2010Prop36
280
     0
102
RTVSPost2010PropOp36
 70
     1
102
RTVSPost2010Prop37
 90
       50
102
RTVSPost2010PropOp37
 70
     1
102
RTVSPost2010Prop38
140
0.0
102
RTVSPost2010PropOp38
 70
     1
102
RTVSPost2010Prop39
140
1.0
102
RTVSPost2010PropOp39
 70
     1
102
RTVSPost2010Prop40
 90
        0
102
RTVSPost2010PropOp40
 70
     1
102
RTVSPost2010Prop41ColorIndex
 90
       18
102
RTVSPost2010Prop41ColorRGB
 90
        0
102
RTVSPost2010PropOp41
 70
     1
102
RTVSPost2010Prop42
 90
       50
102
RTVSPost2010PropOp42
 70
     1
102
RTVSPost2010Prop43
 90
        3
102
RTVSPost2010PropOp43
 70
     1
102
RTVSPost2010Prop44ColorIndex
 90
        5
102
RTVSPost2010Prop44ColorRGB
 90
      255
102
RTVSPost2010PropOp44
 70
     1
102
RTVSPost2010Prop45
280
     0
102
RTVSPost2010PropOp45
 70
     1
102
RTVSPost2010Prop46
 90
       50
102
RTVSPost2010PropOp46
 70
     1
102
RTVSPost2010Prop47
 90
       50
102
RTVSPost2010PropOp47
 70
     1
102
RTVSPost2010Prop48
 90
       50
102
RTVSPost2010PropOp48
 70
     1
102
RTVSPost2010Prop49
280
     0
102
RTVSPost2010PropOp49
 70
     1
102
RTVSPost2010Prop50
 90
       50
102
RTVSPost2010PropOp50
 70
     1
102
RTVSPost2010Prop51ColorIndex
 90
      256
102
RTVSPost2010Prop51ColorRGB
 90
-16777216
102
RTVSPost2010PropOp51
 70
     0
102
RTVSPost2010Prop52
140
1.0
102
RTVSPost2010PropOp52
 70
     0
102
RTVSPost2010Prop53
 90
        2
102
RTVSPost2010PropOp53
 70
     1
102
RTVSPost2010Prop54
  1
strokes_ogs.tif
102
RTVSPost2010PropOp54
 70
     1
102
RTVSPost2010Prop55
280
     0
102
RTVSPost2010PropOp55
 70
     1
102
RTVSPost2010Prop56
140
1.0
102
RTVSPost2010PropOp56
 70
     1
102
RTVSPost2010Prop57
140
1.0
102
RTVSPost2010PropOp57
 70
     1
  0
XRECORD
  5
529
102
{ACAD_REACTORS
330
528
102
}
330
528
100
AcDbXrecord
280
     1
102
RTVSPropertyOp0
 70
     1
102
RTVSPropertyOp1
 70
     1
102
RTVSPropertyOp2
 70
     1
102
RTVSPropertyOp3
 70
     1
102
RTVSPropertyOp4
 70
     1
102
RTVSPropertyOp5
 70
     1
102
RTVSPropertyOp6
 70
     1
102
RTVSPropertyOp7
 70
     1
102
RTVSPropertyOp8
 70
     1
102
RTVSPropertyOp9
 70
     1
102
RTVSPropertyOp10
 70
     1
102
RTVSPropertyOp11
 70
     1
102
RTVSPropertyOp12
 70
     1
102
RTVSPropertyOp13
 70
     1
102
RTVSPropertyOp14
 70
     1
102
RTVSPropertyOp15
 70
     1
102
RTVSPropertyOp16
 70
     1
102
RTVSPropertyOp17
 70
     1
102
RTVSPropertyOp18
 70
     1
102
RTVSPropertyOp19
 70
     1
102
RTVSPropertyOp20
 70
     1
102
RTVSPropertyOp21
 70
     1
102
RTVSPropertyOp22
 70
     1
102
RTVSPropertyOp23
 70
     1
102
RTVSPropertyOp24
 70
     1
102
RTVSPropertyOp25
 70
     1
102
RTVSPropertyOp26
 70
     1
102
RTVSPropertyOp27
 70
     1
102
RTVSPropertyOp28
 70
     1
102
RTVSPropertyOp29
 70
     1
102
RTVSPropertyOp30
 70
     1
102
RTVSPropertyOp31
 70
     1
102
RTVSPropertyOp32
 70
     1
102
RTVSPropertyOp33
 70
     1
102
RTVSPropertyOp34
 70
     1
102
RTVSPropertyOp35
 70
     1
102
RTVSPropertyOp36
 70
     1
102
RTVSPropertyOp37
 70
     1
102
RTVSPropertyOp38
 70
     1
102
RTVSPropertyOp39
 70
     1
102
RTVSPropertyOp40
 70
     1
102
RTVSPropertyOp41
 70
     1
102
RTVSPropertyOp42
 70
     1
102
RTVSPropertyOp43
 70
     1
102
RTVSPropertyOp44
 70
     1
102
RTVSPropertyOp45
 70
     1
102
RTVSPropertyOp46
 70
     1
102
RTVSPropertyOp47
 70
     1
102
RTVSPropertyOp48
 70
     1
102
RTVSPropertyOp49
 70
     1
102
RTVSPropertyOp50
 70
     1
102
RTVSPropertyOp51
 70
     0
102
RTVSPropertyOp52
 70
     0
102
RTVSPropertyOp53
 70
     1
102
RTVSPropertyOp54
 70
     1
102
RTVSPropertyOp55
 70
     1
102
RTVSPropertyOp56
 70
     1
102
RTVSPropertyOp57
 70
     1
102
RTVSPost2010Prop28
280
     0
102
RTVSPost2010PropOp28
 70
     1
102
RTVSPost2010Prop29
280
     1
102
RTVSPost2010PropOp29
 70
     1
102
RTVSPost2010Prop30
280
     1
102
RTVSPost2010PropOp30
 70
     1
102
RTVSPost2010Prop31
280
     0
102
RTVSPost2010PropOp31
 70
     1
102
RTVSPost2010Prop32
280
     0
102
RTVSPost2010PropOp32
 70
     1
102
RTVSPost2010Prop33
280
     0
102
RTVSPost2010PropOp33
 70
     1
102
RTVSPost2010Prop34
280
     0
102
RTVSPost2010PropOp34
 70
     1
102
RTVSPost2010Prop35
280
     0
102
RTVSPost2010PropOp35
 70
     1
102
RTVSPost2010Prop36
280
     0
102
RTVSPost2010PropOp36
 70
     1
102
RTVSPost2010Prop37
 90
       50
102
RTVSPost2010PropOp37
 70
     1
102
RTVSPost2010Prop38
140
0.0
102
RTVSPost2010PropOp38
 70
     1
102
RTVSPost2010Prop39
140
1.0
102
RTVSPost2010PropOp39
 70
     1
102
RTVSPost2010Prop40
 90
        0
102
RTVSPost2010PropOp40
 70
     1
102
RTVSPost2010Prop41ColorIndex
 90
       18
102
RTVSPost2010Prop41ColorRGB
 90
        0
102
RTVSPost2010PropOp41
 70
     1
102
RTVSPost2010Prop42
 90
       50
102
RTVSPost2010PropOp42
 70
     1
102
RTVSPost2010Prop43
 90
        3
102
RTVSPost2010PropOp43
 70
     1
102
RTVSPost2010Prop44ColorIndex
 90
        5
102
RTVSPost2010Prop44ColorRGB
 90
      255
102
RTVSPost2010PropOp44
 70
     1
102
RTVSPost2010Prop45
280
     0
102
RTVSPost2010PropOp45
 70
     1
102
RTVSPost2010Prop46
 90
       50
102
RTVSPost2010PropOp46
 70
     1
102
RTVSPost2010Prop47
 90
       50
102
RTVSPost2010PropOp47
 70
     1
102
RTVSPost2010Prop48
 90
       50
102
RTVSPost2010PropOp48
 70
     1
102
RTVSPost2010Prop49
280
     0
102
RTVSPost2010PropOp49
 70
     1
102
RTVSPost2010Prop50
 90
       50
102
RTVSPost2010PropOp50
 70
     1
102
RTVSPost2010Prop51ColorIndex
 90
      256
102
RTVSPost2010Prop51ColorRGB
 90
-16777216
102
RTVSPost2010PropOp51
 70
     0
102
RTVSPost2010Prop52
140
1.0
102
RTVSPost2010PropOp52
 70
     0
102
RTVSPost2010Prop53
 90
        2
102
RTVSPost2010PropOp53
 70
     1
102
RTVSPost2010Prop54
  1
strokes_ogs.tif
102
RTVSPost2010PropOp54
 70
     1
102
RTVSPost2010Prop55
280
     0
102
RTVSPost2010PropOp55
 70
     1
102
RTVSPost2010Prop56
140
1.0
102
RTVSPost2010PropOp56
 70
     1
102
RTVSPost2010Prop57
140
1.0
102
RTVSPost2010PropOp57
 70
     1
  0
XRECORD
  5
519
102
{ACAD_REACTORS
330
518
102
}
330
518
100
AcDbXrecord
280
     1
102
RTVSPropertyOp0
 70
     1
102
RTVSPropertyOp1
 70
     1
102
RTVSPropertyOp2
 70
     1
102
RTVSPropertyOp3
 70
     1
102
RTVSPropertyOp4
 70
     1
102
RTVSPropertyOp5
 70
     1
102
RTVSPropertyOp6
 70
     1
102
RTVSPropertyOp7
 70
     1
102
RTVSPropertyOp8
 70
     1
102
RTVSPropertyOp9
 70
     1
102
RTVSPropertyOp10
 70
     1
102
RTVSPropertyOp11
 70
     1
102
RTVSPropertyOp12
 70
     1
102
RTVSPropertyOp13
 70
     1
102
RTVSPropertyOp14
 70
     1
102
RTVSPropertyOp15
 70
     1
102
RTVSPropertyOp16
 70
     1
102
RTVSPropertyOp17
 70
     1
102
RTVSPropertyOp18
 70
     1
102
RTVSPropertyOp19
 70
     1
102
RTVSPropertyOp20
 70
     1
102
RTVSPropertyOp21
 70
     1
102
RTVSPropertyOp22
 70
     1
102
RTVSPropertyOp23
 70
     1
102
RTVSPropertyOp24
 70
     1
102
RTVSPropertyOp25
 70
     1
102
RTVSPropertyOp26
 70
     1
102
RTVSPropertyOp27
 70
     1
102
RTVSPropertyOp28
 70
     1
102
RTVSPropertyOp29
 70
     1
102
RTVSPropertyOp30
 70
     1
102
RTVSPropertyOp31
 70
     1
102
RTVSPropertyOp32
 70
     1
102
RTVSPropertyOp33
 70
     1
102
RTVSPropertyOp34
 70
     1
102
RTVSPropertyOp35
 70
     1
102
RTVSPropertyOp36
 70
     1
102
RTVSPropertyOp37
 70
     1
102
RTVSPropertyOp38
 70
     1
102
RTVSPropertyOp39
 70
     1
102
RTVSPropertyOp40
 70
     1
102
RTVSPropertyOp41
 70
     1
102
RTVSPropertyOp42
 70
     1
102
RTVSPropertyOp43
 70
     1
102
RTVSPropertyOp44
 70
     1
102
RTVSPropertyOp45
 70
     1
102
RTVSPropertyOp46
 70
     1
102
RTVSPropertyOp47
 70
     1
102
RTVSPropertyOp48
 70
     1
102
RTVSPropertyOp49
 70
     1
102
RTVSPropertyOp50
 70
     1
102
RTVSPropertyOp51
 70
     0
102
RTVSPropertyOp52
 70
     0
102
RTVSPropertyOp53
 70
     1
102
RTVSPropertyOp54
 70
     1
102
RTVSPropertyOp55
 70
     1
102
RTVSPropertyOp56
 70
     1
102
RTVSPropertyOp57
 70
     1
102
RTVSPost2010Prop28
280
     0
102
RTVSPost2010PropOp28
 70
     1
102
RTVSPost2010Prop29
280
     1
102
RTVSPost2010PropOp29
 70
     1
102
RTVSPost2010Prop30
280
     1
102
RTVSPost2010PropOp30
 70
     1
102
RTVSPost2010Prop31
280
     0
102
RTVSPost2010PropOp31
 70
     1
102
RTVSPost2010Prop32
280
     0
102
RTVSPost2010PropOp32
 70
     1
102
RTVSPost2010Prop33
280
     0
102
RTVSPost2010PropOp33
 70
     1
102
RTVSPost2010Prop34
280
     0
102
RTVSPost2010PropOp34
 70
     1
102
RTVSPost2010Prop35
280
     0
102
RTVSPost2010PropOp35
 70
     1
102
RTVSPost2010Prop36
280
     0
102
RTVSPost2010PropOp36
 70
     1
102
RTVSPost2010Prop37
 90
       50
102
RTVSPost2010PropOp37
 70
     1
102
RTVSPost2010Prop38
140
0.0
102
RTVSPost2010PropOp38
 70
     1
102
RTVSPost2010Prop39
140
1.0
102
RTVSPost2010PropOp39
 70
     1
102
RTVSPost2010Prop40
 90
        0
102
RTVSPost2010PropOp40
 70
     1
102
RTVSPost2010Prop41ColorIndex
 90
       18
102
RTVSPost2010Prop41ColorRGB
 90
        0
102
RTVSPost2010PropOp41
 70
     1
102
RTVSPost2010Prop42
 90
       50
102
RTVSPost2010PropOp42
 70
     1
102
RTVSPost2010Prop43
 90
        3
102
RTVSPost2010PropOp43
 70
     1
102
RTVSPost2010Prop44ColorIndex
 90
        5
102
RTVSPost2010Prop44ColorRGB
 90
      255
102
RTVSPost2010PropOp44
 70
     1
102
RTVSPost2010Prop45
280
     0
102
RTVSPost2010PropOp45
 70
     1
102
RTVSPost2010Prop46
 90
       50
102
RTVSPost2010PropOp46
 70
     1
102
RTVSPost2010Prop47
 90
       50
102
RTVSPost2010PropOp47
 70
     1
102
RTVSPost2010Prop48
 90
       50
102
RTVSPost2010PropOp48
 70
     1
102
RTVSPost2010Prop49
280
     0
102
RTVSPost2010PropOp49
 70
     1
102
RTVSPost2010Prop50
 90
       50
102
RTVSPost2010PropOp50
 70
     1
102
RTVSPost2010Prop51ColorIndex
 90
      256
102
RTVSPost2010Prop51ColorRGB
 90
-16777216
102
RTVSPost2010PropOp51
 70
     0
102
RTVSPost2010Prop52
140
1.0
102
RTVSPost2010PropOp52
 70
     0
102
RTVSPost2010Prop53
 90
        2
102
RTVSPost2010PropOp53
 70
     1
102
RTVSPost2010Prop54
  1
strokes_ogs.tif
102
RTVSPost2010PropOp54
 70
     1
102
RTVSPost2010Prop55
280
     0
102
RTVSPost2010PropOp55
 70
     1
102
RTVSPost2010Prop56
140
1.0
102
RTVSPost2010PropOp56
 70
     1
102
RTVSPost2010Prop57
140
1.0
102
RTVSPost2010PropOp57
 70
     1
  0
XRECORD
  5
50B
102
{ACAD_REACTORS
330
50A
102
}
330
50A
100
AcDbXrecord
280
     1
102
RTVSPropertyOp0
 70
     1
102
RTVSPropertyOp1
 70
     1
102
RTVSPropertyOp2
 70
     1
102
RTVSPropertyOp3
 70
     1
102
RTVSPropertyOp4
 70
     1
102
RTVSPropertyOp5
 70
     1
102
RTVSPropertyOp6
 70
     1
102
RTVSPropertyOp7
 70
     1
102
RTVSPropertyOp8
 70
     1
102
RTVSPropertyOp9
 70
     1
102
RTVSPropertyOp10
 70
     1
102
RTVSPropertyOp11
 70
     1
102
RTVSPropertyOp12
 70
     1
102
RTVSPropertyOp13
 70
     1
102
RTVSPropertyOp14
 70
     1
102
RTVSPropertyOp15
 70
     1
102
RTVSPropertyOp16
 70
     1
102
RTVSPropertyOp17
 70
     1
102
RTVSPropertyOp18
 70
     1
102
RTVSPropertyOp19
 70
     1
102
RTVSPropertyOp20
 70
     1
102
RTVSPropertyOp21
 70
     1
102
RTVSPropertyOp22
 70
     1
102
RTVSPropertyOp23
 70
     1
102
RTVSPropertyOp24
 70
     1
102
RTVSPropertyOp25
 70
     1
102
RTVSPropertyOp26
 70
     1
102
RTVSPropertyOp27
 70
     1
102
RTVSPropertyOp28
 70
     1
102
RTVSPropertyOp29
 70
     1
102
RTVSPropertyOp30
 70
     1
102
RTVSPropertyOp31
 70
     1
102
RTVSPropertyOp32
 70
     1
102
RTVSPropertyOp33
 70
     1
102
RTVSPropertyOp34
 70
     1
102
RTVSPropertyOp35
 70
     1
102
RTVSPropertyOp36
 70
     1
102
RTVSPropertyOp37
 70
     1
102
RTVSPropertyOp38
 70
     1
102
RTVSPropertyOp39
 70
     1
102
RTVSPropertyOp40
 70
     1
102
RTVSPropertyOp41
 70
     1
102
RTVSPropertyOp42
 70
     1
102
RTVSPropertyOp43
 70
     1
102
RTVSPropertyOp44
 70
     1
102
RTVSPropertyOp45
 70
     1
102
RTVSPropertyOp46
 70
     1
102
RTVSPropertyOp47
 70
     1
102
RTVSPropertyOp48
 70
     1
102
RTVSPropertyOp49
 70
     1
102
RTVSPropertyOp50
 70
     1
102
RTVSPropertyOp51
 70
     0
102
RTVSPropertyOp52
 70
     0
102
RTVSPropertyOp53
 70
     1
102
RTVSPropertyOp54
 70
     1
102
RTVSPropertyOp55
 70
     1
102
RTVSPropertyOp56
 70
     1
102
RTVSPropertyOp57
 70
     1
102
RTVSPost2010Prop28
280
     0
102
RTVSPost2010PropOp28
 70
     1
102
RTVSPost2010Prop29
280
     1
102
RTVSPost2010PropOp29
 70
     1
102
RTVSPost2010Prop30
280
     1
102
RTVSPost2010PropOp30
 70
     1
102
RTVSPost2010Prop31
280
     0
102
RTVSPost2010PropOp31
 70
     1
102
RTVSPost2010Prop32
280
     0
102
RTVSPost2010PropOp32
 70
     1
102
RTVSPost2010Prop33
280
     0
102
RTVSPost2010PropOp33
 70
     1
102
RTVSPost2010Prop34
280
     0
102
RTVSPost2010PropOp34
 70
     1
102
RTVSPost2010Prop35
280
     0
102
RTVSPost2010PropOp35
 70
     1
102
RTVSPost2010Prop36
280
     0
102
RTVSPost2010PropOp36
 70
     1
102
RTVSPost2010Prop37
 90
       50
102
RTVSPost2010PropOp37
 70
     1
102
RTVSPost2010Prop38
140
0.0
102
RTVSPost2010PropOp38
 70
     1
102
RTVSPost2010Prop39
140
1.0
102
RTVSPost2010PropOp39
 70
     1
102
RTVSPost2010Prop40
 90
        0
102
RTVSPost2010PropOp40
 70
     1
102
RTVSPost2010Prop41ColorIndex
 90
       18
102
RTVSPost2010Prop41ColorRGB
 90
        0
102
RTVSPost2010PropOp41
 70
     1
102
RTVSPost2010Prop42
 90
       50
102
RTVSPost2010PropOp42
 70
     1
102
RTVSPost2010Prop43
 90
        3
102
RTVSPost2010PropOp43
 70
     1
102
RTVSPost2010Prop44ColorIndex
 90
        5
102
RTVSPost2010Prop44ColorRGB
 90
      255
102
RTVSPost2010PropOp44
 70
     1
102
RTVSPost2010Prop45
280
     0
102
RTVSPost2010PropOp45
 70
     1
102
RTVSPost2010Prop46
 90
       50
102
RTVSPost2010PropOp46
 70
     1
102
RTVSPost2010Prop47
 90
       50
102
RTVSPost2010PropOp47
 70
     1
102
RTVSPost2010Prop48
 90
       50
102
RTVSPost2010PropOp48
 70
     1
102
RTVSPost2010Prop49
280
     0
102
RTVSPost2010PropOp49
 70
     1
102
RTVSPost2010Prop50
 90
       50
102
RTVSPost2010PropOp50
 70
     1
102
RTVSPost2010Prop51ColorIndex
 90
      256
102
RTVSPost2010Prop51ColorRGB
 90
-16777216
102
RTVSPost2010PropOp51
 70
     0
102
RTVSPost2010Prop52
140
1.0
102
RTVSPost2010PropOp52
 70
     0
102
RTVSPost2010Prop53
 90
        2
102
RTVSPost2010PropOp53
 70
     1
102
RTVSPost2010Prop54
  1
strokes_ogs.tif
102
RTVSPost2010PropOp54
 70
     1
102
RTVSPost2010Prop55
280
     0
102
RTVSPost2010PropOp55
 70
     1
102
RTVSPost2010Prop56
140
1.0
102
RTVSPost2010PropOp56
 70
     1
102
RTVSPost2010Prop57
140
1.0
102
RTVSPost2010PropOp57
 70
     1
  0
XRECORD
  5
52B
102
{ACAD_REACTORS
330
52A
102
}
330
52A
100
AcDbXrecord
280
     1
102
RTVSPropertyOp0
 70
     1
102
RTVSPropertyOp1
 70
     1
102
RTVSPropertyOp2
 70
     1
102
RTVSPropertyOp3
 70
     1
102
RTVSPropertyOp4
 70
     1
102
RTVSPropertyOp5
 70
     1
102
RTVSPropertyOp6
 70
     1
102
RTVSPropertyOp7
 70
     1
102
RTVSPropertyOp8
 70
     1
102
RTVSPropertyOp9
 70
     1
102
RTVSPropertyOp10
 70
     1
102
RTVSPropertyOp11
 70
     1
102
RTVSPropertyOp12
 70
     1
102
RTVSPropertyOp13
 70
     1
102
RTVSPropertyOp14
 70
     1
102
RTVSPropertyOp15
 70
     1
102
RTVSPropertyOp16
 70
     1
102
RTVSPropertyOp17
 70
     1
102
RTVSPropertyOp18
 70
     1
102
RTVSPropertyOp19
 70
     1
102
RTVSPropertyOp20
 70
     1
102
RTVSPropertyOp21
 70
     1
102
RTVSPropertyOp22
 70
     1
102
RTVSPropertyOp23
 70
     1
102
RTVSPropertyOp24
 70
     1
102
RTVSPropertyOp25
 70
     1
102
RTVSPropertyOp26
 70
     1
102
RTVSPropertyOp27
 70
     1
102
RTVSPropertyOp28
 70
     1
102
RTVSPropertyOp29
 70
     1
102
RTVSPropertyOp30
 70
     1
102
RTVSPropertyOp31
 70
     1
102
RTVSPropertyOp32
 70
     1
102
RTVSPropertyOp33
 70
     1
102
RTVSPropertyOp34
 70
     1
102
RTVSPropertyOp35
 70
     1
102
RTVSPropertyOp36
 70
     1
102
RTVSPropertyOp37
 70
     1
102
RTVSPropertyOp38
 70
     1
102
RTVSPropertyOp39
 70
     1
102
RTVSPropertyOp40
 70
     1
102
RTVSPropertyOp41
 70
     1
102
RTVSPropertyOp42
 70
     1
102
RTVSPropertyOp43
 70
     1
102
RTVSPropertyOp44
 70
     1
102
RTVSPropertyOp45
 70
     1
102
RTVSPropertyOp46
 70
     1
102
RTVSPropertyOp47
 70
     1
102
RTVSPropertyOp48
 70
     1
102
RTVSPropertyOp49
 70
     1
102
RTVSPropertyOp50
 70
     1
102
RTVSPropertyOp51
 70
     0
102
RTVSPropertyOp52
 70
     0
102
RTVSPropertyOp53
 70
     1
102
RTVSPropertyOp54
 70
     1
102
RTVSPropertyOp55
 70
     1
102
RTVSPropertyOp56
 70
     1
102
RTVSPropertyOp57
 70
     1
102
RTVSPost2010Prop28
280
     0
102
RTVSPost2010PropOp28
 70
     1
102
RTVSPost2010Prop29
280
     1
102
RTVSPost2010PropOp29
 70
     1
102
RTVSPost2010Prop30
280
     1
102
RTVSPost2010PropOp30
 70
     1
102
RTVSPost2010Prop31
280
     0
102
RTVSPost2010PropOp31
 70
     1
102
RTVSPost2010Prop32
280
     0
102
RTVSPost2010PropOp32
 70
     1
102
RTVSPost2010Prop33
280
     0
102
RTVSPost2010PropOp33
 70
     1
102
RTVSPost2010Prop34
280
     0
102
RTVSPost2010PropOp34
 70
     1
102
RTVSPost2010Prop35
280
     0
102
RTVSPost2010PropOp35
 70
     1
102
RTVSPost2010Prop36
280
     0
102
RTVSPost2010PropOp36
 70
     1
102
RTVSPost2010Prop37
 90
       50
102
RTVSPost2010PropOp37
 70
     1
102
RTVSPost2010Prop38
140
0.0
102
RTVSPost2010PropOp38
 70
     1
102
RTVSPost2010Prop39
140
1.0
102
RTVSPost2010PropOp39
 70
     1
102
RTVSPost2010Prop40
 90
        0
102
RTVSPost2010PropOp40
 70
     1
102
RTVSPost2010Prop41ColorIndex
 90
       18
102
RTVSPost2010Prop41ColorRGB
 90
        0
102
RTVSPost2010PropOp41
 70
     1
102
RTVSPost2010Prop42
 90
       50
102
RTVSPost2010PropOp42
 70
     1
102
RTVSPost2010Prop43
 90
        3
102
RTVSPost2010PropOp43
 70
     1
102
RTVSPost2010Prop44ColorIndex
 90
        5
102
RTVSPost2010Prop44ColorRGB
 90
      255
102
RTVSPost2010PropOp44
 70
     1
102
RTVSPost2010Prop45
280
     0
102
RTVSPost2010PropOp45
 70
     1
102
RTVSPost2010Prop46
 90
       50
102
RTVSPost2010PropOp46
 70
     1
102
RTVSPost2010Prop47
 90
       50
102
RTVSPost2010PropOp47
 70
     1
102
RTVSPost2010Prop48
 90
       50
102
RTVSPost2010PropOp48
 70
     1
102
RTVSPost2010Prop49
280
     0
102
RTVSPost2010PropOp49
 70
     1
102
RTVSPost2010Prop50
 90
       50
102
RTVSPost2010PropOp50
 70
     1
102
RTVSPost2010Prop51ColorIndex
 90
      256
102
RTVSPost2010Prop51ColorRGB
 90
-16777216
102
RTVSPost2010PropOp51
 70
     0
102
RTVSPost2010Prop52
140
1.0
102
RTVSPost2010PropOp52
 70
     0
102
RTVSPost2010Prop53
 90
        2
102
RTVSPost2010PropOp53
 70
     1
102
RTVSPost2010Prop54
  1
strokes_ogs.tif
102
RTVSPost2010PropOp54
 70
     1
102
RTVSPost2010Prop55
280
     0
102
RTVSPost2010PropOp55
 70
     1
102
RTVSPost2010Prop56
140
1.0
102
RTVSPost2010PropOp56
 70
     1
102
RTVSPost2010Prop57
140
1.0
102
RTVSPost2010PropOp57
 70
     1
  0
ENDSEC
  0
EOF
