  0
SECTION
  2
HEADER
  9
$ACADVER
  1
AC1006
  9
$INSBASE
 10
0.000000
 20
0.000000
 30
0.0
  9
$EXTMIN
 10
0.000000
 20
0.000000
  9
$EXTMAX
 10
210.000000
 20
297.000000
  9
$LIMMIN
 10
0.000000
 20
0.000000
  9
$LIMMAX
 10
210.000000
 20
297.000000
  9
$VIEWCTR
 10
105.000000
 20
148.500000
  9
$VIEWSIZE
 40
297.000000
  9
$SNAPMODE
 70
     0
  9
$SNAPUNIT
 10
1.0
 20
1.0
  9
$SNAPBASE
 10
0.0
 20
0.0
  9
$SNAPANG
 50
0.0
  9
$SNAPSTYLE
 70
     0
  9
$SNAPISOPAIR
 70
     0
  9
$GRIDMODE
 70
     0
  9
$GRIDUNIT
 10
0.0
 20
0.0
  9
$ORTHOMODE
 70
     0
  9
$REGENMODE
 70
     1
  9
$FILLMODE
 70
     1
  9
$QTEXTMODE
 70
     0
  9
$DRAGMODE
 70
     2
  9
$LTSCALE
 40
15.000000
  9
$OSMODE
 70
     0
  9
$ATTMODE
 70
     1
  9
$TEXTSIZE
 40
0.2
  9
$TRACEWID
 40
0.05
  9
$TEXTSTYLE
  7
STANDARD
  9
$CLAYER
  8
CSLAYER1
  9
$CELTYPE
  6
BYLAYER
  9
$CECOLOR
 62
   256
  9
$DIMSCALE
 40
1.0
  9
$DIMASZ
 40
0.18
  9
$DIMEXO
 40
0.0625
  9
$DIMDLI
 40
0.38
  9
$DIMRND
 40
0.0
  9
$DIMDLE
 40
0.0
  9
$DIMEXE
 40
0.18
  9
$DIMTP
 40
0.0
  9
$DIMTM
 40
0.0
  9
$DIMTXT
 40
0.18
  9
$DIMCEN
 40
0.09
  9
$DIMTSZ
 40
0.0
  9
$DIMTOL
 70
     0
  9
$DIMLIM
 70
     0
  9
$DIMTIH
 70
     1
  9
$DIMTOH
 70
     1
  9
$DIMSE1
 70
     0
  9
$DIMSE2
 70
     0
  9
$DIMTAD
 70
     0
  9
$DIMZIN
 70
     0
  9
$DIMBLK
  1

  9
$LUNITS
 70
     2
  9
$LUPREC
 70
     4
  9
$AXISMODE
 70
     0
  9
$AXISUNIT
 10
0.0
 20
0.0
  9
$SKETCHINC
 40
0.1
  9
$FILLETRAD
 40
0.0
  9
$AUNITS
 70
     0
  9
$AUPREC
 70
     0
  9
$MENU
  1
ACAD
  9
$ELEVATION
 40
0.0
  9
$THICKNESS
 40
0.0
  9
$VIEWDIR
 10
0.0
 20
0.0
 30
1.0
  9
$LIMCHECK
 70
     0
  9
$BLIPMODE
 70
     1
  9
$CHAMFERA
 40
0.0
  9
$CHAMFERB
 40
0.0
  9
$FASTZOOM
 70
     1
  9
$SKPOLY
 70
     0
  9
$TDCREATE
 40
2454216.000000
  9
$TDUPDATE
 40
2454223.000000
  9
$TDINDWG
 40
0.0
  9
$TDUSRTIMER
 40
0.0
  9
$USRTIMER
 70
     1
  9
$ANGBASE
 50
0.0
  9
$ANGDIR
 70
     0
  9
$PDMODE
 70
     0
  9
$PDSIZE
 40
0.0
  9
$PLINEWID
 40
0.0
  9
$COORDS
 70
     0
  9
$USERI1
 70
     0
  9
$USERI2
 70
     0
  9
$USERI3
 70
     0
  9
$USERI4
 70
     0
  9
$USERI5
 70
     0
  9
$USERR1
 40
0.0
  9
$USERR2
 40
0.0
  9
$USERR3
 40
0.0
  9
$USERR4
 40
0.0
  9
$USERR5
 40
0.0
  0
ENDSEC
  0
SECTION
  2
TABLES
  0
TABLE
  2
LTYPE
 70
     9
  0
LTYPE
  2
CONTINUOUS
 70
    64
  3
Solid line
 72
    65
 73
     0
 40
0.0
  0
LTYPE
  2
DASHED
 70
    64
  3
__ __ __ __ __ __ __ __ __ __ __ __ __ __ __
 72
    65
 73
     2
 40
0.75
 49
0.5
 49
-0.25
  0
LTYPE
  2
HIDDEN
 70
    64
  3
_ _ _ _ _ _ _ _ _ _ _ _ _ _ _ _ _ _ _ _ _ _ _
 72
    65
 73
     2
 40
0.375
 49
0.25
 49
-0.125
  0
LTYPE
  2
DOT
 70
    64
  3
...............................................
 72
    65
 73
     2
 40
0.25
 49
0.0
 49
-0.25
  0
LTYPE
  2
DASHDOT
 70
    64
  3
__ . __ . __ . __ . __ . __ . __ . __ . __ . __
 72
    65
 73
     4
 40
1.0
 49
0.5
 49
-0.25
 49
0.0
 49
-0.25
  0
LTYPE
  2
DIVIDE
 70
    64
  3
__ . . __ . . __ . . __ . . __ . . __ . . __
 72
    65
 73
     6
 40
1.25
 49
0.5
 49
-0.25
 49
0.0
 49
-0.25
 49
0.0
 49
-0.25
  0
LTYPE
  2
CENTER
 70
    64
  3
____ _ ____ _ ____ _ ____ _ ____ _ ____ _ ____ 
 72
    65
 73
     4
 40
2.0
 49
1.25
 49
-0.25
 49
0.25
 49
-0.25
  0
LTYPE
  2
PHANTOM
 70
    64
  3
______  __  __  ______  __  __  ______  __  __ 
 72
    65
 73
     6
 40
2.5
 49
1.25
 49
-0.25
 49
0.25
 49
-0.25
 49
0.25
 49
-0.25
  0
LTYPE
  2
BORDER
 70
    64
  3
__ __ . __ __ . __ __ . __ __ . __ __ . __ __ .
 72
    65
 73
     6
 40
1.75
 49
0.5
 49
-0.25
 49
0.5
 49
-0.25
 49
0.0
 49
-0.25
  0
ENDTAB
  0
TABLE
  2
LAYER
 70
    16
  0
LAYER
  2
CSLAYER1
 70
    64
 62
     7
  6
CONTINUOUS
  0
LAYER
  2
CSLAYER2
 70
    64
 62
     7
  6
CONTINUOUS
  0
LAYER
  2
CSLAYER3
 70
    64
 62
     7
  6
CONTINUOUS
  0
LAYER
  2
CSLAYER4
 70
    64
 62
     7
  6
CONTINUOUS
  0
LAYER
  2
CSLAYER5
 70
    64
 62
     7
  6
CONTINUOUS
  0
LAYER
  2
CSLAYER6
 70
    64
 62
     7
  6
CONTINUOUS
  0
LAYER
  2
CSLAYER7
 70
    64
 62
     7
  6
CONTINUOUS
  0
LAYER
  2
CSLAYER8
 70
    64
 62
     7
  6
CONTINUOUS
  0
LAYER
  2
CSLAYER9
 70
    64
 62
     7
  6
CONTINUOUS
  0
LAYER
  2
CSLAYER10
 70
    64
 62
     7
  6
CONTINUOUS
  0
LAYER
  2
CSLAYER11
 70
    64
 62
     7
  6
CONTINUOUS
  0
LAYER
  2
CSLAYER12
 70
    64
 62
     7
  6
CONTINUOUS
  0
LAYER
  2
CSLAYER13
 70
    64
 62
     7
  6
CONTINUOUS
  0
LAYER
  2
CSLAYER14
 70
    64
 62
     7
  6
CONTINUOUS
  0
LAYER
  2
CSLAYER15
 70
    64
 62
     7
  6
CONTINUOUS
  0
LAYER
  2
CSLAYER16
 70
    64
 62
     7
  6
CONTINUOUS
  0
ENDTAB
  0
TABLE
  2
STYLE
 70
     1
  0
STYLE
  2
FX_FONT
 70
     0
 40
1.0
 41
1.0
 50
0.0
 71
     0
 42
1.0
  3
monotxt
  4
bigfont
  0
ENDTAB
  0
TABLE
  2
VIEW
 70
     0
  0
ENDTAB
  0
ENDSEC
  0
SECTION
  2
BLOCKS
  0
ENDSEC
  0
SECTION
  2
ENTITIES
  0
LINE
  8
CSLAYER1
  6
CENTER
 62
     3
 10
47.476049
 20
163.577873
 11
25.381236
 21
163.577873
  0
LINE
  8
CSLAYER1
  6
CENTER
 62
     3
 10
47.476049
 20
228.577873
 11
25.381236
 21
228.577873
  0
TEXT
  8
CSLAYER1
 62
     3
 10
144.089539
 20
35.476463
 40
4.000000
 41
1.038462
  1
SAP-1210A
 50
0.000000
 51
10.000000
  7
FX_FONT
 72
     5
 11
180.089539
 21
35.476463
  0
TEXT
  8
CSLAYER1
 62
     4
 10
144.089539
 20
29.476463
 40
3.500000
 41
1.071429
  1
尺度1：1
 50
0.000000
 51
10.000000
  7
FX_FONT
 72
     5
 11
161.589539
 21
29.476463
  0
TEXT
  8
CSLAYER1
 62
     3
 10
144.089539
 20
41.476463
 40
4.000000
 41
1.031250
  1
アナログ位置制御アンプ
 50
0.000000
 51
10.000000
  7
FX_FONT
 72
     5
 11
188.089539
 21
41.476463
  0
LINE
  8
CSLAYER1
  6
CONTINUOUS
 62
     6
 10
76.381236
 20
238.577873
 11
185.381236
 21
238.577873
  0
LINE
  8
CSLAYER1
  6
CONTINUOUS
 62
     6
 10
73.381236
 20
153.577873
 11
188.381236
 21
153.577873
  0
LINE
  8
CSLAYER1
  6
CONTINUOUS
 62
     6
 10
188.381236
 20
235.577873
 11
188.381236
 21
153.577873
  0
LINE
  8
CSLAYER1
  6
CONTINUOUS
 62
     6
 10
73.381236
 20
155.577873
 11
188.381236
 21
155.577873
  0
LINE
  8
CSLAYER1
  6
CONTINUOUS
 62
     6
 10
73.381236
 20
235.577873
 11
73.381236
 21
153.577873
  0
LINE
  8
CSLAYER1
  6
CENTER
 62
     3
 10
183.381236
 20
232.827873
 11
183.381236
 21
224.327873
  0
LINE
  8
CSLAYER1
  6
CENTER
 62
     3
 10
78.381236
 20
232.827873
 11
78.381236
 21
224.327873
  0
CIRCLE
  8
CSLAYER1
  6
CONTINUOUS
 62
     6
 10
183.381236
 20
228.577873
 40
1.600000
  0
CIRCLE
  8
CSLAYER1
  6
CONTINUOUS
 62
     6
 10
183.381236
 20
163.577873
 40
1.600000
  0
CIRCLE
  8
CSLAYER1
  6
CONTINUOUS
 62
     6
 10
78.381236
 20
163.577873
 40
1.600000
  0
CIRCLE
  8
CSLAYER1
  6
CONTINUOUS
 62
     6
 10
78.381236
 20
228.577873
 40
1.600000
  0
LINE
  8
CSLAYER1
  6
CENTER
 62
     3
 10
183.381236
 20
167.827873
 11
183.381236
 21
159.327873
  0
LINE
  8
CSLAYER1
  6
CENTER
 62
     3
 10
78.381236
 20
167.827873
 11
78.381236
 21
159.327873
  0
LINE
  8
CSLAYER1
  6
CENTER
 62
     3
 10
168.631221
 20
228.577873
 11
187.631236
 21
228.577873
  0
LINE
  8
CSLAYER1
  6
CENTER
 62
     3
 10
168.631221
 20
163.577873
 11
187.631236
 21
163.577873
  0
LINE
  8
CSLAYER1
  6
CENTER
 62
     3
 10
74.131236
 20
163.577873
 11
93.131232
 21
163.577873
  0
LINE
  8
CSLAYER1
  6
CENTER
 62
     3
 10
74.131236
 20
228.577873
 11
93.131232
 21
228.577873
  0
ARC
  8
CSLAYER1
  6
CONTINUOUS
 62
     6
 10
76.381236
 20
235.577873
 40
3.000000
 50
90.000000
 51
180.000000
  0
ARC
  8
CSLAYER1
  6
CONTINUOUS
 62
     6
 10
185.381236
 20
235.577873
 40
3.000000
 50
0.000000
 51
90.000000
  0
LINE
  8
CSLAYER1
  6
CONTINUOUS
 62
     6
 10
58.381236
 20
153.577873
 11
31.381236
 21
153.577873
  0
LINE
  8
CSLAYER1
  6
CONTINUOUS
 62
     6
 10
28.381236
 20
156.577873
 11
28.381236
 21
238.577873
  0
LINE
  8
CSLAYER1
  6
CONTINUOUS
 62
     6
 10
30.381236
 20
156.577873
 11
30.381236
 21
238.577873
  0
LINE
  8
CSLAYER1
  6
CONTINUOUS
 62
     6
 10
58.381236
 20
155.577873
 11
31.381236
 21
155.577873
  0
ARC
  8
CSLAYER1
  6
CONTINUOUS
 62
     6
 10
31.381236
 20
156.577873
 40
3.000000
 50
180.000000
 51
270.000000
  0
ARC
  8
CSLAYER1
  6
CONTINUOUS
 62
     6
 10
31.381236
 20
156.577873
 40
1.000000
 50
180.000000
 51
270.000000
  0
LINE
  8
CSLAYER1
  6
CONTINUOUS
 62
     6
 10
28.381236
 20
238.577873
 11
30.381236
 21
238.577873
  0
LINE
  8
CSLAYER1
  6
CONTINUOUS
 62
     6
 10
58.381236
 20
155.577873
 11
58.381236
 21
153.577873
  0
LINE
  8
CSLAYER1
  6
CENTER
 62
     3
 10
38.381236
 20
150.577873
 11
38.381236
 21
158.577873
  0
LINE
  8
CSLAYER1
  6
CENTER
 62
     3
 10
53.381236
 20
150.577873
 11
53.381236
 21
158.577873
  0
LINE
  8
CSLAYER1
  6
CONTINUOUS
 62
     6
 10
40.381236
 20
166.577873
 11
30.381236
 21
166.577873
  0
LINE
  8
CSLAYER1
  6
CONTINUOUS
 62
     6
 10
40.381236
 20
160.577873
 11
30.381236
 21
160.577873
  0
LINE
  8
CSLAYER1
  6
CONTINUOUS
 62
     6
 10
40.381236
 20
231.577873
 11
30.381236
 21
231.577873
  0
LINE
  8
CSLAYER1
  6
CONTINUOUS
 62
     6
 10
40.381236
 20
225.577873
 11
30.381236
 21
225.577873
  0
LINE
  8
CSLAYER1
  6
CONTINUOUS
 62
     6
 10
188.381236
 20
125.577873
 11
188.381236
 21
98.577873
  0
LINE
  8
CSLAYER1
  6
CONTINUOUS
 62
     6
 10
73.381236
 20
125.577873
 11
73.381236
 21
98.577873
  0
LINE
  8
CSLAYER1
  6
CONTINUOUS
 62
     6
 10
76.381236
 20
128.577873
 11
185.381236
 21
128.577873
  0
LINE
  8
CSLAYER1
  6
CONTINUOUS
 62
     6
 10
73.381236
 20
98.577873
 11
188.381236
 21
98.577873
  0
ARC
  8
CSLAYER1
  6
CONTINUOUS
 62
     6
 10
185.381236
 20
125.577873
 40
3.000000
 50
0.000000
 51
90.000000
  0
ARC
  8
CSLAYER1
  6
CONTINUOUS
 62
     6
 10
76.381236
 20
125.577873
 40
3.000000
 50
90.000000
 51
180.000000
  0
CIRCLE
  8
CSLAYER1
  6
CONTINUOUS
 62
     6
 10
183.381236
 20
123.577873
 40
1.600000
  0
CIRCLE
  8
CSLAYER1
  6
CONTINUOUS
 62
     6
 10
183.381236
 20
108.577873
 40
1.600000
  0
CIRCLE
  8
CSLAYER1
  6
CONTINUOUS
 62
     6
 10
78.381236
 20
108.577873
 40
1.600000
  0
CIRCLE
  8
CSLAYER1
  6
CONTINUOUS
 62
     6
 10
78.381236
 20
123.577873
 40
1.600000
  0
LINE
  8
CSLAYER1
  6
CENTER
 62
     3
 10
78.381236
 20
127.177873
 11
78.381236
 21
119.977873
  0
LINE
  8
CSLAYER1
  6
CENTER
 62
     3
 10
74.781236
 20
123.577873
 11
81.981236
 21
123.577873
  0
LINE
  8
CSLAYER1
  6
CONTINUOUS
 62
     6
 10
83.381236
 20
233.577873
 11
178.381236
 21
233.577873
  0
LINE
  8
CSLAYER1
  6
CONTINUOUS
 62
     6
 10
178.381236
 20
233.577873
 11
178.381236
 21
158.577873
  0
LINE
  8
CSLAYER1
  6
CONTINUOUS
 62
     6
 10
83.381236
 20
233.577873
 11
83.381236
 21
158.577873
  0
LINE
  8
CSLAYER1
  6
CONTINUOUS
 62
     6
 10
83.381236
 20
158.577873
 11
178.381236
 21
158.577873
  0
LINE
  8
CSLAYER1
  6
CENTER
 62
     3
 10
173.381231
 20
233.327868
 11
173.381231
 21
223.827858
  0
CIRCLE
  8
CSLAYER1
  6
CONTINUOUS
 62
     6
 10
173.381236
 20
228.577873
 40
2.250000
  0
ARC
  8
CSLAYER1
  6
CONTINUOUS
 62
     6
 10
173.381228
 20
228.577873
 40
1.250000
 50
163.398416
 51
196.601577
  0
ARC
  8
CSLAYER1
  6
CONTINUOUS
 62
     6
 10
173.381228
 20
228.577873
 40
1.250000
 50
253.398422
 51
286.601583
  0
ARC
  8
CSLAYER1
  6
CONTINUOUS
 62
     6
 10
173.381228
 20
228.577873
 40
1.250000
 50
-16.601562
 51
16.601572
  0
ARC
  8
CSLAYER1
  6
CONTINUOUS
 62
     6
 10
173.381228
 20
228.577873
 40
1.250000
 50
73.398406
 51
106.601595
  0
LINE
  8
CSLAYER1
  6
CONTINUOUS
 62
     6
 10
174.095523
 20
228.220726
 11
174.579116
 21
228.220726
  0
LINE
  8
CSLAYER1
  6
CONTINUOUS
 62
     6
 10
172.666934
 20
228.220726
 11
172.183340
 21
228.220726
  0
LINE
  8
CSLAYER1
  6
CONTINUOUS
 62
     6
 10
174.095523
 20
228.935020
 11
174.579116
 21
228.935020
  0
LINE
  8
CSLAYER1
  6
CONTINUOUS
 62
     6
 10
172.666934
 20
228.935020
 11
172.183340
 21
228.935020
  0
LINE
  8
CSLAYER1
  6
CONTINUOUS
 62
     6
 10
173.024081
 20
227.863597
 11
173.024081
 21
227.379967
  0
LINE
  8
CSLAYER1
  6
CONTINUOUS
 62
     6
 10
173.024081
 20
229.292149
 11
173.024081
 21
229.775780
  0
LINE
  8
CSLAYER1
  6
CONTINUOUS
 62
     6
 10
173.738375
 20
227.863597
 11
173.738375
 21
227.379967
  0
LINE
  8
CSLAYER1
  6
CONTINUOUS
 62
     6
 10
173.738375
 20
229.292149
 11
173.738375
 21
229.775780
  0
ARC
  8
CSLAYER1
  6
CONTINUOUS
 62
     6
 10
174.095523
 20
227.863597
 40
0.357143
 50
90.000001
 51
179.942691
  0
ARC
  8
CSLAYER1
  6
CONTINUOUS
 62
     6
 10
174.095523
 20
229.292149
 40
0.357143
 50
180.000010
 51
270.000016
  0
ARC
  8
CSLAYER1
  6
CONTINUOUS
 62
     6
 10
172.666934
 20
229.292149
 40
0.357143
 50
-89.999984
 51
0.000005
  0
ARC
  8
CSLAYER1
  6
CONTINUOUS
 62
     6
 10
172.666934
 20
227.863597
 40
0.357143
 50
0.000005
 51
89.942654
  0
CIRCLE
  8
CSLAYER1
  6
CONTINUOUS
 62
     6
 10
173.381236
 20
163.577873
 40
2.250000
  0
ARC
  8
CSLAYER1
  6
CONTINUOUS
 62
     6
 10
173.381228
 20
163.577873
 40
1.250000
 50
163.398416
 51
196.601577
  0
ARC
  8
CSLAYER1
  6
CONTINUOUS
 62
     6
 10
173.381228
 20
163.577873
 40
1.250000
 50
253.398422
 51
286.601583
  0
ARC
  8
CSLAYER1
  6
CONTINUOUS
 62
     6
 10
173.381228
 20
163.577873
 40
1.250000
 50
-16.601562
 51
16.601572
  0
ARC
  8
CSLAYER1
  6
CONTINUOUS
 62
     6
 10
173.381228
 20
163.577873
 40
1.250000
 50
73.398406
 51
106.601595
  0
LINE
  8
CSLAYER1
  6
CONTINUOUS
 62
     6
 10
174.095523
 20
163.220726
 11
174.579116
 21
163.220726
  0
LINE
  8
CSLAYER1
  6
CONTINUOUS
 62
     6
 10
172.666934
 20
163.220726
 11
172.183340
 21
163.220726
  0
LINE
  8
CSLAYER1
  6
CONTINUOUS
 62
     6
 10
174.095523
 20
163.935020
 11
174.579116
 21
163.935020
  0
LINE
  8
CSLAYER1
  6
CONTINUOUS
 62
     6
 10
172.666934
 20
163.935020
 11
172.183340
 21
163.935020
  0
LINE
  8
CSLAYER1
  6
CONTINUOUS
 62
     6
 10
173.024081
 20
162.863597
 11
173.024081
 21
162.379967
  0
LINE
  8
CSLAYER1
  6
CONTINUOUS
 62
     6
 10
173.024081
 20
164.292149
 11
173.024081
 21
164.775780
  0
LINE
  8
CSLAYER1
  6
CONTINUOUS
 62
     6
 10
173.738375
 20
162.863597
 11
173.738375
 21
162.379967
  0
LINE
  8
CSLAYER1
  6
CONTINUOUS
 62
     6
 10
173.738375
 20
164.292149
 11
173.738375
 21
164.775780
  0
ARC
  8
CSLAYER1
  6
CONTINUOUS
 62
     6
 10
174.095523
 20
162.863597
 40
0.357143
 50
90.000001
 51
179.942691
  0
ARC
  8
CSLAYER1
  6
CONTINUOUS
 62
     6
 10
174.095523
 20
164.292149
 40
0.357143
 50
180.000010
 51
270.000016
  0
ARC
  8
CSLAYER1
  6
CONTINUOUS
 62
     6
 10
172.666934
 20
164.292149
 40
0.357143
 50
-89.999984
 51
0.000005
  0
ARC
  8
CSLAYER1
  6
CONTINUOUS
 62
     6
 10
172.666934
 20
162.863597
 40
0.357143
 50
0.000005
 51
89.942654
  0
LINE
  8
CSLAYER1
  6
CENTER
 62
     3
 10
173.381231
 20
168.327868
 11
173.381231
 21
158.827858
  0
LINE
  8
CSLAYER1
  6
CENTER
 62
     3
 10
88.381231
 20
233.327868
 11
88.381231
 21
223.827858
  0
CIRCLE
  8
CSLAYER1
  6
CONTINUOUS
 62
     6
 10
88.381236
 20
228.577873
 40
2.250000
  0
ARC
  8
CSLAYER1
  6
CONTINUOUS
 62
     6
 10
88.381228
 20
228.577873
 40
1.250000
 50
163.398416
 51
196.601577
  0
ARC
  8
CSLAYER1
  6
CONTINUOUS
 62
     6
 10
88.381228
 20
228.577873
 40
1.250000
 50
253.398422
 51
286.601583
  0
ARC
  8
CSLAYER1
  6
CONTINUOUS
 62
     6
 10
88.381228
 20
228.577873
 40
1.250000
 50
-16.601562
 51
16.601572
  0
ARC
  8
CSLAYER1
  6
CONTINUOUS
 62
     6
 10
88.381228
 20
228.577873
 40
1.250000
 50
73.398406
 51
106.601595
  0
LINE
  8
CSLAYER1
  6
CONTINUOUS
 62
     6
 10
89.095523
 20
228.220726
 11
89.579116
 21
228.220726
  0
LINE
  8
CSLAYER1
  6
CONTINUOUS
 62
     6
 10
87.666934
 20
228.220726
 11
87.183340
 21
228.220726
  0
LINE
  8
CSLAYER1
  6
CONTINUOUS
 62
     6
 10
89.095523
 20
228.935020
 11
89.579116
 21
228.935020
  0
LINE
  8
CSLAYER1
  6
CONTINUOUS
 62
     6
 10
87.666934
 20
228.935020
 11
87.183340
 21
228.935020
  0
LINE
  8
CSLAYER1
  6
CONTINUOUS
 62
     6
 10
88.024081
 20
227.863597
 11
88.024081
 21
227.379967
  0
LINE
  8
CSLAYER1
  6
CONTINUOUS
 62
     6
 10
88.024081
 20
229.292149
 11
88.024081
 21
229.775780
  0
LINE
  8
CSLAYER1
  6
CONTINUOUS
 62
     6
 10
88.738375
 20
227.863597
 11
88.738375
 21
227.379967
  0
LINE
  8
CSLAYER1
  6
CONTINUOUS
 62
     6
 10
88.738375
 20
229.292149
 11
88.738375
 21
229.775780
  0
ARC
  8
CSLAYER1
  6
CONTINUOUS
 62
     6
 10
89.095523
 20
227.863597
 40
0.357143
 50
90.000001
 51
179.942691
  0
ARC
  8
CSLAYER1
  6
CONTINUOUS
 62
     6
 10
89.095523
 20
229.292149
 40
0.357143
 50
180.000010
 51
270.000016
  0
ARC
  8
CSLAYER1
  6
CONTINUOUS
 62
     6
 10
87.666934
 20
229.292149
 40
0.357143
 50
-89.999984
 51
0.000005
  0
ARC
  8
CSLAYER1
  6
CONTINUOUS
 62
     6
 10
87.666934
 20
227.863597
 40
0.357143
 50
0.000005
 51
89.942654
  0
LINE
  8
CSLAYER1
  6
CENTER
 62
     3
 10
88.381236
 20
168.327868
 11
88.381236
 21
158.827858
  0
CIRCLE
  8
CSLAYER1
  6
CONTINUOUS
 62
     6
 10
88.381242
 20
163.577873
 40
2.250000
  0
ARC
  8
CSLAYER1
  6
CONTINUOUS
 62
     6
 10
88.381233
 20
163.577873
 40
1.250000
 50
163.398416
 51
196.601577
  0
ARC
  8
CSLAYER1
  6
CONTINUOUS
 62
     6
 10
88.381233
 20
163.577873
 40
1.250000
 50
253.398422
 51
286.601583
  0
ARC
  8
CSLAYER1
  6
CONTINUOUS
 62
     6
 10
88.381233
 20
163.577873
 40
1.250000
 50
-16.601562
 51
16.601572
  0
ARC
  8
CSLAYER1
  6
CONTINUOUS
 62
     6
 10
88.381233
 20
163.577873
 40
1.250000
 50
73.398406
 51
106.601595
  0
LINE
  8
CSLAYER1
  6
CONTINUOUS
 62
     6
 10
89.095528
 20
163.220726
 11
89.579121
 21
163.220726
  0
LINE
  8
CSLAYER1
  6
CONTINUOUS
 62
     6
 10
87.666939
 20
163.220726
 11
87.183345
 21
163.220726
  0
LINE
  8
CSLAYER1
  6
CONTINUOUS
 62
     6
 10
89.095528
 20
163.935020
 11
89.579121
 21
163.935020
  0
LINE
  8
CSLAYER1
  6
CONTINUOUS
 62
     6
 10
87.666939
 20
163.935020
 11
87.183345
 21
163.935020
  0
LINE
  8
CSLAYER1
  6
CONTINUOUS
 62
     6
 10
88.024086
 20
162.863597
 11
88.024086
 21
162.379967
  0
LINE
  8
CSLAYER1
  6
CONTINUOUS
 62
     6
 10
88.024086
 20
164.292149
 11
88.024086
 21
164.775780
  0
LINE
  8
CSLAYER1
  6
CONTINUOUS
 62
     6
 10
88.738381
 20
162.863597
 11
88.738381
 21
162.379967
  0
LINE
  8
CSLAYER1
  6
CONTINUOUS
 62
     6
 10
88.738381
 20
164.292149
 11
88.738381
 21
164.775780
  0
ARC
  8
CSLAYER1
  6
CONTINUOUS
 62
     6
 10
89.095528
 20
162.863597
 40
0.357143
 50
90.000001
 51
179.942691
  0
ARC
  8
CSLAYER1
  6
CONTINUOUS
 62
     6
 10
89.095528
 20
164.292149
 40
0.357143
 50
180.000010
 51
270.000016
  0
ARC
  8
CSLAYER1
  6
CONTINUOUS
 62
     6
 10
87.666939
 20
164.292149
 40
0.357143
 50
-89.999984
 51
0.000005
  0
ARC
  8
CSLAYER1
  6
CONTINUOUS
 62
     6
 10
87.666939
 20
162.863597
 40
0.357143
 50
0.000005
 51
89.942654
  0
LINE
  8
CSLAYER1
  6
CONTINUOUS
 62
     6
 10
51.381236
 20
170.577873
 11
51.381236
 21
189.777873
  0
LINE
  8
CSLAYER1
  6
CONTINUOUS
 62
     3
 10
48.381236
 20
170.577873
 11
48.381236
 21
189.777873
  0
LINE
  8
CSLAYER1
  6
CONTINUOUS
 62
     6
 10
51.381236
 20
189.777873
 11
42.381236
 21
189.777873
  0
LINE
  8
CSLAYER1
  6
CONTINUOUS
 62
     6
 10
51.381236
 20
170.577873
 11
42.381236
 21
170.577873
  0
LINE
  8
CSLAYER1
  6
CONTINUOUS
 62
     6
 10
47.381236
 20
184.327873
 11
43.381236
 21
184.327873
  0
LINE
  8
CSLAYER1
  6
CONTINUOUS
 62
     6
 10
46.381236
 20
188.827873
 11
44.381236
 21
188.827873
  0
LINE
  8
CSLAYER1
  6
CONTINUOUS
 62
     6
 10
46.381236
 20
185.927873
 11
44.381236
 21
185.927873
  0
LINE
  8
CSLAYER1
  6
CONTINUOUS
 62
     6
 10
47.381236
 20
189.127873
 11
43.381236
 21
189.127873
  0
LINE
  8
CSLAYER1
  6
CONTINUOUS
 62
     6
 10
47.381236
 20
185.627873
 11
43.381236
 21
185.627873
  0
LINE
  8
CSLAYER1
  6
CONTINUOUS
 62
     6
 10
47.381236
 20
185.627873
 11
47.381236
 21
189.127873
  0
LINE
  8
CSLAYER1
  6
CONTINUOUS
 62
     6
 10
46.381236
 20
185.927873
 11
46.381236
 21
188.827873
  0
LINE
  8
CSLAYER1
  6
CONTINUOUS
 62
     6
 10
44.381236
 20
185.927873
 11
44.381236
 21
188.827873
  0
LINE
  8
CSLAYER1
  6
CONTINUOUS
 62
     6
 10
43.381236
 20
185.627873
 11
43.381236
 21
189.127873
  0
LINE
  8
CSLAYER1
  6
CONTINUOUS
 62
     6
 10
47.381236
 20
184.327873
 11
43.381236
 21
184.327873
  0
LINE
  8
CSLAYER1
  6
CONTINUOUS
 62
     6
 10
47.381236
 20
180.827873
 11
43.381236
 21
180.827873
  0
LINE
  8
CSLAYER1
  6
CONTINUOUS
 62
     6
 10
47.381236
 20
180.827873
 11
47.381236
 21
184.327873
  0
LINE
  8
CSLAYER1
  6
CONTINUOUS
 62
     6
 10
43.381236
 20
180.827873
 11
43.381236
 21
184.327873
  0
LINE
  8
CSLAYER1
  6
CONTINUOUS
 62
     6
 10
47.381236
 20
179.527873
 11
43.381236
 21
179.527873
  0
LINE
  8
CSLAYER1
  6
CONTINUOUS
 62
     6
 10
47.381236
 20
176.027873
 11
43.381236
 21
176.027873
  0
LINE
  8
CSLAYER1
  6
CONTINUOUS
 62
     6
 10
47.381236
 20
176.027873
 11
47.381236
 21
179.527873
  0
LINE
  8
CSLAYER1
  6
CONTINUOUS
 62
     6
 10
43.381236
 20
176.027873
 11
43.381236
 21
179.527873
  0
LINE
  8
CSLAYER1
  6
CONTINUOUS
 62
     6
 10
47.381236
 20
174.727873
 11
43.381236
 21
174.727873
  0
LINE
  8
CSLAYER1
  6
CONTINUOUS
 62
     6
 10
47.381236
 20
171.227873
 11
43.381236
 21
171.227873
  0
LINE
  8
CSLAYER1
  6
CONTINUOUS
 62
     6
 10
47.381236
 20
171.227873
 11
47.381236
 21
174.727873
  0
LINE
  8
CSLAYER1
  6
CONTINUOUS
 62
     6
 10
43.381236
 20
171.227873
 11
43.381236
 21
174.727873
  0
LINE
  8
CSLAYER1
  6
CONTINUOUS
 62
     6
 10
46.381236
 20
184.027873
 11
44.381236
 21
184.027873
  0
LINE
  8
CSLAYER1
  6
CONTINUOUS
 62
     6
 10
46.381236
 20
181.127873
 11
44.381236
 21
181.127873
  0
LINE
  8
CSLAYER1
  6
CONTINUOUS
 62
     6
 10
46.381236
 20
181.127873
 11
46.381236
 21
184.027873
  0
LINE
  8
CSLAYER1
  6
CONTINUOUS
 62
     6
 10
44.381236
 20
181.127873
 11
44.381236
 21
184.027873
  0
LINE
  8
CSLAYER1
  6
CONTINUOUS
 62
     6
 10
46.381236
 20
179.227873
 11
44.381236
 21
179.227873
  0
LINE
  8
CSLAYER1
  6
CONTINUOUS
 62
     6
 10
46.381236
 20
176.327873
 11
44.381236
 21
176.327873
  0
LINE
  8
CSLAYER1
  6
CONTINUOUS
 62
     6
 10
46.381236
 20
176.327873
 11
46.381236
 21
179.227873
  0
LINE
  8
CSLAYER1
  6
CONTINUOUS
 62
     6
 10
44.381236
 20
176.327873
 11
44.381236
 21
179.227873
  0
LINE
  8
CSLAYER1
  6
CONTINUOUS
 62
     6
 10
46.381236
 20
174.427873
 11
44.381236
 21
174.427873
  0
LINE
  8
CSLAYER1
  6
CONTINUOUS
 62
     6
 10
46.381236
 20
171.527873
 11
44.381236
 21
171.527873
  0
LINE
  8
CSLAYER1
  6
CONTINUOUS
 62
     6
 10
46.381236
 20
171.527873
 11
46.381236
 21
174.427873
  0
LINE
  8
CSLAYER1
  6
CONTINUOUS
 62
     6
 10
44.381236
 20
171.527873
 11
44.381236
 21
174.427873
  0
LINE
  8
CSLAYER1
  6
CONTINUOUS
 62
     6
 10
171.381231
 20
170.577873
 11
171.381231
 21
218.577873
  0
LINE
  8
CSLAYER1
  6
CONTINUOUS
 62
     6
 10
162.381231
 20
170.577873
 11
171.381231
 21
170.577873
  0
LINE
  8
CSLAYER1
  6
CONTINUOUS
 62
     6
 10
162.381231
 20
170.577873
 11
162.381231
 21
218.577873
  0
LINE
  8
CSLAYER1
  6
CONTINUOUS
 62
     6
 10
162.381231
 20
218.577873
 11
171.381231
 21
218.577873
  0
LINE
  8
CSLAYER1
  6
CONTINUOUS
 62
     3
 10
164.381231
 20
170.577873
 11
164.381231
 21
218.577873
  0
LINE
  8
CSLAYER1
  6
CONTINUOUS
 62
     3
 10
169.381231
 20
170.577873
 11
169.381231
 21
218.577873
  0
CIRCLE
  8
CSLAYER1
  6
CONTINUOUS
 62
     6
 10
166.881231
 20
172.977873
 40
2.000000
  0
CIRCLE
  8
CSLAYER1
  6
CONTINUOUS
 62
     6
 10
166.881231
 20
177.777873
 40
2.000000
  0
CIRCLE
  8
CSLAYER1
  6
CONTINUOUS
 62
     6
 10
166.881231
 20
182.577873
 40
2.000000
  0
CIRCLE
  8
CSLAYER1
  6
CONTINUOUS
 62
     6
 10
166.881231
 20
187.377873
 40
2.000000
  0
CIRCLE
  8
CSLAYER1
  6
CONTINUOUS
 62
     6
 10
166.881231
 20
192.177873
 40
2.000000
  0
LINE
  8
CSLAYER1
  6
CONTINUOUS
 62
     6
 10
165.000908
 20
173.659332
 11
168.411553
 21
171.690195
  0
LINE
  8
CSLAYER1
  6
CONTINUOUS
 62
     6
 10
165.350908
 20
174.265550
 11
168.761553
 21
172.296413
  0
LINE
  8
CSLAYER1
  6
CONTINUOUS
 62
     6
 10
167.562690
 20
179.658195
 11
165.593554
 21
176.247550
  0
LINE
  8
CSLAYER1
  6
CONTINUOUS
 62
     6
 10
168.168908
 20
179.308195
 11
166.199771
 21
175.897550
  0
LINE
  8
CSLAYER1
  6
CONTINUOUS
 62
     6
 10
166.033507
 20
184.389326
 11
167.052807
 21
180.585246
  0
LINE
  8
CSLAYER1
  6
CONTINUOUS
 62
     6
 10
166.709655
 20
184.570500
 11
167.728955
 21
180.766419
  0
LINE
  8
CSLAYER1
  6
CONTINUOUS
 62
     6
 10
168.692684
 20
186.530149
 11
164.888604
 21
187.549449
  0
LINE
  8
CSLAYER1
  6
CONTINUOUS
 62
     6
 10
168.873858
 20
187.206297
 11
165.069777
 21
188.225597
  0
LINE
  8
CSLAYER1
  6
CONTINUOUS
 62
     6
 10
168.692684
 20
193.025597
 11
164.888604
 21
192.006297
  0
LINE
  8
CSLAYER1
  6
CONTINUOUS
 62
     6
 10
168.873858
 20
192.349449
 11
165.069777
 21
191.330149
  0
CIRCLE
  8
CSLAYER1
  6
CONTINUOUS
 62
     6
 10
166.881231
 20
196.977873
 40
2.000000
  0
CIRCLE
  8
CSLAYER1
  6
CONTINUOUS
 62
     6
 10
166.881231
 20
201.777873
 40
2.000000
  0
CIRCLE
  8
CSLAYER1
  6
CONTINUOUS
 62
     6
 10
166.881231
 20
206.577873
 40
2.000000
  0
CIRCLE
  8
CSLAYER1
  6
CONTINUOUS
 62
     6
 10
166.881231
 20
211.377873
 40
2.000000
  0
CIRCLE
  8
CSLAYER1
  6
CONTINUOUS
 62
     6
 10
166.881231
 20
216.177873
 40
2.000000
  0
LINE
  8
CSLAYER1
  6
CONTINUOUS
 62
     6
 10
168.761553
 20
197.659332
 11
165.350908
 21
195.690195
  0
LINE
  8
CSLAYER1
  6
CONTINUOUS
 62
     6
 10
168.411553
 20
198.265550
 11
165.000908
 21
196.296413
  0
LINE
  8
CSLAYER1
  6
CONTINUOUS
 62
     6
 10
166.199771
 20
203.658195
 11
168.168908
 21
200.247550
  0
LINE
  8
CSLAYER1
  6
CONTINUOUS
 62
     6
 10
165.593554
 20
203.308195
 11
167.562690
 21
199.897550
  0
LINE
  8
CSLAYER1
  6
CONTINUOUS
 62
     6
 10
167.728955
 20
208.389326
 11
166.709655
 21
204.585246
  0
LINE
  8
CSLAYER1
  6
CONTINUOUS
 62
     6
 10
167.052807
 20
208.570500
 11
166.033507
 21
204.766419
  0
LINE
  8
CSLAYER1
  6
CONTINUOUS
 62
     6
 10
165.069777
 20
210.530149
 11
168.873858
 21
211.549449
  0
LINE
  8
CSLAYER1
  6
CONTINUOUS
 62
     6
 10
164.888604
 20
211.206297
 11
168.692684
 21
212.225597
  0
LINE
  8
CSLAYER1
  6
CONTINUOUS
 62
     6
 10
165.069777
 20
217.025597
 11
168.873858
 21
216.006297
  0
LINE
  8
CSLAYER1
  6
CONTINUOUS
 62
     6
 10
164.888604
 20
216.349449
 11
168.692684
 21
215.330149
  0
TEXT
  8
CSLAYER1
 62
     3
 10
176.881241
 20
217.177872
 40
2.000000
 41
0.843750
  1
ACC
 50
180.000000
 51
0.000000
  7
FX_FONT
 72
     5
 11
172.381241
 21
217.177872
  0
LINE
  8
CSLAYER1
  6
CONTINUOUS
 62
     3
 10
172.181231
 20
217.377873
 11
177.081231
 21
217.377873
  0
LINE
  8
CSLAYER1
  6
CONTINUOUS
 62
     3
 10
172.181231
 20
214.977873
 11
172.181231
 21
217.377873
  0
LINE
  8
CSLAYER1
  6
CONTINUOUS
 62
     3
 10
177.081231
 20
214.977873
 11
177.081231
 21
217.377873
  0
LINE
  8
CSLAYER1
  6
CONTINUOUS
 62
     3
 10
172.181231
 20
214.977873
 11
177.081231
 21
214.977873
  0
TEXT
  8
CSLAYER1
 62
     3
 10
176.881241
 20
212.377869
 40
2.000000
 41
0.843750
  1
ACM
 50
180.000000
 51
0.000000
  7
FX_FONT
 72
     5
 11
172.381241
 21
212.377869
  0
LINE
  8
CSLAYER1
  6
CONTINUOUS
 62
     3
 10
172.181231
 20
212.577873
 11
177.081231
 21
212.577873
  0
LINE
  8
CSLAYER1
  6
CONTINUOUS
 62
     3
 10
172.181231
 20
210.177873
 11
172.181231
 21
212.577873
  0
LINE
  8
CSLAYER1
  6
CONTINUOUS
 62
     3
 10
177.081231
 20
210.177873
 11
177.081231
 21
212.577873
  0
LINE
  8
CSLAYER1
  6
CONTINUOUS
 62
     3
 10
172.181231
 20
210.177873
 11
177.081231
 21
210.177873
  0
TEXT
  8
CSLAYER1
 62
     3
 10
176.131241
 20
207.577866
 40
2.000000
 41
0.900000
  1
CC
 50
180.000000
 51
0.000000
  7
FX_FONT
 72
     5
 11
173.131241
 21
207.577866
  0
LINE
  8
CSLAYER1
  6
CONTINUOUS
 62
     3
 10
172.181231
 20
207.777873
 11
177.081231
 21
207.777873
  0
LINE
  8
CSLAYER1
  6
CONTINUOUS
 62
     3
 10
172.181231
 20
205.377873
 11
172.181231
 21
207.777873
  0
LINE
  8
CSLAYER1
  6
CONTINUOUS
 62
     3
 10
177.081231
 20
205.377873
 11
177.081231
 21
207.777873
  0
LINE
  8
CSLAYER1
  6
CONTINUOUS
 62
     3
 10
172.181231
 20
205.377873
 11
177.081231
 21
205.377873
  0
TEXT
  8
CSLAYER1
 62
     3
 10
176.881241
 20
202.777878
 40
2.000000
 41
0.843750
  1
CV3
 50
180.000000
 51
0.000000
  7
FX_FONT
 72
     5
 11
172.381241
 21
202.777878
  0
LINE
  8
CSLAYER1
  6
CONTINUOUS
 62
     3
 10
172.181231
 20
202.977873
 11
177.081231
 21
202.977873
  0
LINE
  8
CSLAYER1
  6
CONTINUOUS
 62
     3
 10
172.181231
 20
200.577873
 11
172.181231
 21
202.977873
  0
LINE
  8
CSLAYER1
  6
CONTINUOUS
 62
     3
 10
177.081231
 20
200.577873
 11
177.081231
 21
202.977873
  0
LINE
  8
CSLAYER1
  6
CONTINUOUS
 62
     3
 10
172.181231
 20
200.577873
 11
177.081231
 21
200.577873
  0
TEXT
  8
CSLAYER1
 62
     3
 10
176.881241
 20
197.977875
 40
2.000000
 41
0.843750
  1
CV2
 50
180.000000
 51
0.000000
  7
FX_FONT
 72
     5
 11
172.381241
 21
197.977875
  0
LINE
  8
CSLAYER1
  6
CONTINUOUS
 62
     3
 10
172.181231
 20
198.177873
 11
177.081231
 21
198.177873
  0
LINE
  8
CSLAYER1
  6
CONTINUOUS
 62
     3
 10
172.181231
 20
195.777873
 11
172.181231
 21
198.177873
  0
LINE
  8
CSLAYER1
  6
CONTINUOUS
 62
     3
 10
177.081231
 20
195.777873
 11
177.081231
 21
198.177873
  0
LINE
  8
CSLAYER1
  6
CONTINUOUS
 62
     3
 10
172.181231
 20
195.777873
 11
177.081231
 21
195.777873
  0
TEXT
  8
CSLAYER1
 62
     3
 10
176.881241
 20
193.177872
 40
2.000000
 41
0.843750
  1
CV1
 50
180.000000
 51
0.000000
  7
FX_FONT
 72
     5
 11
172.381241
 21
193.177872
  0
LINE
  8
CSLAYER1
  6
CONTINUOUS
 62
     3
 10
172.181231
 20
193.377873
 11
177.081231
 21
193.377873
  0
LINE
  8
CSLAYER1
  6
CONTINUOUS
 62
     3
 10
172.181231
 20
190.977873
 11
172.181231
 21
193.377873
  0
LINE
  8
CSLAYER1
  6
CONTINUOUS
 62
     3
 10
177.081231
 20
190.977873
 11
177.081231
 21
193.377873
  0
LINE
  8
CSLAYER1
  6
CONTINUOUS
 62
     3
 10
172.181231
 20
190.977873
 11
177.081231
 21
190.977873
  0
TEXT
  8
CSLAYER1
 62
     3
 10
176.131241
 20
188.377869
 40
2.000000
 41
0.900000
  1
FC
 50
180.000000
 51
0.000000
  7
FX_FONT
 72
     5
 11
173.131241
 21
188.377869
  0
LINE
  8
CSLAYER1
  6
CONTINUOUS
 62
     3
 10
172.181231
 20
188.577873
 11
177.081231
 21
188.577873
  0
LINE
  8
CSLAYER1
  6
CONTINUOUS
 62
     3
 10
172.181231
 20
186.177873
 11
172.181231
 21
188.577873
  0
LINE
  8
CSLAYER1
  6
CONTINUOUS
 62
     3
 10
177.081231
 20
186.177873
 11
177.081231
 21
188.577873
  0
LINE
  8
CSLAYER1
  6
CONTINUOUS
 62
     3
 10
172.181231
 20
186.177873
 11
177.081231
 21
186.177873
  0
TEXT
  8
CSLAYER1
 62
     3
 10
176.881241
 20
183.577866
 40
2.000000
 41
0.843750
  1
FV3
 50
180.000000
 51
0.000000
  7
FX_FONT
 72
     5
 11
172.381241
 21
183.577866
  0
LINE
  8
CSLAYER1
  6
CONTINUOUS
 62
     3
 10
172.181231
 20
183.777873
 11
177.081231
 21
183.777873
  0
LINE
  8
CSLAYER1
  6
CONTINUOUS
 62
     3
 10
172.181231
 20
181.377873
 11
172.181231
 21
183.777873
  0
LINE
  8
CSLAYER1
  6
CONTINUOUS
 62
     3
 10
177.081231
 20
181.377873
 11
177.081231
 21
183.777873
  0
LINE
  8
CSLAYER1
  6
CONTINUOUS
 62
     3
 10
172.181231
 20
181.377873
 11
177.081231
 21
181.377873
  0
TEXT
  8
CSLAYER1
 62
     3
 10
176.881241
 20
178.777878
 40
2.000000
 41
0.843750
  1
FV2
 50
180.000000
 51
0.000000
  7
FX_FONT
 72
     5
 11
172.381241
 21
178.777878
  0
LINE
  8
CSLAYER1
  6
CONTINUOUS
 62
     3
 10
172.181231
 20
178.977873
 11
177.081231
 21
178.977873
  0
LINE
  8
CSLAYER1
  6
CONTINUOUS
 62
     3
 10
172.181231
 20
176.577873
 11
172.181231
 21
178.977873
  0
LINE
  8
CSLAYER1
  6
CONTINUOUS
 62
     3
 10
177.081231
 20
176.577873
 11
177.081231
 21
178.977873
  0
LINE
  8
CSLAYER1
  6
CONTINUOUS
 62
     3
 10
172.181231
 20
176.577873
 11
177.081231
 21
176.577873
  0
TEXT
  8
CSLAYER1
 62
     3
 10
176.881241
 20
173.977875
 40
2.000000
 41
0.843750
  1
FV1
 50
180.000000
 51
0.000000
  7
FX_FONT
 72
     5
 11
172.381241
 21
173.977875
  0
LINE
  8
CSLAYER1
  6
CONTINUOUS
 62
     3
 10
172.181231
 20
174.177873
 11
177.081231
 21
174.177873
  0
LINE
  8
CSLAYER1
  6
CONTINUOUS
 62
     3
 10
172.181231
 20
171.777873
 11
172.181231
 21
174.177873
  0
LINE
  8
CSLAYER1
  6
CONTINUOUS
 62
     3
 10
177.081231
 20
171.777873
 11
177.081231
 21
174.177873
  0
LINE
  8
CSLAYER1
  6
CONTINUOUS
 62
     3
 10
172.181231
 20
171.777873
 11
177.081231
 21
171.777873
  0
TEXT
  8
CSLAYER1
 62
     3
 10
89.431236
 20
188.377884
 40
2.000000
 41
0.900000
  1
+5
 50
180.000000
 51
0.000000
  7
FX_FONT
 72
     5
 11
86.431236
 21
188.377884
  0
LINE
  8
CSLAYER1
  6
CONTINUOUS
 62
     3
 10
85.481236
 20
188.577873
 11
90.381236
 21
188.577873
  0
LINE
  8
CSLAYER1
  6
CONTINUOUS
 62
     3
 10
85.481236
 20
186.177873
 11
85.481236
 21
188.577873
  0
LINE
  8
CSLAYER1
  6
CONTINUOUS
 62
     3
 10
90.381236
 20
186.177873
 11
90.381236
 21
188.577873
  0
LINE
  8
CSLAYER1
  6
CONTINUOUS
 62
     3
 10
85.481236
 20
186.177873
 11
90.381236
 21
186.177873
  0
LINE
  8
CSLAYER1
  6
CONTINUOUS
 62
     3
 10
85.481236
 20
183.777873
 11
90.381236
 21
183.777873
  0
LINE
  8
CSLAYER1
  6
CONTINUOUS
 62
     3
 10
85.481236
 20
181.377873
 11
85.481236
 21
183.777873
  0
LINE
  8
CSLAYER1
  6
CONTINUOUS
 62
     3
 10
90.381236
 20
181.377873
 11
90.381236
 21
183.777873
  0
LINE
  8
CSLAYER1
  6
CONTINUOUS
 62
     3
 10
85.481236
 20
181.377873
 11
90.381236
 21
181.377873
  0
TEXT
  8
CSLAYER1
 62
     3
 10
90.181236
 20
178.777878
 40
2.000000
 41
0.843750
  1
VR2
 50
180.000000
 51
0.000000
  7
FX_FONT
 72
     5
 11
85.681236
 21
178.777878
  0
LINE
  8
CSLAYER1
  6
CONTINUOUS
 62
     3
 10
85.481236
 20
178.977873
 11
90.381236
 21
178.977873
  0
LINE
  8
CSLAYER1
  6
CONTINUOUS
 62
     3
 10
85.481236
 20
176.577873
 11
85.481236
 21
178.977873
  0
LINE
  8
CSLAYER1
  6
CONTINUOUS
 62
     3
 10
90.381236
 20
176.577873
 11
90.381236
 21
178.977873
  0
LINE
  8
CSLAYER1
  6
CONTINUOUS
 62
     3
 10
85.481236
 20
176.577873
 11
90.381236
 21
176.577873
  0
TEXT
  8
CSLAYER1
 62
     3
 10
90.181236
 20
173.977890
 40
2.000000
 41
0.843750
  1
COM
 50
180.000000
 51
0.000000
  7
FX_FONT
 72
     5
 11
85.681236
 21
173.977890
  0
LINE
  8
CSLAYER1
  6
CONTINUOUS
 62
     3
 10
85.481236
 20
174.177873
 11
90.381236
 21
174.177873
  0
LINE
  8
CSLAYER1
  6
CONTINUOUS
 62
     3
 10
85.481236
 20
171.777873
 11
85.481236
 21
174.177873
  0
LINE
  8
CSLAYER1
  6
CONTINUOUS
 62
     3
 10
90.381236
 20
171.777873
 11
90.381236
 21
174.177873
  0
LINE
  8
CSLAYER1
  6
CONTINUOUS
 62
     3
 10
85.481236
 20
171.777873
 11
90.381236
 21
171.777873
  0
TEXT
  8
CSLAYER1
 62
     3
 10
90.181236
 20
183.577896
 40
2.000000
 41
0.843750
  1
COM
 50
180.000000
 51
0.000000
  7
FX_FONT
 72
     5
 11
85.681236
 21
183.577896
  0
LINE
  8
CSLAYER1
  6
CONTINUOUS
 62
     6
 10
111.881236
 20
188.077873
 11
110.381236
 21
188.077873
  0
LINE
  8
CSLAYER1
  6
CONTINUOUS
 62
     6
 10
110.381236
 20
187.577873
 11
110.381236
 21
188.077873
  0
LINE
  8
CSLAYER1
  6
CONTINUOUS
 62
     6
 10
106.881236
 20
187.577873
 11
106.881236
 21
188.077873
  0
LINE
  8
CSLAYER1
  6
CONTINUOUS
 62
     6
 10
106.881236
 20
188.077873
 11
105.381236
 21
188.077873
  0
LINE
  8
CSLAYER1
  6
CONTINUOUS
 62
     6
 10
105.381236
 20
193.827873
 11
106.881236
 21
193.827873
  0
LINE
  8
CSLAYER1
  6
CONTINUOUS
 62
     6
 10
106.881236
 20
194.327873
 11
106.881236
 21
193.827873
  0
LINE
  8
CSLAYER1
  6
CONTINUOUS
 62
     6
 10
110.381236
 20
194.327873
 11
110.381236
 21
193.827873
  0
LINE
  8
CSLAYER1
  6
CONTINUOUS
 62
     6
 10
110.381236
 20
193.827873
 11
111.881236
 21
193.827873
  0
POINT
  8
CSLAYER1
 62
     3
 10
108.631236
 20
190.952873
  0
ARC
  8
CSLAYER1
  6
CONTINUOUS
 62
     6
 10
108.631236
 20
190.952873
 40
2.000000
 50
41.409622
 51
318.590378
  0
CIRCLE
  8
CSLAYER1
  6
CONTINUOUS
 62
     3
 10
108.631236
 20
190.952873
 40
1.650000
  0
LINE
  8
CSLAYER1
  6
CONTINUOUS
 62
     6
 10
110.131236
 20
189.129997
 11
110.131236
 21
189.629997
  0
LINE
  8
CSLAYER1
  6
CONTINUOUS
 62
     6
 10
110.131236
 20
192.275748
 11
110.131236
 21
192.775748
  0
LINE
  8
CSLAYER1
  6
CONTINUOUS
 62
     6
 10
106.631236
 20
190.952873
 11
106.131236
 21
190.952873
  0
LINE
  8
CSLAYER1
  6
CONTINUOUS
 62
     6
 10
106.899185
 20
189.952873
 11
106.466173
 21
189.702873
  0
LINE
  8
CSLAYER1
  6
CONTINUOUS
 62
     6
 10
107.631236
 20
189.220822
 11
107.381236
 21
188.787809
  0
LINE
  8
CSLAYER1
  6
CONTINUOUS
 62
     6
 10
108.631236
 20
188.952873
 11
108.631236
 21
188.452873
  0
LINE
  8
CSLAYER1
  6
CONTINUOUS
 62
     6
 10
109.631236
 20
189.220822
 11
109.881236
 21
188.787809
  0
LINE
  8
CSLAYER1
  6
CONTINUOUS
 62
     6
 10
106.899185
 20
191.952873
 11
106.466173
 21
192.202873
  0
LINE
  8
CSLAYER1
  6
CONTINUOUS
 62
     6
 10
107.631236
 20
192.684924
 11
107.381236
 21
193.117936
  0
LINE
  8
CSLAYER1
  6
CONTINUOUS
 62
     6
 10
108.631236
 20
192.952873
 11
108.631236
 21
193.452873
  0
LINE
  8
CSLAYER1
  6
CONTINUOUS
 62
     6
 10
109.631236
 20
192.684924
 11
109.881236
 21
193.117936
  0
LINE
  8
CSLAYER1
  6
CONTINUOUS
 62
     3
 10
108.301236
 20
189.632873
 11
108.301236
 21
190.622873
  0
LINE
  8
CSLAYER1
  6
CONTINUOUS
 62
     3
 10
108.961236
 20
189.632873
 11
108.961236
 21
190.622873
  0
LINE
  8
CSLAYER1
  6
CONTINUOUS
 62
     3
 10
109.951236
 20
190.622873
 11
108.961236
 21
190.622873
  0
LINE
  8
CSLAYER1
  6
CONTINUOUS
 62
     3
 10
109.951236
 20
191.282873
 11
108.961236
 21
191.282873
  0
LINE
  8
CSLAYER1
  6
CONTINUOUS
 62
     3
 10
109.951236
 20
190.622873
 11
109.951236
 21
191.282873
  0
LINE
  8
CSLAYER1
  6
CONTINUOUS
 62
     3
 10
108.301236
 20
189.632873
 11
108.961236
 21
189.632873
  0
LINE
  8
CSLAYER1
  6
CONTINUOUS
 62
     3
 10
108.961236
 20
192.272873
 11
108.301236
 21
192.272873
  0
LINE
  8
CSLAYER1
  6
CONTINUOUS
 62
     3
 10
107.707236
 20
190.266981
 11
107.707236
 21
190.622873
  0
LINE
  8
CSLAYER1
  6
CONTINUOUS
 62
     3
 10
107.707236
 20
190.266981
 11
107.311236
 21
190.952873
  0
LINE
  8
CSLAYER1
  6
CONTINUOUS
 62
     3
 10
107.707236
 20
191.638765
 11
107.311236
 21
190.952873
  0
LINE
  8
CSLAYER1
  6
CONTINUOUS
 62
     3
 10
107.707236
 20
191.282873
 11
107.707236
 21
191.638765
  0
LINE
  8
CSLAYER1
  6
CONTINUOUS
 62
     3
 10
108.301236
 20
191.282873
 11
108.301236
 21
192.272873
  0
LINE
  8
CSLAYER1
  6
CONTINUOUS
 62
     3
 10
108.961236
 20
191.282873
 11
108.961236
 21
192.272873
  0
LINE
  8
CSLAYER1
  6
CONTINUOUS
 62
     3
 10
108.301236
 20
190.622873
 11
107.707236
 21
190.622873
  0
LINE
  8
CSLAYER1
  6
CONTINUOUS
 62
     3
 10
108.301236
 20
191.282873
 11
107.707236
 21
191.282873
  0
LINE
  8
CSLAYER1
  6
CONTINUOUS
 62
     6
 10
105.381236
 20
187.577873
 11
105.381236
 21
194.327873
  0
LINE
  8
CSLAYER1
  6
CONTINUOUS
 62
     6
 10
111.881236
 20
187.577873
 11
111.881236
 21
194.327873
  0
LINE
  8
CSLAYER1
  6
CONTINUOUS
 62
     6
 10
111.881236
 20
187.577873
 11
105.381236
 21
187.577873
  0
LINE
  8
CSLAYER1
  6
CONTINUOUS
 62
     6
 10
111.881236
 20
194.327873
 11
105.381236
 21
194.327873
  0
LINE
  8
CSLAYER1
  6
CONTINUOUS
 62
     6
 10
157.381231
 20
202.827873
 11
155.881231
 21
202.827873
  0
LINE
  8
CSLAYER1
  6
CONTINUOUS
 62
     6
 10
155.881231
 20
202.327873
 11
155.881231
 21
202.827873
  0
LINE
  8
CSLAYER1
  6
CONTINUOUS
 62
     6
 10
152.381231
 20
202.327873
 11
152.381231
 21
202.827873
  0
LINE
  8
CSLAYER1
  6
CONTINUOUS
 62
     6
 10
152.381231
 20
202.827873
 11
150.881231
 21
202.827873
  0
LINE
  8
CSLAYER1
  6
CONTINUOUS
 62
     6
 10
150.881231
 20
208.577873
 11
152.381231
 21
208.577873
  0
LINE
  8
CSLAYER1
  6
CONTINUOUS
 62
     6
 10
152.381231
 20
209.077873
 11
152.381231
 21
208.577873
  0
LINE
  8
CSLAYER1
  6
CONTINUOUS
 62
     6
 10
155.881231
 20
209.077873
 11
155.881231
 21
208.577873
  0
LINE
  8
CSLAYER1
  6
CONTINUOUS
 62
     6
 10
155.881231
 20
208.577873
 11
157.381231
 21
208.577873
  0
POINT
  8
CSLAYER1
 62
     3
 10
154.131231
 20
205.702873
  0
ARC
  8
CSLAYER1
  6
CONTINUOUS
 62
     6
 10
154.131231
 20
205.702873
 40
2.000000
 50
41.409622
 51
318.590378
  0
CIRCLE
  8
CSLAYER1
  6
CONTINUOUS
 62
     3
 10
154.131231
 20
205.702873
 40
1.650000
  0
LINE
  8
CSLAYER1
  6
CONTINUOUS
 62
     6
 10
155.631231
 20
203.879997
 11
155.631231
 21
204.379997
  0
LINE
  8
CSLAYER1
  6
CONTINUOUS
 62
     6
 10
155.631231
 20
207.025748
 11
155.631231
 21
207.525748
  0
LINE
  8
CSLAYER1
  6
CONTINUOUS
 62
     6
 10
152.131231
 20
205.702873
 11
151.631231
 21
205.702873
  0
LINE
  8
CSLAYER1
  6
CONTINUOUS
 62
     6
 10
152.399180
 20
204.702873
 11
151.966167
 21
204.452873
  0
LINE
  8
CSLAYER1
  6
CONTINUOUS
 62
     6
 10
153.131231
 20
203.970822
 11
152.881231
 21
203.537809
  0
LINE
  8
CSLAYER1
  6
CONTINUOUS
 62
     6
 10
154.131231
 20
203.702873
 11
154.131231
 21
203.202873
  0
LINE
  8
CSLAYER1
  6
CONTINUOUS
 62
     6
 10
155.131231
 20
203.970822
 11
155.381231
 21
203.537809
  0
LINE
  8
CSLAYER1
  6
CONTINUOUS
 62
     6
 10
152.399180
 20
206.702873
 11
151.966167
 21
206.952873
  0
LINE
  8
CSLAYER1
  6
CONTINUOUS
 62
     6
 10
153.131231
 20
207.434924
 11
152.881231
 21
207.867936
  0
LINE
  8
CSLAYER1
  6
CONTINUOUS
 62
     6
 10
154.131231
 20
207.702873
 11
154.131231
 21
208.202873
  0
LINE
  8
CSLAYER1
  6
CONTINUOUS
 62
     6
 10
155.131231
 20
207.434924
 11
155.381231
 21
207.867936
  0
LINE
  8
CSLAYER1
  6
CONTINUOUS
 62
     3
 10
153.801231
 20
204.382873
 11
153.801231
 21
205.372873
  0
LINE
  8
CSLAYER1
  6
CONTINUOUS
 62
     3
 10
154.461231
 20
204.382873
 11
154.461231
 21
205.372873
  0
LINE
  8
CSLAYER1
  6
CONTINUOUS
 62
     3
 10
155.451231
 20
205.372873
 11
154.461231
 21
205.372873
  0
LINE
  8
CSLAYER1
  6
CONTINUOUS
 62
     3
 10
155.451231
 20
206.032873
 11
154.461231
 21
206.032873
  0
LINE
  8
CSLAYER1
  6
CONTINUOUS
 62
     3
 10
155.451231
 20
205.372873
 11
155.451231
 21
206.032873
  0
LINE
  8
CSLAYER1
  6
CONTINUOUS
 62
     3
 10
153.801231
 20
204.382873
 11
154.461231
 21
204.382873
  0
LINE
  8
CSLAYER1
  6
CONTINUOUS
 62
     3
 10
154.461231
 20
207.022873
 11
153.801231
 21
207.022873
  0
LINE
  8
CSLAYER1
  6
CONTINUOUS
 62
     3
 10
153.207231
 20
205.016981
 11
153.207231
 21
205.372873
  0
LINE
  8
CSLAYER1
  6
CONTINUOUS
 62
     3
 10
153.207231
 20
205.016981
 11
152.811231
 21
205.702873
  0
LINE
  8
CSLAYER1
  6
CONTINUOUS
 62
     3
 10
153.207231
 20
206.388765
 11
152.811231
 21
205.702873
  0
LINE
  8
CSLAYER1
  6
CONTINUOUS
 62
     3
 10
153.207231
 20
206.032873
 11
153.207231
 21
206.388765
  0
LINE
  8
CSLAYER1
  6
CONTINUOUS
 62
     3
 10
153.801231
 20
206.032873
 11
153.801231
 21
207.022873
  0
LINE
  8
CSLAYER1
  6
CONTINUOUS
 62
     3
 10
154.461231
 20
206.032873
 11
154.461231
 21
207.022873
  0
LINE
  8
CSLAYER1
  6
CONTINUOUS
 62
     3
 10
153.801231
 20
205.372873
 11
153.207231
 21
205.372873
  0
LINE
  8
CSLAYER1
  6
CONTINUOUS
 62
     3
 10
153.801231
 20
206.032873
 11
153.207231
 21
206.032873
  0
LINE
  8
CSLAYER1
  6
CONTINUOUS
 62
     6
 10
150.881231
 20
202.327873
 11
150.881231
 21
209.077873
  0
LINE
  8
CSLAYER1
  6
CONTINUOUS
 62
     6
 10
157.381231
 20
202.327873
 11
157.381231
 21
209.077873
  0
LINE
  8
CSLAYER1
  6
CONTINUOUS
 62
     6
 10
157.381231
 20
202.327873
 11
150.881231
 21
202.327873
  0
LINE
  8
CSLAYER1
  6
CONTINUOUS
 62
     6
 10
157.381231
 20
209.077873
 11
150.881231
 21
209.077873
  0
LINE
  8
CSLAYER1
  6
CONTINUOUS
 62
     6
 10
121.881236
 20
188.077873
 11
120.381236
 21
188.077873
  0
LINE
  8
CSLAYER1
  6
CONTINUOUS
 62
     6
 10
120.381236
 20
187.577873
 11
120.381236
 21
188.077873
  0
LINE
  8
CSLAYER1
  6
CONTINUOUS
 62
     6
 10
116.881236
 20
187.577873
 11
116.881236
 21
188.077873
  0
LINE
  8
CSLAYER1
  6
CONTINUOUS
 62
     6
 10
116.881236
 20
188.077873
 11
115.381236
 21
188.077873
  0
LINE
  8
CSLAYER1
  6
CONTINUOUS
 62
     6
 10
115.381236
 20
193.827873
 11
116.881236
 21
193.827873
  0
LINE
  8
CSLAYER1
  6
CONTINUOUS
 62
     6
 10
116.881236
 20
194.327873
 11
116.881236
 21
193.827873
  0
LINE
  8
CSLAYER1
  6
CONTINUOUS
 62
     6
 10
120.381236
 20
194.327873
 11
120.381236
 21
193.827873
  0
LINE
  8
CSLAYER1
  6
CONTINUOUS
 62
     6
 10
120.381236
 20
193.827873
 11
121.881236
 21
193.827873
  0
POINT
  8
CSLAYER1
 62
     3
 10
118.631236
 20
190.952873
  0
ARC
  8
CSLAYER1
  6
CONTINUOUS
 62
     6
 10
118.631236
 20
190.952873
 40
2.000000
 50
41.409622
 51
318.590378
  0
CIRCLE
  8
CSLAYER1
  6
CONTINUOUS
 62
     3
 10
118.631236
 20
190.952873
 40
1.650000
  0
LINE
  8
CSLAYER1
  6
CONTINUOUS
 62
     6
 10
120.131236
 20
189.129997
 11
120.131236
 21
189.629997
  0
LINE
  8
CSLAYER1
  6
CONTINUOUS
 62
     6
 10
120.131236
 20
192.275748
 11
120.131236
 21
192.775748
  0
LINE
  8
CSLAYER1
  6
CONTINUOUS
 62
     6
 10
116.631236
 20
190.952873
 11
116.131236
 21
190.952873
  0
LINE
  8
CSLAYER1
  6
CONTINUOUS
 62
     6
 10
116.899185
 20
189.952873
 11
116.466173
 21
189.702873
  0
LINE
  8
CSLAYER1
  6
CONTINUOUS
 62
     6
 10
117.631236
 20
189.220822
 11
117.381236
 21
188.787809
  0
LINE
  8
CSLAYER1
  6
CONTINUOUS
 62
     6
 10
118.631236
 20
188.952873
 11
118.631236
 21
188.452873
  0
LINE
  8
CSLAYER1
  6
CONTINUOUS
 62
     6
 10
119.631236
 20
189.220822
 11
119.881236
 21
188.787809
  0
LINE
  8
CSLAYER1
  6
CONTINUOUS
 62
     6
 10
116.899185
 20
191.952873
 11
116.466173
 21
192.202873
  0
LINE
  8
CSLAYER1
  6
CONTINUOUS
 62
     6
 10
117.631236
 20
192.684924
 11
117.381236
 21
193.117936
  0
LINE
  8
CSLAYER1
  6
CONTINUOUS
 62
     6
 10
118.631236
 20
192.952873
 11
118.631236
 21
193.452873
  0
LINE
  8
CSLAYER1
  6
CONTINUOUS
 62
     6
 10
119.631236
 20
192.684924
 11
119.881236
 21
193.117936
  0
LINE
  8
CSLAYER1
  6
CONTINUOUS
 62
     3
 10
118.301236
 20
189.632873
 11
118.301236
 21
190.622873
  0
LINE
  8
CSLAYER1
  6
CONTINUOUS
 62
     3
 10
118.961236
 20
189.632873
 11
118.961236
 21
190.622873
  0
LINE
  8
CSLAYER1
  6
CONTINUOUS
 62
     3
 10
119.951236
 20
190.622873
 11
118.961236
 21
190.622873
  0
LINE
  8
CSLAYER1
  6
CONTINUOUS
 62
     3
 10
119.951236
 20
191.282873
 11
118.961236
 21
191.282873
  0
LINE
  8
CSLAYER1
  6
CONTINUOUS
 62
     3
 10
119.951236
 20
190.622873
 11
119.951236
 21
191.282873
  0
LINE
  8
CSLAYER1
  6
CONTINUOUS
 62
     3
 10
118.301236
 20
189.632873
 11
118.961236
 21
189.632873
  0
LINE
  8
CSLAYER1
  6
CONTINUOUS
 62
     3
 10
118.961236
 20
192.272873
 11
118.301236
 21
192.272873
  0
LINE
  8
CSLAYER1
  6
CONTINUOUS
 62
     3
 10
117.707236
 20
190.266981
 11
117.707236
 21
190.622873
  0
LINE
  8
CSLAYER1
  6
CONTINUOUS
 62
     3
 10
117.707236
 20
190.266981
 11
117.311236
 21
190.952873
  0
LINE
  8
CSLAYER1
  6
CONTINUOUS
 62
     3
 10
117.707236
 20
191.638765
 11
117.311236
 21
190.952873
  0
LINE
  8
CSLAYER1
  6
CONTINUOUS
 62
     3
 10
117.707236
 20
191.282873
 11
117.707236
 21
191.638765
  0
LINE
  8
CSLAYER1
  6
CONTINUOUS
 62
     3
 10
118.301236
 20
191.282873
 11
118.301236
 21
192.272873
  0
LINE
  8
CSLAYER1
  6
CONTINUOUS
 62
     3
 10
118.961236
 20
191.282873
 11
118.961236
 21
192.272873
  0
LINE
  8
CSLAYER1
  6
CONTINUOUS
 62
     3
 10
118.301236
 20
190.622873
 11
117.707236
 21
190.622873
  0
LINE
  8
CSLAYER1
  6
CONTINUOUS
 62
     3
 10
118.301236
 20
191.282873
 11
117.707236
 21
191.282873
  0
LINE
  8
CSLAYER1
  6
CONTINUOUS
 62
     6
 10
115.381236
 20
187.577873
 11
115.381236
 21
194.327873
  0
LINE
  8
CSLAYER1
  6
CONTINUOUS
 62
     6
 10
121.881236
 20
187.577873
 11
121.881236
 21
194.327873
  0
LINE
  8
CSLAYER1
  6
CONTINUOUS
 62
     6
 10
121.881236
 20
187.577873
 11
115.381236
 21
187.577873
  0
LINE
  8
CSLAYER1
  6
CONTINUOUS
 62
     6
 10
121.881236
 20
194.327873
 11
115.381236
 21
194.327873
  0
LINE
  8
CSLAYER1
  6
CONTINUOUS
 62
     6
 10
131.881236
 20
188.077873
 11
130.381236
 21
188.077873
  0
LINE
  8
CSLAYER1
  6
CONTINUOUS
 62
     6
 10
130.381236
 20
187.577873
 11
130.381236
 21
188.077873
  0
LINE
  8
CSLAYER1
  6
CONTINUOUS
 62
     6
 10
126.881236
 20
187.577873
 11
126.881236
 21
188.077873
  0
LINE
  8
CSLAYER1
  6
CONTINUOUS
 62
     6
 10
126.881236
 20
188.077873
 11
125.381236
 21
188.077873
  0
LINE
  8
CSLAYER1
  6
CONTINUOUS
 62
     6
 10
125.381236
 20
193.827873
 11
126.881236
 21
193.827873
  0
LINE
  8
CSLAYER1
  6
CONTINUOUS
 62
     6
 10
126.881236
 20
194.327873
 11
126.881236
 21
193.827873
  0
LINE
  8
CSLAYER1
  6
CONTINUOUS
 62
     6
 10
130.381236
 20
194.327873
 11
130.381236
 21
193.827873
  0
LINE
  8
CSLAYER1
  6
CONTINUOUS
 62
     6
 10
130.381236
 20
193.827873
 11
131.881236
 21
193.827873
  0
POINT
  8
CSLAYER1
 62
     3
 10
128.631236
 20
190.952873
  0
ARC
  8
CSLAYER1
  6
CONTINUOUS
 62
     6
 10
128.631236
 20
190.952873
 40
2.000000
 50
41.409622
 51
318.590378
  0
CIRCLE
  8
CSLAYER1
  6
CONTINUOUS
 62
     3
 10
128.631236
 20
190.952873
 40
1.650000
  0
LINE
  8
CSLAYER1
  6
CONTINUOUS
 62
     6
 10
130.131236
 20
189.129997
 11
130.131236
 21
189.629997
  0
LINE
  8
CSLAYER1
  6
CONTINUOUS
 62
     6
 10
130.131236
 20
192.275748
 11
130.131236
 21
192.775748
  0
LINE
  8
CSLAYER1
  6
CONTINUOUS
 62
     6
 10
126.631236
 20
190.952873
 11
126.131236
 21
190.952873
  0
LINE
  8
CSLAYER1
  6
CONTINUOUS
 62
     6
 10
126.899185
 20
189.952873
 11
126.466173
 21
189.702873
  0
LINE
  8
CSLAYER1
  6
CONTINUOUS
 62
     6
 10
127.631236
 20
189.220822
 11
127.381236
 21
188.787809
  0
LINE
  8
CSLAYER1
  6
CONTINUOUS
 62
     6
 10
128.631236
 20
188.952873
 11
128.631236
 21
188.452873
  0
LINE
  8
CSLAYER1
  6
CONTINUOUS
 62
     6
 10
129.631236
 20
189.220822
 11
129.881236
 21
188.787809
  0
LINE
  8
CSLAYER1
  6
CONTINUOUS
 62
     6
 10
126.899185
 20
191.952873
 11
126.466173
 21
192.202873
  0
LINE
  8
CSLAYER1
  6
CONTINUOUS
 62
     6
 10
127.631236
 20
192.684924
 11
127.381236
 21
193.117936
  0
LINE
  8
CSLAYER1
  6
CONTINUOUS
 62
     6
 10
128.631236
 20
192.952873
 11
128.631236
 21
193.452873
  0
LINE
  8
CSLAYER1
  6
CONTINUOUS
 62
     6
 10
129.631236
 20
192.684924
 11
129.881236
 21
193.117936
  0
LINE
  8
CSLAYER1
  6
CONTINUOUS
 62
     3
 10
128.301236
 20
189.632873
 11
128.301236
 21
190.622873
  0
LINE
  8
CSLAYER1
  6
CONTINUOUS
 62
     3
 10
128.961236
 20
189.632873
 11
128.961236
 21
190.622873
  0
LINE
  8
CSLAYER1
  6
CONTINUOUS
 62
     3
 10
129.951236
 20
190.622873
 11
128.961236
 21
190.622873
  0
LINE
  8
CSLAYER1
  6
CONTINUOUS
 62
     3
 10
129.951236
 20
191.282873
 11
128.961236
 21
191.282873
  0
LINE
  8
CSLAYER1
  6
CONTINUOUS
 62
     3
 10
129.951236
 20
190.622873
 11
129.951236
 21
191.282873
  0
LINE
  8
CSLAYER1
  6
CONTINUOUS
 62
     3
 10
128.301236
 20
189.632873
 11
128.961236
 21
189.632873
  0
LINE
  8
CSLAYER1
  6
CONTINUOUS
 62
     3
 10
128.961236
 20
192.272873
 11
128.301236
 21
192.272873
  0
LINE
  8
CSLAYER1
  6
CONTINUOUS
 62
     3
 10
127.707236
 20
190.266981
 11
127.707236
 21
190.622873
  0
LINE
  8
CSLAYER1
  6
CONTINUOUS
 62
     3
 10
127.707236
 20
190.266981
 11
127.311236
 21
190.952873
  0
LINE
  8
CSLAYER1
  6
CONTINUOUS
 62
     3
 10
127.707236
 20
191.638765
 11
127.311236
 21
190.952873
  0
LINE
  8
CSLAYER1
  6
CONTINUOUS
 62
     3
 10
127.707236
 20
191.282873
 11
127.707236
 21
191.638765
  0
LINE
  8
CSLAYER1
  6
CONTINUOUS
 62
     3
 10
128.301236
 20
191.282873
 11
128.301236
 21
192.272873
  0
LINE
  8
CSLAYER1
  6
CONTINUOUS
 62
     3
 10
128.961236
 20
191.282873
 11
128.961236
 21
192.272873
  0
LINE
  8
CSLAYER1
  6
CONTINUOUS
 62
     3
 10
128.301236
 20
190.622873
 11
127.707236
 21
190.622873
  0
LINE
  8
CSLAYER1
  6
CONTINUOUS
 62
     3
 10
128.301236
 20
191.282873
 11
127.707236
 21
191.282873
  0
LINE
  8
CSLAYER1
  6
CONTINUOUS
 62
     6
 10
125.381236
 20
187.577873
 11
125.381236
 21
194.327873
  0
LINE
  8
CSLAYER1
  6
CONTINUOUS
 62
     6
 10
131.881236
 20
187.577873
 11
131.881236
 21
194.327873
  0
LINE
  8
CSLAYER1
  6
CONTINUOUS
 62
     6
 10
131.881236
 20
187.577873
 11
125.381236
 21
187.577873
  0
LINE
  8
CSLAYER1
  6
CONTINUOUS
 62
     6
 10
131.881236
 20
194.327873
 11
125.381236
 21
194.327873
  0
LINE
  8
CSLAYER1
  6
CONTINUOUS
 62
     6
 10
157.381231
 20
192.827873
 11
155.881231
 21
192.827873
  0
LINE
  8
CSLAYER1
  6
CONTINUOUS
 62
     6
 10
155.881231
 20
192.327873
 11
155.881231
 21
192.827873
  0
LINE
  8
CSLAYER1
  6
CONTINUOUS
 62
     6
 10
152.381231
 20
192.327873
 11
152.381231
 21
192.827873
  0
LINE
  8
CSLAYER1
  6
CONTINUOUS
 62
     6
 10
152.381231
 20
192.827873
 11
150.881231
 21
192.827873
  0
LINE
  8
CSLAYER1
  6
CONTINUOUS
 62
     6
 10
150.881231
 20
198.577873
 11
152.381231
 21
198.577873
  0
LINE
  8
CSLAYER1
  6
CONTINUOUS
 62
     6
 10
152.381231
 20
199.077873
 11
152.381231
 21
198.577873
  0
LINE
  8
CSLAYER1
  6
CONTINUOUS
 62
     6
 10
155.881231
 20
199.077873
 11
155.881231
 21
198.577873
  0
LINE
  8
CSLAYER1
  6
CONTINUOUS
 62
     6
 10
155.881231
 20
198.577873
 11
157.381231
 21
198.577873
  0
POINT
  8
CSLAYER1
 62
     3
 10
154.131231
 20
195.702873
  0
ARC
  8
CSLAYER1
  6
CONTINUOUS
 62
     6
 10
154.131231
 20
195.702873
 40
2.000000
 50
41.409622
 51
318.590378
  0
CIRCLE
  8
CSLAYER1
  6
CONTINUOUS
 62
     3
 10
154.131231
 20
195.702873
 40
1.650000
  0
LINE
  8
CSLAYER1
  6
CONTINUOUS
 62
     6
 10
155.631231
 20
193.879997
 11
155.631231
 21
194.379997
  0
LINE
  8
CSLAYER1
  6
CONTINUOUS
 62
     6
 10
155.631231
 20
197.025748
 11
155.631231
 21
197.525748
  0
LINE
  8
CSLAYER1
  6
CONTINUOUS
 62
     6
 10
152.131231
 20
195.702873
 11
151.631231
 21
195.702873
  0
LINE
  8
CSLAYER1
  6
CONTINUOUS
 62
     6
 10
152.399180
 20
194.702873
 11
151.966167
 21
194.452873
  0
LINE
  8
CSLAYER1
  6
CONTINUOUS
 62
     6
 10
153.131231
 20
193.970822
 11
152.881231
 21
193.537809
  0
LINE
  8
CSLAYER1
  6
CONTINUOUS
 62
     6
 10
154.131231
 20
193.702873
 11
154.131231
 21
193.202873
  0
LINE
  8
CSLAYER1
  6
CONTINUOUS
 62
     6
 10
155.131231
 20
193.970822
 11
155.381231
 21
193.537809
  0
LINE
  8
CSLAYER1
  6
CONTINUOUS
 62
     6
 10
152.399180
 20
196.702873
 11
151.966167
 21
196.952873
  0
LINE
  8
CSLAYER1
  6
CONTINUOUS
 62
     6
 10
153.131231
 20
197.434924
 11
152.881231
 21
197.867936
  0
LINE
  8
CSLAYER1
  6
CONTINUOUS
 62
     6
 10
154.131231
 20
197.702873
 11
154.131231
 21
198.202873
  0
LINE
  8
CSLAYER1
  6
CONTINUOUS
 62
     6
 10
155.131231
 20
197.434924
 11
155.381231
 21
197.867936
  0
LINE
  8
CSLAYER1
  6
CONTINUOUS
 62
     3
 10
153.801231
 20
194.382873
 11
153.801231
 21
195.372873
  0
LINE
  8
CSLAYER1
  6
CONTINUOUS
 62
     3
 10
154.461231
 20
194.382873
 11
154.461231
 21
195.372873
  0
LINE
  8
CSLAYER1
  6
CONTINUOUS
 62
     3
 10
155.451231
 20
195.372873
 11
154.461231
 21
195.372873
  0
LINE
  8
CSLAYER1
  6
CONTINUOUS
 62
     3
 10
155.451231
 20
196.032873
 11
154.461231
 21
196.032873
  0
LINE
  8
CSLAYER1
  6
CONTINUOUS
 62
     3
 10
155.451231
 20
195.372873
 11
155.451231
 21
196.032873
  0
LINE
  8
CSLAYER1
  6
CONTINUOUS
 62
     3
 10
153.801231
 20
194.382873
 11
154.461231
 21
194.382873
  0
LINE
  8
CSLAYER1
  6
CONTINUOUS
 62
     3
 10
154.461231
 20
197.022873
 11
153.801231
 21
197.022873
  0
LINE
  8
CSLAYER1
  6
CONTINUOUS
 62
     3
 10
153.207231
 20
195.016981
 11
153.207231
 21
195.372873
  0
LINE
  8
CSLAYER1
  6
CONTINUOUS
 62
     3
 10
153.207231
 20
195.016981
 11
152.811231
 21
195.702873
  0
LINE
  8
CSLAYER1
  6
CONTINUOUS
 62
     3
 10
153.207231
 20
196.388765
 11
152.811231
 21
195.702873
  0
LINE
  8
CSLAYER1
  6
CONTINUOUS
 62
     3
 10
153.207231
 20
196.032873
 11
153.207231
 21
196.388765
  0
LINE
  8
CSLAYER1
  6
CONTINUOUS
 62
     3
 10
153.801231
 20
196.032873
 11
153.801231
 21
197.022873
  0
LINE
  8
CSLAYER1
  6
CONTINUOUS
 62
     3
 10
154.461231
 20
196.032873
 11
154.461231
 21
197.022873
  0
LINE
  8
CSLAYER1
  6
CONTINUOUS
 62
     3
 10
153.801231
 20
195.372873
 11
153.207231
 21
195.372873
  0
LINE
  8
CSLAYER1
  6
CONTINUOUS
 62
     3
 10
153.801231
 20
196.032873
 11
153.207231
 21
196.032873
  0
LINE
  8
CSLAYER1
  6
CONTINUOUS
 62
     6
 10
150.881231
 20
192.327873
 11
150.881231
 21
199.077873
  0
LINE
  8
CSLAYER1
  6
CONTINUOUS
 62
     6
 10
157.381231
 20
192.327873
 11
157.381231
 21
199.077873
  0
LINE
  8
CSLAYER1
  6
CONTINUOUS
 62
     6
 10
157.381231
 20
192.327873
 11
150.881231
 21
192.327873
  0
LINE
  8
CSLAYER1
  6
CONTINUOUS
 62
     6
 10
157.381231
 20
199.077873
 11
150.881231
 21
199.077873
  0
LINE
  8
CSLAYER1
  6
CONTINUOUS
 62
     6
 10
127.381236
 20
226.577873
 11
101.381236
 21
226.577873
  0
LINE
  8
CSLAYER1
  6
CONTINUOUS
 62
     6
 10
100.381236
 20
225.577873
 11
100.381236
 21
209.577873
  0
LINE
  8
CSLAYER1
  6
CONTINUOUS
 62
     6
 10
101.381236
 20
208.577873
 11
127.381236
 21
208.577873
  0
LINE
  8
CSLAYER1
  6
CONTINUOUS
 62
     6
 10
128.381236
 20
209.577873
 11
128.381236
 21
225.577873
  0
ARC
  8
CSLAYER1
  6
CONTINUOUS
 62
     6
 10
101.381236
 20
225.577873
 40
1.000000
 50
90.000000
 51
180.000000
  0
ARC
  8
CSLAYER1
  6
CONTINUOUS
 62
     6
 10
127.381236
 20
225.577873
 40
1.000000
 50
0.000000
 51
90.000000
  0
ARC
  8
CSLAYER1
  6
CONTINUOUS
 62
     6
 10
127.381236
 20
209.577873
 40
1.000000
 50
270.000000
 51
360.000000
  0
ARC
  8
CSLAYER1
  6
CONTINUOUS
 62
     6
 10
101.381236
 20
209.577873
 40
1.000000
 50
180.000000
 51
270.000000
  0
LINE
  8
CSLAYER1
  6
CONTINUOUS
 62
     6
 10
159.881231
 20
187.327873
 11
159.881231
 21
179.327873
  0
LINE
  8
CSLAYER1
  6
CONTINUOUS
 62
     6
 10
153.381231
 20
187.327873
 11
153.381231
 21
179.327873
  0
LINE
  8
CSLAYER1
  6
CONTINUOUS
 62
     6
 10
153.381231
 20
187.327873
 11
159.881231
 21
187.327873
  0
LINE
  8
CSLAYER1
  6
CONTINUOUS
 62
     6
 10
153.381231
 20
183.327873
 11
159.881231
 21
183.327873
  0
LINE
  8
CSLAYER1
  6
CONTINUOUS
 62
     6
 10
153.381231
 20
179.327873
 11
159.881231
 21
179.327873
  0
LINE
  8
CSLAYER1
  6
CONTINUOUS
 62
     6
 10
158.024088
 20
185.994539
 11
155.238374
 21
185.994539
  0
LINE
  8
CSLAYER1
  6
CONTINUOUS
 62
     6
 10
158.024088
 20
184.661206
 11
155.238374
 21
184.661206
  0
LINE
  8
CSLAYER1
  6
CONTINUOUS
 62
     6
 10
155.238374
 20
185.994539
 11
155.238374
 21
184.661206
  0
LINE
  8
CSLAYER1
  6
CONTINUOUS
 62
     6
 10
158.024088
 20
185.994539
 11
158.024088
 21
184.661206
  0
LINE
  8
CSLAYER1
  6
CONTINUOUS
 62
     6
 10
158.024088
 20
181.994539
 11
155.238374
 21
181.994539
  0
LINE
  8
CSLAYER1
  6
CONTINUOUS
 62
     6
 10
158.024088
 20
180.661206
 11
155.238374
 21
180.661206
  0
LINE
  8
CSLAYER1
  6
CONTINUOUS
 62
     6
 10
155.238374
 20
181.994539
 11
155.238374
 21
180.661206
  0
LINE
  8
CSLAYER1
  6
CONTINUOUS
 62
     6
 10
158.024088
 20
181.994539
 11
158.024088
 21
180.661206
  0
LINE
  8
CSLAYER1
  6
CONTINUOUS
 62
     6
 10
157.381231
 20
164.577873
 11
117.381231
 21
164.577873
  0
LINE
  8
CSLAYER1
  6
CONTINUOUS
 62
     6
 10
157.381231
 20
167.077873
 11
117.381231
 21
167.077873
  0
LINE
  8
CSLAYER1
  6
CONTINUOUS
 62
     6
 10
157.381231
 20
167.077873
 11
157.381231
 21
164.577873
  0
LINE
  8
CSLAYER1
  6
CONTINUOUS
 62
     6
 10
117.381231
 20
167.077873
 11
117.381231
 21
164.577873
  0
CIRCLE
  8
CSLAYER1
  6
CONTINUOUS
 62
     6
 10
133.381236
 20
223.077873
 40
2.500000
  0
CIRCLE
  8
CSLAYER1
  6
CONTINUOUS
 62
     6
 10
133.381236
 20
212.077873
 40
2.500000
  0
CIRCLE
  8
CSLAYER1
  6
CONTINUOUS
 62
     6
 10
95.881236
 20
198.077873
 40
2.500000
  0
POLYLINE
  8
CSLAYER1
  6
CONTINUOUS
 62
     3
 66
     1
 10
0.0
 20
0.0
 30
0.0
  0
VERTEX
  8
CSLAYER1
  6
CONTINUOUS
 62
     3
 10
95.076374
 20
210.158644
 30
0.0
  0
VERTEX
  8
CSLAYER1
  6
CONTINUOUS
 62
     3
 10
95.088848
 20
210.139980
 30
0.0
  0
VERTEX
  8
CSLAYER1
  6
CONTINUOUS
 62
     3
 10
95.102088
 20
210.123562
 30
0.0
  0
VERTEX
  8
CSLAYER1
  6
CONTINUOUS
 62
     3
 10
95.115993
 20
210.109514
 30
0.0
  0
VERTEX
  8
CSLAYER1
  6
CONTINUOUS
 62
     3
 10
95.130457
 20
210.097944
 30
0.0
  0
VERTEX
  8
CSLAYER1
  6
CONTINUOUS
 62
     3
 10
95.145371
 20
210.088938
 30
0.0
  0
VERTEX
  8
CSLAYER1
  6
CONTINUOUS
 62
     3
 10
95.160620
 20
210.082567
 30
0.0
  0
VERTEX
  8
CSLAYER1
  6
CONTINUOUS
 62
     3
 10
95.176089
 20
210.078878
 30
0.0
  0
VERTEX
  8
CSLAYER1
  6
CONTINUOUS
 62
     3
 10
95.191659
 20
210.077899
 30
0.0
  0
VERTEX
  8
CSLAYER1
  6
CONTINUOUS
 62
     3
 10
95.207214
 20
210.079639
 30
0.0
  0
VERTEX
  8
CSLAYER1
  6
CONTINUOUS
 62
     3
 10
95.222633
 20
210.084082
 30
0.0
  0
VERTEX
  8
CSLAYER1
  6
CONTINUOUS
 62
     3
 10
95.237799
 20
210.091197
 30
0.0
  0
VERTEX
  8
CSLAYER1
  6
CONTINUOUS
 62
     3
 10
95.252598
 20
210.100928
 30
0.0
  0
VERTEX
  8
CSLAYER1
  6
CONTINUOUS
 62
     3
 10
95.266917
 20
210.113202
 30
0.0
  0
VERTEX
  8
CSLAYER1
  6
CONTINUOUS
 62
     3
 10
95.280646
 20
210.127925
 30
0.0
  0
VERTEX
  8
CSLAYER1
  6
CONTINUOUS
 62
     3
 10
95.293682
 20
210.144986
 30
0.0
  0
VERTEX
  8
CSLAYER1
  6
CONTINUOUS
 62
     3
 10
95.305924
 20
210.164253
 30
0.0
  0
VERTEX
  8
CSLAYER1
  6
CONTINUOUS
 62
     3
 10
95.317280
 20
210.185581
 30
0.0
  0
VERTEX
  8
CSLAYER1
  6
CONTINUOUS
 62
     3
 10
95.327664
 20
210.208808
 30
0.0
  0
VERTEX
  8
CSLAYER1
  6
CONTINUOUS
 62
     3
 10
95.336995
 20
210.233756
 30
0.0
  0
VERTEX
  8
CSLAYER1
  6
CONTINUOUS
 62
     3
 10
95.345205
 20
210.260236
 30
0.0
  0
VERTEX
  8
CSLAYER1
  6
CONTINUOUS
 62
     3
 10
95.352228
 20
210.288046
 30
0.0
  0
VERTEX
  8
CSLAYER1
  6
CONTINUOUS
 62
     3
 10
95.358014
 20
210.316975
 30
0.0
  0
VERTEX
  8
CSLAYER1
  6
CONTINUOUS
 62
     3
 10
95.362516
 20
210.346802
 30
0.0
  0
VERTEX
  8
CSLAYER1
  6
CONTINUOUS
 62
     3
 10
95.365702
 20
210.377300
 30
0.0
  0
VERTEX
  8
CSLAYER1
  6
CONTINUOUS
 62
     3
 10
95.367547
 20
210.408237
 30
0.0
  0
VERTEX
  8
CSLAYER1
  6
CONTINUOUS
 62
     3
 10
95.368049
 20
210.435015
 30
0.0
  0
SEQEND
  0
POLYLINE
  8
CSLAYER1
  6
CONTINUOUS
 62
     3
 66
     1
 10
0.0
 20
0.0
 30
0.0
  0
VERTEX
  8
CSLAYER1
  6
CONTINUOUS
 62
     3
 10
95.428763
 20
210.166707
 30
0.0
  0
VERTEX
  8
CSLAYER1
  6
CONTINUOUS
 62
     3
 10
95.440904
 20
210.147184
 30
0.0
  0
VERTEX
  8
CSLAYER1
  6
CONTINUOUS
 62
     3
 10
95.453849
 20
210.129852
 30
0.0
  0
VERTEX
  8
CSLAYER1
  6
CONTINUOUS
 62
     3
 10
95.467501
 20
210.114842
 30
0.0
  0
VERTEX
  8
CSLAYER1
  6
CONTINUOUS
 62
     3
 10
95.481754
 20
210.102269
 30
0.0
  0
VERTEX
  8
CSLAYER1
  6
CONTINUOUS
 62
     3
 10
95.496502
 20
210.092228
 30
0.0
  0
VERTEX
  8
CSLAYER1
  6
CONTINUOUS
 62
     3
 10
95.511630
 20
210.084796
 30
0.0
  0
VERTEX
  8
CSLAYER1
  6
CONTINUOUS
 62
     3
 10
95.527025
 20
210.080030
 30
0.0
  0
VERTEX
  8
CSLAYER1
  6
CONTINUOUS
 62
     3
 10
95.542569
 20
210.077965
 30
0.0
  0
VERTEX
  8
CSLAYER1
  6
CONTINUOUS
 62
     3
 10
95.558144
 20
210.078617
 30
0.0
  0
VERTEX
  8
CSLAYER1
  6
CONTINUOUS
 62
     3
 10
95.573632
 20
210.081982
 30
0.0
  0
VERTEX
  8
CSLAYER1
  6
CONTINUOUS
 62
     3
 10
95.588913
 20
210.088034
 30
0.0
  0
VERTEX
  8
CSLAYER1
  6
CONTINUOUS
 62
     3
 10
95.603873
 20
210.096726
 30
0.0
  0
VERTEX
  8
CSLAYER1
  6
CONTINUOUS
 62
     3
 10
95.618397
 20
210.107993
 30
0.0
  0
VERTEX
  8
CSLAYER1
  6
CONTINUOUS
 62
     3
 10
95.632375
 20
210.121749
 30
0.0
  0
VERTEX
  8
CSLAYER1
  6
CONTINUOUS
 62
     3
 10
95.645700
 20
210.137889
 30
0.0
  0
VERTEX
  8
CSLAYER1
  6
CONTINUOUS
 62
     3
 10
95.658271
 20
210.156291
 30
0.0
  0
VERTEX
  8
CSLAYER1
  6
CONTINUOUS
 62
     3
 10
95.669993
 20
210.176813
 30
0.0
  0
VERTEX
  8
CSLAYER1
  6
CONTINUOUS
 62
     3
 10
95.680775
 20
210.199301
 30
0.0
  0
VERTEX
  8
CSLAYER1
  6
CONTINUOUS
 62
     3
 10
95.690536
 20
210.223582
 30
0.0
  0
VERTEX
  8
CSLAYER1
  6
CONTINUOUS
 62
     3
 10
95.699203
 20
210.249473
 30
0.0
  0
VERTEX
  8
CSLAYER1
  6
CONTINUOUS
 62
     3
 10
95.706708
 20
210.276776
 30
0.0
  0
VERTEX
  8
CSLAYER1
  6
CONTINUOUS
 62
     3
 10
95.712994
 20
210.305283
 30
0.0
  0
VERTEX
  8
CSLAYER1
  6
CONTINUOUS
 62
     3
 10
95.718015
 20
210.334778
 30
0.0
  0
VERTEX
  8
CSLAYER1
  6
CONTINUOUS
 62
     3
 10
95.721730
 20
210.365035
 30
0.0
  0
VERTEX
  8
CSLAYER1
  6
CONTINUOUS
 62
     3
 10
95.724114
 20
210.395825
 30
0.0
  0
VERTEX
  8
CSLAYER1
  6
CONTINUOUS
 62
     3
 10
95.725146
 20
210.426913
 30
0.0
  0
VERTEX
  8
CSLAYER1
  6
CONTINUOUS
 62
     3
 10
95.725192
 20
210.435016
 30
0.0
  0
SEQEND
  0
POLYLINE
  8
CSLAYER1
  6
CONTINUOUS
 62
     3
 66
     1
 10
0.0
 20
0.0
 30
0.0
  0
VERTEX
  8
CSLAYER1
  6
CONTINUOUS
 62
     3
 10
95.928763
 20
210.166707
 30
0.0
  0
VERTEX
  8
CSLAYER1
  6
CONTINUOUS
 62
     3
 10
95.940904
 20
210.147184
 30
0.0
  0
VERTEX
  8
CSLAYER1
  6
CONTINUOUS
 62
     3
 10
95.953849
 20
210.129852
 30
0.0
  0
VERTEX
  8
CSLAYER1
  6
CONTINUOUS
 62
     3
 10
95.967501
 20
210.114842
 30
0.0
  0
VERTEX
  8
CSLAYER1
  6
CONTINUOUS
 62
     3
 10
95.981754
 20
210.102269
 30
0.0
  0
VERTEX
  8
CSLAYER1
  6
CONTINUOUS
 62
     3
 10
95.996502
 20
210.092228
 30
0.0
  0
VERTEX
  8
CSLAYER1
  6
CONTINUOUS
 62
     3
 10
96.011630
 20
210.084796
 30
0.0
  0
VERTEX
  8
CSLAYER1
  6
CONTINUOUS
 62
     3
 10
96.027025
 20
210.080030
 30
0.0
  0
VERTEX
  8
CSLAYER1
  6
CONTINUOUS
 62
     3
 10
96.042569
 20
210.077965
 30
0.0
  0
VERTEX
  8
CSLAYER1
  6
CONTINUOUS
 62
     3
 10
96.058144
 20
210.078617
 30
0.0
  0
VERTEX
  8
CSLAYER1
  6
CONTINUOUS
 62
     3
 10
96.073632
 20
210.081982
 30
0.0
  0
VERTEX
  8
CSLAYER1
  6
CONTINUOUS
 62
     3
 10
96.088913
 20
210.088034
 30
0.0
  0
VERTEX
  8
CSLAYER1
  6
CONTINUOUS
 62
     3
 10
96.103873
 20
210.096726
 30
0.0
  0
VERTEX
  8
CSLAYER1
  6
CONTINUOUS
 62
     3
 10
96.118397
 20
210.107993
 30
0.0
  0
VERTEX
  8
CSLAYER1
  6
CONTINUOUS
 62
     3
 10
96.132375
 20
210.121749
 30
0.0
  0
VERTEX
  8
CSLAYER1
  6
CONTINUOUS
 62
     3
 10
96.145700
 20
210.137889
 30
0.0
  0
VERTEX
  8
CSLAYER1
  6
CONTINUOUS
 62
     3
 10
96.158271
 20
210.156291
 30
0.0
  0
VERTEX
  8
CSLAYER1
  6
CONTINUOUS
 62
     3
 10
96.169993
 20
210.176813
 30
0.0
  0
VERTEX
  8
CSLAYER1
  6
CONTINUOUS
 62
     3
 10
96.180775
 20
210.199301
 30
0.0
  0
VERTEX
  8
CSLAYER1
  6
CONTINUOUS
 62
     3
 10
96.190536
 20
210.223582
 30
0.0
  0
VERTEX
  8
CSLAYER1
  6
CONTINUOUS
 62
     3
 10
96.199203
 20
210.249473
 30
0.0
  0
VERTEX
  8
CSLAYER1
  6
CONTINUOUS
 62
     3
 10
96.206708
 20
210.276776
 30
0.0
  0
VERTEX
  8
CSLAYER1
  6
CONTINUOUS
 62
     3
 10
96.212994
 20
210.305283
 30
0.0
  0
VERTEX
  8
CSLAYER1
  6
CONTINUOUS
 62
     3
 10
96.218015
 20
210.334778
 30
0.0
  0
VERTEX
  8
CSLAYER1
  6
CONTINUOUS
 62
     3
 10
96.221730
 20
210.365035
 30
0.0
  0
VERTEX
  8
CSLAYER1
  6
CONTINUOUS
 62
     3
 10
96.224114
 20
210.395825
 30
0.0
  0
VERTEX
  8
CSLAYER1
  6
CONTINUOUS
 62
     3
 10
96.225146
 20
210.426913
 30
0.0
  0
VERTEX
  8
CSLAYER1
  6
CONTINUOUS
 62
     3
 10
96.225192
 20
210.435016
 30
0.0
  0
SEQEND
  0
POLYLINE
  8
CSLAYER1
  6
CONTINUOUS
 62
     3
 66
     1
 10
0.0
 20
0.0
 30
0.0
  0
VERTEX
  8
CSLAYER1
  6
CONTINUOUS
 62
     3
 10
96.428763
 20
210.166707
 30
0.0
  0
VERTEX
  8
CSLAYER1
  6
CONTINUOUS
 62
     3
 10
96.440904
 20
210.147184
 30
0.0
  0
VERTEX
  8
CSLAYER1
  6
CONTINUOUS
 62
     3
 10
96.453849
 20
210.129852
 30
0.0
  0
VERTEX
  8
CSLAYER1
  6
CONTINUOUS
 62
     3
 10
96.467501
 20
210.114842
 30
0.0
  0
VERTEX
  8
CSLAYER1
  6
CONTINUOUS
 62
     3
 10
96.481754
 20
210.102269
 30
0.0
  0
VERTEX
  8
CSLAYER1
  6
CONTINUOUS
 62
     3
 10
96.496502
 20
210.092228
 30
0.0
  0
VERTEX
  8
CSLAYER1
  6
CONTINUOUS
 62
     3
 10
96.511630
 20
210.084796
 30
0.0
  0
VERTEX
  8
CSLAYER1
  6
CONTINUOUS
 62
     3
 10
96.527025
 20
210.080030
 30
0.0
  0
VERTEX
  8
CSLAYER1
  6
CONTINUOUS
 62
     3
 10
96.542569
 20
210.077965
 30
0.0
  0
VERTEX
  8
CSLAYER1
  6
CONTINUOUS
 62
     3
 10
96.558144
 20
210.078617
 30
0.0
  0
VERTEX
  8
CSLAYER1
  6
CONTINUOUS
 62
     3
 10
96.573632
 20
210.081982
 30
0.0
  0
VERTEX
  8
CSLAYER1
  6
CONTINUOUS
 62
     3
 10
96.588913
 20
210.088034
 30
0.0
  0
VERTEX
  8
CSLAYER1
  6
CONTINUOUS
 62
     3
 10
96.603873
 20
210.096726
 30
0.0
  0
VERTEX
  8
CSLAYER1
  6
CONTINUOUS
 62
     3
 10
96.618397
 20
210.107993
 30
0.0
  0
VERTEX
  8
CSLAYER1
  6
CONTINUOUS
 62
     3
 10
96.632375
 20
210.121749
 30
0.0
  0
VERTEX
  8
CSLAYER1
  6
CONTINUOUS
 62
     3
 10
96.645700
 20
210.137889
 30
0.0
  0
VERTEX
  8
CSLAYER1
  6
CONTINUOUS
 62
     3
 10
96.658271
 20
210.156291
 30
0.0
  0
VERTEX
  8
CSLAYER1
  6
CONTINUOUS
 62
     3
 10
96.669993
 20
210.176813
 30
0.0
  0
VERTEX
  8
CSLAYER1
  6
CONTINUOUS
 62
     3
 10
96.680775
 20
210.199301
 30
0.0
  0
VERTEX
  8
CSLAYER1
  6
CONTINUOUS
 62
     3
 10
96.690536
 20
210.223582
 30
0.0
  0
VERTEX
  8
CSLAYER1
  6
CONTINUOUS
 62
     3
 10
96.699203
 20
210.249473
 30
0.0
  0
VERTEX
  8
CSLAYER1
  6
CONTINUOUS
 62
     3
 10
96.706708
 20
210.276776
 30
0.0
  0
VERTEX
  8
CSLAYER1
  6
CONTINUOUS
 62
     3
 10
96.712994
 20
210.305283
 30
0.0
  0
VERTEX
  8
CSLAYER1
  6
CONTINUOUS
 62
     3
 10
96.718015
 20
210.334778
 30
0.0
  0
VERTEX
  8
CSLAYER1
  6
CONTINUOUS
 62
     3
 10
96.721730
 20
210.365035
 30
0.0
  0
VERTEX
  8
CSLAYER1
  6
CONTINUOUS
 62
     3
 10
96.724114
 20
210.395825
 30
0.0
  0
VERTEX
  8
CSLAYER1
  6
CONTINUOUS
 62
     3
 10
96.725146
 20
210.426913
 30
0.0
  0
VERTEX
  8
CSLAYER1
  6
CONTINUOUS
 62
     3
 10
96.725192
 20
210.435016
 30
0.0
  0
SEQEND
  0
POLYLINE
  8
CSLAYER1
  6
CONTINUOUS
 62
     3
 66
     1
 10
0.0
 20
0.0
 30
0.0
  0
VERTEX
  8
CSLAYER1
  6
CONTINUOUS
 62
     3
 10
97.000192
 20
210.166707
 30
0.0
  0
VERTEX
  8
CSLAYER1
  6
CONTINUOUS
 62
     3
 10
97.012333
 20
210.147184
 30
0.0
  0
VERTEX
  8
CSLAYER1
  6
CONTINUOUS
 62
     3
 10
97.025278
 20
210.129852
 30
0.0
  0
VERTEX
  8
CSLAYER1
  6
CONTINUOUS
 62
     3
 10
97.038929
 20
210.114842
 30
0.0
  0
VERTEX
  8
CSLAYER1
  6
CONTINUOUS
 62
     3
 10
97.053183
 20
210.102269
 30
0.0
  0
VERTEX
  8
CSLAYER1
  6
CONTINUOUS
 62
     3
 10
97.067930
 20
210.092228
 30
0.0
  0
VERTEX
  8
CSLAYER1
  6
CONTINUOUS
 62
     3
 10
97.083059
 20
210.084796
 30
0.0
  0
VERTEX
  8
CSLAYER1
  6
CONTINUOUS
 62
     3
 10
97.098454
 20
210.080030
 30
0.0
  0
VERTEX
  8
CSLAYER1
  6
CONTINUOUS
 62
     3
 10
97.113998
 20
210.077965
 30
0.0
  0
VERTEX
  8
CSLAYER1
  6
CONTINUOUS
 62
     3
 10
97.129573
 20
210.078617
 30
0.0
  0
VERTEX
  8
CSLAYER1
  6
CONTINUOUS
 62
     3
 10
97.145060
 20
210.081982
 30
0.0
  0
VERTEX
  8
CSLAYER1
  6
CONTINUOUS
 62
     3
 10
97.160342
 20
210.088034
 30
0.0
  0
VERTEX
  8
CSLAYER1
  6
CONTINUOUS
 62
     3
 10
97.175302
 20
210.096726
 30
0.0
  0
VERTEX
  8
CSLAYER1
  6
CONTINUOUS
 62
     3
 10
97.189826
 20
210.107993
 30
0.0
  0
VERTEX
  8
CSLAYER1
  6
CONTINUOUS
 62
     3
 10
97.203803
 20
210.121749
 30
0.0
  0
VERTEX
  8
CSLAYER1
  6
CONTINUOUS
 62
     3
 10
97.217129
 20
210.137889
 30
0.0
  0
VERTEX
  8
CSLAYER1
  6
CONTINUOUS
 62
     3
 10
97.229700
 20
210.156291
 30
0.0
  0
VERTEX
  8
CSLAYER1
  6
CONTINUOUS
 62
     3
 10
97.241421
 20
210.176813
 30
0.0
  0
VERTEX
  8
CSLAYER1
  6
CONTINUOUS
 62
     3
 10
97.252204
 20
210.199301
 30
0.0
  0
VERTEX
  8
CSLAYER1
  6
CONTINUOUS
 62
     3
 10
97.261965
 20
210.223582
 30
0.0
  0
VERTEX
  8
CSLAYER1
  6
CONTINUOUS
 62
     3
 10
97.270631
 20
210.249473
 30
0.0
  0
VERTEX
  8
CSLAYER1
  6
CONTINUOUS
 62
     3
 10
97.278136
 20
210.276776
 30
0.0
  0
VERTEX
  8
CSLAYER1
  6
CONTINUOUS
 62
     3
 10
97.284423
 20
210.305283
 30
0.0
  0
VERTEX
  8
CSLAYER1
  6
CONTINUOUS
 62
     3
 10
97.289443
 20
210.334778
 30
0.0
  0
VERTEX
  8
CSLAYER1
  6
CONTINUOUS
 62
     3
 10
97.293159
 20
210.365035
 30
0.0
  0
VERTEX
  8
CSLAYER1
  6
CONTINUOUS
 62
     3
 10
97.295542
 20
210.395825
 30
0.0
  0
VERTEX
  8
CSLAYER1
  6
CONTINUOUS
 62
     3
 10
97.296575
 20
210.426913
 30
0.0
  0
VERTEX
  8
CSLAYER1
  6
CONTINUOUS
 62
     3
 10
97.296621
 20
210.435016
 30
0.0
  0
SEQEND
  0
POLYLINE
  8
CSLAYER1
  6
CONTINUOUS
 62
     3
 66
     1
 10
0.0
 20
0.0
 30
0.0
  0
VERTEX
  8
CSLAYER1
  6
CONTINUOUS
 62
     3
 10
97.571620
 20
210.166707
 30
0.0
  0
VERTEX
  8
CSLAYER1
  6
CONTINUOUS
 62
     3
 10
97.583761
 20
210.147184
 30
0.0
  0
VERTEX
  8
CSLAYER1
  6
CONTINUOUS
 62
     3
 10
97.596707
 20
210.129852
 30
0.0
  0
VERTEX
  8
CSLAYER1
  6
CONTINUOUS
 62
     3
 10
97.610358
 20
210.114842
 30
0.0
  0
VERTEX
  8
CSLAYER1
  6
CONTINUOUS
 62
     3
 10
97.624612
 20
210.102269
 30
0.0
  0
VERTEX
  8
CSLAYER1
  6
CONTINUOUS
 62
     3
 10
97.639359
 20
210.092228
 30
0.0
  0
VERTEX
  8
CSLAYER1
  6
CONTINUOUS
 62
     3
 10
97.654487
 20
210.084796
 30
0.0
  0
VERTEX
  8
CSLAYER1
  6
CONTINUOUS
 62
     3
 10
97.669882
 20
210.080030
 30
0.0
  0
VERTEX
  8
CSLAYER1
  6
CONTINUOUS
 62
     3
 10
97.685427
 20
210.077965
 30
0.0
  0
VERTEX
  8
CSLAYER1
  6
CONTINUOUS
 62
     3
 10
97.701001
 20
210.078617
 30
0.0
  0
VERTEX
  8
CSLAYER1
  6
CONTINUOUS
 62
     3
 10
97.716489
 20
210.081982
 30
0.0
  0
VERTEX
  8
CSLAYER1
  6
CONTINUOUS
 62
     3
 10
97.731770
 20
210.088034
 30
0.0
  0
VERTEX
  8
CSLAYER1
  6
CONTINUOUS
 62
     3
 10
97.746730
 20
210.096726
 30
0.0
  0
VERTEX
  8
CSLAYER1
  6
CONTINUOUS
 62
     3
 10
97.761254
 20
210.107993
 30
0.0
  0
VERTEX
  8
CSLAYER1
  6
CONTINUOUS
 62
     3
 10
97.775232
 20
210.121749
 30
0.0
  0
VERTEX
  8
CSLAYER1
  6
CONTINUOUS
 62
     3
 10
97.788557
 20
210.137889
 30
0.0
  0
VERTEX
  8
CSLAYER1
  6
CONTINUOUS
 62
     3
 10
97.801128
 20
210.156291
 30
0.0
  0
VERTEX
  8
CSLAYER1
  6
CONTINUOUS
 62
     3
 10
97.812850
 20
210.176813
 30
0.0
  0
VERTEX
  8
CSLAYER1
  6
CONTINUOUS
 62
     3
 10
97.823632
 20
210.199301
 30
0.0
  0
VERTEX
  8
CSLAYER1
  6
CONTINUOUS
 62
     3
 10
97.833394
 20
210.223582
 30
0.0
  0
VERTEX
  8
CSLAYER1
  6
CONTINUOUS
 62
     3
 10
97.842060
 20
210.249473
 30
0.0
  0
VERTEX
  8
CSLAYER1
  6
CONTINUOUS
 62
     3
 10
97.849565
 20
210.276776
 30
0.0
  0
VERTEX
  8
CSLAYER1
  6
CONTINUOUS
 62
     3
 10
97.855851
 20
210.305283
 30
0.0
  0
VERTEX
  8
CSLAYER1
  6
CONTINUOUS
 62
     3
 10
97.860872
 20
210.334778
 30
0.0
  0
VERTEX
  8
CSLAYER1
  6
CONTINUOUS
 62
     3
 10
97.864588
 20
210.365035
 30
0.0
  0
VERTEX
  8
CSLAYER1
  6
CONTINUOUS
 62
     3
 10
97.866971
 20
210.395825
 30
0.0
  0
VERTEX
  8
CSLAYER1
  6
CONTINUOUS
 62
     3
 10
97.868003
 20
210.426913
 30
0.0
  0
VERTEX
  8
CSLAYER1
  6
CONTINUOUS
 62
     3
 10
97.868049
 20
210.435016
 30
0.0
  0
SEQEND
  0
POLYLINE
  8
CSLAYER1
  6
CONTINUOUS
 62
     3
 66
     1
 10
0.0
 20
0.0
 30
0.0
  0
VERTEX
  8
CSLAYER1
  6
CONTINUOUS
 62
     3
 10
98.143049
 20
210.166707
 30
0.0
  0
VERTEX
  8
CSLAYER1
  6
CONTINUOUS
 62
     3
 10
98.155190
 20
210.147184
 30
0.0
  0
VERTEX
  8
CSLAYER1
  6
CONTINUOUS
 62
     3
 10
98.168135
 20
210.129852
 30
0.0
  0
VERTEX
  8
CSLAYER1
  6
CONTINUOUS
 62
     3
 10
98.181787
 20
210.114842
 30
0.0
  0
VERTEX
  8
CSLAYER1
  6
CONTINUOUS
 62
     3
 10
98.196040
 20
210.102269
 30
0.0
  0
VERTEX
  8
CSLAYER1
  6
CONTINUOUS
 62
     3
 10
98.210787
 20
210.092228
 30
0.0
  0
VERTEX
  8
CSLAYER1
  6
CONTINUOUS
 62
     3
 10
98.225916
 20
210.084796
 30
0.0
  0
VERTEX
  8
CSLAYER1
  6
CONTINUOUS
 62
     3
 10
98.241311
 20
210.080030
 30
0.0
  0
VERTEX
  8
CSLAYER1
  6
CONTINUOUS
 62
     3
 10
98.256855
 20
210.077965
 30
0.0
  0
VERTEX
  8
CSLAYER1
  6
CONTINUOUS
 62
     3
 10
98.272430
 20
210.078617
 30
0.0
  0
VERTEX
  8
CSLAYER1
  6
CONTINUOUS
 62
     3
 10
98.287917
 20
210.081982
 30
0.0
  0
VERTEX
  8
CSLAYER1
  6
CONTINUOUS
 62
     3
 10
98.303199
 20
210.088034
 30
0.0
  0
VERTEX
  8
CSLAYER1
  6
CONTINUOUS
 62
     3
 10
98.318159
 20
210.096726
 30
0.0
  0
VERTEX
  8
CSLAYER1
  6
CONTINUOUS
 62
     3
 10
98.332683
 20
210.107993
 30
0.0
  0
VERTEX
  8
CSLAYER1
  6
CONTINUOUS
 62
     3
 10
98.346661
 20
210.121749
 30
0.0
  0
VERTEX
  8
CSLAYER1
  6
CONTINUOUS
 62
     3
 10
98.359986
 20
210.137889
 30
0.0
  0
VERTEX
  8
CSLAYER1
  6
CONTINUOUS
 62
     3
 10
98.372557
 20
210.156291
 30
0.0
  0
VERTEX
  8
CSLAYER1
  6
CONTINUOUS
 62
     3
 10
98.384278
 20
210.176813
 30
0.0
  0
VERTEX
  8
CSLAYER1
  6
CONTINUOUS
 62
     3
 10
98.395061
 20
210.199301
 30
0.0
  0
VERTEX
  8
CSLAYER1
  6
CONTINUOUS
 62
     3
 10
98.404822
 20
210.223582
 30
0.0
  0
VERTEX
  8
CSLAYER1
  6
CONTINUOUS
 62
     3
 10
98.413488
 20
210.249473
 30
0.0
  0
VERTEX
  8
CSLAYER1
  6
CONTINUOUS
 62
     3
 10
98.420993
 20
210.276776
 30
0.0
  0
VERTEX
  8
CSLAYER1
  6
CONTINUOUS
 62
     3
 10
98.427280
 20
210.305283
 30
0.0
  0
VERTEX
  8
CSLAYER1
  6
CONTINUOUS
 62
     3
 10
98.432300
 20
210.334778
 30
0.0
  0
VERTEX
  8
CSLAYER1
  6
CONTINUOUS
 62
     3
 10
98.436016
 20
210.365035
 30
0.0
  0
VERTEX
  8
CSLAYER1
  6
CONTINUOUS
 62
     3
 10
98.438399
 20
210.395825
 30
0.0
  0
VERTEX
  8
CSLAYER1
  6
CONTINUOUS
 62
     3
 10
98.439432
 20
210.426913
 30
0.0
  0
VERTEX
  8
CSLAYER1
  6
CONTINUOUS
 62
     3
 10
98.439478
 20
210.435016
 30
0.0
  0
SEQEND
  0
POLYLINE
  8
CSLAYER1
  6
CONTINUOUS
 62
     3
 66
     1
 10
0.0
 20
0.0
 30
0.0
  0
VERTEX
  8
CSLAYER1
  6
CONTINUOUS
 62
     3
 10
98.357335
 20
210.166707
 30
0.0
  0
VERTEX
  8
CSLAYER1
  6
CONTINUOUS
 62
     3
 10
98.369476
 20
210.147184
 30
0.0
  0
VERTEX
  8
CSLAYER1
  6
CONTINUOUS
 62
     3
 10
98.382421
 20
210.129852
 30
0.0
  0
VERTEX
  8
CSLAYER1
  6
CONTINUOUS
 62
     3
 10
98.396072
 20
210.114842
 30
0.0
  0
VERTEX
  8
CSLAYER1
  6
CONTINUOUS
 62
     3
 10
98.410326
 20
210.102269
 30
0.0
  0
VERTEX
  8
CSLAYER1
  6
CONTINUOUS
 62
     3
 10
98.425073
 20
210.092228
 30
0.0
  0
VERTEX
  8
CSLAYER1
  6
CONTINUOUS
 62
     3
 10
98.440202
 20
210.084796
 30
0.0
  0
VERTEX
  8
CSLAYER1
  6
CONTINUOUS
 62
     3
 10
98.455597
 20
210.080030
 30
0.0
  0
VERTEX
  8
CSLAYER1
  6
CONTINUOUS
 62
     3
 10
98.471141
 20
210.077965
 30
0.0
  0
VERTEX
  8
CSLAYER1
  6
CONTINUOUS
 62
     3
 10
98.486716
 20
210.078617
 30
0.0
  0
VERTEX
  8
CSLAYER1
  6
CONTINUOUS
 62
     3
 10
98.502203
 20
210.081982
 30
0.0
  0
VERTEX
  8
CSLAYER1
  6
CONTINUOUS
 62
     3
 10
98.517485
 20
210.088034
 30
0.0
  0
VERTEX
  8
CSLAYER1
  6
CONTINUOUS
 62
     3
 10
98.532444
 20
210.096726
 30
0.0
  0
VERTEX
  8
CSLAYER1
  6
CONTINUOUS
 62
     3
 10
98.546969
 20
210.107993
 30
0.0
  0
VERTEX
  8
CSLAYER1
  6
CONTINUOUS
 62
     3
 10
98.560946
 20
210.121749
 30
0.0
  0
VERTEX
  8
CSLAYER1
  6
CONTINUOUS
 62
     3
 10
98.574272
 20
210.137889
 30
0.0
  0
VERTEX
  8
CSLAYER1
  6
CONTINUOUS
 62
     3
 10
98.586843
 20
210.156291
 30
0.0
  0
VERTEX
  8
CSLAYER1
  6
CONTINUOUS
 62
     3
 10
98.598564
 20
210.176813
 30
0.0
  0
VERTEX
  8
CSLAYER1
  6
CONTINUOUS
 62
     3
 10
98.609346
 20
210.199301
 30
0.0
  0
VERTEX
  8
CSLAYER1
  6
CONTINUOUS
 62
     3
 10
98.619108
 20
210.223582
 30
0.0
  0
VERTEX
  8
CSLAYER1
  6
CONTINUOUS
 62
     3
 10
98.627774
 20
210.249473
 30
0.0
  0
VERTEX
  8
CSLAYER1
  6
CONTINUOUS
 62
     3
 10
98.635279
 20
210.276776
 30
0.0
  0
VERTEX
  8
CSLAYER1
  6
CONTINUOUS
 62
     3
 10
98.641566
 20
210.305283
 30
0.0
  0
VERTEX
  8
CSLAYER1
  6
CONTINUOUS
 62
     3
 10
98.646586
 20
210.334778
 30
0.0
  0
VERTEX
  8
CSLAYER1
  6
CONTINUOUS
 62
     3
 10
98.650302
 20
210.365035
 30
0.0
  0
VERTEX
  8
CSLAYER1
  6
CONTINUOUS
 62
     3
 10
98.652685
 20
210.395825
 30
0.0
  0
VERTEX
  8
CSLAYER1
  6
CONTINUOUS
 62
     3
 10
98.653718
 20
210.426913
 30
0.0
  0
VERTEX
  8
CSLAYER1
  6
CONTINUOUS
 62
     3
 10
98.653764
 20
210.435016
 30
0.0
  0
SEQEND
  0
POLYLINE
  8
CSLAYER1
  6
CONTINUOUS
 62
     3
 66
     1
 10
0.0
 20
0.0
 30
0.0
  0
VERTEX
  8
CSLAYER1
  6
CONTINUOUS
 62
     3
 10
98.143049
 20
210.166707
 30
0.0
  0
VERTEX
  8
CSLAYER1
  6
CONTINUOUS
 62
     3
 10
98.155190
 20
210.147184
 30
0.0
  0
VERTEX
  8
CSLAYER1
  6
CONTINUOUS
 62
     3
 10
98.168135
 20
210.129852
 30
0.0
  0
VERTEX
  8
CSLAYER1
  6
CONTINUOUS
 62
     3
 10
98.181787
 20
210.114842
 30
0.0
  0
VERTEX
  8
CSLAYER1
  6
CONTINUOUS
 62
     3
 10
98.196040
 20
210.102269
 30
0.0
  0
VERTEX
  8
CSLAYER1
  6
CONTINUOUS
 62
     3
 10
98.210787
 20
210.092228
 30
0.0
  0
VERTEX
  8
CSLAYER1
  6
CONTINUOUS
 62
     3
 10
98.225916
 20
210.084796
 30
0.0
  0
VERTEX
  8
CSLAYER1
  6
CONTINUOUS
 62
     3
 10
98.241311
 20
210.080030
 30
0.0
  0
VERTEX
  8
CSLAYER1
  6
CONTINUOUS
 62
     3
 10
98.256855
 20
210.077965
 30
0.0
  0
VERTEX
  8
CSLAYER1
  6
CONTINUOUS
 62
     3
 10
98.272430
 20
210.078617
 30
0.0
  0
VERTEX
  8
CSLAYER1
  6
CONTINUOUS
 62
     3
 10
98.287917
 20
210.081982
 30
0.0
  0
VERTEX
  8
CSLAYER1
  6
CONTINUOUS
 62
     3
 10
98.303199
 20
210.088034
 30
0.0
  0
VERTEX
  8
CSLAYER1
  6
CONTINUOUS
 62
     3
 10
98.318159
 20
210.096726
 30
0.0
  0
VERTEX
  8
CSLAYER1
  6
CONTINUOUS
 62
     3
 10
98.332683
 20
210.107993
 30
0.0
  0
VERTEX
  8
CSLAYER1
  6
CONTINUOUS
 62
     3
 10
98.346661
 20
210.121749
 30
0.0
  0
VERTEX
  8
CSLAYER1
  6
CONTINUOUS
 62
     3
 10
98.359986
 20
210.137889
 30
0.0
  0
VERTEX
  8
CSLAYER1
  6
CONTINUOUS
 62
     3
 10
98.372557
 20
210.156291
 30
0.0
  0
VERTEX
  8
CSLAYER1
  6
CONTINUOUS
 62
     3
 10
98.384278
 20
210.176813
 30
0.0
  0
VERTEX
  8
CSLAYER1
  6
CONTINUOUS
 62
     3
 10
98.395061
 20
210.199301
 30
0.0
  0
VERTEX
  8
CSLAYER1
  6
CONTINUOUS
 62
     3
 10
98.404822
 20
210.223582
 30
0.0
  0
VERTEX
  8
CSLAYER1
  6
CONTINUOUS
 62
     3
 10
98.413488
 20
210.249473
 30
0.0
  0
VERTEX
  8
CSLAYER1
  6
CONTINUOUS
 62
     3
 10
98.420993
 20
210.276776
 30
0.0
  0
VERTEX
  8
CSLAYER1
  6
CONTINUOUS
 62
     3
 10
98.427280
 20
210.305283
 30
0.0
  0
VERTEX
  8
CSLAYER1
  6
CONTINUOUS
 62
     3
 10
98.432300
 20
210.334778
 30
0.0
  0
VERTEX
  8
CSLAYER1
  6
CONTINUOUS
 62
     3
 10
98.436016
 20
210.365035
 30
0.0
  0
VERTEX
  8
CSLAYER1
  6
CONTINUOUS
 62
     3
 10
98.438399
 20
210.395825
 30
0.0
  0
VERTEX
  8
CSLAYER1
  6
CONTINUOUS
 62
     3
 10
98.439432
 20
210.426913
 30
0.0
  0
VERTEX
  8
CSLAYER1
  6
CONTINUOUS
 62
     3
 10
98.439478
 20
210.435016
 30
0.0
  0
SEQEND
  0
POLYLINE
  8
CSLAYER1
  6
CONTINUOUS
 62
     3
 66
     1
 10
0.0
 20
0.0
 30
0.0
  0
VERTEX
  8
CSLAYER1
  6
CONTINUOUS
 62
     3
 10
97.928763
 20
210.166707
 30
0.0
  0
VERTEX
  8
CSLAYER1
  6
CONTINUOUS
 62
     3
 10
97.940904
 20
210.147184
 30
0.0
  0
VERTEX
  8
CSLAYER1
  6
CONTINUOUS
 62
     3
 10
97.953849
 20
210.129852
 30
0.0
  0
VERTEX
  8
CSLAYER1
  6
CONTINUOUS
 62
     3
 10
97.967501
 20
210.114842
 30
0.0
  0
VERTEX
  8
CSLAYER1
  6
CONTINUOUS
 62
     3
 10
97.981754
 20
210.102269
 30
0.0
  0
VERTEX
  8
CSLAYER1
  6
CONTINUOUS
 62
     3
 10
97.996502
 20
210.092228
 30
0.0
  0
VERTEX
  8
CSLAYER1
  6
CONTINUOUS
 62
     3
 10
98.011630
 20
210.084796
 30
0.0
  0
VERTEX
  8
CSLAYER1
  6
CONTINUOUS
 62
     3
 10
98.027025
 20
210.080030
 30
0.0
  0
VERTEX
  8
CSLAYER1
  6
CONTINUOUS
 62
     3
 10
98.042569
 20
210.077965
 30
0.0
  0
VERTEX
  8
CSLAYER1
  6
CONTINUOUS
 62
     3
 10
98.058144
 20
210.078617
 30
0.0
  0
VERTEX
  8
CSLAYER1
  6
CONTINUOUS
 62
     3
 10
98.073632
 20
210.081982
 30
0.0
  0
VERTEX
  8
CSLAYER1
  6
CONTINUOUS
 62
     3
 10
98.088913
 20
210.088034
 30
0.0
  0
VERTEX
  8
CSLAYER1
  6
CONTINUOUS
 62
     3
 10
98.103873
 20
210.096726
 30
0.0
  0
VERTEX
  8
CSLAYER1
  6
CONTINUOUS
 62
     3
 10
98.118397
 20
210.107993
 30
0.0
  0
VERTEX
  8
CSLAYER1
  6
CONTINUOUS
 62
     3
 10
98.132375
 20
210.121749
 30
0.0
  0
VERTEX
  8
CSLAYER1
  6
CONTINUOUS
 62
     3
 10
98.145700
 20
210.137889
 30
0.0
  0
VERTEX
  8
CSLAYER1
  6
CONTINUOUS
 62
     3
 10
98.158271
 20
210.156291
 30
0.0
  0
VERTEX
  8
CSLAYER1
  6
CONTINUOUS
 62
     3
 10
98.169993
 20
210.176813
 30
0.0
  0
VERTEX
  8
CSLAYER1
  6
CONTINUOUS
 62
     3
 10
98.180775
 20
210.199301
 30
0.0
  0
VERTEX
  8
CSLAYER1
  6
CONTINUOUS
 62
     3
 10
98.190536
 20
210.223582
 30
0.0
  0
VERTEX
  8
CSLAYER1
  6
CONTINUOUS
 62
     3
 10
98.199203
 20
210.249473
 30
0.0
  0
VERTEX
  8
CSLAYER1
  6
CONTINUOUS
 62
     3
 10
98.206708
 20
210.276776
 30
0.0
  0
VERTEX
  8
CSLAYER1
  6
CONTINUOUS
 62
     3
 10
98.212994
 20
210.305283
 30
0.0
  0
VERTEX
  8
CSLAYER1
  6
CONTINUOUS
 62
     3
 10
98.218015
 20
210.334778
 30
0.0
  0
VERTEX
  8
CSLAYER1
  6
CONTINUOUS
 62
     3
 10
98.221730
 20
210.365035
 30
0.0
  0
VERTEX
  8
CSLAYER1
  6
CONTINUOUS
 62
     3
 10
98.224114
 20
210.395825
 30
0.0
  0
VERTEX
  8
CSLAYER1
  6
CONTINUOUS
 62
     3
 10
98.225146
 20
210.426913
 30
0.0
  0
VERTEX
  8
CSLAYER1
  6
CONTINUOUS
 62
     3
 10
98.225192
 20
210.435016
 30
0.0
  0
SEQEND
  0
POLYLINE
  8
CSLAYER1
  6
CONTINUOUS
 62
     3
 66
     1
 10
0.0
 20
0.0
 30
0.0
  0
VERTEX
  8
CSLAYER1
  6
CONTINUOUS
 62
     3
 10
93.939478
 20
210.435015
 30
0.0
  0
VERTEX
  8
CSLAYER1
  6
CONTINUOUS
 62
     3
 10
93.940157
 20
210.403888
 30
0.0
  0
VERTEX
  8
CSLAYER1
  6
CONTINUOUS
 62
     3
 10
93.942191
 20
210.372998
 30
0.0
  0
VERTEX
  8
CSLAYER1
  6
CONTINUOUS
 62
     3
 10
93.945563
 20
210.342580
 30
0.0
  0
VERTEX
  8
CSLAYER1
  6
CONTINUOUS
 62
     3
 10
93.950247
 20
210.312865
 30
0.0
  0
VERTEX
  8
CSLAYER1
  6
CONTINUOUS
 62
     3
 10
93.956209
 20
210.284080
 30
0.0
  0
VERTEX
  8
CSLAYER1
  6
CONTINUOUS
 62
     3
 10
93.963402
 20
210.256444
 30
0.0
  0
VERTEX
  8
CSLAYER1
  6
CONTINUOUS
 62
     3
 10
93.971772
 20
210.230167
 30
0.0
  0
VERTEX
  8
CSLAYER1
  6
CONTINUOUS
 62
     3
 10
93.981256
 20
210.205448
 30
0.0
  0
VERTEX
  8
CSLAYER1
  6
CONTINUOUS
 62
     3
 10
93.991780
 20
210.182477
 30
0.0
  0
VERTEX
  8
CSLAYER1
  6
CONTINUOUS
 62
     3
 10
94.003266
 20
210.161428
 30
0.0
  0
VERTEX
  8
CSLAYER1
  6
CONTINUOUS
 62
     3
 10
94.015625
 20
210.142461
 30
0.0
  0
VERTEX
  8
CSLAYER1
  6
CONTINUOUS
 62
     3
 10
94.028764
 20
210.125721
 30
0.0
  0
VERTEX
  8
CSLAYER1
  6
CONTINUOUS
 62
     3
 10
94.042582
 20
210.111334
 30
0.0
  0
VERTEX
  8
CSLAYER1
  6
CONTINUOUS
 62
     3
 10
94.056974
 20
210.099411
 30
0.0
  0
VERTEX
  8
CSLAYER1
  6
CONTINUOUS
 62
     3
 10
94.071832
 20
210.090042
 30
0.0
  0
VERTEX
  8
CSLAYER1
  6
CONTINUOUS
 62
     3
 10
94.087041
 20
210.083298
 30
0.0
  0
VERTEX
  8
CSLAYER1
  6
CONTINUOUS
 62
     3
 10
94.102486
 20
210.079232
 30
0.0
  0
VERTEX
  8
CSLAYER1
  6
CONTINUOUS
 62
     3
 10
94.118049
 20
210.077873
 30
0.0
  0
VERTEX
  8
CSLAYER1
  6
CONTINUOUS
 62
     3
 10
94.133613
 20
210.079232
 30
0.0
  0
VERTEX
  8
CSLAYER1
  6
CONTINUOUS
 62
     3
 10
94.149058
 20
210.083298
 30
0.0
  0
VERTEX
  8
CSLAYER1
  6
CONTINUOUS
 62
     3
 10
94.164267
 20
210.090042
 30
0.0
  0
VERTEX
  8
CSLAYER1
  6
CONTINUOUS
 62
     3
 10
94.179124
 20
210.099411
 30
0.0
  0
VERTEX
  8
CSLAYER1
  6
CONTINUOUS
 62
     3
 10
94.193517
 20
210.111334
 30
0.0
  0
VERTEX
  8
CSLAYER1
  6
CONTINUOUS
 62
     3
 10
94.207335
 20
210.125721
 30
0.0
  0
VERTEX
  8
CSLAYER1
  6
CONTINUOUS
 62
     3
 10
94.220474
 20
210.142461
 30
0.0
  0
VERTEX
  8
CSLAYER1
  6
CONTINUOUS
 62
     3
 10
94.231153
 20
210.158644
 30
0.0
  0
SEQEND
  0
POLYLINE
  8
CSLAYER1
  6
CONTINUOUS
 62
     3
 66
     1
 10
0.0
 20
0.0
 30
0.0
  0
VERTEX
  8
CSLAYER1
  6
CONTINUOUS
 62
     3
 10
93.582335
 20
210.435016
 30
0.0
  0
VERTEX
  8
CSLAYER1
  6
CONTINUOUS
 62
     3
 10
93.583015
 20
210.403889
 30
0.0
  0
VERTEX
  8
CSLAYER1
  6
CONTINUOUS
 62
     3
 10
93.585048
 20
210.372998
 30
0.0
  0
VERTEX
  8
CSLAYER1
  6
CONTINUOUS
 62
     3
 10
93.588420
 20
210.342580
 30
0.0
  0
VERTEX
  8
CSLAYER1
  6
CONTINUOUS
 62
     3
 10
93.593104
 20
210.312866
 30
0.0
  0
VERTEX
  8
CSLAYER1
  6
CONTINUOUS
 62
     3
 10
93.599066
 20
210.284081
 30
0.0
  0
VERTEX
  8
CSLAYER1
  6
CONTINUOUS
 62
     3
 10
93.606259
 20
210.256444
 30
0.0
  0
VERTEX
  8
CSLAYER1
  6
CONTINUOUS
 62
     3
 10
93.614629
 20
210.230167
 30
0.0
  0
VERTEX
  8
CSLAYER1
  6
CONTINUOUS
 62
     3
 10
93.624113
 20
210.205449
 30
0.0
  0
VERTEX
  8
CSLAYER1
  6
CONTINUOUS
 62
     3
 10
93.634637
 20
210.182478
 30
0.0
  0
VERTEX
  8
CSLAYER1
  6
CONTINUOUS
 62
     3
 10
93.646123
 20
210.161428
 30
0.0
  0
VERTEX
  8
CSLAYER1
  6
CONTINUOUS
 62
     3
 10
93.658482
 20
210.142461
 30
0.0
  0
VERTEX
  8
CSLAYER1
  6
CONTINUOUS
 62
     3
 10
93.671621
 20
210.125721
 30
0.0
  0
VERTEX
  8
CSLAYER1
  6
CONTINUOUS
 62
     3
 10
93.685439
 20
210.111334
 30
0.0
  0
VERTEX
  8
CSLAYER1
  6
CONTINUOUS
 62
     3
 10
93.699831
 20
210.099411
 30
0.0
  0
VERTEX
  8
CSLAYER1
  6
CONTINUOUS
 62
     3
 10
93.714689
 20
210.090042
 30
0.0
  0
VERTEX
  8
CSLAYER1
  6
CONTINUOUS
 62
     3
 10
93.729898
 20
210.083299
 30
0.0
  0
VERTEX
  8
CSLAYER1
  6
CONTINUOUS
 62
     3
 10
93.745343
 20
210.079232
 30
0.0
  0
VERTEX
  8
CSLAYER1
  6
CONTINUOUS
 62
     3
 10
93.760906
 20
210.077873
 30
0.0
  0
VERTEX
  8
CSLAYER1
  6
CONTINUOUS
 62
     3
 10
93.776470
 20
210.079232
 30
0.0
  0
VERTEX
  8
CSLAYER1
  6
CONTINUOUS
 62
     3
 10
93.791915
 20
210.083299
 30
0.0
  0
VERTEX
  8
CSLAYER1
  6
CONTINUOUS
 62
     3
 10
93.807124
 20
210.090042
 30
0.0
  0
VERTEX
  8
CSLAYER1
  6
CONTINUOUS
 62
     3
 10
93.821981
 20
210.099411
 30
0.0
  0
VERTEX
  8
CSLAYER1
  6
CONTINUOUS
 62
     3
 10
93.836374
 20
210.111334
 30
0.0
  0
VERTEX
  8
CSLAYER1
  6
CONTINUOUS
 62
     3
 10
93.850192
 20
210.125721
 30
0.0
  0
VERTEX
  8
CSLAYER1
  6
CONTINUOUS
 62
     3
 10
93.863331
 20
210.142461
 30
0.0
  0
VERTEX
  8
CSLAYER1
  6
CONTINUOUS
 62
     3
 10
93.875690
 20
210.161428
 30
0.0
  0
VERTEX
  8
CSLAYER1
  6
CONTINUOUS
 62
     3
 10
93.878764
 20
210.166707
 30
0.0
  0
SEQEND
  0
POLYLINE
  8
CSLAYER1
  6
CONTINUOUS
 62
     3
 66
     1
 10
0.0
 20
0.0
 30
0.0
  0
VERTEX
  8
CSLAYER1
  6
CONTINUOUS
 62
     3
 10
93.082335
 20
210.435016
 30
0.0
  0
VERTEX
  8
CSLAYER1
  6
CONTINUOUS
 62
     3
 10
93.083015
 20
210.403889
 30
0.0
  0
VERTEX
  8
CSLAYER1
  6
CONTINUOUS
 62
     3
 10
93.085048
 20
210.372998
 30
0.0
  0
VERTEX
  8
CSLAYER1
  6
CONTINUOUS
 62
     3
 10
93.088420
 20
210.342580
 30
0.0
  0
VERTEX
  8
CSLAYER1
  6
CONTINUOUS
 62
     3
 10
93.093104
 20
210.312866
 30
0.0
  0
VERTEX
  8
CSLAYER1
  6
CONTINUOUS
 62
     3
 10
93.099066
 20
210.284081
 30
0.0
  0
VERTEX
  8
CSLAYER1
  6
CONTINUOUS
 62
     3
 10
93.106259
 20
210.256444
 30
0.0
  0
VERTEX
  8
CSLAYER1
  6
CONTINUOUS
 62
     3
 10
93.114629
 20
210.230167
 30
0.0
  0
VERTEX
  8
CSLAYER1
  6
CONTINUOUS
 62
     3
 10
93.124113
 20
210.205449
 30
0.0
  0
VERTEX
  8
CSLAYER1
  6
CONTINUOUS
 62
     3
 10
93.134637
 20
210.182478
 30
0.0
  0
VERTEX
  8
CSLAYER1
  6
CONTINUOUS
 62
     3
 10
93.146123
 20
210.161428
 30
0.0
  0
VERTEX
  8
CSLAYER1
  6
CONTINUOUS
 62
     3
 10
93.158482
 20
210.142461
 30
0.0
  0
VERTEX
  8
CSLAYER1
  6
CONTINUOUS
 62
     3
 10
93.171621
 20
210.125721
 30
0.0
  0
VERTEX
  8
CSLAYER1
  6
CONTINUOUS
 62
     3
 10
93.185439
 20
210.111334
 30
0.0
  0
VERTEX
  8
CSLAYER1
  6
CONTINUOUS
 62
     3
 10
93.199831
 20
210.099411
 30
0.0
  0
VERTEX
  8
CSLAYER1
  6
CONTINUOUS
 62
     3
 10
93.214689
 20
210.090042
 30
0.0
  0
VERTEX
  8
CSLAYER1
  6
CONTINUOUS
 62
     3
 10
93.229898
 20
210.083299
 30
0.0
  0
VERTEX
  8
CSLAYER1
  6
CONTINUOUS
 62
     3
 10
93.245343
 20
210.079232
 30
0.0
  0
VERTEX
  8
CSLAYER1
  6
CONTINUOUS
 62
     3
 10
93.260906
 20
210.077873
 30
0.0
  0
VERTEX
  8
CSLAYER1
  6
CONTINUOUS
 62
     3
 10
93.276470
 20
210.079232
 30
0.0
  0
VERTEX
  8
CSLAYER1
  6
CONTINUOUS
 62
     3
 10
93.291915
 20
210.083299
 30
0.0
  0
VERTEX
  8
CSLAYER1
  6
CONTINUOUS
 62
     3
 10
93.307124
 20
210.090042
 30
0.0
  0
VERTEX
  8
CSLAYER1
  6
CONTINUOUS
 62
     3
 10
93.321981
 20
210.099411
 30
0.0
  0
VERTEX
  8
CSLAYER1
  6
CONTINUOUS
 62
     3
 10
93.336374
 20
210.111334
 30
0.0
  0
VERTEX
  8
CSLAYER1
  6
CONTINUOUS
 62
     3
 10
93.350192
 20
210.125721
 30
0.0
  0
VERTEX
  8
CSLAYER1
  6
CONTINUOUS
 62
     3
 10
93.363331
 20
210.142461
 30
0.0
  0
VERTEX
  8
CSLAYER1
  6
CONTINUOUS
 62
     3
 10
93.375690
 20
210.161428
 30
0.0
  0
VERTEX
  8
CSLAYER1
  6
CONTINUOUS
 62
     3
 10
93.378764
 20
210.166707
 30
0.0
  0
SEQEND
  0
POLYLINE
  8
CSLAYER1
  6
CONTINUOUS
 62
     3
 66
     1
 10
0.0
 20
0.0
 30
0.0
  0
VERTEX
  8
CSLAYER1
  6
CONTINUOUS
 62
     3
 10
92.582335
 20
210.435016
 30
0.0
  0
VERTEX
  8
CSLAYER1
  6
CONTINUOUS
 62
     3
 10
92.583015
 20
210.403889
 30
0.0
  0
VERTEX
  8
CSLAYER1
  6
CONTINUOUS
 62
     3
 10
92.585048
 20
210.372998
 30
0.0
  0
VERTEX
  8
CSLAYER1
  6
CONTINUOUS
 62
     3
 10
92.588420
 20
210.342580
 30
0.0
  0
VERTEX
  8
CSLAYER1
  6
CONTINUOUS
 62
     3
 10
92.593104
 20
210.312866
 30
0.0
  0
VERTEX
  8
CSLAYER1
  6
CONTINUOUS
 62
     3
 10
92.599066
 20
210.284081
 30
0.0
  0
VERTEX
  8
CSLAYER1
  6
CONTINUOUS
 62
     3
 10
92.606259
 20
210.256444
 30
0.0
  0
VERTEX
  8
CSLAYER1
  6
CONTINUOUS
 62
     3
 10
92.614629
 20
210.230167
 30
0.0
  0
VERTEX
  8
CSLAYER1
  6
CONTINUOUS
 62
     3
 10
92.624113
 20
210.205449
 30
0.0
  0
VERTEX
  8
CSLAYER1
  6
CONTINUOUS
 62
     3
 10
92.634637
 20
210.182478
 30
0.0
  0
VERTEX
  8
CSLAYER1
  6
CONTINUOUS
 62
     3
 10
92.646123
 20
210.161428
 30
0.0
  0
VERTEX
  8
CSLAYER1
  6
CONTINUOUS
 62
     3
 10
92.658482
 20
210.142461
 30
0.0
  0
VERTEX
  8
CSLAYER1
  6
CONTINUOUS
 62
     3
 10
92.671621
 20
210.125721
 30
0.0
  0
VERTEX
  8
CSLAYER1
  6
CONTINUOUS
 62
     3
 10
92.685439
 20
210.111334
 30
0.0
  0
VERTEX
  8
CSLAYER1
  6
CONTINUOUS
 62
     3
 10
92.699831
 20
210.099411
 30
0.0
  0
VERTEX
  8
CSLAYER1
  6
CONTINUOUS
 62
     3
 10
92.714689
 20
210.090042
 30
0.0
  0
VERTEX
  8
CSLAYER1
  6
CONTINUOUS
 62
     3
 10
92.729898
 20
210.083299
 30
0.0
  0
VERTEX
  8
CSLAYER1
  6
CONTINUOUS
 62
     3
 10
92.745343
 20
210.079232
 30
0.0
  0
VERTEX
  8
CSLAYER1
  6
CONTINUOUS
 62
     3
 10
92.760906
 20
210.077873
 30
0.0
  0
VERTEX
  8
CSLAYER1
  6
CONTINUOUS
 62
     3
 10
92.776470
 20
210.079232
 30
0.0
  0
VERTEX
  8
CSLAYER1
  6
CONTINUOUS
 62
     3
 10
92.791915
 20
210.083299
 30
0.0
  0
VERTEX
  8
CSLAYER1
  6
CONTINUOUS
 62
     3
 10
92.807124
 20
210.090042
 30
0.0
  0
VERTEX
  8
CSLAYER1
  6
CONTINUOUS
 62
     3
 10
92.821981
 20
210.099411
 30
0.0
  0
VERTEX
  8
CSLAYER1
  6
CONTINUOUS
 62
     3
 10
92.836374
 20
210.111334
 30
0.0
  0
VERTEX
  8
CSLAYER1
  6
CONTINUOUS
 62
     3
 10
92.850192
 20
210.125721
 30
0.0
  0
VERTEX
  8
CSLAYER1
  6
CONTINUOUS
 62
     3
 10
92.863331
 20
210.142461
 30
0.0
  0
VERTEX
  8
CSLAYER1
  6
CONTINUOUS
 62
     3
 10
92.875690
 20
210.161428
 30
0.0
  0
VERTEX
  8
CSLAYER1
  6
CONTINUOUS
 62
     3
 10
92.878764
 20
210.166707
 30
0.0
  0
SEQEND
  0
POLYLINE
  8
CSLAYER1
  6
CONTINUOUS
 62
     3
 66
     1
 10
0.0
 20
0.0
 30
0.0
  0
VERTEX
  8
CSLAYER1
  6
CONTINUOUS
 62
     3
 10
92.010906
 20
210.435016
 30
0.0
  0
VERTEX
  8
CSLAYER1
  6
CONTINUOUS
 62
     3
 10
92.011586
 20
210.403889
 30
0.0
  0
VERTEX
  8
CSLAYER1
  6
CONTINUOUS
 62
     3
 10
92.013619
 20
210.372998
 30
0.0
  0
VERTEX
  8
CSLAYER1
  6
CONTINUOUS
 62
     3
 10
92.016991
 20
210.342580
 30
0.0
  0
VERTEX
  8
CSLAYER1
  6
CONTINUOUS
 62
     3
 10
92.021676
 20
210.312866
 30
0.0
  0
VERTEX
  8
CSLAYER1
  6
CONTINUOUS
 62
     3
 10
92.027637
 20
210.284081
 30
0.0
  0
VERTEX
  8
CSLAYER1
  6
CONTINUOUS
 62
     3
 10
92.034830
 20
210.256444
 30
0.0
  0
VERTEX
  8
CSLAYER1
  6
CONTINUOUS
 62
     3
 10
92.043201
 20
210.230167
 30
0.0
  0
VERTEX
  8
CSLAYER1
  6
CONTINUOUS
 62
     3
 10
92.052684
 20
210.205449
 30
0.0
  0
VERTEX
  8
CSLAYER1
  6
CONTINUOUS
 62
     3
 10
92.063209
 20
210.182478
 30
0.0
  0
VERTEX
  8
CSLAYER1
  6
CONTINUOUS
 62
     3
 10
92.074694
 20
210.161428
 30
0.0
  0
VERTEX
  8
CSLAYER1
  6
CONTINUOUS
 62
     3
 10
92.087054
 20
210.142461
 30
0.0
  0
VERTEX
  8
CSLAYER1
  6
CONTINUOUS
 62
     3
 10
92.100192
 20
210.125721
 30
0.0
  0
VERTEX
  8
CSLAYER1
  6
CONTINUOUS
 62
     3
 10
92.114010
 20
210.111334
 30
0.0
  0
VERTEX
  8
CSLAYER1
  6
CONTINUOUS
 62
     3
 10
92.128403
 20
210.099411
 30
0.0
  0
VERTEX
  8
CSLAYER1
  6
CONTINUOUS
 62
     3
 10
92.143260
 20
210.090042
 30
0.0
  0
VERTEX
  8
CSLAYER1
  6
CONTINUOUS
 62
     3
 10
92.158469
 20
210.083299
 30
0.0
  0
VERTEX
  8
CSLAYER1
  6
CONTINUOUS
 62
     3
 10
92.173914
 20
210.079232
 30
0.0
  0
VERTEX
  8
CSLAYER1
  6
CONTINUOUS
 62
     3
 10
92.189478
 20
210.077873
 30
0.0
  0
VERTEX
  8
CSLAYER1
  6
CONTINUOUS
 62
     3
 10
92.205041
 20
210.079232
 30
0.0
  0
VERTEX
  8
CSLAYER1
  6
CONTINUOUS
 62
     3
 10
92.220486
 20
210.083299
 30
0.0
  0
VERTEX
  8
CSLAYER1
  6
CONTINUOUS
 62
     3
 10
92.235696
 20
210.090042
 30
0.0
  0
VERTEX
  8
CSLAYER1
  6
CONTINUOUS
 62
     3
 10
92.250553
 20
210.099411
 30
0.0
  0
VERTEX
  8
CSLAYER1
  6
CONTINUOUS
 62
     3
 10
92.264945
 20
210.111334
 30
0.0
  0
VERTEX
  8
CSLAYER1
  6
CONTINUOUS
 62
     3
 10
92.278764
 20
210.125721
 30
0.0
  0
VERTEX
  8
CSLAYER1
  6
CONTINUOUS
 62
     3
 10
92.291902
 20
210.142461
 30
0.0
  0
VERTEX
  8
CSLAYER1
  6
CONTINUOUS
 62
     3
 10
92.304261
 20
210.161428
 30
0.0
  0
VERTEX
  8
CSLAYER1
  6
CONTINUOUS
 62
     3
 10
92.307335
 20
210.166707
 30
0.0
  0
SEQEND
  0
POLYLINE
  8
CSLAYER1
  6
CONTINUOUS
 62
     3
 66
     1
 10
0.0
 20
0.0
 30
0.0
  0
VERTEX
  8
CSLAYER1
  6
CONTINUOUS
 62
     3
 10
91.439478
 20
210.435016
 30
0.0
  0
VERTEX
  8
CSLAYER1
  6
CONTINUOUS
 62
     3
 10
91.440157
 20
210.403889
 30
0.0
  0
VERTEX
  8
CSLAYER1
  6
CONTINUOUS
 62
     3
 10
91.442191
 20
210.372998
 30
0.0
  0
VERTEX
  8
CSLAYER1
  6
CONTINUOUS
 62
     3
 10
91.445563
 20
210.342580
 30
0.0
  0
VERTEX
  8
CSLAYER1
  6
CONTINUOUS
 62
     3
 10
91.450247
 20
210.312866
 30
0.0
  0
VERTEX
  8
CSLAYER1
  6
CONTINUOUS
 62
     3
 10
91.456209
 20
210.284081
 30
0.0
  0
VERTEX
  8
CSLAYER1
  6
CONTINUOUS
 62
     3
 10
91.463402
 20
210.256444
 30
0.0
  0
VERTEX
  8
CSLAYER1
  6
CONTINUOUS
 62
     3
 10
91.471772
 20
210.230167
 30
0.0
  0
VERTEX
  8
CSLAYER1
  6
CONTINUOUS
 62
     3
 10
91.481256
 20
210.205449
 30
0.0
  0
VERTEX
  8
CSLAYER1
  6
CONTINUOUS
 62
     3
 10
91.491780
 20
210.182478
 30
0.0
  0
VERTEX
  8
CSLAYER1
  6
CONTINUOUS
 62
     3
 10
91.503266
 20
210.161428
 30
0.0
  0
VERTEX
  8
CSLAYER1
  6
CONTINUOUS
 62
     3
 10
91.515625
 20
210.142461
 30
0.0
  0
VERTEX
  8
CSLAYER1
  6
CONTINUOUS
 62
     3
 10
91.528764
 20
210.125721
 30
0.0
  0
VERTEX
  8
CSLAYER1
  6
CONTINUOUS
 62
     3
 10
91.542582
 20
210.111334
 30
0.0
  0
VERTEX
  8
CSLAYER1
  6
CONTINUOUS
 62
     3
 10
91.556974
 20
210.099411
 30
0.0
  0
VERTEX
  8
CSLAYER1
  6
CONTINUOUS
 62
     3
 10
91.571832
 20
210.090042
 30
0.0
  0
VERTEX
  8
CSLAYER1
  6
CONTINUOUS
 62
     3
 10
91.587041
 20
210.083299
 30
0.0
  0
VERTEX
  8
CSLAYER1
  6
CONTINUOUS
 62
     3
 10
91.602486
 20
210.079232
 30
0.0
  0
VERTEX
  8
CSLAYER1
  6
CONTINUOUS
 62
     3
 10
91.618049
 20
210.077873
 30
0.0
  0
VERTEX
  8
CSLAYER1
  6
CONTINUOUS
 62
     3
 10
91.633613
 20
210.079232
 30
0.0
  0
VERTEX
  8
CSLAYER1
  6
CONTINUOUS
 62
     3
 10
91.649058
 20
210.083299
 30
0.0
  0
VERTEX
  8
CSLAYER1
  6
CONTINUOUS
 62
     3
 10
91.664267
 20
210.090042
 30
0.0
  0
VERTEX
  8
CSLAYER1
  6
CONTINUOUS
 62
     3
 10
91.679124
 20
210.099411
 30
0.0
  0
VERTEX
  8
CSLAYER1
  6
CONTINUOUS
 62
     3
 10
91.693517
 20
210.111334
 30
0.0
  0
VERTEX
  8
CSLAYER1
  6
CONTINUOUS
 62
     3
 10
91.707335
 20
210.125721
 30
0.0
  0
VERTEX
  8
CSLAYER1
  6
CONTINUOUS
 62
     3
 10
91.720474
 20
210.142461
 30
0.0
  0
VERTEX
  8
CSLAYER1
  6
CONTINUOUS
 62
     3
 10
91.732833
 20
210.161428
 30
0.0
  0
VERTEX
  8
CSLAYER1
  6
CONTINUOUS
 62
     3
 10
91.735907
 20
210.166707
 30
0.0
  0
SEQEND
  0
POLYLINE
  8
CSLAYER1
  6
CONTINUOUS
 62
     3
 66
     1
 10
0.0
 20
0.0
 30
0.0
  0
VERTEX
  8
CSLAYER1
  6
CONTINUOUS
 62
     3
 10
90.868049
 20
210.435016
 30
0.0
  0
VERTEX
  8
CSLAYER1
  6
CONTINUOUS
 62
     3
 10
90.868729
 20
210.403889
 30
0.0
  0
VERTEX
  8
CSLAYER1
  6
CONTINUOUS
 62
     3
 10
90.870762
 20
210.372998
 30
0.0
  0
VERTEX
  8
CSLAYER1
  6
CONTINUOUS
 62
     3
 10
90.874134
 20
210.342580
 30
0.0
  0
VERTEX
  8
CSLAYER1
  6
CONTINUOUS
 62
     3
 10
90.878818
 20
210.312866
 30
0.0
  0
VERTEX
  8
CSLAYER1
  6
CONTINUOUS
 62
     3
 10
90.884780
 20
210.284081
 30
0.0
  0
VERTEX
  8
CSLAYER1
  6
CONTINUOUS
 62
     3
 10
90.891973
 20
210.256444
 30
0.0
  0
VERTEX
  8
CSLAYER1
  6
CONTINUOUS
 62
     3
 10
90.900344
 20
210.230167
 30
0.0
  0
VERTEX
  8
CSLAYER1
  6
CONTINUOUS
 62
     3
 10
90.909827
 20
210.205449
 30
0.0
  0
VERTEX
  8
CSLAYER1
  6
CONTINUOUS
 62
     3
 10
90.920352
 20
210.182478
 30
0.0
  0
VERTEX
  8
CSLAYER1
  6
CONTINUOUS
 62
     3
 10
90.931837
 20
210.161428
 30
0.0
  0
VERTEX
  8
CSLAYER1
  6
CONTINUOUS
 62
     3
 10
90.944196
 20
210.142461
 30
0.0
  0
VERTEX
  8
CSLAYER1
  6
CONTINUOUS
 62
     3
 10
90.957335
 20
210.125721
 30
0.0
  0
VERTEX
  8
CSLAYER1
  6
CONTINUOUS
 62
     3
 10
90.971153
 20
210.111334
 30
0.0
  0
VERTEX
  8
CSLAYER1
  6
CONTINUOUS
 62
     3
 10
90.985546
 20
210.099411
 30
0.0
  0
VERTEX
  8
CSLAYER1
  6
CONTINUOUS
 62
     3
 10
91.000403
 20
210.090042
 30
0.0
  0
VERTEX
  8
CSLAYER1
  6
CONTINUOUS
 62
     3
 10
91.015612
 20
210.083299
 30
0.0
  0
VERTEX
  8
CSLAYER1
  6
CONTINUOUS
 62
     3
 10
91.031057
 20
210.079232
 30
0.0
  0
VERTEX
  8
CSLAYER1
  6
CONTINUOUS
 62
     3
 10
91.046621
 20
210.077873
 30
0.0
  0
VERTEX
  8
CSLAYER1
  6
CONTINUOUS
 62
     3
 10
91.062184
 20
210.079232
 30
0.0
  0
VERTEX
  8
CSLAYER1
  6
CONTINUOUS
 62
     3
 10
91.077629
 20
210.083299
 30
0.0
  0
VERTEX
  8
CSLAYER1
  6
CONTINUOUS
 62
     3
 10
91.092838
 20
210.090042
 30
0.0
  0
VERTEX
  8
CSLAYER1
  6
CONTINUOUS
 62
     3
 10
91.107696
 20
210.099411
 30
0.0
  0
VERTEX
  8
CSLAYER1
  6
CONTINUOUS
 62
     3
 10
91.122088
 20
210.111334
 30
0.0
  0
VERTEX
  8
CSLAYER1
  6
CONTINUOUS
 62
     3
 10
91.135906
 20
210.125721
 30
0.0
  0
VERTEX
  8
CSLAYER1
  6
CONTINUOUS
 62
     3
 10
91.149045
 20
210.142461
 30
0.0
  0
VERTEX
  8
CSLAYER1
  6
CONTINUOUS
 62
     3
 10
91.161404
 20
210.161428
 30
0.0
  0
VERTEX
  8
CSLAYER1
  6
CONTINUOUS
 62
     3
 10
91.164478
 20
210.166707
 30
0.0
  0
SEQEND
  0
POLYLINE
  8
CSLAYER1
  6
CONTINUOUS
 62
     3
 66
     1
 10
0.0
 20
0.0
 30
0.0
  0
VERTEX
  8
CSLAYER1
  6
CONTINUOUS
 62
     3
 10
90.653764
 20
210.435016
 30
0.0
  0
VERTEX
  8
CSLAYER1
  6
CONTINUOUS
 62
     3
 10
90.654443
 20
210.403889
 30
0.0
  0
VERTEX
  8
CSLAYER1
  6
CONTINUOUS
 62
     3
 10
90.656476
 20
210.372998
 30
0.0
  0
VERTEX
  8
CSLAYER1
  6
CONTINUOUS
 62
     3
 10
90.659848
 20
210.342580
 30
0.0
  0
VERTEX
  8
CSLAYER1
  6
CONTINUOUS
 62
     3
 10
90.664533
 20
210.312866
 30
0.0
  0
VERTEX
  8
CSLAYER1
  6
CONTINUOUS
 62
     3
 10
90.670494
 20
210.284081
 30
0.0
  0
VERTEX
  8
CSLAYER1
  6
CONTINUOUS
 62
     3
 10
90.677688
 20
210.256444
 30
0.0
  0
VERTEX
  8
CSLAYER1
  6
CONTINUOUS
 62
     3
 10
90.686058
 20
210.230167
 30
0.0
  0
VERTEX
  8
CSLAYER1
  6
CONTINUOUS
 62
     3
 10
90.695541
 20
210.205449
 30
0.0
  0
VERTEX
  8
CSLAYER1
  6
CONTINUOUS
 62
     3
 10
90.706066
 20
210.182478
 30
0.0
  0
VERTEX
  8
CSLAYER1
  6
CONTINUOUS
 62
     3
 10
90.717552
 20
210.161428
 30
0.0
  0
VERTEX
  8
CSLAYER1
  6
CONTINUOUS
 62
     3
 10
90.729911
 20
210.142461
 30
0.0
  0
VERTEX
  8
CSLAYER1
  6
CONTINUOUS
 62
     3
 10
90.743049
 20
210.125721
 30
0.0
  0
VERTEX
  8
CSLAYER1
  6
CONTINUOUS
 62
     3
 10
90.756867
 20
210.111334
 30
0.0
  0
VERTEX
  8
CSLAYER1
  6
CONTINUOUS
 62
     3
 10
90.771260
 20
210.099411
 30
0.0
  0
VERTEX
  8
CSLAYER1
  6
CONTINUOUS
 62
     3
 10
90.786117
 20
210.090042
 30
0.0
  0
VERTEX
  8
CSLAYER1
  6
CONTINUOUS
 62
     3
 10
90.801326
 20
210.083299
 30
0.0
  0
VERTEX
  8
CSLAYER1
  6
CONTINUOUS
 62
     3
 10
90.816771
 20
210.079232
 30
0.0
  0
VERTEX
  8
CSLAYER1
  6
CONTINUOUS
 62
     3
 10
90.832335
 20
210.077873
 30
0.0
  0
VERTEX
  8
CSLAYER1
  6
CONTINUOUS
 62
     3
 10
90.847899
 20
210.079232
 30
0.0
  0
VERTEX
  8
CSLAYER1
  6
CONTINUOUS
 62
     3
 10
90.863344
 20
210.083299
 30
0.0
  0
VERTEX
  8
CSLAYER1
  6
CONTINUOUS
 62
     3
 10
90.878553
 20
210.090042
 30
0.0
  0
VERTEX
  8
CSLAYER1
  6
CONTINUOUS
 62
     3
 10
90.893410
 20
210.099411
 30
0.0
  0
VERTEX
  8
CSLAYER1
  6
CONTINUOUS
 62
     3
 10
90.907803
 20
210.111334
 30
0.0
  0
VERTEX
  8
CSLAYER1
  6
CONTINUOUS
 62
     3
 10
90.921621
 20
210.125721
 30
0.0
  0
VERTEX
  8
CSLAYER1
  6
CONTINUOUS
 62
     3
 10
90.934759
 20
210.142461
 30
0.0
  0
VERTEX
  8
CSLAYER1
  6
CONTINUOUS
 62
     3
 10
90.947119
 20
210.161428
 30
0.0
  0
VERTEX
  8
CSLAYER1
  6
CONTINUOUS
 62
     3
 10
90.950192
 20
210.166707
 30
0.0
  0
SEQEND
  0
POLYLINE
  8
CSLAYER1
  6
CONTINUOUS
 62
     3
 66
     1
 10
0.0
 20
0.0
 30
0.0
  0
VERTEX
  8
CSLAYER1
  6
CONTINUOUS
 62
     3
 10
90.868049
 20
210.435016
 30
0.0
  0
VERTEX
  8
CSLAYER1
  6
CONTINUOUS
 62
     3
 10
90.868729
 20
210.403889
 30
0.0
  0
VERTEX
  8
CSLAYER1
  6
CONTINUOUS
 62
     3
 10
90.870762
 20
210.372998
 30
0.0
  0
VERTEX
  8
CSLAYER1
  6
CONTINUOUS
 62
     3
 10
90.874134
 20
210.342580
 30
0.0
  0
VERTEX
  8
CSLAYER1
  6
CONTINUOUS
 62
     3
 10
90.878818
 20
210.312866
 30
0.0
  0
VERTEX
  8
CSLAYER1
  6
CONTINUOUS
 62
     3
 10
90.884780
 20
210.284081
 30
0.0
  0
VERTEX
  8
CSLAYER1
  6
CONTINUOUS
 62
     3
 10
90.891973
 20
210.256444
 30
0.0
  0
VERTEX
  8
CSLAYER1
  6
CONTINUOUS
 62
     3
 10
90.900344
 20
210.230167
 30
0.0
  0
VERTEX
  8
CSLAYER1
  6
CONTINUOUS
 62
     3
 10
90.909827
 20
210.205449
 30
0.0
  0
VERTEX
  8
CSLAYER1
  6
CONTINUOUS
 62
     3
 10
90.920352
 20
210.182478
 30
0.0
  0
VERTEX
  8
CSLAYER1
  6
CONTINUOUS
 62
     3
 10
90.931837
 20
210.161428
 30
0.0
  0
VERTEX
  8
CSLAYER1
  6
CONTINUOUS
 62
     3
 10
90.944196
 20
210.142461
 30
0.0
  0
VERTEX
  8
CSLAYER1
  6
CONTINUOUS
 62
     3
 10
90.957335
 20
210.125721
 30
0.0
  0
VERTEX
  8
CSLAYER1
  6
CONTINUOUS
 62
     3
 10
90.971153
 20
210.111334
 30
0.0
  0
VERTEX
  8
CSLAYER1
  6
CONTINUOUS
 62
     3
 10
90.985546
 20
210.099411
 30
0.0
  0
VERTEX
  8
CSLAYER1
  6
CONTINUOUS
 62
     3
 10
91.000403
 20
210.090042
 30
0.0
  0
VERTEX
  8
CSLAYER1
  6
CONTINUOUS
 62
     3
 10
91.015612
 20
210.083299
 30
0.0
  0
VERTEX
  8
CSLAYER1
  6
CONTINUOUS
 62
     3
 10
91.031057
 20
210.079232
 30
0.0
  0
VERTEX
  8
CSLAYER1
  6
CONTINUOUS
 62
     3
 10
91.046621
 20
210.077873
 30
0.0
  0
VERTEX
  8
CSLAYER1
  6
CONTINUOUS
 62
     3
 10
91.062184
 20
210.079232
 30
0.0
  0
VERTEX
  8
CSLAYER1
  6
CONTINUOUS
 62
     3
 10
91.077629
 20
210.083299
 30
0.0
  0
VERTEX
  8
CSLAYER1
  6
CONTINUOUS
 62
     3
 10
91.092838
 20
210.090042
 30
0.0
  0
VERTEX
  8
CSLAYER1
  6
CONTINUOUS
 62
     3
 10
91.107696
 20
210.099411
 30
0.0
  0
VERTEX
  8
CSLAYER1
  6
CONTINUOUS
 62
     3
 10
91.122088
 20
210.111334
 30
0.0
  0
VERTEX
  8
CSLAYER1
  6
CONTINUOUS
 62
     3
 10
91.135906
 20
210.125721
 30
0.0
  0
VERTEX
  8
CSLAYER1
  6
CONTINUOUS
 62
     3
 10
91.149045
 20
210.142461
 30
0.0
  0
VERTEX
  8
CSLAYER1
  6
CONTINUOUS
 62
     3
 10
91.161404
 20
210.161428
 30
0.0
  0
VERTEX
  8
CSLAYER1
  6
CONTINUOUS
 62
     3
 10
91.164478
 20
210.166707
 30
0.0
  0
SEQEND
  0
POLYLINE
  8
CSLAYER1
  6
CONTINUOUS
 62
     3
 66
     1
 10
0.0
 20
0.0
 30
0.0
  0
VERTEX
  8
CSLAYER1
  6
CONTINUOUS
 62
     3
 10
91.082335
 20
210.435016
 30
0.0
  0
VERTEX
  8
CSLAYER1
  6
CONTINUOUS
 62
     3
 10
91.083015
 20
210.403889
 30
0.0
  0
VERTEX
  8
CSLAYER1
  6
CONTINUOUS
 62
     3
 10
91.085048
 20
210.372998
 30
0.0
  0
VERTEX
  8
CSLAYER1
  6
CONTINUOUS
 62
     3
 10
91.088420
 20
210.342580
 30
0.0
  0
VERTEX
  8
CSLAYER1
  6
CONTINUOUS
 62
     3
 10
91.093104
 20
210.312866
 30
0.0
  0
VERTEX
  8
CSLAYER1
  6
CONTINUOUS
 62
     3
 10
91.099066
 20
210.284081
 30
0.0
  0
VERTEX
  8
CSLAYER1
  6
CONTINUOUS
 62
     3
 10
91.106259
 20
210.256444
 30
0.0
  0
VERTEX
  8
CSLAYER1
  6
CONTINUOUS
 62
     3
 10
91.114629
 20
210.230167
 30
0.0
  0
VERTEX
  8
CSLAYER1
  6
CONTINUOUS
 62
     3
 10
91.124113
 20
210.205449
 30
0.0
  0
VERTEX
  8
CSLAYER1
  6
CONTINUOUS
 62
     3
 10
91.134637
 20
210.182478
 30
0.0
  0
VERTEX
  8
CSLAYER1
  6
CONTINUOUS
 62
     3
 10
91.146123
 20
210.161428
 30
0.0
  0
VERTEX
  8
CSLAYER1
  6
CONTINUOUS
 62
     3
 10
91.158482
 20
210.142461
 30
0.0
  0
VERTEX
  8
CSLAYER1
  6
CONTINUOUS
 62
     3
 10
91.171621
 20
210.125721
 30
0.0
  0
VERTEX
  8
CSLAYER1
  6
CONTINUOUS
 62
     3
 10
91.185439
 20
210.111334
 30
0.0
  0
VERTEX
  8
CSLAYER1
  6
CONTINUOUS
 62
     3
 10
91.199831
 20
210.099411
 30
0.0
  0
VERTEX
  8
CSLAYER1
  6
CONTINUOUS
 62
     3
 10
91.214689
 20
210.090042
 30
0.0
  0
VERTEX
  8
CSLAYER1
  6
CONTINUOUS
 62
     3
 10
91.229898
 20
210.083299
 30
0.0
  0
VERTEX
  8
CSLAYER1
  6
CONTINUOUS
 62
     3
 10
91.245343
 20
210.079232
 30
0.0
  0
VERTEX
  8
CSLAYER1
  6
CONTINUOUS
 62
     3
 10
91.260906
 20
210.077873
 30
0.0
  0
VERTEX
  8
CSLAYER1
  6
CONTINUOUS
 62
     3
 10
91.276470
 20
210.079232
 30
0.0
  0
VERTEX
  8
CSLAYER1
  6
CONTINUOUS
 62
     3
 10
91.291915
 20
210.083299
 30
0.0
  0
VERTEX
  8
CSLAYER1
  6
CONTINUOUS
 62
     3
 10
91.307124
 20
210.090042
 30
0.0
  0
VERTEX
  8
CSLAYER1
  6
CONTINUOUS
 62
     3
 10
91.321981
 20
210.099411
 30
0.0
  0
VERTEX
  8
CSLAYER1
  6
CONTINUOUS
 62
     3
 10
91.336374
 20
210.111334
 30
0.0
  0
VERTEX
  8
CSLAYER1
  6
CONTINUOUS
 62
     3
 10
91.350192
 20
210.125721
 30
0.0
  0
VERTEX
  8
CSLAYER1
  6
CONTINUOUS
 62
     3
 10
91.363331
 20
210.142461
 30
0.0
  0
VERTEX
  8
CSLAYER1
  6
CONTINUOUS
 62
     3
 10
91.375690
 20
210.161428
 30
0.0
  0
VERTEX
  8
CSLAYER1
  6
CONTINUOUS
 62
     3
 10
91.378764
 20
210.166707
 30
0.0
  0
SEQEND
  0
LINE
  8
CSLAYER1
  6
CONTINUOUS
 62
     3
 10
94.653764
 20
210.435016
 11
94.653764
 21
213.720730
  0
POLYLINE
  8
CSLAYER1
  6
CONTINUOUS
 62
     3
 66
     1
 10
0.0
 20
0.0
 30
0.0
  0
VERTEX
  8
CSLAYER1
  6
CONTINUOUS
 62
     3
 10
94.653764
 20
213.720730
 30
0.0
  0
VERTEX
  8
CSLAYER1
  6
CONTINUOUS
 62
     3
 10
94.653220
 20
213.745632
 30
0.0
  0
VERTEX
  8
CSLAYER1
  6
CONTINUOUS
 62
     3
 10
94.651593
 20
213.770344
 30
0.0
  0
VERTEX
  8
CSLAYER1
  6
CONTINUOUS
 62
     3
 10
94.648896
 20
213.794678
 30
0.0
  0
VERTEX
  8
CSLAYER1
  6
CONTINUOUS
 62
     3
 10
94.645148
 20
213.818450
 30
0.0
  0
VERTEX
  8
CSLAYER1
  6
CONTINUOUS
 62
     3
 10
94.640379
 20
213.841478
 30
0.0
  0
VERTEX
  8
CSLAYER1
  6
CONTINUOUS
 62
     3
 10
94.634624
 20
213.863587
 30
0.0
  0
VERTEX
  8
CSLAYER1
  6
CONTINUOUS
 62
     3
 10
94.627928
 20
213.884609
 30
0.0
  0
VERTEX
  8
CSLAYER1
  6
CONTINUOUS
 62
     3
 10
94.620341
 20
213.904384
 30
0.0
  0
VERTEX
  8
CSLAYER1
  6
CONTINUOUS
 62
     3
 10
94.611922
 20
213.922760
 30
0.0
  0
VERTEX
  8
CSLAYER1
  6
CONTINUOUS
 62
     3
 10
94.602733
 20
213.939600
 30
0.0
  0
VERTEX
  8
CSLAYER1
  6
CONTINUOUS
 62
     3
 10
94.592846
 20
213.954773
 30
0.0
  0
VERTEX
  8
CSLAYER1
  6
CONTINUOUS
 62
     3
 10
94.582335
 20
213.968166
 30
0.0
  0
VERTEX
  8
CSLAYER1
  6
CONTINUOUS
 62
     3
 10
94.571280
 20
213.979675
 30
0.0
  0
VERTEX
  8
CSLAYER1
  6
CONTINUOUS
 62
     3
 10
94.559766
 20
213.989214
 30
0.0
  0
VERTEX
  8
CSLAYER1
  6
CONTINUOUS
 62
     3
 10
94.547881
 20
213.996709
 30
0.0
  0
VERTEX
  8
CSLAYER1
  6
CONTINUOUS
 62
     3
 10
94.535713
 20
214.002104
 30
0.0
  0
VERTEX
  8
CSLAYER1
  6
CONTINUOUS
 62
     3
 10
94.523357
 20
214.005357
 30
0.0
  0
VERTEX
  8
CSLAYER1
  6
CONTINUOUS
 62
     3
 10
94.510906
 20
214.006444
 30
0.0
  0
SEQEND
  0
POLYLINE
  8
CSLAYER1
  6
CONTINUOUS
 62
     3
 66
     1
 10
0.0
 20
0.0
 30
0.0
  0
VERTEX
  8
CSLAYER1
  6
CONTINUOUS
 62
     3
 10
94.510906
 20
210.149301
 30
0.0
  0
VERTEX
  8
CSLAYER1
  6
CONTINUOUS
 62
     3
 10
94.523357
 20
210.150389
 30
0.0
  0
VERTEX
  8
CSLAYER1
  6
CONTINUOUS
 62
     3
 10
94.535713
 20
210.153642
 30
0.0
  0
VERTEX
  8
CSLAYER1
  6
CONTINUOUS
 62
     3
 10
94.547881
 20
210.159037
 30
0.0
  0
VERTEX
  8
CSLAYER1
  6
CONTINUOUS
 62
     3
 10
94.559767
 20
210.166532
 30
0.0
  0
VERTEX
  8
CSLAYER1
  6
CONTINUOUS
 62
     3
 10
94.571281
 20
210.176071
 30
0.0
  0
VERTEX
  8
CSLAYER1
  6
CONTINUOUS
 62
     3
 10
94.582335
 20
210.187580
 30
0.0
  0
VERTEX
  8
CSLAYER1
  6
CONTINUOUS
 62
     3
 10
94.592846
 20
210.200972
 30
0.0
  0
VERTEX
  8
CSLAYER1
  6
CONTINUOUS
 62
     3
 10
94.602733
 20
210.216146
 30
0.0
  0
VERTEX
  8
CSLAYER1
  6
CONTINUOUS
 62
     3
 10
94.611922
 20
210.232985
 30
0.0
  0
VERTEX
  8
CSLAYER1
  6
CONTINUOUS
 62
     3
 10
94.620341
 20
210.251362
 30
0.0
  0
VERTEX
  8
CSLAYER1
  6
CONTINUOUS
 62
     3
 10
94.627928
 20
210.271137
 30
0.0
  0
VERTEX
  8
CSLAYER1
  6
CONTINUOUS
 62
     3
 10
94.634624
 20
210.292159
 30
0.0
  0
VERTEX
  8
CSLAYER1
  6
CONTINUOUS
 62
     3
 10
94.640379
 20
210.314268
 30
0.0
  0
VERTEX
  8
CSLAYER1
  6
CONTINUOUS
 62
     3
 10
94.645148
 20
210.337296
 30
0.0
  0
VERTEX
  8
CSLAYER1
  6
CONTINUOUS
 62
     3
 10
94.648896
 20
210.361067
 30
0.0
  0
VERTEX
  8
CSLAYER1
  6
CONTINUOUS
 62
     3
 10
94.651593
 20
210.385402
 30
0.0
  0
VERTEX
  8
CSLAYER1
  6
CONTINUOUS
 62
     3
 10
94.653220
 20
210.410114
 30
0.0
  0
VERTEX
  8
CSLAYER1
  6
CONTINUOUS
 62
     3
 10
94.653764
 20
210.435015
 30
0.0
  0
SEQEND
  0
LINE
  8
CSLAYER1
  6
CONTINUOUS
 62
     3
 10
95.010906
 20
210.435016
 11
95.010906
 21
213.720730
  0
POLYLINE
  8
CSLAYER1
  6
CONTINUOUS
 62
     3
 66
     1
 10
0.0
 20
0.0
 30
0.0
  0
VERTEX
  8
CSLAYER1
  6
CONTINUOUS
 62
     3
 10
95.010906
 20
213.720730
 30
0.0
  0
VERTEX
  8
CSLAYER1
  6
CONTINUOUS
 62
     3
 10
95.010363
 20
213.745632
 30
0.0
  0
VERTEX
  8
CSLAYER1
  6
CONTINUOUS
 62
     3
 10
95.008736
 20
213.770344
 30
0.0
  0
VERTEX
  8
CSLAYER1
  6
CONTINUOUS
 62
     3
 10
95.006039
 20
213.794678
 30
0.0
  0
VERTEX
  8
CSLAYER1
  6
CONTINUOUS
 62
     3
 10
95.002291
 20
213.818450
 30
0.0
  0
VERTEX
  8
CSLAYER1
  6
CONTINUOUS
 62
     3
 10
94.997522
 20
213.841478
 30
0.0
  0
VERTEX
  8
CSLAYER1
  6
CONTINUOUS
 62
     3
 10
94.991767
 20
213.863587
 30
0.0
  0
VERTEX
  8
CSLAYER1
  6
CONTINUOUS
 62
     3
 10
94.985071
 20
213.884609
 30
0.0
  0
VERTEX
  8
CSLAYER1
  6
CONTINUOUS
 62
     3
 10
94.977484
 20
213.904384
 30
0.0
  0
VERTEX
  8
CSLAYER1
  6
CONTINUOUS
 62
     3
 10
94.969065
 20
213.922760
 30
0.0
  0
VERTEX
  8
CSLAYER1
  6
CONTINUOUS
 62
     3
 10
94.959876
 20
213.939600
 30
0.0
  0
VERTEX
  8
CSLAYER1
  6
CONTINUOUS
 62
     3
 10
94.949989
 20
213.954773
 30
0.0
  0
VERTEX
  8
CSLAYER1
  6
CONTINUOUS
 62
     3
 10
94.939478
 20
213.968166
 30
0.0
  0
VERTEX
  8
CSLAYER1
  6
CONTINUOUS
 62
     3
 10
94.928423
 20
213.979675
 30
0.0
  0
VERTEX
  8
CSLAYER1
  6
CONTINUOUS
 62
     3
 10
94.916909
 20
213.989214
 30
0.0
  0
VERTEX
  8
CSLAYER1
  6
CONTINUOUS
 62
     3
 10
94.905023
 20
213.996709
 30
0.0
  0
VERTEX
  8
CSLAYER1
  6
CONTINUOUS
 62
     3
 10
94.892856
 20
214.002104
 30
0.0
  0
VERTEX
  8
CSLAYER1
  6
CONTINUOUS
 62
     3
 10
94.880500
 20
214.005357
 30
0.0
  0
VERTEX
  8
CSLAYER1
  6
CONTINUOUS
 62
     3
 10
94.868049
 20
214.006444
 30
0.0
  0
VERTEX
  8
CSLAYER1
  6
CONTINUOUS
 62
     3
 10
94.855598
 20
214.005357
 30
0.0
  0
VERTEX
  8
CSLAYER1
  6
CONTINUOUS
 62
     3
 10
94.843242
 20
214.002104
 30
0.0
  0
VERTEX
  8
CSLAYER1
  6
CONTINUOUS
 62
     3
 10
94.831075
 20
213.996709
 30
0.0
  0
VERTEX
  8
CSLAYER1
  6
CONTINUOUS
 62
     3
 10
94.819189
 20
213.989213
 30
0.0
  0
VERTEX
  8
CSLAYER1
  6
CONTINUOUS
 62
     3
 10
94.807675
 20
213.979675
 30
0.0
  0
VERTEX
  8
CSLAYER1
  6
CONTINUOUS
 62
     3
 10
94.796621
 20
213.968166
 30
0.0
  0
VERTEX
  8
CSLAYER1
  6
CONTINUOUS
 62
     3
 10
94.786110
 20
213.954773
 30
0.0
  0
VERTEX
  8
CSLAYER1
  6
CONTINUOUS
 62
     3
 10
94.776222
 20
213.939600
 30
0.0
  0
VERTEX
  8
CSLAYER1
  6
CONTINUOUS
 62
     3
 10
94.767210
 20
213.923113
 30
0.0
  0
SEQEND
  0
POLYLINE
  8
CSLAYER1
  6
CONTINUOUS
 62
     3
 66
     1
 10
0.0
 20
0.0
 30
0.0
  0
VERTEX
  8
CSLAYER1
  6
CONTINUOUS
 62
     3
 10
94.767210
 20
210.232633
 30
0.0
  0
VERTEX
  8
CSLAYER1
  6
CONTINUOUS
 62
     3
 10
94.776414
 20
210.215826
 30
0.0
  0
VERTEX
  8
CSLAYER1
  6
CONTINUOUS
 62
     3
 10
94.786314
 20
210.200687
 30
0.0
  0
VERTEX
  8
CSLAYER1
  6
CONTINUOUS
 62
     3
 10
94.796837
 20
210.187331
 30
0.0
  0
VERTEX
  8
CSLAYER1
  6
CONTINUOUS
 62
     3
 10
94.807901
 20
210.175860
 30
0.0
  0
VERTEX
  8
CSLAYER1
  6
CONTINUOUS
 62
     3
 10
94.819424
 20
210.166362
 30
0.0
  0
VERTEX
  8
CSLAYER1
  6
CONTINUOUS
 62
     3
 10
94.831316
 20
210.158908
 30
0.0
  0
VERTEX
  8
CSLAYER1
  6
CONTINUOUS
 62
     3
 10
94.843488
 20
210.153556
 30
0.0
  0
VERTEX
  8
CSLAYER1
  6
CONTINUOUS
 62
     3
 10
94.855847
 20
210.150346
 30
0.0
  0
VERTEX
  8
CSLAYER1
  6
CONTINUOUS
 62
     3
 10
94.868299
 20
210.149302
 30
0.0
  0
VERTEX
  8
CSLAYER1
  6
CONTINUOUS
 62
     3
 10
94.880748
 20
210.150432
 30
0.0
  0
VERTEX
  8
CSLAYER1
  6
CONTINUOUS
 62
     3
 10
94.893102
 20
210.153729
 30
0.0
  0
VERTEX
  8
CSLAYER1
  6
CONTINUOUS
 62
     3
 10
94.905264
 20
210.159166
 30
0.0
  0
VERTEX
  8
CSLAYER1
  6
CONTINUOUS
 62
     3
 10
94.917143
 20
210.166703
 30
0.0
  0
VERTEX
  8
CSLAYER1
  6
CONTINUOUS
 62
     3
 10
94.928649
 20
210.176282
 30
0.0
  0
VERTEX
  8
CSLAYER1
  6
CONTINUOUS
 62
     3
 10
94.939694
 20
210.187829
 30
0.0
  0
VERTEX
  8
CSLAYER1
  6
CONTINUOUS
 62
     3
 10
94.950193
 20
210.201258
 30
0.0
  0
VERTEX
  8
CSLAYER1
  6
CONTINUOUS
 62
     3
 10
94.960067
 20
210.216467
 30
0.0
  0
VERTEX
  8
CSLAYER1
  6
CONTINUOUS
 62
     3
 10
94.969241
 20
210.233338
 30
0.0
  0
VERTEX
  8
CSLAYER1
  6
CONTINUOUS
 62
     3
 10
94.977644
 20
210.251744
 30
0.0
  0
VERTEX
  8
CSLAYER1
  6
CONTINUOUS
 62
     3
 10
94.985214
 20
210.271545
 30
0.0
  0
VERTEX
  8
CSLAYER1
  6
CONTINUOUS
 62
     3
 10
94.991892
 20
210.292590
 30
0.0
  0
VERTEX
  8
CSLAYER1
  6
CONTINUOUS
 62
     3
 10
94.997627
 20
210.314720
 30
0.0
  0
VERTEX
  8
CSLAYER1
  6
CONTINUOUS
 62
     3
 10
95.002376
 20
210.337764
 30
0.0
  0
VERTEX
  8
CSLAYER1
  6
CONTINUOUS
 62
     3
 10
95.006103
 20
210.361549
 30
0.0
  0
VERTEX
  8
CSLAYER1
  6
CONTINUOUS
 62
     3
 10
95.008779
 20
210.385893
 30
0.0
  0
VERTEX
  8
CSLAYER1
  6
CONTINUOUS
 62
     3
 10
95.010384
 20
210.410611
 30
0.0
  0
VERTEX
  8
CSLAYER1
  6
CONTINUOUS
 62
     3
 10
95.010906
 20
210.435015
 30
0.0
  0
SEQEND
  0
LINE
  8
CSLAYER1
  6
CONTINUOUS
 62
     3
 10
95.368049
 20
210.435016
 11
95.368049
 21
213.720730
  0
POLYLINE
  8
CSLAYER1
  6
CONTINUOUS
 62
     3
 66
     1
 10
0.0
 20
0.0
 30
0.0
  0
VERTEX
  8
CSLAYER1
  6
CONTINUOUS
 62
     3
 10
95.368049
 20
213.720730
 30
0.0
  0
VERTEX
  8
CSLAYER1
  6
CONTINUOUS
 62
     3
 10
95.367506
 20
213.745632
 30
0.0
  0
VERTEX
  8
CSLAYER1
  6
CONTINUOUS
 62
     3
 10
95.365879
 20
213.770344
 30
0.0
  0
VERTEX
  8
CSLAYER1
  6
CONTINUOUS
 62
     3
 10
95.363182
 20
213.794678
 30
0.0
  0
VERTEX
  8
CSLAYER1
  6
CONTINUOUS
 62
     3
 10
95.359434
 20
213.818450
 30
0.0
  0
VERTEX
  8
CSLAYER1
  6
CONTINUOUS
 62
     3
 10
95.354665
 20
213.841478
 30
0.0
  0
VERTEX
  8
CSLAYER1
  6
CONTINUOUS
 62
     3
 10
95.348910
 20
213.863587
 30
0.0
  0
VERTEX
  8
CSLAYER1
  6
CONTINUOUS
 62
     3
 10
95.342214
 20
213.884609
 30
0.0
  0
VERTEX
  8
CSLAYER1
  6
CONTINUOUS
 62
     3
 10
95.334627
 20
213.904384
 30
0.0
  0
VERTEX
  8
CSLAYER1
  6
CONTINUOUS
 62
     3
 10
95.326207
 20
213.922760
 30
0.0
  0
VERTEX
  8
CSLAYER1
  6
CONTINUOUS
 62
     3
 10
95.317019
 20
213.939600
 30
0.0
  0
VERTEX
  8
CSLAYER1
  6
CONTINUOUS
 62
     3
 10
95.307132
 20
213.954773
 30
0.0
  0
VERTEX
  8
CSLAYER1
  6
CONTINUOUS
 62
     3
 10
95.296621
 20
213.968166
 30
0.0
  0
VERTEX
  8
CSLAYER1
  6
CONTINUOUS
 62
     3
 10
95.285566
 20
213.979675
 30
0.0
  0
VERTEX
  8
CSLAYER1
  6
CONTINUOUS
 62
     3
 10
95.274052
 20
213.989214
 30
0.0
  0
VERTEX
  8
CSLAYER1
  6
CONTINUOUS
 62
     3
 10
95.262166
 20
213.996709
 30
0.0
  0
VERTEX
  8
CSLAYER1
  6
CONTINUOUS
 62
     3
 10
95.249999
 20
214.002104
 30
0.0
  0
VERTEX
  8
CSLAYER1
  6
CONTINUOUS
 62
     3
 10
95.237643
 20
214.005357
 30
0.0
  0
VERTEX
  8
CSLAYER1
  6
CONTINUOUS
 62
     3
 10
95.225192
 20
214.006444
 30
0.0
  0
VERTEX
  8
CSLAYER1
  6
CONTINUOUS
 62
     3
 10
95.212741
 20
214.005357
 30
0.0
  0
VERTEX
  8
CSLAYER1
  6
CONTINUOUS
 62
     3
 10
95.200385
 20
214.002104
 30
0.0
  0
VERTEX
  8
CSLAYER1
  6
CONTINUOUS
 62
     3
 10
95.188218
 20
213.996709
 30
0.0
  0
VERTEX
  8
CSLAYER1
  6
CONTINUOUS
 62
     3
 10
95.176332
 20
213.989213
 30
0.0
  0
VERTEX
  8
CSLAYER1
  6
CONTINUOUS
 62
     3
 10
95.164818
 20
213.979675
 30
0.0
  0
VERTEX
  8
CSLAYER1
  6
CONTINUOUS
 62
     3
 10
95.153764
 20
213.968166
 30
0.0
  0
VERTEX
  8
CSLAYER1
  6
CONTINUOUS
 62
     3
 10
95.143253
 20
213.954773
 30
0.0
  0
VERTEX
  8
CSLAYER1
  6
CONTINUOUS
 62
     3
 10
95.133365
 20
213.939600
 30
0.0
  0
VERTEX
  8
CSLAYER1
  6
CONTINUOUS
 62
     3
 10
95.124353
 20
213.923113
 30
0.0
  0
SEQEND
  0
LINE
  8
CSLAYER1
  6
CONTINUOUS
 62
     3
 10
95.725192
 20
210.435016
 11
95.725192
 21
213.720730
  0
POLYLINE
  8
CSLAYER1
  6
CONTINUOUS
 62
     3
 66
     1
 10
0.0
 20
0.0
 30
0.0
  0
VERTEX
  8
CSLAYER1
  6
CONTINUOUS
 62
     3
 10
95.725192
 20
213.720730
 30
0.0
  0
VERTEX
  8
CSLAYER1
  6
CONTINUOUS
 62
     3
 10
95.724649
 20
213.745632
 30
0.0
  0
VERTEX
  8
CSLAYER1
  6
CONTINUOUS
 62
     3
 10
95.723022
 20
213.770344
 30
0.0
  0
VERTEX
  8
CSLAYER1
  6
CONTINUOUS
 62
     3
 10
95.720324
 20
213.794678
 30
0.0
  0
VERTEX
  8
CSLAYER1
  6
CONTINUOUS
 62
     3
 10
95.716577
 20
213.818450
 30
0.0
  0
VERTEX
  8
CSLAYER1
  6
CONTINUOUS
 62
     3
 10
95.711808
 20
213.841478
 30
0.0
  0
VERTEX
  8
CSLAYER1
  6
CONTINUOUS
 62
     3
 10
95.706053
 20
213.863587
 30
0.0
  0
VERTEX
  8
CSLAYER1
  6
CONTINUOUS
 62
     3
 10
95.699357
 20
213.884609
 30
0.0
  0
VERTEX
  8
CSLAYER1
  6
CONTINUOUS
 62
     3
 10
95.691770
 20
213.904384
 30
0.0
  0
VERTEX
  8
CSLAYER1
  6
CONTINUOUS
 62
     3
 10
95.683350
 20
213.922760
 30
0.0
  0
VERTEX
  8
CSLAYER1
  6
CONTINUOUS
 62
     3
 10
95.674162
 20
213.939600
 30
0.0
  0
VERTEX
  8
CSLAYER1
  6
CONTINUOUS
 62
     3
 10
95.664274
 20
213.954773
 30
0.0
  0
VERTEX
  8
CSLAYER1
  6
CONTINUOUS
 62
     3
 10
95.653764
 20
213.968166
 30
0.0
  0
VERTEX
  8
CSLAYER1
  6
CONTINUOUS
 62
     3
 10
95.642709
 20
213.979675
 30
0.0
  0
VERTEX
  8
CSLAYER1
  6
CONTINUOUS
 62
     3
 10
95.631195
 20
213.989214
 30
0.0
  0
VERTEX
  8
CSLAYER1
  6
CONTINUOUS
 62
     3
 10
95.619309
 20
213.996709
 30
0.0
  0
VERTEX
  8
CSLAYER1
  6
CONTINUOUS
 62
     3
 10
95.607142
 20
214.002104
 30
0.0
  0
VERTEX
  8
CSLAYER1
  6
CONTINUOUS
 62
     3
 10
95.594786
 20
214.005357
 30
0.0
  0
VERTEX
  8
CSLAYER1
  6
CONTINUOUS
 62
     3
 10
95.582335
 20
214.006444
 30
0.0
  0
VERTEX
  8
CSLAYER1
  6
CONTINUOUS
 62
     3
 10
95.569884
 20
214.005357
 30
0.0
  0
VERTEX
  8
CSLAYER1
  6
CONTINUOUS
 62
     3
 10
95.557528
 20
214.002104
 30
0.0
  0
VERTEX
  8
CSLAYER1
  6
CONTINUOUS
 62
     3
 10
95.545361
 20
213.996709
 30
0.0
  0
VERTEX
  8
CSLAYER1
  6
CONTINUOUS
 62
     3
 10
95.533475
 20
213.989213
 30
0.0
  0
VERTEX
  8
CSLAYER1
  6
CONTINUOUS
 62
     3
 10
95.521961
 20
213.979675
 30
0.0
  0
VERTEX
  8
CSLAYER1
  6
CONTINUOUS
 62
     3
 10
95.510906
 20
213.968166
 30
0.0
  0
VERTEX
  8
CSLAYER1
  6
CONTINUOUS
 62
     3
 10
95.500395
 20
213.954773
 30
0.0
  0
VERTEX
  8
CSLAYER1
  6
CONTINUOUS
 62
     3
 10
95.490508
 20
213.939600
 30
0.0
  0
VERTEX
  8
CSLAYER1
  6
CONTINUOUS
 62
     3
 10
95.481496
 20
213.923113
 30
0.0
  0
SEQEND
  0
LINE
  8
CSLAYER1
  6
CONTINUOUS
 62
     3
 10
96.225192
 20
210.435016
 11
96.225192
 21
213.720730
  0
POLYLINE
  8
CSLAYER1
  6
CONTINUOUS
 62
     3
 66
     1
 10
0.0
 20
0.0
 30
0.0
  0
VERTEX
  8
CSLAYER1
  6
CONTINUOUS
 62
     3
 10
96.225192
 20
213.720730
 30
0.0
  0
VERTEX
  8
CSLAYER1
  6
CONTINUOUS
 62
     3
 10
96.224649
 20
213.745632
 30
0.0
  0
VERTEX
  8
CSLAYER1
  6
CONTINUOUS
 62
     3
 10
96.223022
 20
213.770344
 30
0.0
  0
VERTEX
  8
CSLAYER1
  6
CONTINUOUS
 62
     3
 10
96.220324
 20
213.794678
 30
0.0
  0
VERTEX
  8
CSLAYER1
  6
CONTINUOUS
 62
     3
 10
96.216577
 20
213.818450
 30
0.0
  0
VERTEX
  8
CSLAYER1
  6
CONTINUOUS
 62
     3
 10
96.211808
 20
213.841478
 30
0.0
  0
VERTEX
  8
CSLAYER1
  6
CONTINUOUS
 62
     3
 10
96.206053
 20
213.863587
 30
0.0
  0
VERTEX
  8
CSLAYER1
  6
CONTINUOUS
 62
     3
 10
96.199357
 20
213.884609
 30
0.0
  0
VERTEX
  8
CSLAYER1
  6
CONTINUOUS
 62
     3
 10
96.191770
 20
213.904384
 30
0.0
  0
VERTEX
  8
CSLAYER1
  6
CONTINUOUS
 62
     3
 10
96.183350
 20
213.922760
 30
0.0
  0
VERTEX
  8
CSLAYER1
  6
CONTINUOUS
 62
     3
 10
96.174162
 20
213.939600
 30
0.0
  0
VERTEX
  8
CSLAYER1
  6
CONTINUOUS
 62
     3
 10
96.164274
 20
213.954773
 30
0.0
  0
VERTEX
  8
CSLAYER1
  6
CONTINUOUS
 62
     3
 10
96.153764
 20
213.968166
 30
0.0
  0
VERTEX
  8
CSLAYER1
  6
CONTINUOUS
 62
     3
 10
96.142709
 20
213.979675
 30
0.0
  0
VERTEX
  8
CSLAYER1
  6
CONTINUOUS
 62
     3
 10
96.131195
 20
213.989214
 30
0.0
  0
VERTEX
  8
CSLAYER1
  6
CONTINUOUS
 62
     3
 10
96.119309
 20
213.996709
 30
0.0
  0
VERTEX
  8
CSLAYER1
  6
CONTINUOUS
 62
     3
 10
96.107142
 20
214.002104
 30
0.0
  0
VERTEX
  8
CSLAYER1
  6
CONTINUOUS
 62
     3
 10
96.094786
 20
214.005357
 30
0.0
  0
VERTEX
  8
CSLAYER1
  6
CONTINUOUS
 62
     3
 10
96.082335
 20
214.006444
 30
0.0
  0
VERTEX
  8
CSLAYER1
  6
CONTINUOUS
 62
     3
 10
96.069884
 20
214.005357
 30
0.0
  0
VERTEX
  8
CSLAYER1
  6
CONTINUOUS
 62
     3
 10
96.057528
 20
214.002104
 30
0.0
  0
VERTEX
  8
CSLAYER1
  6
CONTINUOUS
 62
     3
 10
96.045361
 20
213.996709
 30
0.0
  0
VERTEX
  8
CSLAYER1
  6
CONTINUOUS
 62
     3
 10
96.033475
 20
213.989213
 30
0.0
  0
VERTEX
  8
CSLAYER1
  6
CONTINUOUS
 62
     3
 10
96.021961
 20
213.979675
 30
0.0
  0
VERTEX
  8
CSLAYER1
  6
CONTINUOUS
 62
     3
 10
96.010906
 20
213.968166
 30
0.0
  0
VERTEX
  8
CSLAYER1
  6
CONTINUOUS
 62
     3
 10
96.000395
 20
213.954773
 30
0.0
  0
VERTEX
  8
CSLAYER1
  6
CONTINUOUS
 62
     3
 10
95.990508
 20
213.939600
 30
0.0
  0
VERTEX
  8
CSLAYER1
  6
CONTINUOUS
 62
     3
 10
95.981496
 20
213.923113
 30
0.0
  0
SEQEND
  0
LINE
  8
CSLAYER1
  6
CONTINUOUS
 62
     3
 10
96.725192
 20
210.435016
 11
96.725192
 21
213.720730
  0
POLYLINE
  8
CSLAYER1
  6
CONTINUOUS
 62
     3
 66
     1
 10
0.0
 20
0.0
 30
0.0
  0
VERTEX
  8
CSLAYER1
  6
CONTINUOUS
 62
     3
 10
96.725192
 20
213.720730
 30
0.0
  0
VERTEX
  8
CSLAYER1
  6
CONTINUOUS
 62
     3
 10
96.724649
 20
213.745632
 30
0.0
  0
VERTEX
  8
CSLAYER1
  6
CONTINUOUS
 62
     3
 10
96.723022
 20
213.770344
 30
0.0
  0
VERTEX
  8
CSLAYER1
  6
CONTINUOUS
 62
     3
 10
96.720324
 20
213.794678
 30
0.0
  0
VERTEX
  8
CSLAYER1
  6
CONTINUOUS
 62
     3
 10
96.716577
 20
213.818450
 30
0.0
  0
VERTEX
  8
CSLAYER1
  6
CONTINUOUS
 62
     3
 10
96.711808
 20
213.841478
 30
0.0
  0
VERTEX
  8
CSLAYER1
  6
CONTINUOUS
 62
     3
 10
96.706053
 20
213.863587
 30
0.0
  0
VERTEX
  8
CSLAYER1
  6
CONTINUOUS
 62
     3
 10
96.699357
 20
213.884609
 30
0.0
  0
VERTEX
  8
CSLAYER1
  6
CONTINUOUS
 62
     3
 10
96.691770
 20
213.904384
 30
0.0
  0
VERTEX
  8
CSLAYER1
  6
CONTINUOUS
 62
     3
 10
96.683350
 20
213.922760
 30
0.0
  0
VERTEX
  8
CSLAYER1
  6
CONTINUOUS
 62
     3
 10
96.674162
 20
213.939600
 30
0.0
  0
VERTEX
  8
CSLAYER1
  6
CONTINUOUS
 62
     3
 10
96.664274
 20
213.954773
 30
0.0
  0
VERTEX
  8
CSLAYER1
  6
CONTINUOUS
 62
     3
 10
96.653764
 20
213.968166
 30
0.0
  0
VERTEX
  8
CSLAYER1
  6
CONTINUOUS
 62
     3
 10
96.642709
 20
213.979675
 30
0.0
  0
VERTEX
  8
CSLAYER1
  6
CONTINUOUS
 62
     3
 10
96.631195
 20
213.989214
 30
0.0
  0
VERTEX
  8
CSLAYER1
  6
CONTINUOUS
 62
     3
 10
96.619309
 20
213.996709
 30
0.0
  0
VERTEX
  8
CSLAYER1
  6
CONTINUOUS
 62
     3
 10
96.607142
 20
214.002104
 30
0.0
  0
VERTEX
  8
CSLAYER1
  6
CONTINUOUS
 62
     3
 10
96.594786
 20
214.005357
 30
0.0
  0
VERTEX
  8
CSLAYER1
  6
CONTINUOUS
 62
     3
 10
96.582335
 20
214.006444
 30
0.0
  0
VERTEX
  8
CSLAYER1
  6
CONTINUOUS
 62
     3
 10
96.569884
 20
214.005357
 30
0.0
  0
VERTEX
  8
CSLAYER1
  6
CONTINUOUS
 62
     3
 10
96.557528
 20
214.002104
 30
0.0
  0
VERTEX
  8
CSLAYER1
  6
CONTINUOUS
 62
     3
 10
96.545361
 20
213.996709
 30
0.0
  0
VERTEX
  8
CSLAYER1
  6
CONTINUOUS
 62
     3
 10
96.533475
 20
213.989213
 30
0.0
  0
VERTEX
  8
CSLAYER1
  6
CONTINUOUS
 62
     3
 10
96.521961
 20
213.979675
 30
0.0
  0
VERTEX
  8
CSLAYER1
  6
CONTINUOUS
 62
     3
 10
96.510906
 20
213.968166
 30
0.0
  0
VERTEX
  8
CSLAYER1
  6
CONTINUOUS
 62
     3
 10
96.500395
 20
213.954773
 30
0.0
  0
VERTEX
  8
CSLAYER1
  6
CONTINUOUS
 62
     3
 10
96.490508
 20
213.939600
 30
0.0
  0
VERTEX
  8
CSLAYER1
  6
CONTINUOUS
 62
     3
 10
96.481496
 20
213.923113
 30
0.0
  0
SEQEND
  0
LINE
  8
CSLAYER1
  6
CONTINUOUS
 62
     3
 10
97.296621
 20
210.435016
 11
97.296621
 21
213.720730
  0
POLYLINE
  8
CSLAYER1
  6
CONTINUOUS
 62
     3
 66
     1
 10
0.0
 20
0.0
 30
0.0
  0
VERTEX
  8
CSLAYER1
  6
CONTINUOUS
 62
     3
 10
97.296621
 20
213.720730
 30
0.0
  0
VERTEX
  8
CSLAYER1
  6
CONTINUOUS
 62
     3
 10
97.296077
 20
213.745632
 30
0.0
  0
VERTEX
  8
CSLAYER1
  6
CONTINUOUS
 62
     3
 10
97.294450
 20
213.770344
 30
0.0
  0
VERTEX
  8
CSLAYER1
  6
CONTINUOUS
 62
     3
 10
97.291753
 20
213.794678
 30
0.0
  0
VERTEX
  8
CSLAYER1
  6
CONTINUOUS
 62
     3
 10
97.288005
 20
213.818450
 30
0.0
  0
VERTEX
  8
CSLAYER1
  6
CONTINUOUS
 62
     3
 10
97.283236
 20
213.841478
 30
0.0
  0
VERTEX
  8
CSLAYER1
  6
CONTINUOUS
 62
     3
 10
97.277481
 20
213.863587
 30
0.0
  0
VERTEX
  8
CSLAYER1
  6
CONTINUOUS
 62
     3
 10
97.270785
 20
213.884609
 30
0.0
  0
VERTEX
  8
CSLAYER1
  6
CONTINUOUS
 62
     3
 10
97.263198
 20
213.904384
 30
0.0
  0
VERTEX
  8
CSLAYER1
  6
CONTINUOUS
 62
     3
 10
97.254779
 20
213.922760
 30
0.0
  0
VERTEX
  8
CSLAYER1
  6
CONTINUOUS
 62
     3
 10
97.245590
 20
213.939600
 30
0.0
  0
VERTEX
  8
CSLAYER1
  6
CONTINUOUS
 62
     3
 10
97.235703
 20
213.954773
 30
0.0
  0
VERTEX
  8
CSLAYER1
  6
CONTINUOUS
 62
     3
 10
97.225192
 20
213.968166
 30
0.0
  0
VERTEX
  8
CSLAYER1
  6
CONTINUOUS
 62
     3
 10
97.214138
 20
213.979675
 30
0.0
  0
VERTEX
  8
CSLAYER1
  6
CONTINUOUS
 62
     3
 10
97.202624
 20
213.989214
 30
0.0
  0
VERTEX
  8
CSLAYER1
  6
CONTINUOUS
 62
     3
 10
97.190738
 20
213.996709
 30
0.0
  0
VERTEX
  8
CSLAYER1
  6
CONTINUOUS
 62
     3
 10
97.178570
 20
214.002104
 30
0.0
  0
VERTEX
  8
CSLAYER1
  6
CONTINUOUS
 62
     3
 10
97.166214
 20
214.005357
 30
0.0
  0
VERTEX
  8
CSLAYER1
  6
CONTINUOUS
 62
     3
 10
97.153764
 20
214.006444
 30
0.0
  0
VERTEX
  8
CSLAYER1
  6
CONTINUOUS
 62
     3
 10
97.141313
 20
214.005357
 30
0.0
  0
VERTEX
  8
CSLAYER1
  6
CONTINUOUS
 62
     3
 10
97.128957
 20
214.002104
 30
0.0
  0
VERTEX
  8
CSLAYER1
  6
CONTINUOUS
 62
     3
 10
97.116789
 20
213.996709
 30
0.0
  0
VERTEX
  8
CSLAYER1
  6
CONTINUOUS
 62
     3
 10
97.104904
 20
213.989213
 30
0.0
  0
VERTEX
  8
CSLAYER1
  6
CONTINUOUS
 62
     3
 10
97.093390
 20
213.979675
 30
0.0
  0
VERTEX
  8
CSLAYER1
  6
CONTINUOUS
 62
     3
 10
97.082335
 20
213.968166
 30
0.0
  0
VERTEX
  8
CSLAYER1
  6
CONTINUOUS
 62
     3
 10
97.071824
 20
213.954773
 30
0.0
  0
VERTEX
  8
CSLAYER1
  6
CONTINUOUS
 62
     3
 10
97.061937
 20
213.939600
 30
0.0
  0
VERTEX
  8
CSLAYER1
  6
CONTINUOUS
 62
     3
 10
97.052925
 20
213.923113
 30
0.0
  0
SEQEND
  0
LINE
  8
CSLAYER1
  6
CONTINUOUS
 62
     3
 10
97.868049
 20
210.435016
 11
97.868049
 21
213.720730
  0
POLYLINE
  8
CSLAYER1
  6
CONTINUOUS
 62
     3
 66
     1
 10
0.0
 20
0.0
 30
0.0
  0
VERTEX
  8
CSLAYER1
  6
CONTINUOUS
 62
     3
 10
97.868049
 20
213.720730
 30
0.0
  0
VERTEX
  8
CSLAYER1
  6
CONTINUOUS
 62
     3
 10
97.867506
 20
213.745632
 30
0.0
  0
VERTEX
  8
CSLAYER1
  6
CONTINUOUS
 62
     3
 10
97.865879
 20
213.770344
 30
0.0
  0
VERTEX
  8
CSLAYER1
  6
CONTINUOUS
 62
     3
 10
97.863182
 20
213.794678
 30
0.0
  0
VERTEX
  8
CSLAYER1
  6
CONTINUOUS
 62
     3
 10
97.859434
 20
213.818450
 30
0.0
  0
VERTEX
  8
CSLAYER1
  6
CONTINUOUS
 62
     3
 10
97.854665
 20
213.841478
 30
0.0
  0
VERTEX
  8
CSLAYER1
  6
CONTINUOUS
 62
     3
 10
97.848910
 20
213.863587
 30
0.0
  0
VERTEX
  8
CSLAYER1
  6
CONTINUOUS
 62
     3
 10
97.842214
 20
213.884609
 30
0.0
  0
VERTEX
  8
CSLAYER1
  6
CONTINUOUS
 62
     3
 10
97.834627
 20
213.904384
 30
0.0
  0
VERTEX
  8
CSLAYER1
  6
CONTINUOUS
 62
     3
 10
97.826207
 20
213.922760
 30
0.0
  0
VERTEX
  8
CSLAYER1
  6
CONTINUOUS
 62
     3
 10
97.817019
 20
213.939600
 30
0.0
  0
VERTEX
  8
CSLAYER1
  6
CONTINUOUS
 62
     3
 10
97.807132
 20
213.954773
 30
0.0
  0
VERTEX
  8
CSLAYER1
  6
CONTINUOUS
 62
     3
 10
97.796621
 20
213.968166
 30
0.0
  0
VERTEX
  8
CSLAYER1
  6
CONTINUOUS
 62
     3
 10
97.785566
 20
213.979675
 30
0.0
  0
VERTEX
  8
CSLAYER1
  6
CONTINUOUS
 62
     3
 10
97.774052
 20
213.989214
 30
0.0
  0
VERTEX
  8
CSLAYER1
  6
CONTINUOUS
 62
     3
 10
97.762166
 20
213.996709
 30
0.0
  0
VERTEX
  8
CSLAYER1
  6
CONTINUOUS
 62
     3
 10
97.749999
 20
214.002104
 30
0.0
  0
VERTEX
  8
CSLAYER1
  6
CONTINUOUS
 62
     3
 10
97.737643
 20
214.005357
 30
0.0
  0
VERTEX
  8
CSLAYER1
  6
CONTINUOUS
 62
     3
 10
97.725192
 20
214.006444
 30
0.0
  0
VERTEX
  8
CSLAYER1
  6
CONTINUOUS
 62
     3
 10
97.712741
 20
214.005357
 30
0.0
  0
VERTEX
  8
CSLAYER1
  6
CONTINUOUS
 62
     3
 10
97.700385
 20
214.002104
 30
0.0
  0
VERTEX
  8
CSLAYER1
  6
CONTINUOUS
 62
     3
 10
97.688218
 20
213.996709
 30
0.0
  0
VERTEX
  8
CSLAYER1
  6
CONTINUOUS
 62
     3
 10
97.676332
 20
213.989213
 30
0.0
  0
VERTEX
  8
CSLAYER1
  6
CONTINUOUS
 62
     3
 10
97.664818
 20
213.979675
 30
0.0
  0
VERTEX
  8
CSLAYER1
  6
CONTINUOUS
 62
     3
 10
97.653764
 20
213.968166
 30
0.0
  0
VERTEX
  8
CSLAYER1
  6
CONTINUOUS
 62
     3
 10
97.643253
 20
213.954773
 30
0.0
  0
VERTEX
  8
CSLAYER1
  6
CONTINUOUS
 62
     3
 10
97.633365
 20
213.939600
 30
0.0
  0
VERTEX
  8
CSLAYER1
  6
CONTINUOUS
 62
     3
 10
97.624353
 20
213.923113
 30
0.0
  0
SEQEND
  0
LINE
  8
CSLAYER1
  6
CONTINUOUS
 62
     3
 10
98.653764
 20
210.435016
 11
98.653764
 21
213.720730
  0
POLYLINE
  8
CSLAYER1
  6
CONTINUOUS
 62
     3
 66
     1
 10
0.0
 20
0.0
 30
0.0
  0
VERTEX
  8
CSLAYER1
  6
CONTINUOUS
 62
     3
 10
98.653764
 20
213.720730
 30
0.0
  0
VERTEX
  8
CSLAYER1
  6
CONTINUOUS
 62
     3
 10
98.653220
 20
213.745632
 30
0.0
  0
VERTEX
  8
CSLAYER1
  6
CONTINUOUS
 62
     3
 10
98.651593
 20
213.770344
 30
0.0
  0
VERTEX
  8
CSLAYER1
  6
CONTINUOUS
 62
     3
 10
98.648896
 20
213.794678
 30
0.0
  0
VERTEX
  8
CSLAYER1
  6
CONTINUOUS
 62
     3
 10
98.645148
 20
213.818450
 30
0.0
  0
VERTEX
  8
CSLAYER1
  6
CONTINUOUS
 62
     3
 10
98.640379
 20
213.841478
 30
0.0
  0
VERTEX
  8
CSLAYER1
  6
CONTINUOUS
 62
     3
 10
98.634624
 20
213.863587
 30
0.0
  0
VERTEX
  8
CSLAYER1
  6
CONTINUOUS
 62
     3
 10
98.627928
 20
213.884609
 30
0.0
  0
VERTEX
  8
CSLAYER1
  6
CONTINUOUS
 62
     3
 10
98.620341
 20
213.904384
 30
0.0
  0
VERTEX
  8
CSLAYER1
  6
CONTINUOUS
 62
     3
 10
98.611922
 20
213.922760
 30
0.0
  0
VERTEX
  8
CSLAYER1
  6
CONTINUOUS
 62
     3
 10
98.602733
 20
213.939600
 30
0.0
  0
VERTEX
  8
CSLAYER1
  6
CONTINUOUS
 62
     3
 10
98.592846
 20
213.954773
 30
0.0
  0
VERTEX
  8
CSLAYER1
  6
CONTINUOUS
 62
     3
 10
98.582335
 20
213.968166
 30
0.0
  0
VERTEX
  8
CSLAYER1
  6
CONTINUOUS
 62
     3
 10
98.571280
 20
213.979675
 30
0.0
  0
VERTEX
  8
CSLAYER1
  6
CONTINUOUS
 62
     3
 10
98.559766
 20
213.989214
 30
0.0
  0
VERTEX
  8
CSLAYER1
  6
CONTINUOUS
 62
     3
 10
98.547881
 20
213.996709
 30
0.0
  0
VERTEX
  8
CSLAYER1
  6
CONTINUOUS
 62
     3
 10
98.535713
 20
214.002104
 30
0.0
  0
VERTEX
  8
CSLAYER1
  6
CONTINUOUS
 62
     3
 10
98.523357
 20
214.005357
 30
0.0
  0
VERTEX
  8
CSLAYER1
  6
CONTINUOUS
 62
     3
 10
98.510906
 20
214.006444
 30
0.0
  0
VERTEX
  8
CSLAYER1
  6
CONTINUOUS
 62
     3
 10
98.498456
 20
214.005357
 30
0.0
  0
VERTEX
  8
CSLAYER1
  6
CONTINUOUS
 62
     3
 10
98.486100
 20
214.002104
 30
0.0
  0
VERTEX
  8
CSLAYER1
  6
CONTINUOUS
 62
     3
 10
98.473932
 20
213.996709
 30
0.0
  0
VERTEX
  8
CSLAYER1
  6
CONTINUOUS
 62
     3
 10
98.462046
 20
213.989213
 30
0.0
  0
VERTEX
  8
CSLAYER1
  6
CONTINUOUS
 62
     3
 10
98.450532
 20
213.979675
 30
0.0
  0
VERTEX
  8
CSLAYER1
  6
CONTINUOUS
 62
     3
 10
98.439478
 20
213.968166
 30
0.0
  0
VERTEX
  8
CSLAYER1
  6
CONTINUOUS
 62
     3
 10
98.428967
 20
213.954773
 30
0.0
  0
VERTEX
  8
CSLAYER1
  6
CONTINUOUS
 62
     3
 10
98.419080
 20
213.939600
 30
0.0
  0
VERTEX
  8
CSLAYER1
  6
CONTINUOUS
 62
     3
 10
98.410068
 20
213.923113
 30
0.0
  0
SEQEND
  0
LINE
  8
CSLAYER1
  6
CONTINUOUS
 62
     3
 10
98.439478
 20
210.435016
 11
98.439478
 21
213.720730
  0
POLYLINE
  8
CSLAYER1
  6
CONTINUOUS
 62
     3
 66
     1
 10
0.0
 20
0.0
 30
0.0
  0
VERTEX
  8
CSLAYER1
  6
CONTINUOUS
 62
     3
 10
98.439478
 20
213.720730
 30
0.0
  0
VERTEX
  8
CSLAYER1
  6
CONTINUOUS
 62
     3
 10
98.438934
 20
213.745632
 30
0.0
  0
VERTEX
  8
CSLAYER1
  6
CONTINUOUS
 62
     3
 10
98.437308
 20
213.770344
 30
0.0
  0
VERTEX
  8
CSLAYER1
  6
CONTINUOUS
 62
     3
 10
98.434610
 20
213.794678
 30
0.0
  0
VERTEX
  8
CSLAYER1
  6
CONTINUOUS
 62
     3
 10
98.430863
 20
213.818450
 30
0.0
  0
VERTEX
  8
CSLAYER1
  6
CONTINUOUS
 62
     3
 10
98.426093
 20
213.841478
 30
0.0
  0
VERTEX
  8
CSLAYER1
  6
CONTINUOUS
 62
     3
 10
98.420339
 20
213.863587
 30
0.0
  0
VERTEX
  8
CSLAYER1
  6
CONTINUOUS
 62
     3
 10
98.413642
 20
213.884609
 30
0.0
  0
VERTEX
  8
CSLAYER1
  6
CONTINUOUS
 62
     3
 10
98.406056
 20
213.904384
 30
0.0
  0
VERTEX
  8
CSLAYER1
  6
CONTINUOUS
 62
     3
 10
98.397636
 20
213.922760
 30
0.0
  0
VERTEX
  8
CSLAYER1
  6
CONTINUOUS
 62
     3
 10
98.388447
 20
213.939600
 30
0.0
  0
VERTEX
  8
CSLAYER1
  6
CONTINUOUS
 62
     3
 10
98.378560
 20
213.954773
 30
0.0
  0
VERTEX
  8
CSLAYER1
  6
CONTINUOUS
 62
     3
 10
98.368049
 20
213.968166
 30
0.0
  0
VERTEX
  8
CSLAYER1
  6
CONTINUOUS
 62
     3
 10
98.356995
 20
213.979675
 30
0.0
  0
VERTEX
  8
CSLAYER1
  6
CONTINUOUS
 62
     3
 10
98.345481
 20
213.989214
 30
0.0
  0
VERTEX
  8
CSLAYER1
  6
CONTINUOUS
 62
     3
 10
98.333595
 20
213.996709
 30
0.0
  0
VERTEX
  8
CSLAYER1
  6
CONTINUOUS
 62
     3
 10
98.321428
 20
214.002104
 30
0.0
  0
VERTEX
  8
CSLAYER1
  6
CONTINUOUS
 62
     3
 10
98.309071
 20
214.005357
 30
0.0
  0
VERTEX
  8
CSLAYER1
  6
CONTINUOUS
 62
     3
 10
98.296621
 20
214.006444
 30
0.0
  0
VERTEX
  8
CSLAYER1
  6
CONTINUOUS
 62
     3
 10
98.284170
 20
214.005357
 30
0.0
  0
VERTEX
  8
CSLAYER1
  6
CONTINUOUS
 62
     3
 10
98.271814
 20
214.002104
 30
0.0
  0
VERTEX
  8
CSLAYER1
  6
CONTINUOUS
 62
     3
 10
98.259647
 20
213.996709
 30
0.0
  0
VERTEX
  8
CSLAYER1
  6
CONTINUOUS
 62
     3
 10
98.247761
 20
213.989213
 30
0.0
  0
VERTEX
  8
CSLAYER1
  6
CONTINUOUS
 62
     3
 10
98.236247
 20
213.979675
 30
0.0
  0
VERTEX
  8
CSLAYER1
  6
CONTINUOUS
 62
     3
 10
98.225192
 20
213.968166
 30
0.0
  0
VERTEX
  8
CSLAYER1
  6
CONTINUOUS
 62
     3
 10
98.214681
 20
213.954773
 30
0.0
  0
VERTEX
  8
CSLAYER1
  6
CONTINUOUS
 62
     3
 10
98.204794
 20
213.939600
 30
0.0
  0
VERTEX
  8
CSLAYER1
  6
CONTINUOUS
 62
     3
 10
98.195782
 20
213.923113
 30
0.0
  0
SEQEND
  0
LINE
  8
CSLAYER1
  6
CONTINUOUS
 62
     3
 10
98.225192
 20
210.435016
 11
98.225192
 21
213.720730
  0
POLYLINE
  8
CSLAYER1
  6
CONTINUOUS
 62
     3
 66
     1
 10
0.0
 20
0.0
 30
0.0
  0
VERTEX
  8
CSLAYER1
  6
CONTINUOUS
 62
     3
 10
98.225192
 20
213.720730
 30
0.0
  0
VERTEX
  8
CSLAYER1
  6
CONTINUOUS
 62
     3
 10
98.224649
 20
213.745632
 30
0.0
  0
VERTEX
  8
CSLAYER1
  6
CONTINUOUS
 62
     3
 10
98.223022
 20
213.770344
 30
0.0
  0
VERTEX
  8
CSLAYER1
  6
CONTINUOUS
 62
     3
 10
98.220324
 20
213.794678
 30
0.0
  0
VERTEX
  8
CSLAYER1
  6
CONTINUOUS
 62
     3
 10
98.216577
 20
213.818450
 30
0.0
  0
VERTEX
  8
CSLAYER1
  6
CONTINUOUS
 62
     3
 10
98.211808
 20
213.841478
 30
0.0
  0
VERTEX
  8
CSLAYER1
  6
CONTINUOUS
 62
     3
 10
98.206053
 20
213.863587
 30
0.0
  0
VERTEX
  8
CSLAYER1
  6
CONTINUOUS
 62
     3
 10
98.199357
 20
213.884609
 30
0.0
  0
VERTEX
  8
CSLAYER1
  6
CONTINUOUS
 62
     3
 10
98.191770
 20
213.904384
 30
0.0
  0
VERTEX
  8
CSLAYER1
  6
CONTINUOUS
 62
     3
 10
98.183350
 20
213.922760
 30
0.0
  0
VERTEX
  8
CSLAYER1
  6
CONTINUOUS
 62
     3
 10
98.174162
 20
213.939600
 30
0.0
  0
VERTEX
  8
CSLAYER1
  6
CONTINUOUS
 62
     3
 10
98.164274
 20
213.954773
 30
0.0
  0
VERTEX
  8
CSLAYER1
  6
CONTINUOUS
 62
     3
 10
98.153764
 20
213.968166
 30
0.0
  0
VERTEX
  8
CSLAYER1
  6
CONTINUOUS
 62
     3
 10
98.142709
 20
213.979675
 30
0.0
  0
VERTEX
  8
CSLAYER1
  6
CONTINUOUS
 62
     3
 10
98.131195
 20
213.989214
 30
0.0
  0
VERTEX
  8
CSLAYER1
  6
CONTINUOUS
 62
     3
 10
98.119309
 20
213.996709
 30
0.0
  0
VERTEX
  8
CSLAYER1
  6
CONTINUOUS
 62
     3
 10
98.107142
 20
214.002104
 30
0.0
  0
VERTEX
  8
CSLAYER1
  6
CONTINUOUS
 62
     3
 10
98.094786
 20
214.005357
 30
0.0
  0
VERTEX
  8
CSLAYER1
  6
CONTINUOUS
 62
     3
 10
98.082335
 20
214.006444
 30
0.0
  0
VERTEX
  8
CSLAYER1
  6
CONTINUOUS
 62
     3
 10
98.069884
 20
214.005357
 30
0.0
  0
VERTEX
  8
CSLAYER1
  6
CONTINUOUS
 62
     3
 10
98.057528
 20
214.002104
 30
0.0
  0
VERTEX
  8
CSLAYER1
  6
CONTINUOUS
 62
     3
 10
98.045361
 20
213.996709
 30
0.0
  0
VERTEX
  8
CSLAYER1
  6
CONTINUOUS
 62
     3
 10
98.033475
 20
213.989213
 30
0.0
  0
VERTEX
  8
CSLAYER1
  6
CONTINUOUS
 62
     3
 10
98.021961
 20
213.979675
 30
0.0
  0
VERTEX
  8
CSLAYER1
  6
CONTINUOUS
 62
     3
 10
98.010906
 20
213.968166
 30
0.0
  0
VERTEX
  8
CSLAYER1
  6
CONTINUOUS
 62
     3
 10
98.000395
 20
213.954773
 30
0.0
  0
VERTEX
  8
CSLAYER1
  6
CONTINUOUS
 62
     3
 10
97.990508
 20
213.939600
 30
0.0
  0
VERTEX
  8
CSLAYER1
  6
CONTINUOUS
 62
     3
 10
97.981496
 20
213.923113
 30
0.0
  0
SEQEND
  0
LINE
  8
CSLAYER1
  6
CONTINUOUS
 62
     3
 10
94.296621
 20
210.435016
 11
94.296621
 21
213.720730
  0
POLYLINE
  8
CSLAYER1
  6
CONTINUOUS
 62
     3
 66
     1
 10
0.0
 20
0.0
 30
0.0
  0
VERTEX
  8
CSLAYER1
  6
CONTINUOUS
 62
     3
 10
94.475192
 20
213.997372
 30
0.0
  0
VERTEX
  8
CSLAYER1
  6
CONTINUOUS
 62
     3
 10
94.463001
 20
214.002544
 30
0.0
  0
VERTEX
  8
CSLAYER1
  6
CONTINUOUS
 62
     3
 10
94.450630
 20
214.005572
 30
0.0
  0
VERTEX
  8
CSLAYER1
  6
CONTINUOUS
 62
     3
 10
94.438175
 20
214.006432
 30
0.0
  0
VERTEX
  8
CSLAYER1
  6
CONTINUOUS
 62
     3
 10
94.425730
 20
214.005118
 30
0.0
  0
VERTEX
  8
CSLAYER1
  6
CONTINUOUS
 62
     3
 10
94.413389
 20
214.001639
 30
0.0
  0
VERTEX
  8
CSLAYER1
  6
CONTINUOUS
 62
     3
 10
94.401247
 20
213.996023
 30
0.0
  0
VERTEX
  8
CSLAYER1
  6
CONTINUOUS
 62
     3
 10
94.389396
 20
213.988311
 30
0.0
  0
VERTEX
  8
CSLAYER1
  6
CONTINUOUS
 62
     3
 10
94.377926
 20
213.978563
 30
0.0
  0
VERTEX
  8
CSLAYER1
  6
CONTINUOUS
 62
     3
 10
94.366924
 20
213.966853
 30
0.0
  0
VERTEX
  8
CSLAYER1
  6
CONTINUOUS
 62
     3
 10
94.356475
 20
213.953269
 30
0.0
  0
VERTEX
  8
CSLAYER1
  6
CONTINUOUS
 62
     3
 10
94.346657
 20
213.937916
 30
0.0
  0
VERTEX
  8
CSLAYER1
  6
CONTINUOUS
 62
     3
 10
94.337546
 20
213.920910
 30
0.0
  0
VERTEX
  8
CSLAYER1
  6
CONTINUOUS
 62
     3
 10
94.329210
 20
213.902380
 30
0.0
  0
VERTEX
  8
CSLAYER1
  6
CONTINUOUS
 62
     3
 10
94.321714
 20
213.882468
 30
0.0
  0
VERTEX
  8
CSLAYER1
  6
CONTINUOUS
 62
     3
 10
94.315114
 20
213.861325
 30
0.0
  0
VERTEX
  8
CSLAYER1
  6
CONTINUOUS
 62
     3
 10
94.309460
 20
213.839112
 30
0.0
  0
VERTEX
  8
CSLAYER1
  6
CONTINUOUS
 62
     3
 10
94.304796
 20
213.815998
 30
0.0
  0
VERTEX
  8
CSLAYER1
  6
CONTINUOUS
 62
     3
 10
94.301157
 20
213.792158
 30
0.0
  0
VERTEX
  8
CSLAYER1
  6
CONTINUOUS
 62
     3
 10
94.298571
 20
213.767776
 30
0.0
  0
VERTEX
  8
CSLAYER1
  6
CONTINUOUS
 62
     3
 10
94.297057
 20
213.743035
 30
0.0
  0
VERTEX
  8
CSLAYER1
  6
CONTINUOUS
 62
     3
 10
94.296621
 20
213.720730
 30
0.0
  0
SEQEND
  0
POLYLINE
  8
CSLAYER1
  6
CONTINUOUS
 62
     3
 66
     1
 10
0.0
 20
0.0
 30
0.0
  0
VERTEX
  8
CSLAYER1
  6
CONTINUOUS
 62
     3
 10
94.296621
 20
210.435015
 30
0.0
  0
VERTEX
  8
CSLAYER1
  6
CONTINUOUS
 62
     3
 10
94.297164
 20
210.410114
 30
0.0
  0
VERTEX
  8
CSLAYER1
  6
CONTINUOUS
 62
     3
 10
94.298791
 20
210.385402
 30
0.0
  0
VERTEX
  8
CSLAYER1
  6
CONTINUOUS
 62
     3
 10
94.301488
 20
210.361067
 30
0.0
  0
VERTEX
  8
CSLAYER1
  6
CONTINUOUS
 62
     3
 10
94.305236
 20
210.337295
 30
0.0
  0
VERTEX
  8
CSLAYER1
  6
CONTINUOUS
 62
     3
 10
94.310005
 20
210.314267
 30
0.0
  0
VERTEX
  8
CSLAYER1
  6
CONTINUOUS
 62
     3
 10
94.315760
 20
210.292158
 30
0.0
  0
VERTEX
  8
CSLAYER1
  6
CONTINUOUS
 62
     3
 10
94.322456
 20
210.271137
 30
0.0
  0
VERTEX
  8
CSLAYER1
  6
CONTINUOUS
 62
     3
 10
94.330043
 20
210.251362
 30
0.0
  0
VERTEX
  8
CSLAYER1
  6
CONTINUOUS
 62
     3
 10
94.338463
 20
210.232985
 30
0.0
  0
VERTEX
  8
CSLAYER1
  6
CONTINUOUS
 62
     3
 10
94.347651
 20
210.216146
 30
0.0
  0
VERTEX
  8
CSLAYER1
  6
CONTINUOUS
 62
     3
 10
94.357538
 20
210.200972
 30
0.0
  0
VERTEX
  8
CSLAYER1
  6
CONTINUOUS
 62
     3
 10
94.368049
 20
210.187580
 30
0.0
  0
VERTEX
  8
CSLAYER1
  6
CONTINUOUS
 62
     3
 10
94.379104
 20
210.176070
 30
0.0
  0
VERTEX
  8
CSLAYER1
  6
CONTINUOUS
 62
     3
 10
94.390618
 20
210.166532
 30
0.0
  0
VERTEX
  8
CSLAYER1
  6
CONTINUOUS
 62
     3
 10
94.402504
 20
210.159037
 30
0.0
  0
VERTEX
  8
CSLAYER1
  6
CONTINUOUS
 62
     3
 10
94.414671
 20
210.153642
 30
0.0
  0
VERTEX
  8
CSLAYER1
  6
CONTINUOUS
 62
     3
 10
94.427027
 20
210.150389
 30
0.0
  0
VERTEX
  8
CSLAYER1
  6
CONTINUOUS
 62
     3
 10
94.439478
 20
210.149301
 30
0.0
  0
SEQEND
  0
LINE
  8
CSLAYER1
  6
CONTINUOUS
 62
     3
 10
93.939478
 20
210.435016
 11
93.939478
 21
213.720730
  0
POLYLINE
  8
CSLAYER1
  6
CONTINUOUS
 62
     3
 66
     1
 10
0.0
 20
0.0
 30
0.0
  0
VERTEX
  8
CSLAYER1
  6
CONTINUOUS
 62
     3
 10
94.183174
 20
213.923113
 30
0.0
  0
VERTEX
  8
CSLAYER1
  6
CONTINUOUS
 62
     3
 10
94.173971
 20
213.939920
 30
0.0
  0
VERTEX
  8
CSLAYER1
  6
CONTINUOUS
 62
     3
 10
94.164070
 20
213.955059
 30
0.0
  0
VERTEX
  8
CSLAYER1
  6
CONTINUOUS
 62
     3
 10
94.153548
 20
213.968415
 30
0.0
  0
VERTEX
  8
CSLAYER1
  6
CONTINUOUS
 62
     3
 10
94.142483
 20
213.979885
 30
0.0
  0
VERTEX
  8
CSLAYER1
  6
CONTINUOUS
 62
     3
 10
94.130961
 20
213.989384
 30
0.0
  0
VERTEX
  8
CSLAYER1
  6
CONTINUOUS
 62
     3
 10
94.119068
 20
213.996837
 30
0.0
  0
VERTEX
  8
CSLAYER1
  6
CONTINUOUS
 62
     3
 10
94.106896
 20
214.002190
 30
0.0
  0
VERTEX
  8
CSLAYER1
  6
CONTINUOUS
 62
     3
 10
94.094537
 20
214.005400
 30
0.0
  0
VERTEX
  8
CSLAYER1
  6
CONTINUOUS
 62
     3
 10
94.082086
 20
214.006444
 30
0.0
  0
VERTEX
  8
CSLAYER1
  6
CONTINUOUS
 62
     3
 10
94.069636
 20
214.005313
 30
0.0
  0
VERTEX
  8
CSLAYER1
  6
CONTINUOUS
 62
     3
 10
94.057283
 20
214.002017
 30
0.0
  0
VERTEX
  8
CSLAYER1
  6
CONTINUOUS
 62
     3
 10
94.045120
 20
213.996579
 30
0.0
  0
VERTEX
  8
CSLAYER1
  6
CONTINUOUS
 62
     3
 10
94.033241
 20
213.989043
 30
0.0
  0
VERTEX
  8
CSLAYER1
  6
CONTINUOUS
 62
     3
 10
94.021735
 20
213.979464
 30
0.0
  0
VERTEX
  8
CSLAYER1
  6
CONTINUOUS
 62
     3
 10
94.010691
 20
213.967916
 30
0.0
  0
VERTEX
  8
CSLAYER1
  6
CONTINUOUS
 62
     3
 10
94.000191
 20
213.954487
 30
0.0
  0
VERTEX
  8
CSLAYER1
  6
CONTINUOUS
 62
     3
 10
93.990317
 20
213.939279
 30
0.0
  0
VERTEX
  8
CSLAYER1
  6
CONTINUOUS
 62
     3
 10
93.981144
 20
213.922408
 30
0.0
  0
VERTEX
  8
CSLAYER1
  6
CONTINUOUS
 62
     3
 10
93.972740
 20
213.904001
 30
0.0
  0
VERTEX
  8
CSLAYER1
  6
CONTINUOUS
 62
     3
 10
93.965170
 20
213.884200
 30
0.0
  0
VERTEX
  8
CSLAYER1
  6
CONTINUOUS
 62
     3
 10
93.958493
 20
213.863155
 30
0.0
  0
VERTEX
  8
CSLAYER1
  6
CONTINUOUS
 62
     3
 10
93.952757
 20
213.841026
 30
0.0
  0
VERTEX
  8
CSLAYER1
  6
CONTINUOUS
 62
     3
 10
93.948008
 20
213.817981
 30
0.0
  0
VERTEX
  8
CSLAYER1
  6
CONTINUOUS
 62
     3
 10
93.944281
 20
213.794196
 30
0.0
  0
VERTEX
  8
CSLAYER1
  6
CONTINUOUS
 62
     3
 10
93.941605
 20
213.769853
 30
0.0
  0
VERTEX
  8
CSLAYER1
  6
CONTINUOUS
 62
     3
 10
93.940000
 20
213.745135
 30
0.0
  0
VERTEX
  8
CSLAYER1
  6
CONTINUOUS
 62
     3
 10
93.939478
 20
213.720730
 30
0.0
  0
SEQEND
  0
LINE
  8
CSLAYER1
  6
CONTINUOUS
 62
     3
 10
93.582335
 20
210.435016
 11
93.582335
 21
213.720730
  0
POLYLINE
  8
CSLAYER1
  6
CONTINUOUS
 62
     3
 66
     1
 10
0.0
 20
0.0
 30
0.0
  0
VERTEX
  8
CSLAYER1
  6
CONTINUOUS
 62
     3
 10
93.826031
 20
213.923113
 30
0.0
  0
VERTEX
  8
CSLAYER1
  6
CONTINUOUS
 62
     3
 10
93.816828
 20
213.939920
 30
0.0
  0
VERTEX
  8
CSLAYER1
  6
CONTINUOUS
 62
     3
 10
93.806927
 20
213.955059
 30
0.0
  0
VERTEX
  8
CSLAYER1
  6
CONTINUOUS
 62
     3
 10
93.796405
 20
213.968415
 30
0.0
  0
VERTEX
  8
CSLAYER1
  6
CONTINUOUS
 62
     3
 10
93.785340
 20
213.979885
 30
0.0
  0
VERTEX
  8
CSLAYER1
  6
CONTINUOUS
 62
     3
 10
93.773818
 20
213.989384
 30
0.0
  0
VERTEX
  8
CSLAYER1
  6
CONTINUOUS
 62
     3
 10
93.761925
 20
213.996837
 30
0.0
  0
VERTEX
  8
CSLAYER1
  6
CONTINUOUS
 62
     3
 10
93.749754
 20
214.002190
 30
0.0
  0
VERTEX
  8
CSLAYER1
  6
CONTINUOUS
 62
     3
 10
93.737395
 20
214.005400
 30
0.0
  0
VERTEX
  8
CSLAYER1
  6
CONTINUOUS
 62
     3
 10
93.724943
 20
214.006444
 30
0.0
  0
VERTEX
  8
CSLAYER1
  6
CONTINUOUS
 62
     3
 10
93.712493
 20
214.005313
 30
0.0
  0
VERTEX
  8
CSLAYER1
  6
CONTINUOUS
 62
     3
 10
93.700140
 20
214.002017
 30
0.0
  0
VERTEX
  8
CSLAYER1
  6
CONTINUOUS
 62
     3
 10
93.687977
 20
213.996579
 30
0.0
  0
VERTEX
  8
CSLAYER1
  6
CONTINUOUS
 62
     3
 10
93.676098
 20
213.989043
 30
0.0
  0
VERTEX
  8
CSLAYER1
  6
CONTINUOUS
 62
     3
 10
93.664592
 20
213.979464
 30
0.0
  0
VERTEX
  8
CSLAYER1
  6
CONTINUOUS
 62
     3
 10
93.653548
 20
213.967916
 30
0.0
  0
VERTEX
  8
CSLAYER1
  6
CONTINUOUS
 62
     3
 10
93.643049
 20
213.954487
 30
0.0
  0
VERTEX
  8
CSLAYER1
  6
CONTINUOUS
 62
     3
 10
93.633175
 20
213.939279
 30
0.0
  0
VERTEX
  8
CSLAYER1
  6
CONTINUOUS
 62
     3
 10
93.624001
 20
213.922408
 30
0.0
  0
VERTEX
  8
CSLAYER1
  6
CONTINUOUS
 62
     3
 10
93.615597
 20
213.904001
 30
0.0
  0
VERTEX
  8
CSLAYER1
  6
CONTINUOUS
 62
     3
 10
93.608028
 20
213.884200
 30
0.0
  0
VERTEX
  8
CSLAYER1
  6
CONTINUOUS
 62
     3
 10
93.601350
 20
213.863155
 30
0.0
  0
VERTEX
  8
CSLAYER1
  6
CONTINUOUS
 62
     3
 10
93.595614
 20
213.841026
 30
0.0
  0
VERTEX
  8
CSLAYER1
  6
CONTINUOUS
 62
     3
 10
93.590865
 20
213.817981
 30
0.0
  0
VERTEX
  8
CSLAYER1
  6
CONTINUOUS
 62
     3
 10
93.587138
 20
213.794196
 30
0.0
  0
VERTEX
  8
CSLAYER1
  6
CONTINUOUS
 62
     3
 10
93.584462
 20
213.769853
 30
0.0
  0
VERTEX
  8
CSLAYER1
  6
CONTINUOUS
 62
     3
 10
93.582857
 20
213.745135
 30
0.0
  0
VERTEX
  8
CSLAYER1
  6
CONTINUOUS
 62
     3
 10
93.582335
 20
213.720730
 30
0.0
  0
SEQEND
  0
LINE
  8
CSLAYER1
  6
CONTINUOUS
 62
     3
 10
93.082335
 20
210.435016
 11
93.082335
 21
213.720730
  0
POLYLINE
  8
CSLAYER1
  6
CONTINUOUS
 62
     3
 66
     1
 10
0.0
 20
0.0
 30
0.0
  0
VERTEX
  8
CSLAYER1
  6
CONTINUOUS
 62
     3
 10
93.326031
 20
213.923113
 30
0.0
  0
VERTEX
  8
CSLAYER1
  6
CONTINUOUS
 62
     3
 10
93.316828
 20
213.939920
 30
0.0
  0
VERTEX
  8
CSLAYER1
  6
CONTINUOUS
 62
     3
 10
93.306927
 20
213.955059
 30
0.0
  0
VERTEX
  8
CSLAYER1
  6
CONTINUOUS
 62
     3
 10
93.296405
 20
213.968415
 30
0.0
  0
VERTEX
  8
CSLAYER1
  6
CONTINUOUS
 62
     3
 10
93.285340
 20
213.979885
 30
0.0
  0
VERTEX
  8
CSLAYER1
  6
CONTINUOUS
 62
     3
 10
93.273818
 20
213.989384
 30
0.0
  0
VERTEX
  8
CSLAYER1
  6
CONTINUOUS
 62
     3
 10
93.261925
 20
213.996837
 30
0.0
  0
VERTEX
  8
CSLAYER1
  6
CONTINUOUS
 62
     3
 10
93.249754
 20
214.002190
 30
0.0
  0
VERTEX
  8
CSLAYER1
  6
CONTINUOUS
 62
     3
 10
93.237395
 20
214.005400
 30
0.0
  0
VERTEX
  8
CSLAYER1
  6
CONTINUOUS
 62
     3
 10
93.224943
 20
214.006444
 30
0.0
  0
VERTEX
  8
CSLAYER1
  6
CONTINUOUS
 62
     3
 10
93.212493
 20
214.005313
 30
0.0
  0
VERTEX
  8
CSLAYER1
  6
CONTINUOUS
 62
     3
 10
93.200140
 20
214.002017
 30
0.0
  0
VERTEX
  8
CSLAYER1
  6
CONTINUOUS
 62
     3
 10
93.187977
 20
213.996579
 30
0.0
  0
VERTEX
  8
CSLAYER1
  6
CONTINUOUS
 62
     3
 10
93.176098
 20
213.989043
 30
0.0
  0
VERTEX
  8
CSLAYER1
  6
CONTINUOUS
 62
     3
 10
93.164592
 20
213.979464
 30
0.0
  0
VERTEX
  8
CSLAYER1
  6
CONTINUOUS
 62
     3
 10
93.153548
 20
213.967916
 30
0.0
  0
VERTEX
  8
CSLAYER1
  6
CONTINUOUS
 62
     3
 10
93.143049
 20
213.954487
 30
0.0
  0
VERTEX
  8
CSLAYER1
  6
CONTINUOUS
 62
     3
 10
93.133175
 20
213.939279
 30
0.0
  0
VERTEX
  8
CSLAYER1
  6
CONTINUOUS
 62
     3
 10
93.124001
 20
213.922408
 30
0.0
  0
VERTEX
  8
CSLAYER1
  6
CONTINUOUS
 62
     3
 10
93.115597
 20
213.904001
 30
0.0
  0
VERTEX
  8
CSLAYER1
  6
CONTINUOUS
 62
     3
 10
93.108028
 20
213.884200
 30
0.0
  0
VERTEX
  8
CSLAYER1
  6
CONTINUOUS
 62
     3
 10
93.101350
 20
213.863155
 30
0.0
  0
VERTEX
  8
CSLAYER1
  6
CONTINUOUS
 62
     3
 10
93.095614
 20
213.841026
 30
0.0
  0
VERTEX
  8
CSLAYER1
  6
CONTINUOUS
 62
     3
 10
93.090865
 20
213.817981
 30
0.0
  0
VERTEX
  8
CSLAYER1
  6
CONTINUOUS
 62
     3
 10
93.087138
 20
213.794196
 30
0.0
  0
VERTEX
  8
CSLAYER1
  6
CONTINUOUS
 62
     3
 10
93.084462
 20
213.769853
 30
0.0
  0
VERTEX
  8
CSLAYER1
  6
CONTINUOUS
 62
     3
 10
93.082857
 20
213.745135
 30
0.0
  0
VERTEX
  8
CSLAYER1
  6
CONTINUOUS
 62
     3
 10
93.082335
 20
213.720730
 30
0.0
  0
SEQEND
  0
LINE
  8
CSLAYER1
  6
CONTINUOUS
 62
     3
 10
92.582335
 20
210.435016
 11
92.582335
 21
213.720730
  0
POLYLINE
  8
CSLAYER1
  6
CONTINUOUS
 62
     3
 66
     1
 10
0.0
 20
0.0
 30
0.0
  0
VERTEX
  8
CSLAYER1
  6
CONTINUOUS
 62
     3
 10
92.826031
 20
213.923113
 30
0.0
  0
VERTEX
  8
CSLAYER1
  6
CONTINUOUS
 62
     3
 10
92.816828
 20
213.939920
 30
0.0
  0
VERTEX
  8
CSLAYER1
  6
CONTINUOUS
 62
     3
 10
92.806927
 20
213.955059
 30
0.0
  0
VERTEX
  8
CSLAYER1
  6
CONTINUOUS
 62
     3
 10
92.796405
 20
213.968415
 30
0.0
  0
VERTEX
  8
CSLAYER1
  6
CONTINUOUS
 62
     3
 10
92.785340
 20
213.979885
 30
0.0
  0
VERTEX
  8
CSLAYER1
  6
CONTINUOUS
 62
     3
 10
92.773818
 20
213.989384
 30
0.0
  0
VERTEX
  8
CSLAYER1
  6
CONTINUOUS
 62
     3
 10
92.761925
 20
213.996837
 30
0.0
  0
VERTEX
  8
CSLAYER1
  6
CONTINUOUS
 62
     3
 10
92.749754
 20
214.002190
 30
0.0
  0
VERTEX
  8
CSLAYER1
  6
CONTINUOUS
 62
     3
 10
92.737395
 20
214.005400
 30
0.0
  0
VERTEX
  8
CSLAYER1
  6
CONTINUOUS
 62
     3
 10
92.724943
 20
214.006444
 30
0.0
  0
VERTEX
  8
CSLAYER1
  6
CONTINUOUS
 62
     3
 10
92.712493
 20
214.005313
 30
0.0
  0
VERTEX
  8
CSLAYER1
  6
CONTINUOUS
 62
     3
 10
92.700140
 20
214.002017
 30
0.0
  0
VERTEX
  8
CSLAYER1
  6
CONTINUOUS
 62
     3
 10
92.687977
 20
213.996579
 30
0.0
  0
VERTEX
  8
CSLAYER1
  6
CONTINUOUS
 62
     3
 10
92.676098
 20
213.989043
 30
0.0
  0
VERTEX
  8
CSLAYER1
  6
CONTINUOUS
 62
     3
 10
92.664592
 20
213.979464
 30
0.0
  0
VERTEX
  8
CSLAYER1
  6
CONTINUOUS
 62
     3
 10
92.653548
 20
213.967916
 30
0.0
  0
VERTEX
  8
CSLAYER1
  6
CONTINUOUS
 62
     3
 10
92.643049
 20
213.954487
 30
0.0
  0
VERTEX
  8
CSLAYER1
  6
CONTINUOUS
 62
     3
 10
92.633175
 20
213.939279
 30
0.0
  0
VERTEX
  8
CSLAYER1
  6
CONTINUOUS
 62
     3
 10
92.624001
 20
213.922408
 30
0.0
  0
VERTEX
  8
CSLAYER1
  6
CONTINUOUS
 62
     3
 10
92.615597
 20
213.904001
 30
0.0
  0
VERTEX
  8
CSLAYER1
  6
CONTINUOUS
 62
     3
 10
92.608028
 20
213.884200
 30
0.0
  0
VERTEX
  8
CSLAYER1
  6
CONTINUOUS
 62
     3
 10
92.601350
 20
213.863155
 30
0.0
  0
VERTEX
  8
CSLAYER1
  6
CONTINUOUS
 62
     3
 10
92.595614
 20
213.841026
 30
0.0
  0
VERTEX
  8
CSLAYER1
  6
CONTINUOUS
 62
     3
 10
92.590865
 20
213.817981
 30
0.0
  0
VERTEX
  8
CSLAYER1
  6
CONTINUOUS
 62
     3
 10
92.587138
 20
213.794196
 30
0.0
  0
VERTEX
  8
CSLAYER1
  6
CONTINUOUS
 62
     3
 10
92.584462
 20
213.769853
 30
0.0
  0
VERTEX
  8
CSLAYER1
  6
CONTINUOUS
 62
     3
 10
92.582857
 20
213.745135
 30
0.0
  0
VERTEX
  8
CSLAYER1
  6
CONTINUOUS
 62
     3
 10
92.582335
 20
213.720730
 30
0.0
  0
SEQEND
  0
LINE
  8
CSLAYER1
  6
CONTINUOUS
 62
     3
 10
92.010906
 20
210.435016
 11
92.010906
 21
213.720730
  0
POLYLINE
  8
CSLAYER1
  6
CONTINUOUS
 62
     3
 66
     1
 10
0.0
 20
0.0
 30
0.0
  0
VERTEX
  8
CSLAYER1
  6
CONTINUOUS
 62
     3
 10
92.254602
 20
213.923113
 30
0.0
  0
VERTEX
  8
CSLAYER1
  6
CONTINUOUS
 62
     3
 10
92.245399
 20
213.939920
 30
0.0
  0
VERTEX
  8
CSLAYER1
  6
CONTINUOUS
 62
     3
 10
92.235499
 20
213.955059
 30
0.0
  0
VERTEX
  8
CSLAYER1
  6
CONTINUOUS
 62
     3
 10
92.224976
 20
213.968415
 30
0.0
  0
VERTEX
  8
CSLAYER1
  6
CONTINUOUS
 62
     3
 10
92.213912
 20
213.979885
 30
0.0
  0
VERTEX
  8
CSLAYER1
  6
CONTINUOUS
 62
     3
 10
92.202389
 20
213.989384
 30
0.0
  0
VERTEX
  8
CSLAYER1
  6
CONTINUOUS
 62
     3
 10
92.190497
 20
213.996837
 30
0.0
  0
VERTEX
  8
CSLAYER1
  6
CONTINUOUS
 62
     3
 10
92.178325
 20
214.002190
 30
0.0
  0
VERTEX
  8
CSLAYER1
  6
CONTINUOUS
 62
     3
 10
92.165966
 20
214.005400
 30
0.0
  0
VERTEX
  8
CSLAYER1
  6
CONTINUOUS
 62
     3
 10
92.153514
 20
214.006444
 30
0.0
  0
VERTEX
  8
CSLAYER1
  6
CONTINUOUS
 62
     3
 10
92.141064
 20
214.005313
 30
0.0
  0
VERTEX
  8
CSLAYER1
  6
CONTINUOUS
 62
     3
 10
92.128711
 20
214.002017
 30
0.0
  0
VERTEX
  8
CSLAYER1
  6
CONTINUOUS
 62
     3
 10
92.116549
 20
213.996579
 30
0.0
  0
VERTEX
  8
CSLAYER1
  6
CONTINUOUS
 62
     3
 10
92.104669
 20
213.989043
 30
0.0
  0
VERTEX
  8
CSLAYER1
  6
CONTINUOUS
 62
     3
 10
92.093164
 20
213.979464
 30
0.0
  0
VERTEX
  8
CSLAYER1
  6
CONTINUOUS
 62
     3
 10
92.082119
 20
213.967916
 30
0.0
  0
VERTEX
  8
CSLAYER1
  6
CONTINUOUS
 62
     3
 10
92.071620
 20
213.954487
 30
0.0
  0
VERTEX
  8
CSLAYER1
  6
CONTINUOUS
 62
     3
 10
92.061746
 20
213.939279
 30
0.0
  0
VERTEX
  8
CSLAYER1
  6
CONTINUOUS
 62
     3
 10
92.052572
 20
213.922408
 30
0.0
  0
VERTEX
  8
CSLAYER1
  6
CONTINUOUS
 62
     3
 10
92.044169
 20
213.904001
 30
0.0
  0
VERTEX
  8
CSLAYER1
  6
CONTINUOUS
 62
     3
 10
92.036599
 20
213.884200
 30
0.0
  0
VERTEX
  8
CSLAYER1
  6
CONTINUOUS
 62
     3
 10
92.029921
 20
213.863155
 30
0.0
  0
VERTEX
  8
CSLAYER1
  6
CONTINUOUS
 62
     3
 10
92.024186
 20
213.841026
 30
0.0
  0
VERTEX
  8
CSLAYER1
  6
CONTINUOUS
 62
     3
 10
92.019437
 20
213.817981
 30
0.0
  0
VERTEX
  8
CSLAYER1
  6
CONTINUOUS
 62
     3
 10
92.015710
 20
213.794196
 30
0.0
  0
VERTEX
  8
CSLAYER1
  6
CONTINUOUS
 62
     3
 10
92.013034
 20
213.769853
 30
0.0
  0
VERTEX
  8
CSLAYER1
  6
CONTINUOUS
 62
     3
 10
92.011429
 20
213.745135
 30
0.0
  0
VERTEX
  8
CSLAYER1
  6
CONTINUOUS
 62
     3
 10
92.010906
 20
213.720730
 30
0.0
  0
SEQEND
  0
LINE
  8
CSLAYER1
  6
CONTINUOUS
 62
     3
 10
91.439478
 20
210.435016
 11
91.439478
 21
213.720730
  0
POLYLINE
  8
CSLAYER1
  6
CONTINUOUS
 62
     3
 66
     1
 10
0.0
 20
0.0
 30
0.0
  0
VERTEX
  8
CSLAYER1
  6
CONTINUOUS
 62
     3
 10
91.683174
 20
213.923113
 30
0.0
  0
VERTEX
  8
CSLAYER1
  6
CONTINUOUS
 62
     3
 10
91.673971
 20
213.939920
 30
0.0
  0
VERTEX
  8
CSLAYER1
  6
CONTINUOUS
 62
     3
 10
91.664070
 20
213.955059
 30
0.0
  0
VERTEX
  8
CSLAYER1
  6
CONTINUOUS
 62
     3
 10
91.653548
 20
213.968415
 30
0.0
  0
VERTEX
  8
CSLAYER1
  6
CONTINUOUS
 62
     3
 10
91.642483
 20
213.979885
 30
0.0
  0
VERTEX
  8
CSLAYER1
  6
CONTINUOUS
 62
     3
 10
91.630961
 20
213.989384
 30
0.0
  0
VERTEX
  8
CSLAYER1
  6
CONTINUOUS
 62
     3
 10
91.619068
 20
213.996837
 30
0.0
  0
VERTEX
  8
CSLAYER1
  6
CONTINUOUS
 62
     3
 10
91.606896
 20
214.002190
 30
0.0
  0
VERTEX
  8
CSLAYER1
  6
CONTINUOUS
 62
     3
 10
91.594537
 20
214.005400
 30
0.0
  0
VERTEX
  8
CSLAYER1
  6
CONTINUOUS
 62
     3
 10
91.582086
 20
214.006444
 30
0.0
  0
VERTEX
  8
CSLAYER1
  6
CONTINUOUS
 62
     3
 10
91.569636
 20
214.005313
 30
0.0
  0
VERTEX
  8
CSLAYER1
  6
CONTINUOUS
 62
     3
 10
91.557283
 20
214.002017
 30
0.0
  0
VERTEX
  8
CSLAYER1
  6
CONTINUOUS
 62
     3
 10
91.545120
 20
213.996579
 30
0.0
  0
VERTEX
  8
CSLAYER1
  6
CONTINUOUS
 62
     3
 10
91.533241
 20
213.989043
 30
0.0
  0
VERTEX
  8
CSLAYER1
  6
CONTINUOUS
 62
     3
 10
91.521735
 20
213.979464
 30
0.0
  0
VERTEX
  8
CSLAYER1
  6
CONTINUOUS
 62
     3
 10
91.510691
 20
213.967916
 30
0.0
  0
VERTEX
  8
CSLAYER1
  6
CONTINUOUS
 62
     3
 10
91.500191
 20
213.954487
 30
0.0
  0
VERTEX
  8
CSLAYER1
  6
CONTINUOUS
 62
     3
 10
91.490317
 20
213.939279
 30
0.0
  0
VERTEX
  8
CSLAYER1
  6
CONTINUOUS
 62
     3
 10
91.481144
 20
213.922408
 30
0.0
  0
VERTEX
  8
CSLAYER1
  6
CONTINUOUS
 62
     3
 10
91.472740
 20
213.904001
 30
0.0
  0
VERTEX
  8
CSLAYER1
  6
CONTINUOUS
 62
     3
 10
91.465170
 20
213.884200
 30
0.0
  0
VERTEX
  8
CSLAYER1
  6
CONTINUOUS
 62
     3
 10
91.458493
 20
213.863155
 30
0.0
  0
VERTEX
  8
CSLAYER1
  6
CONTINUOUS
 62
     3
 10
91.452757
 20
213.841026
 30
0.0
  0
VERTEX
  8
CSLAYER1
  6
CONTINUOUS
 62
     3
 10
91.448008
 20
213.817981
 30
0.0
  0
VERTEX
  8
CSLAYER1
  6
CONTINUOUS
 62
     3
 10
91.444281
 20
213.794196
 30
0.0
  0
VERTEX
  8
CSLAYER1
  6
CONTINUOUS
 62
     3
 10
91.441605
 20
213.769853
 30
0.0
  0
VERTEX
  8
CSLAYER1
  6
CONTINUOUS
 62
     3
 10
91.440000
 20
213.745135
 30
0.0
  0
VERTEX
  8
CSLAYER1
  6
CONTINUOUS
 62
     3
 10
91.439478
 20
213.720730
 30
0.0
  0
SEQEND
  0
LINE
  8
CSLAYER1
  6
CONTINUOUS
 62
     3
 10
90.653764
 20
210.435016
 11
90.653764
 21
213.720730
  0
POLYLINE
  8
CSLAYER1
  6
CONTINUOUS
 62
     3
 66
     1
 10
0.0
 20
0.0
 30
0.0
  0
VERTEX
  8
CSLAYER1
  6
CONTINUOUS
 62
     3
 10
90.897460
 20
213.923113
 30
0.0
  0
VERTEX
  8
CSLAYER1
  6
CONTINUOUS
 62
     3
 10
90.888256
 20
213.939920
 30
0.0
  0
VERTEX
  8
CSLAYER1
  6
CONTINUOUS
 62
     3
 10
90.878356
 20
213.955059
 30
0.0
  0
VERTEX
  8
CSLAYER1
  6
CONTINUOUS
 62
     3
 10
90.867833
 20
213.968415
 30
0.0
  0
VERTEX
  8
CSLAYER1
  6
CONTINUOUS
 62
     3
 10
90.856769
 20
213.979885
 30
0.0
  0
VERTEX
  8
CSLAYER1
  6
CONTINUOUS
 62
     3
 10
90.845246
 20
213.989384
 30
0.0
  0
VERTEX
  8
CSLAYER1
  6
CONTINUOUS
 62
     3
 10
90.833354
 20
213.996837
 30
0.0
  0
VERTEX
  8
CSLAYER1
  6
CONTINUOUS
 62
     3
 10
90.821182
 20
214.002190
 30
0.0
  0
VERTEX
  8
CSLAYER1
  6
CONTINUOUS
 62
     3
 10
90.808823
 20
214.005400
 30
0.0
  0
VERTEX
  8
CSLAYER1
  6
CONTINUOUS
 62
     3
 10
90.796371
 20
214.006444
 30
0.0
  0
VERTEX
  8
CSLAYER1
  6
CONTINUOUS
 62
     3
 10
90.783922
 20
214.005313
 30
0.0
  0
VERTEX
  8
CSLAYER1
  6
CONTINUOUS
 62
     3
 10
90.771568
 20
214.002017
 30
0.0
  0
VERTEX
  8
CSLAYER1
  6
CONTINUOUS
 62
     3
 10
90.759406
 20
213.996579
 30
0.0
  0
VERTEX
  8
CSLAYER1
  6
CONTINUOUS
 62
     3
 10
90.747527
 20
213.989043
 30
0.0
  0
VERTEX
  8
CSLAYER1
  6
CONTINUOUS
 62
     3
 10
90.736021
 20
213.979464
 30
0.0
  0
VERTEX
  8
CSLAYER1
  6
CONTINUOUS
 62
     3
 10
90.724976
 20
213.967916
 30
0.0
  0
VERTEX
  8
CSLAYER1
  6
CONTINUOUS
 62
     3
 10
90.714477
 20
213.954487
 30
0.0
  0
VERTEX
  8
CSLAYER1
  6
CONTINUOUS
 62
     3
 10
90.704603
 20
213.939279
 30
0.0
  0
VERTEX
  8
CSLAYER1
  6
CONTINUOUS
 62
     3
 10
90.695429
 20
213.922408
 30
0.0
  0
VERTEX
  8
CSLAYER1
  6
CONTINUOUS
 62
     3
 10
90.687026
 20
213.904001
 30
0.0
  0
VERTEX
  8
CSLAYER1
  6
CONTINUOUS
 62
     3
 10
90.679456
 20
213.884200
 30
0.0
  0
VERTEX
  8
CSLAYER1
  6
CONTINUOUS
 62
     3
 10
90.672778
 20
213.863155
 30
0.0
  0
VERTEX
  8
CSLAYER1
  6
CONTINUOUS
 62
     3
 10
90.667043
 20
213.841026
 30
0.0
  0
VERTEX
  8
CSLAYER1
  6
CONTINUOUS
 62
     3
 10
90.662294
 20
213.817981
 30
0.0
  0
VERTEX
  8
CSLAYER1
  6
CONTINUOUS
 62
     3
 10
90.658567
 20
213.794196
 30
0.0
  0
VERTEX
  8
CSLAYER1
  6
CONTINUOUS
 62
     3
 10
90.655891
 20
213.769853
 30
0.0
  0
VERTEX
  8
CSLAYER1
  6
CONTINUOUS
 62
     3
 10
90.654286
 20
213.745135
 30
0.0
  0
VERTEX
  8
CSLAYER1
  6
CONTINUOUS
 62
     3
 10
90.653764
 20
213.720730
 30
0.0
  0
SEQEND
  0
LINE
  8
CSLAYER1
  6
CONTINUOUS
 62
     3
 10
90.868049
 20
210.435016
 11
90.868049
 21
213.720730
  0
POLYLINE
  8
CSLAYER1
  6
CONTINUOUS
 62
     3
 66
     1
 10
0.0
 20
0.0
 30
0.0
  0
VERTEX
  8
CSLAYER1
  6
CONTINUOUS
 62
     3
 10
91.111745
 20
213.923113
 30
0.0
  0
VERTEX
  8
CSLAYER1
  6
CONTINUOUS
 62
     3
 10
91.102542
 20
213.939920
 30
0.0
  0
VERTEX
  8
CSLAYER1
  6
CONTINUOUS
 62
     3
 10
91.092642
 20
213.955059
 30
0.0
  0
VERTEX
  8
CSLAYER1
  6
CONTINUOUS
 62
     3
 10
91.082119
 20
213.968415
 30
0.0
  0
VERTEX
  8
CSLAYER1
  6
CONTINUOUS
 62
     3
 10
91.071054
 20
213.979885
 30
0.0
  0
VERTEX
  8
CSLAYER1
  6
CONTINUOUS
 62
     3
 10
91.059532
 20
213.989384
 30
0.0
  0
VERTEX
  8
CSLAYER1
  6
CONTINUOUS
 62
     3
 10
91.047640
 20
213.996837
 30
0.0
  0
VERTEX
  8
CSLAYER1
  6
CONTINUOUS
 62
     3
 10
91.035468
 20
214.002190
 30
0.0
  0
VERTEX
  8
CSLAYER1
  6
CONTINUOUS
 62
     3
 10
91.023109
 20
214.005400
 30
0.0
  0
VERTEX
  8
CSLAYER1
  6
CONTINUOUS
 62
     3
 10
91.010657
 20
214.006444
 30
0.0
  0
VERTEX
  8
CSLAYER1
  6
CONTINUOUS
 62
     3
 10
90.998207
 20
214.005313
 30
0.0
  0
VERTEX
  8
CSLAYER1
  6
CONTINUOUS
 62
     3
 10
90.985854
 20
214.002017
 30
0.0
  0
VERTEX
  8
CSLAYER1
  6
CONTINUOUS
 62
     3
 10
90.973692
 20
213.996579
 30
0.0
  0
VERTEX
  8
CSLAYER1
  6
CONTINUOUS
 62
     3
 10
90.961812
 20
213.989043
 30
0.0
  0
VERTEX
  8
CSLAYER1
  6
CONTINUOUS
 62
     3
 10
90.950307
 20
213.979464
 30
0.0
  0
VERTEX
  8
CSLAYER1
  6
CONTINUOUS
 62
     3
 10
90.939262
 20
213.967916
 30
0.0
  0
VERTEX
  8
CSLAYER1
  6
CONTINUOUS
 62
     3
 10
90.928763
 20
213.954487
 30
0.0
  0
VERTEX
  8
CSLAYER1
  6
CONTINUOUS
 62
     3
 10
90.918889
 20
213.939279
 30
0.0
  0
VERTEX
  8
CSLAYER1
  6
CONTINUOUS
 62
     3
 10
90.909715
 20
213.922408
 30
0.0
  0
VERTEX
  8
CSLAYER1
  6
CONTINUOUS
 62
     3
 10
90.901311
 20
213.904001
 30
0.0
  0
VERTEX
  8
CSLAYER1
  6
CONTINUOUS
 62
     3
 10
90.893742
 20
213.884200
 30
0.0
  0
VERTEX
  8
CSLAYER1
  6
CONTINUOUS
 62
     3
 10
90.887064
 20
213.863155
 30
0.0
  0
VERTEX
  8
CSLAYER1
  6
CONTINUOUS
 62
     3
 10
90.881329
 20
213.841026
 30
0.0
  0
VERTEX
  8
CSLAYER1
  6
CONTINUOUS
 62
     3
 10
90.876580
 20
213.817981
 30
0.0
  0
VERTEX
  8
CSLAYER1
  6
CONTINUOUS
 62
     3
 10
90.872853
 20
213.794196
 30
0.0
  0
VERTEX
  8
CSLAYER1
  6
CONTINUOUS
 62
     3
 10
90.870177
 20
213.769853
 30
0.0
  0
VERTEX
  8
CSLAYER1
  6
CONTINUOUS
 62
     3
 10
90.868571
 20
213.745135
 30
0.0
  0
VERTEX
  8
CSLAYER1
  6
CONTINUOUS
 62
     3
 10
90.868049
 20
213.720730
 30
0.0
  0
SEQEND
  0
LINE
  8
CSLAYER1
  6
CONTINUOUS
 62
     3
 10
91.082335
 20
210.435016
 11
91.082335
 21
213.720730
  0
POLYLINE
  8
CSLAYER1
  6
CONTINUOUS
 62
     3
 66
     1
 10
0.0
 20
0.0
 30
0.0
  0
VERTEX
  8
CSLAYER1
  6
CONTINUOUS
 62
     3
 10
91.326031
 20
213.923113
 30
0.0
  0
VERTEX
  8
CSLAYER1
  6
CONTINUOUS
 62
     3
 10
91.316828
 20
213.939920
 30
0.0
  0
VERTEX
  8
CSLAYER1
  6
CONTINUOUS
 62
     3
 10
91.306927
 20
213.955059
 30
0.0
  0
VERTEX
  8
CSLAYER1
  6
CONTINUOUS
 62
     3
 10
91.296405
 20
213.968415
 30
0.0
  0
VERTEX
  8
CSLAYER1
  6
CONTINUOUS
 62
     3
 10
91.285340
 20
213.979885
 30
0.0
  0
VERTEX
  8
CSLAYER1
  6
CONTINUOUS
 62
     3
 10
91.273818
 20
213.989384
 30
0.0
  0
VERTEX
  8
CSLAYER1
  6
CONTINUOUS
 62
     3
 10
91.261925
 20
213.996837
 30
0.0
  0
VERTEX
  8
CSLAYER1
  6
CONTINUOUS
 62
     3
 10
91.249754
 20
214.002190
 30
0.0
  0
VERTEX
  8
CSLAYER1
  6
CONTINUOUS
 62
     3
 10
91.237395
 20
214.005400
 30
0.0
  0
VERTEX
  8
CSLAYER1
  6
CONTINUOUS
 62
     3
 10
91.224943
 20
214.006444
 30
0.0
  0
VERTEX
  8
CSLAYER1
  6
CONTINUOUS
 62
     3
 10
91.212493
 20
214.005313
 30
0.0
  0
VERTEX
  8
CSLAYER1
  6
CONTINUOUS
 62
     3
 10
91.200140
 20
214.002017
 30
0.0
  0
VERTEX
  8
CSLAYER1
  6
CONTINUOUS
 62
     3
 10
91.187977
 20
213.996579
 30
0.0
  0
VERTEX
  8
CSLAYER1
  6
CONTINUOUS
 62
     3
 10
91.176098
 20
213.989043
 30
0.0
  0
VERTEX
  8
CSLAYER1
  6
CONTINUOUS
 62
     3
 10
91.164592
 20
213.979464
 30
0.0
  0
VERTEX
  8
CSLAYER1
  6
CONTINUOUS
 62
     3
 10
91.153548
 20
213.967916
 30
0.0
  0
VERTEX
  8
CSLAYER1
  6
CONTINUOUS
 62
     3
 10
91.143049
 20
213.954487
 30
0.0
  0
VERTEX
  8
CSLAYER1
  6
CONTINUOUS
 62
     3
 10
91.133175
 20
213.939279
 30
0.0
  0
VERTEX
  8
CSLAYER1
  6
CONTINUOUS
 62
     3
 10
91.124001
 20
213.922408
 30
0.0
  0
VERTEX
  8
CSLAYER1
  6
CONTINUOUS
 62
     3
 10
91.115597
 20
213.904001
 30
0.0
  0
VERTEX
  8
CSLAYER1
  6
CONTINUOUS
 62
     3
 10
91.108028
 20
213.884200
 30
0.0
  0
VERTEX
  8
CSLAYER1
  6
CONTINUOUS
 62
     3
 10
91.101350
 20
213.863155
 30
0.0
  0
VERTEX
  8
CSLAYER1
  6
CONTINUOUS
 62
     3
 10
91.095614
 20
213.841026
 30
0.0
  0
VERTEX
  8
CSLAYER1
  6
CONTINUOUS
 62
     3
 10
91.090865
 20
213.817981
 30
0.0
  0
VERTEX
  8
CSLAYER1
  6
CONTINUOUS
 62
     3
 10
91.087138
 20
213.794196
 30
0.0
  0
VERTEX
  8
CSLAYER1
  6
CONTINUOUS
 62
     3
 10
91.084462
 20
213.769853
 30
0.0
  0
VERTEX
  8
CSLAYER1
  6
CONTINUOUS
 62
     3
 10
91.082857
 20
213.745135
 30
0.0
  0
VERTEX
  8
CSLAYER1
  6
CONTINUOUS
 62
     3
 10
91.082335
 20
213.720730
 30
0.0
  0
SEQEND
  0
LINE
  8
CSLAYER1
  6
CONTINUOUS
 62
     3
 10
90.725192
 20
213.863587
 11
90.725192
 21
210.292158
  0
LINE
  8
CSLAYER1
  6
CONTINUOUS
 62
     3
 10
90.725192
 20
210.292158
 11
98.582335
 21
210.292158
  0
LINE
  8
CSLAYER1
  6
CONTINUOUS
 62
     3
 10
98.582335
 20
210.292158
 11
98.582335
 21
213.863587
  0
LINE
  8
CSLAYER1
  6
CONTINUOUS
 62
     3
 10
98.582335
 20
213.863587
 11
90.725192
 21
213.863587
  0
LINE
  8
CSLAYER1
  6
CONTINUOUS
 62
     3
 10
98.439478
 20
210.435016
 11
98.439478
 21
213.720730
  0
POLYLINE
  8
CSLAYER1
  6
CONTINUOUS
 62
     3
 66
     1
 10
0.0
 20
0.0
 30
0.0
  0
VERTEX
  8
CSLAYER1
  6
CONTINUOUS
 62
     3
 10
98.439478
 20
213.720730
 30
0.0
  0
VERTEX
  8
CSLAYER1
  6
CONTINUOUS
 62
     3
 10
98.438934
 20
213.745632
 30
0.0
  0
VERTEX
  8
CSLAYER1
  6
CONTINUOUS
 62
     3
 10
98.437308
 20
213.770344
 30
0.0
  0
VERTEX
  8
CSLAYER1
  6
CONTINUOUS
 62
     3
 10
98.434610
 20
213.794678
 30
0.0
  0
VERTEX
  8
CSLAYER1
  6
CONTINUOUS
 62
     3
 10
98.430863
 20
213.818450
 30
0.0
  0
VERTEX
  8
CSLAYER1
  6
CONTINUOUS
 62
     3
 10
98.426093
 20
213.841478
 30
0.0
  0
VERTEX
  8
CSLAYER1
  6
CONTINUOUS
 62
     3
 10
98.420339
 20
213.863587
 30
0.0
  0
VERTEX
  8
CSLAYER1
  6
CONTINUOUS
 62
     3
 10
98.413642
 20
213.884609
 30
0.0
  0
VERTEX
  8
CSLAYER1
  6
CONTINUOUS
 62
     3
 10
98.406056
 20
213.904384
 30
0.0
  0
VERTEX
  8
CSLAYER1
  6
CONTINUOUS
 62
     3
 10
98.397636
 20
213.922760
 30
0.0
  0
VERTEX
  8
CSLAYER1
  6
CONTINUOUS
 62
     3
 10
98.388447
 20
213.939600
 30
0.0
  0
VERTEX
  8
CSLAYER1
  6
CONTINUOUS
 62
     3
 10
98.378560
 20
213.954773
 30
0.0
  0
VERTEX
  8
CSLAYER1
  6
CONTINUOUS
 62
     3
 10
98.368049
 20
213.968166
 30
0.0
  0
VERTEX
  8
CSLAYER1
  6
CONTINUOUS
 62
     3
 10
98.356995
 20
213.979675
 30
0.0
  0
VERTEX
  8
CSLAYER1
  6
CONTINUOUS
 62
     3
 10
98.345481
 20
213.989214
 30
0.0
  0
VERTEX
  8
CSLAYER1
  6
CONTINUOUS
 62
     3
 10
98.333595
 20
213.996709
 30
0.0
  0
VERTEX
  8
CSLAYER1
  6
CONTINUOUS
 62
     3
 10
98.321428
 20
214.002104
 30
0.0
  0
VERTEX
  8
CSLAYER1
  6
CONTINUOUS
 62
     3
 10
98.309071
 20
214.005357
 30
0.0
  0
VERTEX
  8
CSLAYER1
  6
CONTINUOUS
 62
     3
 10
98.296621
 20
214.006444
 30
0.0
  0
VERTEX
  8
CSLAYER1
  6
CONTINUOUS
 62
     3
 10
98.284170
 20
214.005357
 30
0.0
  0
VERTEX
  8
CSLAYER1
  6
CONTINUOUS
 62
     3
 10
98.271814
 20
214.002104
 30
0.0
  0
VERTEX
  8
CSLAYER1
  6
CONTINUOUS
 62
     3
 10
98.259647
 20
213.996709
 30
0.0
  0
VERTEX
  8
CSLAYER1
  6
CONTINUOUS
 62
     3
 10
98.247761
 20
213.989213
 30
0.0
  0
VERTEX
  8
CSLAYER1
  6
CONTINUOUS
 62
     3
 10
98.236247
 20
213.979675
 30
0.0
  0
VERTEX
  8
CSLAYER1
  6
CONTINUOUS
 62
     3
 10
98.225192
 20
213.968166
 30
0.0
  0
VERTEX
  8
CSLAYER1
  6
CONTINUOUS
 62
     3
 10
98.214681
 20
213.954773
 30
0.0
  0
VERTEX
  8
CSLAYER1
  6
CONTINUOUS
 62
     3
 10
98.204794
 20
213.939600
 30
0.0
  0
VERTEX
  8
CSLAYER1
  6
CONTINUOUS
 62
     3
 10
98.195782
 20
213.923113
 30
0.0
  0
SEQEND
  0
LINE
  8
CSLAYER1
  6
CONTINUOUS
 62
     3
 10
90.868049
 20
210.435016
 11
90.868049
 21
213.720730
  0
POLYLINE
  8
CSLAYER1
  6
CONTINUOUS
 62
     3
 66
     1
 10
0.0
 20
0.0
 30
0.0
  0
VERTEX
  8
CSLAYER1
  6
CONTINUOUS
 62
     3
 10
91.111745
 20
213.923113
 30
0.0
  0
VERTEX
  8
CSLAYER1
  6
CONTINUOUS
 62
     3
 10
91.102542
 20
213.939920
 30
0.0
  0
VERTEX
  8
CSLAYER1
  6
CONTINUOUS
 62
     3
 10
91.092642
 20
213.955059
 30
0.0
  0
VERTEX
  8
CSLAYER1
  6
CONTINUOUS
 62
     3
 10
91.082119
 20
213.968415
 30
0.0
  0
VERTEX
  8
CSLAYER1
  6
CONTINUOUS
 62
     3
 10
91.071054
 20
213.979885
 30
0.0
  0
VERTEX
  8
CSLAYER1
  6
CONTINUOUS
 62
     3
 10
91.059532
 20
213.989384
 30
0.0
  0
VERTEX
  8
CSLAYER1
  6
CONTINUOUS
 62
     3
 10
91.047640
 20
213.996837
 30
0.0
  0
VERTEX
  8
CSLAYER1
  6
CONTINUOUS
 62
     3
 10
91.035468
 20
214.002190
 30
0.0
  0
VERTEX
  8
CSLAYER1
  6
CONTINUOUS
 62
     3
 10
91.023109
 20
214.005400
 30
0.0
  0
VERTEX
  8
CSLAYER1
  6
CONTINUOUS
 62
     3
 10
91.010657
 20
214.006444
 30
0.0
  0
VERTEX
  8
CSLAYER1
  6
CONTINUOUS
 62
     3
 10
90.998207
 20
214.005313
 30
0.0
  0
VERTEX
  8
CSLAYER1
  6
CONTINUOUS
 62
     3
 10
90.985854
 20
214.002017
 30
0.0
  0
VERTEX
  8
CSLAYER1
  6
CONTINUOUS
 62
     3
 10
90.973692
 20
213.996579
 30
0.0
  0
VERTEX
  8
CSLAYER1
  6
CONTINUOUS
 62
     3
 10
90.961812
 20
213.989043
 30
0.0
  0
VERTEX
  8
CSLAYER1
  6
CONTINUOUS
 62
     3
 10
90.950307
 20
213.979464
 30
0.0
  0
VERTEX
  8
CSLAYER1
  6
CONTINUOUS
 62
     3
 10
90.939262
 20
213.967916
 30
0.0
  0
VERTEX
  8
CSLAYER1
  6
CONTINUOUS
 62
     3
 10
90.928763
 20
213.954487
 30
0.0
  0
VERTEX
  8
CSLAYER1
  6
CONTINUOUS
 62
     3
 10
90.918889
 20
213.939279
 30
0.0
  0
VERTEX
  8
CSLAYER1
  6
CONTINUOUS
 62
     3
 10
90.909715
 20
213.922408
 30
0.0
  0
VERTEX
  8
CSLAYER1
  6
CONTINUOUS
 62
     3
 10
90.901311
 20
213.904001
 30
0.0
  0
VERTEX
  8
CSLAYER1
  6
CONTINUOUS
 62
     3
 10
90.893742
 20
213.884200
 30
0.0
  0
VERTEX
  8
CSLAYER1
  6
CONTINUOUS
 62
     3
 10
90.887064
 20
213.863155
 30
0.0
  0
VERTEX
  8
CSLAYER1
  6
CONTINUOUS
 62
     3
 10
90.881329
 20
213.841026
 30
0.0
  0
VERTEX
  8
CSLAYER1
  6
CONTINUOUS
 62
     3
 10
90.876580
 20
213.817981
 30
0.0
  0
VERTEX
  8
CSLAYER1
  6
CONTINUOUS
 62
     3
 10
90.872853
 20
213.794196
 30
0.0
  0
VERTEX
  8
CSLAYER1
  6
CONTINUOUS
 62
     3
 10
90.870177
 20
213.769853
 30
0.0
  0
VERTEX
  8
CSLAYER1
  6
CONTINUOUS
 62
     3
 10
90.868571
 20
213.745135
 30
0.0
  0
VERTEX
  8
CSLAYER1
  6
CONTINUOUS
 62
     3
 10
90.868049
 20
213.720730
 30
0.0
  0
SEQEND
  0
LINE
  8
CSLAYER1
  6
CONTINUOUS
 62
     6
 10
40.381236
 20
233.577873
 11
40.381236
 21
158.577873
  0
LINE
  8
CSLAYER1
  6
CONTINUOUS
 62
     6
 10
42.381236
 20
158.577873
 11
40.381236
 21
158.577873
  0
LINE
  8
CSLAYER1
  6
CONTINUOUS
 62
     6
 10
42.381236
 20
233.577873
 11
40.381236
 21
233.577873
  0
LINE
  8
CSLAYER1
  6
CONTINUOUS
 62
     6
 10
42.381236
 20
158.577873
 11
42.381236
 21
233.577873
  0
LINE
  8
CSLAYER1
  6
CONTINUOUS
 62
     6
 10
50.381236
 20
195.577873
 11
42.381236
 21
195.577873
  0
LINE
  8
CSLAYER1
  6
CONTINUOUS
 62
     6
 10
50.381236
 20
200.577873
 11
42.381236
 21
200.577873
  0
LINE
  8
CSLAYER1
  6
CONTINUOUS
 62
     6
 10
48.381236
 20
208.577873
 11
42.381236
 21
208.577873
  0
LINE
  8
CSLAYER1
  6
CONTINUOUS
 62
     6
 10
48.381236
 20
226.577873
 11
43.855323
 21
226.577873
  0
LINE
  8
CSLAYER1
  6
CONTINUOUS
 62
     6
 10
49.381236
 20
225.577873
 11
49.381236
 21
214.006444
  0
ARC
  8
CSLAYER1
  6
CONTINUOUS
 62
     6
 10
48.381236
 20
225.577873
 40
1.000000
 50
0.000000
 51
90.000000
  0
ARC
  8
CSLAYER1
  6
CONTINUOUS
 62
     6
 10
48.381236
 20
209.577873
 40
1.000000
 50
270.000000
 51
360.000000
  0
LINE
  8
CSLAYER1
  6
CONTINUOUS
 62
     6
 10
47.381236
 20
194.327873
 11
42.381236
 21
194.327873
  0
LINE
  8
CSLAYER1
  6
CONTINUOUS
 62
     6
 10
47.381236
 20
189.777873
 11
47.381236
 21
194.327873
  0
LINE
  8
CSLAYER1
  6
CONTINUOUS
 62
     6
 10
50.381236
 20
195.577873
 11
50.381236
 21
200.577873
  0
POLYLINE
  8
CSLAYER1
  6
CONTINUOUS
 62
     3
 66
     1
 10
0.0
 20
0.0
 30
0.0
  0
VERTEX
  8
CSLAYER1
  6
CONTINUOUS
 62
     3
 10
46.803847
 20
210.158644
 30
0.0
  0
VERTEX
  8
CSLAYER1
  6
CONTINUOUS
 62
     3
 10
46.816321
 20
210.139980
 30
0.0
  0
VERTEX
  8
CSLAYER1
  6
CONTINUOUS
 62
     3
 10
46.829561
 20
210.123562
 30
0.0
  0
VERTEX
  8
CSLAYER1
  6
CONTINUOUS
 62
     3
 10
46.843466
 20
210.109514
 30
0.0
  0
VERTEX
  8
CSLAYER1
  6
CONTINUOUS
 62
     3
 10
46.857930
 20
210.097944
 30
0.0
  0
VERTEX
  8
CSLAYER1
  6
CONTINUOUS
 62
     3
 10
46.872844
 20
210.088938
 30
0.0
  0
VERTEX
  8
CSLAYER1
  6
CONTINUOUS
 62
     3
 10
46.888093
 20
210.082567
 30
0.0
  0
VERTEX
  8
CSLAYER1
  6
CONTINUOUS
 62
     3
 10
46.903562
 20
210.078878
 30
0.0
  0
VERTEX
  8
CSLAYER1
  6
CONTINUOUS
 62
     3
 10
46.919132
 20
210.077899
 30
0.0
  0
VERTEX
  8
CSLAYER1
  6
CONTINUOUS
 62
     3
 10
46.934686
 20
210.079639
 30
0.0
  0
VERTEX
  8
CSLAYER1
  6
CONTINUOUS
 62
     3
 10
46.950105
 20
210.084082
 30
0.0
  0
VERTEX
  8
CSLAYER1
  6
CONTINUOUS
 62
     3
 10
46.965272
 20
210.091197
 30
0.0
  0
VERTEX
  8
CSLAYER1
  6
CONTINUOUS
 62
     3
 10
46.980071
 20
210.100928
 30
0.0
  0
VERTEX
  8
CSLAYER1
  6
CONTINUOUS
 62
     3
 10
46.994390
 20
210.113202
 30
0.0
  0
VERTEX
  8
CSLAYER1
  6
CONTINUOUS
 62
     3
 10
47.008119
 20
210.127925
 30
0.0
  0
VERTEX
  8
CSLAYER1
  6
CONTINUOUS
 62
     3
 10
47.021154
 20
210.144986
 30
0.0
  0
VERTEX
  8
CSLAYER1
  6
CONTINUOUS
 62
     3
 10
47.033397
 20
210.164253
 30
0.0
  0
VERTEX
  8
CSLAYER1
  6
CONTINUOUS
 62
     3
 10
47.044753
 20
210.185581
 30
0.0
  0
VERTEX
  8
CSLAYER1
  6
CONTINUOUS
 62
     3
 10
47.055136
 20
210.208808
 30
0.0
  0
VERTEX
  8
CSLAYER1
  6
CONTINUOUS
 62
     3
 10
47.064468
 20
210.233756
 30
0.0
  0
VERTEX
  8
CSLAYER1
  6
CONTINUOUS
 62
     3
 10
47.072677
 20
210.260236
 30
0.0
  0
VERTEX
  8
CSLAYER1
  6
CONTINUOUS
 62
     3
 10
47.079701
 20
210.288046
 30
0.0
  0
VERTEX
  8
CSLAYER1
  6
CONTINUOUS
 62
     3
 10
47.085486
 20
210.316975
 30
0.0
  0
VERTEX
  8
CSLAYER1
  6
CONTINUOUS
 62
     3
 10
47.089989
 20
210.346802
 30
0.0
  0
VERTEX
  8
CSLAYER1
  6
CONTINUOUS
 62
     3
 10
47.093175
 20
210.377300
 30
0.0
  0
VERTEX
  8
CSLAYER1
  6
CONTINUOUS
 62
     3
 10
47.095019
 20
210.408237
 30
0.0
  0
VERTEX
  8
CSLAYER1
  6
CONTINUOUS
 62
     3
 10
47.095522
 20
210.435015
 30
0.0
  0
SEQEND
  0
POLYLINE
  8
CSLAYER1
  6
CONTINUOUS
 62
     3
 66
     1
 10
0.0
 20
0.0
 30
0.0
  0
VERTEX
  8
CSLAYER1
  6
CONTINUOUS
 62
     3
 10
47.156236
 20
210.166707
 30
0.0
  0
VERTEX
  8
CSLAYER1
  6
CONTINUOUS
 62
     3
 10
47.168377
 20
210.147184
 30
0.0
  0
VERTEX
  8
CSLAYER1
  6
CONTINUOUS
 62
     3
 10
47.181322
 20
210.129852
 30
0.0
  0
VERTEX
  8
CSLAYER1
  6
CONTINUOUS
 62
     3
 10
47.194974
 20
210.114842
 30
0.0
  0
VERTEX
  8
CSLAYER1
  6
CONTINUOUS
 62
     3
 10
47.209227
 20
210.102269
 30
0.0
  0
VERTEX
  8
CSLAYER1
  6
CONTINUOUS
 62
     3
 10
47.223974
 20
210.092228
 30
0.0
  0
VERTEX
  8
CSLAYER1
  6
CONTINUOUS
 62
     3
 10
47.239103
 20
210.084796
 30
0.0
  0
VERTEX
  8
CSLAYER1
  6
CONTINUOUS
 62
     3
 10
47.254498
 20
210.080030
 30
0.0
  0
VERTEX
  8
CSLAYER1
  6
CONTINUOUS
 62
     3
 10
47.270042
 20
210.077965
 30
0.0
  0
VERTEX
  8
CSLAYER1
  6
CONTINUOUS
 62
     3
 10
47.285617
 20
210.078617
 30
0.0
  0
VERTEX
  8
CSLAYER1
  6
CONTINUOUS
 62
     3
 10
47.301104
 20
210.081982
 30
0.0
  0
VERTEX
  8
CSLAYER1
  6
CONTINUOUS
 62
     3
 10
47.316386
 20
210.088034
 30
0.0
  0
VERTEX
  8
CSLAYER1
  6
CONTINUOUS
 62
     3
 10
47.331346
 20
210.096726
 30
0.0
  0
VERTEX
  8
CSLAYER1
  6
CONTINUOUS
 62
     3
 10
47.345870
 20
210.107993
 30
0.0
  0
VERTEX
  8
CSLAYER1
  6
CONTINUOUS
 62
     3
 10
47.359848
 20
210.121749
 30
0.0
  0
VERTEX
  8
CSLAYER1
  6
CONTINUOUS
 62
     3
 10
47.373173
 20
210.137889
 30
0.0
  0
VERTEX
  8
CSLAYER1
  6
CONTINUOUS
 62
     3
 10
47.385744
 20
210.156291
 30
0.0
  0
VERTEX
  8
CSLAYER1
  6
CONTINUOUS
 62
     3
 10
47.397465
 20
210.176813
 30
0.0
  0
VERTEX
  8
CSLAYER1
  6
CONTINUOUS
 62
     3
 10
47.408248
 20
210.199301
 30
0.0
  0
VERTEX
  8
CSLAYER1
  6
CONTINUOUS
 62
     3
 10
47.418009
 20
210.223582
 30
0.0
  0
VERTEX
  8
CSLAYER1
  6
CONTINUOUS
 62
     3
 10
47.426675
 20
210.249473
 30
0.0
  0
VERTEX
  8
CSLAYER1
  6
CONTINUOUS
 62
     3
 10
47.434180
 20
210.276776
 30
0.0
  0
VERTEX
  8
CSLAYER1
  6
CONTINUOUS
 62
     3
 10
47.440467
 20
210.305283
 30
0.0
  0
VERTEX
  8
CSLAYER1
  6
CONTINUOUS
 62
     3
 10
47.445487
 20
210.334778
 30
0.0
  0
VERTEX
  8
CSLAYER1
  6
CONTINUOUS
 62
     3
 10
47.449203
 20
210.365035
 30
0.0
  0
VERTEX
  8
CSLAYER1
  6
CONTINUOUS
 62
     3
 10
47.451586
 20
210.395825
 30
0.0
  0
VERTEX
  8
CSLAYER1
  6
CONTINUOUS
 62
     3
 10
47.452619
 20
210.426913
 30
0.0
  0
VERTEX
  8
CSLAYER1
  6
CONTINUOUS
 62
     3
 10
47.452665
 20
210.435016
 30
0.0
  0
SEQEND
  0
POLYLINE
  8
CSLAYER1
  6
CONTINUOUS
 62
     3
 66
     1
 10
0.0
 20
0.0
 30
0.0
  0
VERTEX
  8
CSLAYER1
  6
CONTINUOUS
 62
     3
 10
47.656236
 20
210.166707
 30
0.0
  0
VERTEX
  8
CSLAYER1
  6
CONTINUOUS
 62
     3
 10
47.668377
 20
210.147184
 30
0.0
  0
VERTEX
  8
CSLAYER1
  6
CONTINUOUS
 62
     3
 10
47.681322
 20
210.129852
 30
0.0
  0
VERTEX
  8
CSLAYER1
  6
CONTINUOUS
 62
     3
 10
47.694974
 20
210.114842
 30
0.0
  0
VERTEX
  8
CSLAYER1
  6
CONTINUOUS
 62
     3
 10
47.709227
 20
210.102269
 30
0.0
  0
VERTEX
  8
CSLAYER1
  6
CONTINUOUS
 62
     3
 10
47.723974
 20
210.092228
 30
0.0
  0
VERTEX
  8
CSLAYER1
  6
CONTINUOUS
 62
     3
 10
47.739103
 20
210.084796
 30
0.0
  0
VERTEX
  8
CSLAYER1
  6
CONTINUOUS
 62
     3
 10
47.754498
 20
210.080030
 30
0.0
  0
VERTEX
  8
CSLAYER1
  6
CONTINUOUS
 62
     3
 10
47.770042
 20
210.077965
 30
0.0
  0
VERTEX
  8
CSLAYER1
  6
CONTINUOUS
 62
     3
 10
47.785617
 20
210.078617
 30
0.0
  0
VERTEX
  8
CSLAYER1
  6
CONTINUOUS
 62
     3
 10
47.801104
 20
210.081982
 30
0.0
  0
VERTEX
  8
CSLAYER1
  6
CONTINUOUS
 62
     3
 10
47.816386
 20
210.088034
 30
0.0
  0
VERTEX
  8
CSLAYER1
  6
CONTINUOUS
 62
     3
 10
47.831346
 20
210.096726
 30
0.0
  0
VERTEX
  8
CSLAYER1
  6
CONTINUOUS
 62
     3
 10
47.845870
 20
210.107993
 30
0.0
  0
VERTEX
  8
CSLAYER1
  6
CONTINUOUS
 62
     3
 10
47.859848
 20
210.121749
 30
0.0
  0
VERTEX
  8
CSLAYER1
  6
CONTINUOUS
 62
     3
 10
47.873173
 20
210.137889
 30
0.0
  0
VERTEX
  8
CSLAYER1
  6
CONTINUOUS
 62
     3
 10
47.885744
 20
210.156291
 30
0.0
  0
VERTEX
  8
CSLAYER1
  6
CONTINUOUS
 62
     3
 10
47.897465
 20
210.176813
 30
0.0
  0
VERTEX
  8
CSLAYER1
  6
CONTINUOUS
 62
     3
 10
47.908248
 20
210.199301
 30
0.0
  0
VERTEX
  8
CSLAYER1
  6
CONTINUOUS
 62
     3
 10
47.918009
 20
210.223582
 30
0.0
  0
VERTEX
  8
CSLAYER1
  6
CONTINUOUS
 62
     3
 10
47.926675
 20
210.249473
 30
0.0
  0
VERTEX
  8
CSLAYER1
  6
CONTINUOUS
 62
     3
 10
47.934180
 20
210.276776
 30
0.0
  0
VERTEX
  8
CSLAYER1
  6
CONTINUOUS
 62
     3
 10
47.940467
 20
210.305283
 30
0.0
  0
VERTEX
  8
CSLAYER1
  6
CONTINUOUS
 62
     3
 10
47.945487
 20
210.334778
 30
0.0
  0
VERTEX
  8
CSLAYER1
  6
CONTINUOUS
 62
     3
 10
47.949203
 20
210.365035
 30
0.0
  0
VERTEX
  8
CSLAYER1
  6
CONTINUOUS
 62
     3
 10
47.951586
 20
210.395825
 30
0.0
  0
VERTEX
  8
CSLAYER1
  6
CONTINUOUS
 62
     3
 10
47.952619
 20
210.426913
 30
0.0
  0
VERTEX
  8
CSLAYER1
  6
CONTINUOUS
 62
     3
 10
47.952665
 20
210.435016
 30
0.0
  0
SEQEND
  0
POLYLINE
  8
CSLAYER1
  6
CONTINUOUS
 62
     3
 66
     1
 10
0.0
 20
0.0
 30
0.0
  0
VERTEX
  8
CSLAYER1
  6
CONTINUOUS
 62
     3
 10
48.156236
 20
210.166707
 30
0.0
  0
VERTEX
  8
CSLAYER1
  6
CONTINUOUS
 62
     3
 10
48.168377
 20
210.147184
 30
0.0
  0
VERTEX
  8
CSLAYER1
  6
CONTINUOUS
 62
     3
 10
48.181322
 20
210.129852
 30
0.0
  0
VERTEX
  8
CSLAYER1
  6
CONTINUOUS
 62
     3
 10
48.194974
 20
210.114842
 30
0.0
  0
VERTEX
  8
CSLAYER1
  6
CONTINUOUS
 62
     3
 10
48.209227
 20
210.102269
 30
0.0
  0
VERTEX
  8
CSLAYER1
  6
CONTINUOUS
 62
     3
 10
48.223974
 20
210.092228
 30
0.0
  0
VERTEX
  8
CSLAYER1
  6
CONTINUOUS
 62
     3
 10
48.239103
 20
210.084796
 30
0.0
  0
VERTEX
  8
CSLAYER1
  6
CONTINUOUS
 62
     3
 10
48.254498
 20
210.080030
 30
0.0
  0
VERTEX
  8
CSLAYER1
  6
CONTINUOUS
 62
     3
 10
48.270042
 20
210.077965
 30
0.0
  0
VERTEX
  8
CSLAYER1
  6
CONTINUOUS
 62
     3
 10
48.285617
 20
210.078617
 30
0.0
  0
VERTEX
  8
CSLAYER1
  6
CONTINUOUS
 62
     3
 10
48.301104
 20
210.081982
 30
0.0
  0
VERTEX
  8
CSLAYER1
  6
CONTINUOUS
 62
     3
 10
48.316386
 20
210.088034
 30
0.0
  0
VERTEX
  8
CSLAYER1
  6
CONTINUOUS
 62
     3
 10
48.331346
 20
210.096726
 30
0.0
  0
VERTEX
  8
CSLAYER1
  6
CONTINUOUS
 62
     3
 10
48.345870
 20
210.107993
 30
0.0
  0
VERTEX
  8
CSLAYER1
  6
CONTINUOUS
 62
     3
 10
48.359848
 20
210.121749
 30
0.0
  0
VERTEX
  8
CSLAYER1
  6
CONTINUOUS
 62
     3
 10
48.373173
 20
210.137889
 30
0.0
  0
VERTEX
  8
CSLAYER1
  6
CONTINUOUS
 62
     3
 10
48.385744
 20
210.156291
 30
0.0
  0
VERTEX
  8
CSLAYER1
  6
CONTINUOUS
 62
     3
 10
48.397465
 20
210.176813
 30
0.0
  0
VERTEX
  8
CSLAYER1
  6
CONTINUOUS
 62
     3
 10
48.408248
 20
210.199301
 30
0.0
  0
VERTEX
  8
CSLAYER1
  6
CONTINUOUS
 62
     3
 10
48.418009
 20
210.223582
 30
0.0
  0
VERTEX
  8
CSLAYER1
  6
CONTINUOUS
 62
     3
 10
48.426675
 20
210.249473
 30
0.0
  0
VERTEX
  8
CSLAYER1
  6
CONTINUOUS
 62
     3
 10
48.434180
 20
210.276776
 30
0.0
  0
VERTEX
  8
CSLAYER1
  6
CONTINUOUS
 62
     3
 10
48.440467
 20
210.305283
 30
0.0
  0
VERTEX
  8
CSLAYER1
  6
CONTINUOUS
 62
     3
 10
48.445487
 20
210.334778
 30
0.0
  0
VERTEX
  8
CSLAYER1
  6
CONTINUOUS
 62
     3
 10
48.449203
 20
210.365035
 30
0.0
  0
VERTEX
  8
CSLAYER1
  6
CONTINUOUS
 62
     3
 10
48.451586
 20
210.395825
 30
0.0
  0
VERTEX
  8
CSLAYER1
  6
CONTINUOUS
 62
     3
 10
48.452619
 20
210.426913
 30
0.0
  0
VERTEX
  8
CSLAYER1
  6
CONTINUOUS
 62
     3
 10
48.452665
 20
210.435016
 30
0.0
  0
SEQEND
  0
POLYLINE
  8
CSLAYER1
  6
CONTINUOUS
 62
     3
 66
     1
 10
0.0
 20
0.0
 30
0.0
  0
VERTEX
  8
CSLAYER1
  6
CONTINUOUS
 62
     3
 10
48.727665
 20
210.166707
 30
0.0
  0
VERTEX
  8
CSLAYER1
  6
CONTINUOUS
 62
     3
 10
48.739805
 20
210.147184
 30
0.0
  0
VERTEX
  8
CSLAYER1
  6
CONTINUOUS
 62
     3
 10
48.752751
 20
210.129852
 30
0.0
  0
VERTEX
  8
CSLAYER1
  6
CONTINUOUS
 62
     3
 10
48.766402
 20
210.114842
 30
0.0
  0
VERTEX
  8
CSLAYER1
  6
CONTINUOUS
 62
     3
 10
48.780656
 20
210.102269
 30
0.0
  0
VERTEX
  8
CSLAYER1
  6
CONTINUOUS
 62
     3
 10
48.795403
 20
210.092228
 30
0.0
  0
VERTEX
  8
CSLAYER1
  6
CONTINUOUS
 62
     3
 10
48.810532
 20
210.084796
 30
0.0
  0
VERTEX
  8
CSLAYER1
  6
CONTINUOUS
 62
     3
 10
48.825927
 20
210.080030
 30
0.0
  0
VERTEX
  8
CSLAYER1
  6
CONTINUOUS
 62
     3
 10
48.841471
 20
210.077965
 30
0.0
  0
VERTEX
  8
CSLAYER1
  6
CONTINUOUS
 62
     3
 10
48.857046
 20
210.078617
 30
0.0
  0
VERTEX
  8
CSLAYER1
  6
CONTINUOUS
 62
     3
 10
48.872533
 20
210.081982
 30
0.0
  0
VERTEX
  8
CSLAYER1
  6
CONTINUOUS
 62
     3
 10
48.887815
 20
210.088034
 30
0.0
  0
VERTEX
  8
CSLAYER1
  6
CONTINUOUS
 62
     3
 10
48.902774
 20
210.096726
 30
0.0
  0
VERTEX
  8
CSLAYER1
  6
CONTINUOUS
 62
     3
 10
48.917298
 20
210.107993
 30
0.0
  0
VERTEX
  8
CSLAYER1
  6
CONTINUOUS
 62
     3
 10
48.931276
 20
210.121749
 30
0.0
  0
VERTEX
  8
CSLAYER1
  6
CONTINUOUS
 62
     3
 10
48.944601
 20
210.137889
 30
0.0
  0
VERTEX
  8
CSLAYER1
  6
CONTINUOUS
 62
     3
 10
48.957172
 20
210.156291
 30
0.0
  0
VERTEX
  8
CSLAYER1
  6
CONTINUOUS
 62
     3
 10
48.968894
 20
210.176813
 30
0.0
  0
VERTEX
  8
CSLAYER1
  6
CONTINUOUS
 62
     3
 10
48.979676
 20
210.199301
 30
0.0
  0
VERTEX
  8
CSLAYER1
  6
CONTINUOUS
 62
     3
 10
48.989438
 20
210.223582
 30
0.0
  0
VERTEX
  8
CSLAYER1
  6
CONTINUOUS
 62
     3
 10
48.998104
 20
210.249473
 30
0.0
  0
VERTEX
  8
CSLAYER1
  6
CONTINUOUS
 62
     3
 10
49.005609
 20
210.276776
 30
0.0
  0
VERTEX
  8
CSLAYER1
  6
CONTINUOUS
 62
     3
 10
49.011895
 20
210.305283
 30
0.0
  0
VERTEX
  8
CSLAYER1
  6
CONTINUOUS
 62
     3
 10
49.016916
 20
210.334778
 30
0.0
  0
VERTEX
  8
CSLAYER1
  6
CONTINUOUS
 62
     3
 10
49.020632
 20
210.365035
 30
0.0
  0
VERTEX
  8
CSLAYER1
  6
CONTINUOUS
 62
     3
 10
49.023015
 20
210.395825
 30
0.0
  0
VERTEX
  8
CSLAYER1
  6
CONTINUOUS
 62
     3
 10
49.024047
 20
210.426913
 30
0.0
  0
VERTEX
  8
CSLAYER1
  6
CONTINUOUS
 62
     3
 10
49.024093
 20
210.435016
 30
0.0
  0
SEQEND
  0
POLYLINE
  8
CSLAYER1
  6
CONTINUOUS
 62
     3
 66
     1
 10
0.0
 20
0.0
 30
0.0
  0
VERTEX
  8
CSLAYER1
  6
CONTINUOUS
 62
     3
 10
49.299093
 20
210.166707
 30
0.0
  0
VERTEX
  8
CSLAYER1
  6
CONTINUOUS
 62
     3
 10
49.311234
 20
210.147184
 30
0.0
  0
VERTEX
  8
CSLAYER1
  6
CONTINUOUS
 62
     3
 10
49.324179
 20
210.129852
 30
0.0
  0
VERTEX
  8
CSLAYER1
  6
CONTINUOUS
 62
     3
 10
49.337831
 20
210.114842
 30
0.0
  0
VERTEX
  8
CSLAYER1
  6
CONTINUOUS
 62
     3
 10
49.352084
 20
210.102269
 30
0.0
  0
VERTEX
  8
CSLAYER1
  6
CONTINUOUS
 62
     3
 10
49.366832
 20
210.092228
 30
0.0
  0
VERTEX
  8
CSLAYER1
  6
CONTINUOUS
 62
     3
 10
49.381960
 20
210.084796
 30
0.0
  0
VERTEX
  8
CSLAYER1
  6
CONTINUOUS
 62
     3
 10
49.397355
 20
210.080030
 30
0.0
  0
VERTEX
  8
CSLAYER1
  6
CONTINUOUS
 62
     3
 10
49.412899
 20
210.077965
 30
0.0
  0
VERTEX
  8
CSLAYER1
  6
CONTINUOUS
 62
     3
 10
49.428474
 20
210.078617
 30
0.0
  0
VERTEX
  8
CSLAYER1
  6
CONTINUOUS
 62
     3
 10
49.443961
 20
210.081982
 30
0.0
  0
VERTEX
  8
CSLAYER1
  6
CONTINUOUS
 62
     3
 10
49.459243
 20
210.088034
 30
0.0
  0
VERTEX
  8
CSLAYER1
  6
CONTINUOUS
 62
     3
 10
49.474203
 20
210.096726
 30
0.0
  0
VERTEX
  8
CSLAYER1
  6
CONTINUOUS
 62
     3
 10
49.488727
 20
210.107993
 30
0.0
  0
VERTEX
  8
CSLAYER1
  6
CONTINUOUS
 62
     3
 10
49.502705
 20
210.121749
 30
0.0
  0
VERTEX
  8
CSLAYER1
  6
CONTINUOUS
 62
     3
 10
49.516030
 20
210.137889
 30
0.0
  0
VERTEX
  8
CSLAYER1
  6
CONTINUOUS
 62
     3
 10
49.528601
 20
210.156291
 30
0.0
  0
VERTEX
  8
CSLAYER1
  6
CONTINUOUS
 62
     3
 10
49.540322
 20
210.176813
 30
0.0
  0
VERTEX
  8
CSLAYER1
  6
CONTINUOUS
 62
     3
 10
49.551105
 20
210.199301
 30
0.0
  0
VERTEX
  8
CSLAYER1
  6
CONTINUOUS
 62
     3
 10
49.560866
 20
210.223582
 30
0.0
  0
VERTEX
  8
CSLAYER1
  6
CONTINUOUS
 62
     3
 10
49.569533
 20
210.249473
 30
0.0
  0
VERTEX
  8
CSLAYER1
  6
CONTINUOUS
 62
     3
 10
49.577037
 20
210.276776
 30
0.0
  0
VERTEX
  8
CSLAYER1
  6
CONTINUOUS
 62
     3
 10
49.583324
 20
210.305283
 30
0.0
  0
VERTEX
  8
CSLAYER1
  6
CONTINUOUS
 62
     3
 10
49.588344
 20
210.334778
 30
0.0
  0
VERTEX
  8
CSLAYER1
  6
CONTINUOUS
 62
     3
 10
49.592060
 20
210.365035
 30
0.0
  0
VERTEX
  8
CSLAYER1
  6
CONTINUOUS
 62
     3
 10
49.594444
 20
210.395825
 30
0.0
  0
VERTEX
  8
CSLAYER1
  6
CONTINUOUS
 62
     3
 10
49.595476
 20
210.426913
 30
0.0
  0
VERTEX
  8
CSLAYER1
  6
CONTINUOUS
 62
     3
 10
49.595522
 20
210.435016
 30
0.0
  0
SEQEND
  0
POLYLINE
  8
CSLAYER1
  6
CONTINUOUS
 62
     3
 66
     1
 10
0.0
 20
0.0
 30
0.0
  0
VERTEX
  8
CSLAYER1
  6
CONTINUOUS
 62
     3
 10
49.870522
 20
210.166707
 30
0.0
  0
VERTEX
  8
CSLAYER1
  6
CONTINUOUS
 62
     3
 10
49.882662
 20
210.147184
 30
0.0
  0
VERTEX
  8
CSLAYER1
  6
CONTINUOUS
 62
     3
 10
49.895608
 20
210.129852
 30
0.0
  0
VERTEX
  8
CSLAYER1
  6
CONTINUOUS
 62
     3
 10
49.909259
 20
210.114842
 30
0.0
  0
VERTEX
  8
CSLAYER1
  6
CONTINUOUS
 62
     3
 10
49.923513
 20
210.102269
 30
0.0
  0
VERTEX
  8
CSLAYER1
  6
CONTINUOUS
 62
     3
 10
49.938260
 20
210.092228
 30
0.0
  0
VERTEX
  8
CSLAYER1
  6
CONTINUOUS
 62
     3
 10
49.953389
 20
210.084796
 30
0.0
  0
VERTEX
  8
CSLAYER1
  6
CONTINUOUS
 62
     3
 10
49.968784
 20
210.080030
 30
0.0
  0
VERTEX
  8
CSLAYER1
  6
CONTINUOUS
 62
     3
 10
49.984328
 20
210.077965
 30
0.0
  0
VERTEX
  8
CSLAYER1
  6
CONTINUOUS
 62
     3
 10
49.999903
 20
210.078617
 30
0.0
  0
VERTEX
  8
CSLAYER1
  6
CONTINUOUS
 62
     3
 10
50.015390
 20
210.081982
 30
0.0
  0
VERTEX
  8
CSLAYER1
  6
CONTINUOUS
 62
     3
 10
50.030672
 20
210.088034
 30
0.0
  0
VERTEX
  8
CSLAYER1
  6
CONTINUOUS
 62
     3
 10
50.045631
 20
210.096726
 30
0.0
  0
VERTEX
  8
CSLAYER1
  6
CONTINUOUS
 62
     3
 10
50.060156
 20
210.107993
 30
0.0
  0
VERTEX
  8
CSLAYER1
  6
CONTINUOUS
 62
     3
 10
50.074133
 20
210.121749
 30
0.0
  0
VERTEX
  8
CSLAYER1
  6
CONTINUOUS
 62
     3
 10
50.087459
 20
210.137889
 30
0.0
  0
VERTEX
  8
CSLAYER1
  6
CONTINUOUS
 62
     3
 10
50.100030
 20
210.156291
 30
0.0
  0
VERTEX
  8
CSLAYER1
  6
CONTINUOUS
 62
     3
 10
50.111751
 20
210.176813
 30
0.0
  0
VERTEX
  8
CSLAYER1
  6
CONTINUOUS
 62
     3
 10
50.122533
 20
210.199301
 30
0.0
  0
VERTEX
  8
CSLAYER1
  6
CONTINUOUS
 62
     3
 10
50.132295
 20
210.223582
 30
0.0
  0
VERTEX
  8
CSLAYER1
  6
CONTINUOUS
 62
     3
 10
50.140961
 20
210.249473
 30
0.0
  0
VERTEX
  8
CSLAYER1
  6
CONTINUOUS
 62
     3
 10
50.148466
 20
210.276776
 30
0.0
  0
VERTEX
  8
CSLAYER1
  6
CONTINUOUS
 62
     3
 10
50.154753
 20
210.305283
 30
0.0
  0
VERTEX
  8
CSLAYER1
  6
CONTINUOUS
 62
     3
 10
50.159773
 20
210.334778
 30
0.0
  0
VERTEX
  8
CSLAYER1
  6
CONTINUOUS
 62
     3
 10
50.163489
 20
210.365035
 30
0.0
  0
VERTEX
  8
CSLAYER1
  6
CONTINUOUS
 62
     3
 10
50.165872
 20
210.395825
 30
0.0
  0
VERTEX
  8
CSLAYER1
  6
CONTINUOUS
 62
     3
 10
50.166905
 20
210.426913
 30
0.0
  0
VERTEX
  8
CSLAYER1
  6
CONTINUOUS
 62
     3
 10
50.166951
 20
210.435016
 30
0.0
  0
SEQEND
  0
POLYLINE
  8
CSLAYER1
  6
CONTINUOUS
 62
     3
 66
     1
 10
0.0
 20
0.0
 30
0.0
  0
VERTEX
  8
CSLAYER1
  6
CONTINUOUS
 62
     3
 10
50.084807
 20
210.166707
 30
0.0
  0
VERTEX
  8
CSLAYER1
  6
CONTINUOUS
 62
     3
 10
50.096948
 20
210.147184
 30
0.0
  0
VERTEX
  8
CSLAYER1
  6
CONTINUOUS
 62
     3
 10
50.109894
 20
210.129852
 30
0.0
  0
VERTEX
  8
CSLAYER1
  6
CONTINUOUS
 62
     3
 10
50.123545
 20
210.114842
 30
0.0
  0
VERTEX
  8
CSLAYER1
  6
CONTINUOUS
 62
     3
 10
50.137799
 20
210.102269
 30
0.0
  0
VERTEX
  8
CSLAYER1
  6
CONTINUOUS
 62
     3
 10
50.152546
 20
210.092228
 30
0.0
  0
VERTEX
  8
CSLAYER1
  6
CONTINUOUS
 62
     3
 10
50.167674
 20
210.084796
 30
0.0
  0
VERTEX
  8
CSLAYER1
  6
CONTINUOUS
 62
     3
 10
50.183069
 20
210.080030
 30
0.0
  0
VERTEX
  8
CSLAYER1
  6
CONTINUOUS
 62
     3
 10
50.198614
 20
210.077965
 30
0.0
  0
VERTEX
  8
CSLAYER1
  6
CONTINUOUS
 62
     3
 10
50.214188
 20
210.078617
 30
0.0
  0
VERTEX
  8
CSLAYER1
  6
CONTINUOUS
 62
     3
 10
50.229676
 20
210.081982
 30
0.0
  0
VERTEX
  8
CSLAYER1
  6
CONTINUOUS
 62
     3
 10
50.244957
 20
210.088034
 30
0.0
  0
VERTEX
  8
CSLAYER1
  6
CONTINUOUS
 62
     3
 10
50.259917
 20
210.096726
 30
0.0
  0
VERTEX
  8
CSLAYER1
  6
CONTINUOUS
 62
     3
 10
50.274441
 20
210.107993
 30
0.0
  0
VERTEX
  8
CSLAYER1
  6
CONTINUOUS
 62
     3
 10
50.288419
 20
210.121749
 30
0.0
  0
VERTEX
  8
CSLAYER1
  6
CONTINUOUS
 62
     3
 10
50.301744
 20
210.137889
 30
0.0
  0
VERTEX
  8
CSLAYER1
  6
CONTINUOUS
 62
     3
 10
50.314315
 20
210.156291
 30
0.0
  0
VERTEX
  8
CSLAYER1
  6
CONTINUOUS
 62
     3
 10
50.326037
 20
210.176813
 30
0.0
  0
VERTEX
  8
CSLAYER1
  6
CONTINUOUS
 62
     3
 10
50.336819
 20
210.199301
 30
0.0
  0
VERTEX
  8
CSLAYER1
  6
CONTINUOUS
 62
     3
 10
50.346581
 20
210.223582
 30
0.0
  0
VERTEX
  8
CSLAYER1
  6
CONTINUOUS
 62
     3
 10
50.355247
 20
210.249473
 30
0.0
  0
VERTEX
  8
CSLAYER1
  6
CONTINUOUS
 62
     3
 10
50.362752
 20
210.276776
 30
0.0
  0
VERTEX
  8
CSLAYER1
  6
CONTINUOUS
 62
     3
 10
50.369038
 20
210.305283
 30
0.0
  0
VERTEX
  8
CSLAYER1
  6
CONTINUOUS
 62
     3
 10
50.374059
 20
210.334778
 30
0.0
  0
VERTEX
  8
CSLAYER1
  6
CONTINUOUS
 62
     3
 10
50.377775
 20
210.365035
 30
0.0
  0
VERTEX
  8
CSLAYER1
  6
CONTINUOUS
 62
     3
 10
50.380158
 20
210.395825
 30
0.0
  0
VERTEX
  8
CSLAYER1
  6
CONTINUOUS
 62
     3
 10
50.381190
 20
210.426913
 30
0.0
  0
VERTEX
  8
CSLAYER1
  6
CONTINUOUS
 62
     3
 10
50.381236
 20
210.435016
 30
0.0
  0
SEQEND
  0
POLYLINE
  8
CSLAYER1
  6
CONTINUOUS
 62
     3
 66
     1
 10
0.0
 20
0.0
 30
0.0
  0
VERTEX
  8
CSLAYER1
  6
CONTINUOUS
 62
     3
 10
49.870522
 20
210.166707
 30
0.0
  0
VERTEX
  8
CSLAYER1
  6
CONTINUOUS
 62
     3
 10
49.882662
 20
210.147184
 30
0.0
  0
VERTEX
  8
CSLAYER1
  6
CONTINUOUS
 62
     3
 10
49.895608
 20
210.129852
 30
0.0
  0
VERTEX
  8
CSLAYER1
  6
CONTINUOUS
 62
     3
 10
49.909259
 20
210.114842
 30
0.0
  0
VERTEX
  8
CSLAYER1
  6
CONTINUOUS
 62
     3
 10
49.923513
 20
210.102269
 30
0.0
  0
VERTEX
  8
CSLAYER1
  6
CONTINUOUS
 62
     3
 10
49.938260
 20
210.092228
 30
0.0
  0
VERTEX
  8
CSLAYER1
  6
CONTINUOUS
 62
     3
 10
49.953389
 20
210.084796
 30
0.0
  0
VERTEX
  8
CSLAYER1
  6
CONTINUOUS
 62
     3
 10
49.968784
 20
210.080030
 30
0.0
  0
VERTEX
  8
CSLAYER1
  6
CONTINUOUS
 62
     3
 10
49.984328
 20
210.077965
 30
0.0
  0
VERTEX
  8
CSLAYER1
  6
CONTINUOUS
 62
     3
 10
49.999903
 20
210.078617
 30
0.0
  0
VERTEX
  8
CSLAYER1
  6
CONTINUOUS
 62
     3
 10
50.015390
 20
210.081982
 30
0.0
  0
VERTEX
  8
CSLAYER1
  6
CONTINUOUS
 62
     3
 10
50.030672
 20
210.088034
 30
0.0
  0
VERTEX
  8
CSLAYER1
  6
CONTINUOUS
 62
     3
 10
50.045631
 20
210.096726
 30
0.0
  0
VERTEX
  8
CSLAYER1
  6
CONTINUOUS
 62
     3
 10
50.060156
 20
210.107993
 30
0.0
  0
VERTEX
  8
CSLAYER1
  6
CONTINUOUS
 62
     3
 10
50.074133
 20
210.121749
 30
0.0
  0
VERTEX
  8
CSLAYER1
  6
CONTINUOUS
 62
     3
 10
50.087459
 20
210.137889
 30
0.0
  0
VERTEX
  8
CSLAYER1
  6
CONTINUOUS
 62
     3
 10
50.100030
 20
210.156291
 30
0.0
  0
VERTEX
  8
CSLAYER1
  6
CONTINUOUS
 62
     3
 10
50.111751
 20
210.176813
 30
0.0
  0
VERTEX
  8
CSLAYER1
  6
CONTINUOUS
 62
     3
 10
50.122533
 20
210.199301
 30
0.0
  0
VERTEX
  8
CSLAYER1
  6
CONTINUOUS
 62
     3
 10
50.132295
 20
210.223582
 30
0.0
  0
VERTEX
  8
CSLAYER1
  6
CONTINUOUS
 62
     3
 10
50.140961
 20
210.249473
 30
0.0
  0
VERTEX
  8
CSLAYER1
  6
CONTINUOUS
 62
     3
 10
50.148466
 20
210.276776
 30
0.0
  0
VERTEX
  8
CSLAYER1
  6
CONTINUOUS
 62
     3
 10
50.154753
 20
210.305283
 30
0.0
  0
VERTEX
  8
CSLAYER1
  6
CONTINUOUS
 62
     3
 10
50.159773
 20
210.334778
 30
0.0
  0
VERTEX
  8
CSLAYER1
  6
CONTINUOUS
 62
     3
 10
50.163489
 20
210.365035
 30
0.0
  0
VERTEX
  8
CSLAYER1
  6
CONTINUOUS
 62
     3
 10
50.165872
 20
210.395825
 30
0.0
  0
VERTEX
  8
CSLAYER1
  6
CONTINUOUS
 62
     3
 10
50.166905
 20
210.426913
 30
0.0
  0
VERTEX
  8
CSLAYER1
  6
CONTINUOUS
 62
     3
 10
50.166951
 20
210.435016
 30
0.0
  0
SEQEND
  0
POLYLINE
  8
CSLAYER1
  6
CONTINUOUS
 62
     3
 66
     1
 10
0.0
 20
0.0
 30
0.0
  0
VERTEX
  8
CSLAYER1
  6
CONTINUOUS
 62
     3
 10
49.656236
 20
210.166707
 30
0.0
  0
VERTEX
  8
CSLAYER1
  6
CONTINUOUS
 62
     3
 10
49.668377
 20
210.147184
 30
0.0
  0
VERTEX
  8
CSLAYER1
  6
CONTINUOUS
 62
     3
 10
49.681322
 20
210.129852
 30
0.0
  0
VERTEX
  8
CSLAYER1
  6
CONTINUOUS
 62
     3
 10
49.694974
 20
210.114842
 30
0.0
  0
VERTEX
  8
CSLAYER1
  6
CONTINUOUS
 62
     3
 10
49.709227
 20
210.102269
 30
0.0
  0
VERTEX
  8
CSLAYER1
  6
CONTINUOUS
 62
     3
 10
49.723974
 20
210.092228
 30
0.0
  0
VERTEX
  8
CSLAYER1
  6
CONTINUOUS
 62
     3
 10
49.739103
 20
210.084796
 30
0.0
  0
VERTEX
  8
CSLAYER1
  6
CONTINUOUS
 62
     3
 10
49.754498
 20
210.080030
 30
0.0
  0
VERTEX
  8
CSLAYER1
  6
CONTINUOUS
 62
     3
 10
49.770042
 20
210.077965
 30
0.0
  0
VERTEX
  8
CSLAYER1
  6
CONTINUOUS
 62
     3
 10
49.785617
 20
210.078617
 30
0.0
  0
VERTEX
  8
CSLAYER1
  6
CONTINUOUS
 62
     3
 10
49.801104
 20
210.081982
 30
0.0
  0
VERTEX
  8
CSLAYER1
  6
CONTINUOUS
 62
     3
 10
49.816386
 20
210.088034
 30
0.0
  0
VERTEX
  8
CSLAYER1
  6
CONTINUOUS
 62
     3
 10
49.831346
 20
210.096726
 30
0.0
  0
VERTEX
  8
CSLAYER1
  6
CONTINUOUS
 62
     3
 10
49.845870
 20
210.107993
 30
0.0
  0
VERTEX
  8
CSLAYER1
  6
CONTINUOUS
 62
     3
 10
49.859848
 20
210.121749
 30
0.0
  0
VERTEX
  8
CSLAYER1
  6
CONTINUOUS
 62
     3
 10
49.873173
 20
210.137889
 30
0.0
  0
VERTEX
  8
CSLAYER1
  6
CONTINUOUS
 62
     3
 10
49.885744
 20
210.156291
 30
0.0
  0
VERTEX
  8
CSLAYER1
  6
CONTINUOUS
 62
     3
 10
49.897465
 20
210.176813
 30
0.0
  0
VERTEX
  8
CSLAYER1
  6
CONTINUOUS
 62
     3
 10
49.908248
 20
210.199301
 30
0.0
  0
VERTEX
  8
CSLAYER1
  6
CONTINUOUS
 62
     3
 10
49.918009
 20
210.223582
 30
0.0
  0
VERTEX
  8
CSLAYER1
  6
CONTINUOUS
 62
     3
 10
49.926675
 20
210.249473
 30
0.0
  0
VERTEX
  8
CSLAYER1
  6
CONTINUOUS
 62
     3
 10
49.934180
 20
210.276776
 30
0.0
  0
VERTEX
  8
CSLAYER1
  6
CONTINUOUS
 62
     3
 10
49.940467
 20
210.305283
 30
0.0
  0
VERTEX
  8
CSLAYER1
  6
CONTINUOUS
 62
     3
 10
49.945487
 20
210.334778
 30
0.0
  0
VERTEX
  8
CSLAYER1
  6
CONTINUOUS
 62
     3
 10
49.949203
 20
210.365035
 30
0.0
  0
VERTEX
  8
CSLAYER1
  6
CONTINUOUS
 62
     3
 10
49.951586
 20
210.395825
 30
0.0
  0
VERTEX
  8
CSLAYER1
  6
CONTINUOUS
 62
     3
 10
49.952619
 20
210.426913
 30
0.0
  0
VERTEX
  8
CSLAYER1
  6
CONTINUOUS
 62
     3
 10
49.952665
 20
210.435016
 30
0.0
  0
SEQEND
  0
POLYLINE
  8
CSLAYER1
  6
CONTINUOUS
 62
     3
 66
     1
 10
0.0
 20
0.0
 30
0.0
  0
VERTEX
  8
CSLAYER1
  6
CONTINUOUS
 62
     3
 10
45.666951
 20
210.435015
 30
0.0
  0
VERTEX
  8
CSLAYER1
  6
CONTINUOUS
 62
     3
 10
45.667630
 20
210.403888
 30
0.0
  0
VERTEX
  8
CSLAYER1
  6
CONTINUOUS
 62
     3
 10
45.669663
 20
210.372998
 30
0.0
  0
VERTEX
  8
CSLAYER1
  6
CONTINUOUS
 62
     3
 10
45.673035
 20
210.342580
 30
0.0
  0
VERTEX
  8
CSLAYER1
  6
CONTINUOUS
 62
     3
 10
45.677720
 20
210.312865
 30
0.0
  0
VERTEX
  8
CSLAYER1
  6
CONTINUOUS
 62
     3
 10
45.683681
 20
210.284080
 30
0.0
  0
VERTEX
  8
CSLAYER1
  6
CONTINUOUS
 62
     3
 10
45.690875
 20
210.256444
 30
0.0
  0
VERTEX
  8
CSLAYER1
  6
CONTINUOUS
 62
     3
 10
45.699245
 20
210.230167
 30
0.0
  0
VERTEX
  8
CSLAYER1
  6
CONTINUOUS
 62
     3
 10
45.708728
 20
210.205448
 30
0.0
  0
VERTEX
  8
CSLAYER1
  6
CONTINUOUS
 62
     3
 10
45.719253
 20
210.182477
 30
0.0
  0
VERTEX
  8
CSLAYER1
  6
CONTINUOUS
 62
     3
 10
45.730738
 20
210.161428
 30
0.0
  0
VERTEX
  8
CSLAYER1
  6
CONTINUOUS
 62
     3
 10
45.743098
 20
210.142461
 30
0.0
  0
VERTEX
  8
CSLAYER1
  6
CONTINUOUS
 62
     3
 10
45.756236
 20
210.125721
 30
0.0
  0
VERTEX
  8
CSLAYER1
  6
CONTINUOUS
 62
     3
 10
45.770054
 20
210.111334
 30
0.0
  0
VERTEX
  8
CSLAYER1
  6
CONTINUOUS
 62
     3
 10
45.784447
 20
210.099411
 30
0.0
  0
VERTEX
  8
CSLAYER1
  6
CONTINUOUS
 62
     3
 10
45.799304
 20
210.090042
 30
0.0
  0
VERTEX
  8
CSLAYER1
  6
CONTINUOUS
 62
     3
 10
45.814513
 20
210.083298
 30
0.0
  0
VERTEX
  8
CSLAYER1
  6
CONTINUOUS
 62
     3
 10
45.829958
 20
210.079232
 30
0.0
  0
VERTEX
  8
CSLAYER1
  6
CONTINUOUS
 62
     3
 10
45.845522
 20
210.077873
 30
0.0
  0
VERTEX
  8
CSLAYER1
  6
CONTINUOUS
 62
     3
 10
45.861086
 20
210.079232
 30
0.0
  0
VERTEX
  8
CSLAYER1
  6
CONTINUOUS
 62
     3
 10
45.876531
 20
210.083298
 30
0.0
  0
VERTEX
  8
CSLAYER1
  6
CONTINUOUS
 62
     3
 10
45.891740
 20
210.090042
 30
0.0
  0
VERTEX
  8
CSLAYER1
  6
CONTINUOUS
 62
     3
 10
45.906597
 20
210.099411
 30
0.0
  0
VERTEX
  8
CSLAYER1
  6
CONTINUOUS
 62
     3
 10
45.920990
 20
210.111334
 30
0.0
  0
VERTEX
  8
CSLAYER1
  6
CONTINUOUS
 62
     3
 10
45.934808
 20
210.125721
 30
0.0
  0
VERTEX
  8
CSLAYER1
  6
CONTINUOUS
 62
     3
 10
45.947946
 20
210.142461
 30
0.0
  0
VERTEX
  8
CSLAYER1
  6
CONTINUOUS
 62
     3
 10
45.958626
 20
210.158644
 30
0.0
  0
SEQEND
  0
POLYLINE
  8
CSLAYER1
  6
CONTINUOUS
 62
     3
 66
     1
 10
0.0
 20
0.0
 30
0.0
  0
VERTEX
  8
CSLAYER1
  6
CONTINUOUS
 62
     3
 10
45.309808
 20
210.435016
 30
0.0
  0
VERTEX
  8
CSLAYER1
  6
CONTINUOUS
 62
     3
 10
45.310487
 20
210.403889
 30
0.0
  0
VERTEX
  8
CSLAYER1
  6
CONTINUOUS
 62
     3
 10
45.312521
 20
210.372998
 30
0.0
  0
VERTEX
  8
CSLAYER1
  6
CONTINUOUS
 62
     3
 10
45.315892
 20
210.342580
 30
0.0
  0
VERTEX
  8
CSLAYER1
  6
CONTINUOUS
 62
     3
 10
45.320577
 20
210.312866
 30
0.0
  0
VERTEX
  8
CSLAYER1
  6
CONTINUOUS
 62
     3
 10
45.326538
 20
210.284081
 30
0.0
  0
VERTEX
  8
CSLAYER1
  6
CONTINUOUS
 62
     3
 10
45.333732
 20
210.256444
 30
0.0
  0
VERTEX
  8
CSLAYER1
  6
CONTINUOUS
 62
     3
 10
45.342102
 20
210.230167
 30
0.0
  0
VERTEX
  8
CSLAYER1
  6
CONTINUOUS
 62
     3
 10
45.351585
 20
210.205449
 30
0.0
  0
VERTEX
  8
CSLAYER1
  6
CONTINUOUS
 62
     3
 10
45.362110
 20
210.182478
 30
0.0
  0
VERTEX
  8
CSLAYER1
  6
CONTINUOUS
 62
     3
 10
45.373596
 20
210.161428
 30
0.0
  0
VERTEX
  8
CSLAYER1
  6
CONTINUOUS
 62
     3
 10
45.385955
 20
210.142461
 30
0.0
  0
VERTEX
  8
CSLAYER1
  6
CONTINUOUS
 62
     3
 10
45.399093
 20
210.125721
 30
0.0
  0
VERTEX
  8
CSLAYER1
  6
CONTINUOUS
 62
     3
 10
45.412912
 20
210.111334
 30
0.0
  0
VERTEX
  8
CSLAYER1
  6
CONTINUOUS
 62
     3
 10
45.427304
 20
210.099411
 30
0.0
  0
VERTEX
  8
CSLAYER1
  6
CONTINUOUS
 62
     3
 10
45.442161
 20
210.090042
 30
0.0
  0
VERTEX
  8
CSLAYER1
  6
CONTINUOUS
 62
     3
 10
45.457371
 20
210.083299
 30
0.0
  0
VERTEX
  8
CSLAYER1
  6
CONTINUOUS
 62
     3
 10
45.472816
 20
210.079232
 30
0.0
  0
VERTEX
  8
CSLAYER1
  6
CONTINUOUS
 62
     3
 10
45.488379
 20
210.077873
 30
0.0
  0
VERTEX
  8
CSLAYER1
  6
CONTINUOUS
 62
     3
 10
45.503943
 20
210.079232
 30
0.0
  0
VERTEX
  8
CSLAYER1
  6
CONTINUOUS
 62
     3
 10
45.519388
 20
210.083299
 30
0.0
  0
VERTEX
  8
CSLAYER1
  6
CONTINUOUS
 62
     3
 10
45.534597
 20
210.090042
 30
0.0
  0
VERTEX
  8
CSLAYER1
  6
CONTINUOUS
 62
     3
 10
45.549454
 20
210.099411
 30
0.0
  0
VERTEX
  8
CSLAYER1
  6
CONTINUOUS
 62
     3
 10
45.563847
 20
210.111334
 30
0.0
  0
VERTEX
  8
CSLAYER1
  6
CONTINUOUS
 62
     3
 10
45.577665
 20
210.125721
 30
0.0
  0
VERTEX
  8
CSLAYER1
  6
CONTINUOUS
 62
     3
 10
45.590804
 20
210.142461
 30
0.0
  0
VERTEX
  8
CSLAYER1
  6
CONTINUOUS
 62
     3
 10
45.603163
 20
210.161428
 30
0.0
  0
VERTEX
  8
CSLAYER1
  6
CONTINUOUS
 62
     3
 10
45.606237
 20
210.166707
 30
0.0
  0
SEQEND
  0
POLYLINE
  8
CSLAYER1
  6
CONTINUOUS
 62
     3
 66
     1
 10
0.0
 20
0.0
 30
0.0
  0
VERTEX
  8
CSLAYER1
  6
CONTINUOUS
 62
     3
 10
44.809808
 20
210.435016
 30
0.0
  0
VERTEX
  8
CSLAYER1
  6
CONTINUOUS
 62
     3
 10
44.810487
 20
210.403889
 30
0.0
  0
VERTEX
  8
CSLAYER1
  6
CONTINUOUS
 62
     3
 10
44.812521
 20
210.372998
 30
0.0
  0
VERTEX
  8
CSLAYER1
  6
CONTINUOUS
 62
     3
 10
44.815892
 20
210.342580
 30
0.0
  0
VERTEX
  8
CSLAYER1
  6
CONTINUOUS
 62
     3
 10
44.820577
 20
210.312866
 30
0.0
  0
VERTEX
  8
CSLAYER1
  6
CONTINUOUS
 62
     3
 10
44.826538
 20
210.284081
 30
0.0
  0
VERTEX
  8
CSLAYER1
  6
CONTINUOUS
 62
     3
 10
44.833732
 20
210.256444
 30
0.0
  0
VERTEX
  8
CSLAYER1
  6
CONTINUOUS
 62
     3
 10
44.842102
 20
210.230167
 30
0.0
  0
VERTEX
  8
CSLAYER1
  6
CONTINUOUS
 62
     3
 10
44.851585
 20
210.205449
 30
0.0
  0
VERTEX
  8
CSLAYER1
  6
CONTINUOUS
 62
     3
 10
44.862110
 20
210.182478
 30
0.0
  0
VERTEX
  8
CSLAYER1
  6
CONTINUOUS
 62
     3
 10
44.873596
 20
210.161428
 30
0.0
  0
VERTEX
  8
CSLAYER1
  6
CONTINUOUS
 62
     3
 10
44.885955
 20
210.142461
 30
0.0
  0
VERTEX
  8
CSLAYER1
  6
CONTINUOUS
 62
     3
 10
44.899093
 20
210.125721
 30
0.0
  0
VERTEX
  8
CSLAYER1
  6
CONTINUOUS
 62
     3
 10
44.912912
 20
210.111334
 30
0.0
  0
VERTEX
  8
CSLAYER1
  6
CONTINUOUS
 62
     3
 10
44.927304
 20
210.099411
 30
0.0
  0
VERTEX
  8
CSLAYER1
  6
CONTINUOUS
 62
     3
 10
44.942161
 20
210.090042
 30
0.0
  0
VERTEX
  8
CSLAYER1
  6
CONTINUOUS
 62
     3
 10
44.957371
 20
210.083299
 30
0.0
  0
VERTEX
  8
CSLAYER1
  6
CONTINUOUS
 62
     3
 10
44.972816
 20
210.079232
 30
0.0
  0
VERTEX
  8
CSLAYER1
  6
CONTINUOUS
 62
     3
 10
44.988379
 20
210.077873
 30
0.0
  0
VERTEX
  8
CSLAYER1
  6
CONTINUOUS
 62
     3
 10
45.003943
 20
210.079232
 30
0.0
  0
VERTEX
  8
CSLAYER1
  6
CONTINUOUS
 62
     3
 10
45.019388
 20
210.083299
 30
0.0
  0
VERTEX
  8
CSLAYER1
  6
CONTINUOUS
 62
     3
 10
45.034597
 20
210.090042
 30
0.0
  0
VERTEX
  8
CSLAYER1
  6
CONTINUOUS
 62
     3
 10
45.049454
 20
210.099411
 30
0.0
  0
VERTEX
  8
CSLAYER1
  6
CONTINUOUS
 62
     3
 10
45.063847
 20
210.111334
 30
0.0
  0
VERTEX
  8
CSLAYER1
  6
CONTINUOUS
 62
     3
 10
45.077665
 20
210.125721
 30
0.0
  0
VERTEX
  8
CSLAYER1
  6
CONTINUOUS
 62
     3
 10
45.090804
 20
210.142461
 30
0.0
  0
VERTEX
  8
CSLAYER1
  6
CONTINUOUS
 62
     3
 10
45.103163
 20
210.161428
 30
0.0
  0
VERTEX
  8
CSLAYER1
  6
CONTINUOUS
 62
     3
 10
45.106237
 20
210.166707
 30
0.0
  0
SEQEND
  0
POLYLINE
  8
CSLAYER1
  6
CONTINUOUS
 62
     3
 66
     1
 10
0.0
 20
0.0
 30
0.0
  0
VERTEX
  8
CSLAYER1
  6
CONTINUOUS
 62
     3
 10
44.309808
 20
210.435016
 30
0.0
  0
VERTEX
  8
CSLAYER1
  6
CONTINUOUS
 62
     3
 10
44.310487
 20
210.403889
 30
0.0
  0
VERTEX
  8
CSLAYER1
  6
CONTINUOUS
 62
     3
 10
44.312521
 20
210.372998
 30
0.0
  0
VERTEX
  8
CSLAYER1
  6
CONTINUOUS
 62
     3
 10
44.315892
 20
210.342580
 30
0.0
  0
VERTEX
  8
CSLAYER1
  6
CONTINUOUS
 62
     3
 10
44.320577
 20
210.312866
 30
0.0
  0
VERTEX
  8
CSLAYER1
  6
CONTINUOUS
 62
     3
 10
44.326538
 20
210.284081
 30
0.0
  0
VERTEX
  8
CSLAYER1
  6
CONTINUOUS
 62
     3
 10
44.333732
 20
210.256444
 30
0.0
  0
VERTEX
  8
CSLAYER1
  6
CONTINUOUS
 62
     3
 10
44.342102
 20
210.230167
 30
0.0
  0
VERTEX
  8
CSLAYER1
  6
CONTINUOUS
 62
     3
 10
44.351585
 20
210.205449
 30
0.0
  0
VERTEX
  8
CSLAYER1
  6
CONTINUOUS
 62
     3
 10
44.362110
 20
210.182478
 30
0.0
  0
VERTEX
  8
CSLAYER1
  6
CONTINUOUS
 62
     3
 10
44.373596
 20
210.161428
 30
0.0
  0
VERTEX
  8
CSLAYER1
  6
CONTINUOUS
 62
     3
 10
44.385955
 20
210.142461
 30
0.0
  0
VERTEX
  8
CSLAYER1
  6
CONTINUOUS
 62
     3
 10
44.399093
 20
210.125721
 30
0.0
  0
VERTEX
  8
CSLAYER1
  6
CONTINUOUS
 62
     3
 10
44.412912
 20
210.111334
 30
0.0
  0
VERTEX
  8
CSLAYER1
  6
CONTINUOUS
 62
     3
 10
44.427304
 20
210.099411
 30
0.0
  0
VERTEX
  8
CSLAYER1
  6
CONTINUOUS
 62
     3
 10
44.442161
 20
210.090042
 30
0.0
  0
VERTEX
  8
CSLAYER1
  6
CONTINUOUS
 62
     3
 10
44.457371
 20
210.083299
 30
0.0
  0
VERTEX
  8
CSLAYER1
  6
CONTINUOUS
 62
     3
 10
44.472816
 20
210.079232
 30
0.0
  0
VERTEX
  8
CSLAYER1
  6
CONTINUOUS
 62
     3
 10
44.488379
 20
210.077873
 30
0.0
  0
VERTEX
  8
CSLAYER1
  6
CONTINUOUS
 62
     3
 10
44.503943
 20
210.079232
 30
0.0
  0
VERTEX
  8
CSLAYER1
  6
CONTINUOUS
 62
     3
 10
44.519388
 20
210.083299
 30
0.0
  0
VERTEX
  8
CSLAYER1
  6
CONTINUOUS
 62
     3
 10
44.534597
 20
210.090042
 30
0.0
  0
VERTEX
  8
CSLAYER1
  6
CONTINUOUS
 62
     3
 10
44.549454
 20
210.099411
 30
0.0
  0
VERTEX
  8
CSLAYER1
  6
CONTINUOUS
 62
     3
 10
44.563847
 20
210.111334
 30
0.0
  0
VERTEX
  8
CSLAYER1
  6
CONTINUOUS
 62
     3
 10
44.577665
 20
210.125721
 30
0.0
  0
VERTEX
  8
CSLAYER1
  6
CONTINUOUS
 62
     3
 10
44.590804
 20
210.142461
 30
0.0
  0
VERTEX
  8
CSLAYER1
  6
CONTINUOUS
 62
     3
 10
44.603163
 20
210.161428
 30
0.0
  0
VERTEX
  8
CSLAYER1
  6
CONTINUOUS
 62
     3
 10
44.606237
 20
210.166707
 30
0.0
  0
SEQEND
  0
POLYLINE
  8
CSLAYER1
  6
CONTINUOUS
 62
     3
 66
     1
 10
0.0
 20
0.0
 30
0.0
  0
VERTEX
  8
CSLAYER1
  6
CONTINUOUS
 62
     3
 10
43.738379
 20
210.435016
 30
0.0
  0
VERTEX
  8
CSLAYER1
  6
CONTINUOUS
 62
     3
 10
43.739059
 20
210.403889
 30
0.0
  0
VERTEX
  8
CSLAYER1
  6
CONTINUOUS
 62
     3
 10
43.741092
 20
210.372998
 30
0.0
  0
VERTEX
  8
CSLAYER1
  6
CONTINUOUS
 62
     3
 10
43.744464
 20
210.342580
 30
0.0
  0
VERTEX
  8
CSLAYER1
  6
CONTINUOUS
 62
     3
 10
43.749148
 20
210.312866
 30
0.0
  0
VERTEX
  8
CSLAYER1
  6
CONTINUOUS
 62
     3
 10
43.755110
 20
210.284081
 30
0.0
  0
VERTEX
  8
CSLAYER1
  6
CONTINUOUS
 62
     3
 10
43.762303
 20
210.256444
 30
0.0
  0
VERTEX
  8
CSLAYER1
  6
CONTINUOUS
 62
     3
 10
43.770673
 20
210.230167
 30
0.0
  0
VERTEX
  8
CSLAYER1
  6
CONTINUOUS
 62
     3
 10
43.780157
 20
210.205449
 30
0.0
  0
VERTEX
  8
CSLAYER1
  6
CONTINUOUS
 62
     3
 10
43.790681
 20
210.182478
 30
0.0
  0
VERTEX
  8
CSLAYER1
  6
CONTINUOUS
 62
     3
 10
43.802167
 20
210.161428
 30
0.0
  0
VERTEX
  8
CSLAYER1
  6
CONTINUOUS
 62
     3
 10
43.814526
 20
210.142461
 30
0.0
  0
VERTEX
  8
CSLAYER1
  6
CONTINUOUS
 62
     3
 10
43.827665
 20
210.125721
 30
0.0
  0
VERTEX
  8
CSLAYER1
  6
CONTINUOUS
 62
     3
 10
43.841483
 20
210.111334
 30
0.0
  0
VERTEX
  8
CSLAYER1
  6
CONTINUOUS
 62
     3
 10
43.855876
 20
210.099411
 30
0.0
  0
VERTEX
  8
CSLAYER1
  6
CONTINUOUS
 62
     3
 10
43.870733
 20
210.090042
 30
0.0
  0
VERTEX
  8
CSLAYER1
  6
CONTINUOUS
 62
     3
 10
43.885942
 20
210.083299
 30
0.0
  0
VERTEX
  8
CSLAYER1
  6
CONTINUOUS
 62
     3
 10
43.901387
 20
210.079232
 30
0.0
  0
VERTEX
  8
CSLAYER1
  6
CONTINUOUS
 62
     3
 10
43.916951
 20
210.077873
 30
0.0
  0
VERTEX
  8
CSLAYER1
  6
CONTINUOUS
 62
     3
 10
43.932514
 20
210.079232
 30
0.0
  0
VERTEX
  8
CSLAYER1
  6
CONTINUOUS
 62
     3
 10
43.947959
 20
210.083299
 30
0.0
  0
VERTEX
  8
CSLAYER1
  6
CONTINUOUS
 62
     3
 10
43.963168
 20
210.090042
 30
0.0
  0
VERTEX
  8
CSLAYER1
  6
CONTINUOUS
 62
     3
 10
43.978026
 20
210.099411
 30
0.0
  0
VERTEX
  8
CSLAYER1
  6
CONTINUOUS
 62
     3
 10
43.992418
 20
210.111334
 30
0.0
  0
VERTEX
  8
CSLAYER1
  6
CONTINUOUS
 62
     3
 10
44.006236
 20
210.125721
 30
0.0
  0
VERTEX
  8
CSLAYER1
  6
CONTINUOUS
 62
     3
 10
44.019375
 20
210.142461
 30
0.0
  0
VERTEX
  8
CSLAYER1
  6
CONTINUOUS
 62
     3
 10
44.031734
 20
210.161428
 30
0.0
  0
VERTEX
  8
CSLAYER1
  6
CONTINUOUS
 62
     3
 10
44.034808
 20
210.166707
 30
0.0
  0
SEQEND
  0
POLYLINE
  8
CSLAYER1
  6
CONTINUOUS
 62
     3
 66
     1
 10
0.0
 20
0.0
 30
0.0
  0
VERTEX
  8
CSLAYER1
  6
CONTINUOUS
 62
     3
 10
43.166951
 20
210.435016
 30
0.0
  0
VERTEX
  8
CSLAYER1
  6
CONTINUOUS
 62
     3
 10
43.167630
 20
210.403889
 30
0.0
  0
VERTEX
  8
CSLAYER1
  6
CONTINUOUS
 62
     3
 10
43.169663
 20
210.372998
 30
0.0
  0
VERTEX
  8
CSLAYER1
  6
CONTINUOUS
 62
     3
 10
43.173035
 20
210.342580
 30
0.0
  0
VERTEX
  8
CSLAYER1
  6
CONTINUOUS
 62
     3
 10
43.177720
 20
210.312866
 30
0.0
  0
VERTEX
  8
CSLAYER1
  6
CONTINUOUS
 62
     3
 10
43.183681
 20
210.284081
 30
0.0
  0
VERTEX
  8
CSLAYER1
  6
CONTINUOUS
 62
     3
 10
43.190875
 20
210.256444
 30
0.0
  0
VERTEX
  8
CSLAYER1
  6
CONTINUOUS
 62
     3
 10
43.199245
 20
210.230167
 30
0.0
  0
VERTEX
  8
CSLAYER1
  6
CONTINUOUS
 62
     3
 10
43.208728
 20
210.205449
 30
0.0
  0
VERTEX
  8
CSLAYER1
  6
CONTINUOUS
 62
     3
 10
43.219253
 20
210.182478
 30
0.0
  0
VERTEX
  8
CSLAYER1
  6
CONTINUOUS
 62
     3
 10
43.230738
 20
210.161428
 30
0.0
  0
VERTEX
  8
CSLAYER1
  6
CONTINUOUS
 62
     3
 10
43.243098
 20
210.142461
 30
0.0
  0
VERTEX
  8
CSLAYER1
  6
CONTINUOUS
 62
     3
 10
43.256236
 20
210.125721
 30
0.0
  0
VERTEX
  8
CSLAYER1
  6
CONTINUOUS
 62
     3
 10
43.270054
 20
210.111334
 30
0.0
  0
VERTEX
  8
CSLAYER1
  6
CONTINUOUS
 62
     3
 10
43.284447
 20
210.099411
 30
0.0
  0
VERTEX
  8
CSLAYER1
  6
CONTINUOUS
 62
     3
 10
43.299304
 20
210.090042
 30
0.0
  0
VERTEX
  8
CSLAYER1
  6
CONTINUOUS
 62
     3
 10
43.314513
 20
210.083299
 30
0.0
  0
VERTEX
  8
CSLAYER1
  6
CONTINUOUS
 62
     3
 10
43.329958
 20
210.079232
 30
0.0
  0
VERTEX
  8
CSLAYER1
  6
CONTINUOUS
 62
     3
 10
43.345522
 20
210.077873
 30
0.0
  0
VERTEX
  8
CSLAYER1
  6
CONTINUOUS
 62
     3
 10
43.361086
 20
210.079232
 30
0.0
  0
VERTEX
  8
CSLAYER1
  6
CONTINUOUS
 62
     3
 10
43.376531
 20
210.083299
 30
0.0
  0
VERTEX
  8
CSLAYER1
  6
CONTINUOUS
 62
     3
 10
43.391740
 20
210.090042
 30
0.0
  0
VERTEX
  8
CSLAYER1
  6
CONTINUOUS
 62
     3
 10
43.406597
 20
210.099411
 30
0.0
  0
VERTEX
  8
CSLAYER1
  6
CONTINUOUS
 62
     3
 10
43.420990
 20
210.111334
 30
0.0
  0
VERTEX
  8
CSLAYER1
  6
CONTINUOUS
 62
     3
 10
43.434808
 20
210.125721
 30
0.0
  0
VERTEX
  8
CSLAYER1
  6
CONTINUOUS
 62
     3
 10
43.447946
 20
210.142461
 30
0.0
  0
VERTEX
  8
CSLAYER1
  6
CONTINUOUS
 62
     3
 10
43.460305
 20
210.161428
 30
0.0
  0
VERTEX
  8
CSLAYER1
  6
CONTINUOUS
 62
     3
 10
43.463379
 20
210.166707
 30
0.0
  0
SEQEND
  0
POLYLINE
  8
CSLAYER1
  6
CONTINUOUS
 62
     3
 66
     1
 10
0.0
 20
0.0
 30
0.0
  0
VERTEX
  8
CSLAYER1
  6
CONTINUOUS
 62
     3
 10
42.595522
 20
210.435016
 30
0.0
  0
VERTEX
  8
CSLAYER1
  6
CONTINUOUS
 62
     3
 10
42.596202
 20
210.403889
 30
0.0
  0
VERTEX
  8
CSLAYER1
  6
CONTINUOUS
 62
     3
 10
42.598235
 20
210.372998
 30
0.0
  0
VERTEX
  8
CSLAYER1
  6
CONTINUOUS
 62
     3
 10
42.601607
 20
210.342580
 30
0.0
  0
VERTEX
  8
CSLAYER1
  6
CONTINUOUS
 62
     3
 10
42.606291
 20
210.312866
 30
0.0
  0
VERTEX
  8
CSLAYER1
  6
CONTINUOUS
 62
     3
 10
42.612253
 20
210.284081
 30
0.0
  0
VERTEX
  8
CSLAYER1
  6
CONTINUOUS
 62
     3
 10
42.619446
 20
210.256444
 30
0.0
  0
VERTEX
  8
CSLAYER1
  6
CONTINUOUS
 62
     3
 10
42.627816
 20
210.230167
 30
0.0
  0
VERTEX
  8
CSLAYER1
  6
CONTINUOUS
 62
     3
 10
42.637300
 20
210.205449
 30
0.0
  0
VERTEX
  8
CSLAYER1
  6
CONTINUOUS
 62
     3
 10
42.647824
 20
210.182478
 30
0.0
  0
VERTEX
  8
CSLAYER1
  6
CONTINUOUS
 62
     3
 10
42.659310
 20
210.161428
 30
0.0
  0
VERTEX
  8
CSLAYER1
  6
CONTINUOUS
 62
     3
 10
42.671669
 20
210.142461
 30
0.0
  0
VERTEX
  8
CSLAYER1
  6
CONTINUOUS
 62
     3
 10
42.684808
 20
210.125721
 30
0.0
  0
VERTEX
  8
CSLAYER1
  6
CONTINUOUS
 62
     3
 10
42.698626
 20
210.111334
 30
0.0
  0
VERTEX
  8
CSLAYER1
  6
CONTINUOUS
 62
     3
 10
42.713018
 20
210.099411
 30
0.0
  0
VERTEX
  8
CSLAYER1
  6
CONTINUOUS
 62
     3
 10
42.727876
 20
210.090042
 30
0.0
  0
VERTEX
  8
CSLAYER1
  6
CONTINUOUS
 62
     3
 10
42.743085
 20
210.083299
 30
0.0
  0
VERTEX
  8
CSLAYER1
  6
CONTINUOUS
 62
     3
 10
42.758530
 20
210.079232
 30
0.0
  0
VERTEX
  8
CSLAYER1
  6
CONTINUOUS
 62
     3
 10
42.774093
 20
210.077873
 30
0.0
  0
VERTEX
  8
CSLAYER1
  6
CONTINUOUS
 62
     3
 10
42.789657
 20
210.079232
 30
0.0
  0
VERTEX
  8
CSLAYER1
  6
CONTINUOUS
 62
     3
 10
42.805102
 20
210.083299
 30
0.0
  0
VERTEX
  8
CSLAYER1
  6
CONTINUOUS
 62
     3
 10
42.820311
 20
210.090042
 30
0.0
  0
VERTEX
  8
CSLAYER1
  6
CONTINUOUS
 62
     3
 10
42.835168
 20
210.099411
 30
0.0
  0
VERTEX
  8
CSLAYER1
  6
CONTINUOUS
 62
     3
 10
42.849561
 20
210.111334
 30
0.0
  0
VERTEX
  8
CSLAYER1
  6
CONTINUOUS
 62
     3
 10
42.863379
 20
210.125721
 30
0.0
  0
VERTEX
  8
CSLAYER1
  6
CONTINUOUS
 62
     3
 10
42.876518
 20
210.142461
 30
0.0
  0
VERTEX
  8
CSLAYER1
  6
CONTINUOUS
 62
     3
 10
42.888877
 20
210.161428
 30
0.0
  0
VERTEX
  8
CSLAYER1
  6
CONTINUOUS
 62
     3
 10
42.891951
 20
210.166707
 30
0.0
  0
SEQEND
  0
POLYLINE
  8
CSLAYER1
  6
CONTINUOUS
 62
     3
 66
     1
 10
0.0
 20
0.0
 30
0.0
  0
VERTEX
  8
CSLAYER1
  6
CONTINUOUS
 62
     3
 10
42.381236
 20
210.435016
 30
0.0
  0
VERTEX
  8
CSLAYER1
  6
CONTINUOUS
 62
     3
 10
42.381916
 20
210.403889
 30
0.0
  0
VERTEX
  8
CSLAYER1
  6
CONTINUOUS
 62
     3
 10
42.383949
 20
210.372998
 30
0.0
  0
VERTEX
  8
CSLAYER1
  6
CONTINUOUS
 62
     3
 10
42.387321
 20
210.342580
 30
0.0
  0
VERTEX
  8
CSLAYER1
  6
CONTINUOUS
 62
     3
 10
42.392005
 20
210.312866
 30
0.0
  0
VERTEX
  8
CSLAYER1
  6
CONTINUOUS
 62
     3
 10
42.397967
 20
210.284081
 30
0.0
  0
VERTEX
  8
CSLAYER1
  6
CONTINUOUS
 62
     3
 10
42.405160
 20
210.256444
 30
0.0
  0
VERTEX
  8
CSLAYER1
  6
CONTINUOUS
 62
     3
 10
42.413531
 20
210.230167
 30
0.0
  0
VERTEX
  8
CSLAYER1
  6
CONTINUOUS
 62
     3
 10
42.423014
 20
210.205449
 30
0.0
  0
VERTEX
  8
CSLAYER1
  6
CONTINUOUS
 62
     3
 10
42.433539
 20
210.182478
 30
0.0
  0
VERTEX
  8
CSLAYER1
  6
CONTINUOUS
 62
     3
 10
42.445024
 20
210.161428
 30
0.0
  0
VERTEX
  8
CSLAYER1
  6
CONTINUOUS
 62
     3
 10
42.457383
 20
210.142461
 30
0.0
  0
VERTEX
  8
CSLAYER1
  6
CONTINUOUS
 62
     3
 10
42.470522
 20
210.125721
 30
0.0
  0
VERTEX
  8
CSLAYER1
  6
CONTINUOUS
 62
     3
 10
42.484340
 20
210.111334
 30
0.0
  0
VERTEX
  8
CSLAYER1
  6
CONTINUOUS
 62
     3
 10
42.498733
 20
210.099411
 30
0.0
  0
VERTEX
  8
CSLAYER1
  6
CONTINUOUS
 62
     3
 10
42.513590
 20
210.090042
 30
0.0
  0
VERTEX
  8
CSLAYER1
  6
CONTINUOUS
 62
     3
 10
42.528799
 20
210.083299
 30
0.0
  0
VERTEX
  8
CSLAYER1
  6
CONTINUOUS
 62
     3
 10
42.544244
 20
210.079232
 30
0.0
  0
VERTEX
  8
CSLAYER1
  6
CONTINUOUS
 62
     3
 10
42.559808
 20
210.077873
 30
0.0
  0
VERTEX
  8
CSLAYER1
  6
CONTINUOUS
 62
     3
 10
42.575371
 20
210.079232
 30
0.0
  0
VERTEX
  8
CSLAYER1
  6
CONTINUOUS
 62
     3
 10
42.590816
 20
210.083299
 30
0.0
  0
VERTEX
  8
CSLAYER1
  6
CONTINUOUS
 62
     3
 10
42.606025
 20
210.090042
 30
0.0
  0
VERTEX
  8
CSLAYER1
  6
CONTINUOUS
 62
     3
 10
42.620883
 20
210.099411
 30
0.0
  0
VERTEX
  8
CSLAYER1
  6
CONTINUOUS
 62
     3
 10
42.635275
 20
210.111334
 30
0.0
  0
VERTEX
  8
CSLAYER1
  6
CONTINUOUS
 62
     3
 10
42.649093
 20
210.125721
 30
0.0
  0
VERTEX
  8
CSLAYER1
  6
CONTINUOUS
 62
     3
 10
42.662232
 20
210.142461
 30
0.0
  0
VERTEX
  8
CSLAYER1
  6
CONTINUOUS
 62
     3
 10
42.674591
 20
210.161428
 30
0.0
  0
VERTEX
  8
CSLAYER1
  6
CONTINUOUS
 62
     3
 10
42.677665
 20
210.166707
 30
0.0
  0
SEQEND
  0
POLYLINE
  8
CSLAYER1
  6
CONTINUOUS
 62
     3
 66
     1
 10
0.0
 20
0.0
 30
0.0
  0
VERTEX
  8
CSLAYER1
  6
CONTINUOUS
 62
     3
 10
42.595522
 20
210.435016
 30
0.0
  0
VERTEX
  8
CSLAYER1
  6
CONTINUOUS
 62
     3
 10
42.596202
 20
210.403889
 30
0.0
  0
VERTEX
  8
CSLAYER1
  6
CONTINUOUS
 62
     3
 10
42.598235
 20
210.372998
 30
0.0
  0
VERTEX
  8
CSLAYER1
  6
CONTINUOUS
 62
     3
 10
42.601607
 20
210.342580
 30
0.0
  0
VERTEX
  8
CSLAYER1
  6
CONTINUOUS
 62
     3
 10
42.606291
 20
210.312866
 30
0.0
  0
VERTEX
  8
CSLAYER1
  6
CONTINUOUS
 62
     3
 10
42.612253
 20
210.284081
 30
0.0
  0
VERTEX
  8
CSLAYER1
  6
CONTINUOUS
 62
     3
 10
42.619446
 20
210.256444
 30
0.0
  0
VERTEX
  8
CSLAYER1
  6
CONTINUOUS
 62
     3
 10
42.627816
 20
210.230167
 30
0.0
  0
VERTEX
  8
CSLAYER1
  6
CONTINUOUS
 62
     3
 10
42.637300
 20
210.205449
 30
0.0
  0
VERTEX
  8
CSLAYER1
  6
CONTINUOUS
 62
     3
 10
42.647824
 20
210.182478
 30
0.0
  0
VERTEX
  8
CSLAYER1
  6
CONTINUOUS
 62
     3
 10
42.659310
 20
210.161428
 30
0.0
  0
VERTEX
  8
CSLAYER1
  6
CONTINUOUS
 62
     3
 10
42.671669
 20
210.142461
 30
0.0
  0
VERTEX
  8
CSLAYER1
  6
CONTINUOUS
 62
     3
 10
42.684808
 20
210.125721
 30
0.0
  0
VERTEX
  8
CSLAYER1
  6
CONTINUOUS
 62
     3
 10
42.698626
 20
210.111334
 30
0.0
  0
VERTEX
  8
CSLAYER1
  6
CONTINUOUS
 62
     3
 10
42.713018
 20
210.099411
 30
0.0
  0
VERTEX
  8
CSLAYER1
  6
CONTINUOUS
 62
     3
 10
42.727876
 20
210.090042
 30
0.0
  0
VERTEX
  8
CSLAYER1
  6
CONTINUOUS
 62
     3
 10
42.743085
 20
210.083299
 30
0.0
  0
VERTEX
  8
CSLAYER1
  6
CONTINUOUS
 62
     3
 10
42.758530
 20
210.079232
 30
0.0
  0
VERTEX
  8
CSLAYER1
  6
CONTINUOUS
 62
     3
 10
42.774093
 20
210.077873
 30
0.0
  0
VERTEX
  8
CSLAYER1
  6
CONTINUOUS
 62
     3
 10
42.789657
 20
210.079232
 30
0.0
  0
VERTEX
  8
CSLAYER1
  6
CONTINUOUS
 62
     3
 10
42.805102
 20
210.083299
 30
0.0
  0
VERTEX
  8
CSLAYER1
  6
CONTINUOUS
 62
     3
 10
42.820311
 20
210.090042
 30
0.0
  0
VERTEX
  8
CSLAYER1
  6
CONTINUOUS
 62
     3
 10
42.835168
 20
210.099411
 30
0.0
  0
VERTEX
  8
CSLAYER1
  6
CONTINUOUS
 62
     3
 10
42.849561
 20
210.111334
 30
0.0
  0
VERTEX
  8
CSLAYER1
  6
CONTINUOUS
 62
     3
 10
42.863379
 20
210.125721
 30
0.0
  0
VERTEX
  8
CSLAYER1
  6
CONTINUOUS
 62
     3
 10
42.876518
 20
210.142461
 30
0.0
  0
VERTEX
  8
CSLAYER1
  6
CONTINUOUS
 62
     3
 10
42.888877
 20
210.161428
 30
0.0
  0
VERTEX
  8
CSLAYER1
  6
CONTINUOUS
 62
     3
 10
42.891951
 20
210.166707
 30
0.0
  0
SEQEND
  0
POLYLINE
  8
CSLAYER1
  6
CONTINUOUS
 62
     3
 66
     1
 10
0.0
 20
0.0
 30
0.0
  0
VERTEX
  8
CSLAYER1
  6
CONTINUOUS
 62
     3
 10
42.809808
 20
210.435016
 30
0.0
  0
VERTEX
  8
CSLAYER1
  6
CONTINUOUS
 62
     3
 10
42.810487
 20
210.403889
 30
0.0
  0
VERTEX
  8
CSLAYER1
  6
CONTINUOUS
 62
     3
 10
42.812521
 20
210.372998
 30
0.0
  0
VERTEX
  8
CSLAYER1
  6
CONTINUOUS
 62
     3
 10
42.815892
 20
210.342580
 30
0.0
  0
VERTEX
  8
CSLAYER1
  6
CONTINUOUS
 62
     3
 10
42.820577
 20
210.312866
 30
0.0
  0
VERTEX
  8
CSLAYER1
  6
CONTINUOUS
 62
     3
 10
42.826538
 20
210.284081
 30
0.0
  0
VERTEX
  8
CSLAYER1
  6
CONTINUOUS
 62
     3
 10
42.833732
 20
210.256444
 30
0.0
  0
VERTEX
  8
CSLAYER1
  6
CONTINUOUS
 62
     3
 10
42.842102
 20
210.230167
 30
0.0
  0
VERTEX
  8
CSLAYER1
  6
CONTINUOUS
 62
     3
 10
42.851585
 20
210.205449
 30
0.0
  0
VERTEX
  8
CSLAYER1
  6
CONTINUOUS
 62
     3
 10
42.862110
 20
210.182478
 30
0.0
  0
VERTEX
  8
CSLAYER1
  6
CONTINUOUS
 62
     3
 10
42.873596
 20
210.161428
 30
0.0
  0
VERTEX
  8
CSLAYER1
  6
CONTINUOUS
 62
     3
 10
42.885955
 20
210.142461
 30
0.0
  0
VERTEX
  8
CSLAYER1
  6
CONTINUOUS
 62
     3
 10
42.899093
 20
210.125721
 30
0.0
  0
VERTEX
  8
CSLAYER1
  6
CONTINUOUS
 62
     3
 10
42.912912
 20
210.111334
 30
0.0
  0
VERTEX
  8
CSLAYER1
  6
CONTINUOUS
 62
     3
 10
42.927304
 20
210.099411
 30
0.0
  0
VERTEX
  8
CSLAYER1
  6
CONTINUOUS
 62
     3
 10
42.942161
 20
210.090042
 30
0.0
  0
VERTEX
  8
CSLAYER1
  6
CONTINUOUS
 62
     3
 10
42.957371
 20
210.083299
 30
0.0
  0
VERTEX
  8
CSLAYER1
  6
CONTINUOUS
 62
     3
 10
42.972816
 20
210.079232
 30
0.0
  0
VERTEX
  8
CSLAYER1
  6
CONTINUOUS
 62
     3
 10
42.988379
 20
210.077873
 30
0.0
  0
VERTEX
  8
CSLAYER1
  6
CONTINUOUS
 62
     3
 10
43.003943
 20
210.079232
 30
0.0
  0
VERTEX
  8
CSLAYER1
  6
CONTINUOUS
 62
     3
 10
43.019388
 20
210.083299
 30
0.0
  0
VERTEX
  8
CSLAYER1
  6
CONTINUOUS
 62
     3
 10
43.034597
 20
210.090042
 30
0.0
  0
VERTEX
  8
CSLAYER1
  6
CONTINUOUS
 62
     3
 10
43.049454
 20
210.099411
 30
0.0
  0
VERTEX
  8
CSLAYER1
  6
CONTINUOUS
 62
     3
 10
43.063847
 20
210.111334
 30
0.0
  0
VERTEX
  8
CSLAYER1
  6
CONTINUOUS
 62
     3
 10
43.077665
 20
210.125721
 30
0.0
  0
VERTEX
  8
CSLAYER1
  6
CONTINUOUS
 62
     3
 10
43.090804
 20
210.142461
 30
0.0
  0
VERTEX
  8
CSLAYER1
  6
CONTINUOUS
 62
     3
 10
43.103163
 20
210.161428
 30
0.0
  0
VERTEX
  8
CSLAYER1
  6
CONTINUOUS
 62
     3
 10
43.106237
 20
210.166707
 30
0.0
  0
SEQEND
  0
LINE
  8
CSLAYER1
  6
CONTINUOUS
 62
     3
 10
46.381236
 20
210.435016
 11
46.381236
 21
213.720730
  0
POLYLINE
  8
CSLAYER1
  6
CONTINUOUS
 62
     3
 66
     1
 10
0.0
 20
0.0
 30
0.0
  0
VERTEX
  8
CSLAYER1
  6
CONTINUOUS
 62
     3
 10
46.381236
 20
213.720730
 30
0.0
  0
VERTEX
  8
CSLAYER1
  6
CONTINUOUS
 62
     3
 10
46.380693
 20
213.745632
 30
0.0
  0
VERTEX
  8
CSLAYER1
  6
CONTINUOUS
 62
     3
 10
46.379066
 20
213.770344
 30
0.0
  0
VERTEX
  8
CSLAYER1
  6
CONTINUOUS
 62
     3
 10
46.376369
 20
213.794678
 30
0.0
  0
VERTEX
  8
CSLAYER1
  6
CONTINUOUS
 62
     3
 10
46.372621
 20
213.818450
 30
0.0
  0
VERTEX
  8
CSLAYER1
  6
CONTINUOUS
 62
     3
 10
46.367852
 20
213.841478
 30
0.0
  0
VERTEX
  8
CSLAYER1
  6
CONTINUOUS
 62
     3
 10
46.362097
 20
213.863587
 30
0.0
  0
VERTEX
  8
CSLAYER1
  6
CONTINUOUS
 62
     3
 10
46.355401
 20
213.884609
 30
0.0
  0
VERTEX
  8
CSLAYER1
  6
CONTINUOUS
 62
     3
 10
46.347814
 20
213.904384
 30
0.0
  0
VERTEX
  8
CSLAYER1
  6
CONTINUOUS
 62
     3
 10
46.339394
 20
213.922760
 30
0.0
  0
VERTEX
  8
CSLAYER1
  6
CONTINUOUS
 62
     3
 10
46.330206
 20
213.939600
 30
0.0
  0
VERTEX
  8
CSLAYER1
  6
CONTINUOUS
 62
     3
 10
46.320319
 20
213.954773
 30
0.0
  0
VERTEX
  8
CSLAYER1
  6
CONTINUOUS
 62
     3
 10
46.309808
 20
213.968166
 30
0.0
  0
VERTEX
  8
CSLAYER1
  6
CONTINUOUS
 62
     3
 10
46.298753
 20
213.979675
 30
0.0
  0
VERTEX
  8
CSLAYER1
  6
CONTINUOUS
 62
     3
 10
46.287239
 20
213.989214
 30
0.0
  0
VERTEX
  8
CSLAYER1
  6
CONTINUOUS
 62
     3
 10
46.275353
 20
213.996709
 30
0.0
  0
VERTEX
  8
CSLAYER1
  6
CONTINUOUS
 62
     3
 10
46.263186
 20
214.002104
 30
0.0
  0
VERTEX
  8
CSLAYER1
  6
CONTINUOUS
 62
     3
 10
46.250830
 20
214.005357
 30
0.0
  0
VERTEX
  8
CSLAYER1
  6
CONTINUOUS
 62
     3
 10
46.238379
 20
214.006444
 30
0.0
  0
SEQEND
  0
POLYLINE
  8
CSLAYER1
  6
CONTINUOUS
 62
     3
 66
     1
 10
0.0
 20
0.0
 30
0.0
  0
VERTEX
  8
CSLAYER1
  6
CONTINUOUS
 62
     3
 10
46.238379
 20
210.149301
 30
0.0
  0
VERTEX
  8
CSLAYER1
  6
CONTINUOUS
 62
     3
 10
46.250830
 20
210.150389
 30
0.0
  0
VERTEX
  8
CSLAYER1
  6
CONTINUOUS
 62
     3
 10
46.263186
 20
210.153642
 30
0.0
  0
VERTEX
  8
CSLAYER1
  6
CONTINUOUS
 62
     3
 10
46.275353
 20
210.159037
 30
0.0
  0
VERTEX
  8
CSLAYER1
  6
CONTINUOUS
 62
     3
 10
46.287239
 20
210.166532
 30
0.0
  0
VERTEX
  8
CSLAYER1
  6
CONTINUOUS
 62
     3
 10
46.298753
 20
210.176071
 30
0.0
  0
VERTEX
  8
CSLAYER1
  6
CONTINUOUS
 62
     3
 10
46.309808
 20
210.187580
 30
0.0
  0
VERTEX
  8
CSLAYER1
  6
CONTINUOUS
 62
     3
 10
46.320319
 20
210.200972
 30
0.0
  0
VERTEX
  8
CSLAYER1
  6
CONTINUOUS
 62
     3
 10
46.330206
 20
210.216146
 30
0.0
  0
VERTEX
  8
CSLAYER1
  6
CONTINUOUS
 62
     3
 10
46.339394
 20
210.232985
 30
0.0
  0
VERTEX
  8
CSLAYER1
  6
CONTINUOUS
 62
     3
 10
46.347814
 20
210.251362
 30
0.0
  0
VERTEX
  8
CSLAYER1
  6
CONTINUOUS
 62
     3
 10
46.355401
 20
210.271137
 30
0.0
  0
VERTEX
  8
CSLAYER1
  6
CONTINUOUS
 62
     3
 10
46.362097
 20
210.292159
 30
0.0
  0
VERTEX
  8
CSLAYER1
  6
CONTINUOUS
 62
     3
 10
46.367852
 20
210.314268
 30
0.0
  0
VERTEX
  8
CSLAYER1
  6
CONTINUOUS
 62
     3
 10
46.372621
 20
210.337296
 30
0.0
  0
VERTEX
  8
CSLAYER1
  6
CONTINUOUS
 62
     3
 10
46.376369
 20
210.361067
 30
0.0
  0
VERTEX
  8
CSLAYER1
  6
CONTINUOUS
 62
     3
 10
46.379066
 20
210.385402
 30
0.0
  0
VERTEX
  8
CSLAYER1
  6
CONTINUOUS
 62
     3
 10
46.380693
 20
210.410114
 30
0.0
  0
VERTEX
  8
CSLAYER1
  6
CONTINUOUS
 62
     3
 10
46.381236
 20
210.435015
 30
0.0
  0
SEQEND
  0
LINE
  8
CSLAYER1
  6
CONTINUOUS
 62
     3
 10
46.738379
 20
210.435016
 11
46.738379
 21
213.720730
  0
POLYLINE
  8
CSLAYER1
  6
CONTINUOUS
 62
     3
 66
     1
 10
0.0
 20
0.0
 30
0.0
  0
VERTEX
  8
CSLAYER1
  6
CONTINUOUS
 62
     3
 10
46.738379
 20
213.720730
 30
0.0
  0
VERTEX
  8
CSLAYER1
  6
CONTINUOUS
 62
     3
 10
46.737836
 20
213.745632
 30
0.0
  0
VERTEX
  8
CSLAYER1
  6
CONTINUOUS
 62
     3
 10
46.736209
 20
213.770344
 30
0.0
  0
VERTEX
  8
CSLAYER1
  6
CONTINUOUS
 62
     3
 10
46.733511
 20
213.794678
 30
0.0
  0
VERTEX
  8
CSLAYER1
  6
CONTINUOUS
 62
     3
 10
46.729764
 20
213.818450
 30
0.0
  0
VERTEX
  8
CSLAYER1
  6
CONTINUOUS
 62
     3
 10
46.724995
 20
213.841478
 30
0.0
  0
VERTEX
  8
CSLAYER1
  6
CONTINUOUS
 62
     3
 10
46.719240
 20
213.863587
 30
0.0
  0
VERTEX
  8
CSLAYER1
  6
CONTINUOUS
 62
     3
 10
46.712544
 20
213.884609
 30
0.0
  0
VERTEX
  8
CSLAYER1
  6
CONTINUOUS
 62
     3
 10
46.704957
 20
213.904384
 30
0.0
  0
VERTEX
  8
CSLAYER1
  6
CONTINUOUS
 62
     3
 10
46.696537
 20
213.922760
 30
0.0
  0
VERTEX
  8
CSLAYER1
  6
CONTINUOUS
 62
     3
 10
46.687349
 20
213.939600
 30
0.0
  0
VERTEX
  8
CSLAYER1
  6
CONTINUOUS
 62
     3
 10
46.677461
 20
213.954773
 30
0.0
  0
VERTEX
  8
CSLAYER1
  6
CONTINUOUS
 62
     3
 10
46.666951
 20
213.968166
 30
0.0
  0
VERTEX
  8
CSLAYER1
  6
CONTINUOUS
 62
     3
 10
46.655896
 20
213.979675
 30
0.0
  0
VERTEX
  8
CSLAYER1
  6
CONTINUOUS
 62
     3
 10
46.644382
 20
213.989214
 30
0.0
  0
VERTEX
  8
CSLAYER1
  6
CONTINUOUS
 62
     3
 10
46.632496
 20
213.996709
 30
0.0
  0
VERTEX
  8
CSLAYER1
  6
CONTINUOUS
 62
     3
 10
46.620329
 20
214.002104
 30
0.0
  0
VERTEX
  8
CSLAYER1
  6
CONTINUOUS
 62
     3
 10
46.607973
 20
214.005357
 30
0.0
  0
VERTEX
  8
CSLAYER1
  6
CONTINUOUS
 62
     3
 10
46.595522
 20
214.006444
 30
0.0
  0
VERTEX
  8
CSLAYER1
  6
CONTINUOUS
 62
     3
 10
46.583071
 20
214.005357
 30
0.0
  0
VERTEX
  8
CSLAYER1
  6
CONTINUOUS
 62
     3
 10
46.570715
 20
214.002104
 30
0.0
  0
VERTEX
  8
CSLAYER1
  6
CONTINUOUS
 62
     3
 10
46.558548
 20
213.996709
 30
0.0
  0
VERTEX
  8
CSLAYER1
  6
CONTINUOUS
 62
     3
 10
46.546662
 20
213.989213
 30
0.0
  0
VERTEX
  8
CSLAYER1
  6
CONTINUOUS
 62
     3
 10
46.535148
 20
213.979675
 30
0.0
  0
VERTEX
  8
CSLAYER1
  6
CONTINUOUS
 62
     3
 10
46.524093
 20
213.968166
 30
0.0
  0
VERTEX
  8
CSLAYER1
  6
CONTINUOUS
 62
     3
 10
46.513582
 20
213.954773
 30
0.0
  0
VERTEX
  8
CSLAYER1
  6
CONTINUOUS
 62
     3
 10
46.503695
 20
213.939600
 30
0.0
  0
VERTEX
  8
CSLAYER1
  6
CONTINUOUS
 62
     3
 10
46.494683
 20
213.923113
 30
0.0
  0
SEQEND
  0
POLYLINE
  8
CSLAYER1
  6
CONTINUOUS
 62
     3
 66
     1
 10
0.0
 20
0.0
 30
0.0
  0
VERTEX
  8
CSLAYER1
  6
CONTINUOUS
 62
     3
 10
46.494683
 20
210.232633
 30
0.0
  0
VERTEX
  8
CSLAYER1
  6
CONTINUOUS
 62
     3
 10
46.503886
 20
210.215826
 30
0.0
  0
VERTEX
  8
CSLAYER1
  6
CONTINUOUS
 62
     3
 10
46.513787
 20
210.200687
 30
0.0
  0
VERTEX
  8
CSLAYER1
  6
CONTINUOUS
 62
     3
 10
46.524309
 20
210.187331
 30
0.0
  0
VERTEX
  8
CSLAYER1
  6
CONTINUOUS
 62
     3
 10
46.535374
 20
210.175860
 30
0.0
  0
VERTEX
  8
CSLAYER1
  6
CONTINUOUS
 62
     3
 10
46.546896
 20
210.166362
 30
0.0
  0
VERTEX
  8
CSLAYER1
  6
CONTINUOUS
 62
     3
 10
46.558789
 20
210.158908
 30
0.0
  0
VERTEX
  8
CSLAYER1
  6
CONTINUOUS
 62
     3
 10
46.570961
 20
210.153556
 30
0.0
  0
VERTEX
  8
CSLAYER1
  6
CONTINUOUS
 62
     3
 10
46.583320
 20
210.150346
 30
0.0
  0
VERTEX
  8
CSLAYER1
  6
CONTINUOUS
 62
     3
 10
46.595771
 20
210.149302
 30
0.0
  0
VERTEX
  8
CSLAYER1
  6
CONTINUOUS
 62
     3
 10
46.608221
 20
210.150432
 30
0.0
  0
VERTEX
  8
CSLAYER1
  6
CONTINUOUS
 62
     3
 10
46.620574
 20
210.153729
 30
0.0
  0
VERTEX
  8
CSLAYER1
  6
CONTINUOUS
 62
     3
 10
46.632737
 20
210.159166
 30
0.0
  0
VERTEX
  8
CSLAYER1
  6
CONTINUOUS
 62
     3
 10
46.644616
 20
210.166703
 30
0.0
  0
VERTEX
  8
CSLAYER1
  6
CONTINUOUS
 62
     3
 10
46.656122
 20
210.176282
 30
0.0
  0
VERTEX
  8
CSLAYER1
  6
CONTINUOUS
 62
     3
 10
46.667166
 20
210.187829
 30
0.0
  0
VERTEX
  8
CSLAYER1
  6
CONTINUOUS
 62
     3
 10
46.677666
 20
210.201258
 30
0.0
  0
VERTEX
  8
CSLAYER1
  6
CONTINUOUS
 62
     3
 10
46.687540
 20
210.216467
 30
0.0
  0
VERTEX
  8
CSLAYER1
  6
CONTINUOUS
 62
     3
 10
46.696713
 20
210.233338
 30
0.0
  0
VERTEX
  8
CSLAYER1
  6
CONTINUOUS
 62
     3
 10
46.705117
 20
210.251744
 30
0.0
  0
VERTEX
  8
CSLAYER1
  6
CONTINUOUS
 62
     3
 10
46.712687
 20
210.271545
 30
0.0
  0
VERTEX
  8
CSLAYER1
  6
CONTINUOUS
 62
     3
 10
46.719364
 20
210.292590
 30
0.0
  0
VERTEX
  8
CSLAYER1
  6
CONTINUOUS
 62
     3
 10
46.725100
 20
210.314720
 30
0.0
  0
VERTEX
  8
CSLAYER1
  6
CONTINUOUS
 62
     3
 10
46.729849
 20
210.337764
 30
0.0
  0
VERTEX
  8
CSLAYER1
  6
CONTINUOUS
 62
     3
 10
46.733576
 20
210.361549
 30
0.0
  0
VERTEX
  8
CSLAYER1
  6
CONTINUOUS
 62
     3
 10
46.736252
 20
210.385893
 30
0.0
  0
VERTEX
  8
CSLAYER1
  6
CONTINUOUS
 62
     3
 10
46.737857
 20
210.410611
 30
0.0
  0
VERTEX
  8
CSLAYER1
  6
CONTINUOUS
 62
     3
 10
46.738379
 20
210.435015
 30
0.0
  0
SEQEND
  0
LINE
  8
CSLAYER1
  6
CONTINUOUS
 62
     3
 10
47.095522
 20
210.435016
 11
47.095522
 21
213.720730
  0
POLYLINE
  8
CSLAYER1
  6
CONTINUOUS
 62
     3
 66
     1
 10
0.0
 20
0.0
 30
0.0
  0
VERTEX
  8
CSLAYER1
  6
CONTINUOUS
 62
     3
 10
47.095522
 20
213.720730
 30
0.0
  0
VERTEX
  8
CSLAYER1
  6
CONTINUOUS
 62
     3
 10
47.094978
 20
213.745632
 30
0.0
  0
VERTEX
  8
CSLAYER1
  6
CONTINUOUS
 62
     3
 10
47.093352
 20
213.770344
 30
0.0
  0
VERTEX
  8
CSLAYER1
  6
CONTINUOUS
 62
     3
 10
47.090654
 20
213.794678
 30
0.0
  0
VERTEX
  8
CSLAYER1
  6
CONTINUOUS
 62
     3
 10
47.086907
 20
213.818450
 30
0.0
  0
VERTEX
  8
CSLAYER1
  6
CONTINUOUS
 62
     3
 10
47.082137
 20
213.841478
 30
0.0
  0
VERTEX
  8
CSLAYER1
  6
CONTINUOUS
 62
     3
 10
47.076383
 20
213.863587
 30
0.0
  0
VERTEX
  8
CSLAYER1
  6
CONTINUOUS
 62
     3
 10
47.069687
 20
213.884609
 30
0.0
  0
VERTEX
  8
CSLAYER1
  6
CONTINUOUS
 62
     3
 10
47.062100
 20
213.904384
 30
0.0
  0
VERTEX
  8
CSLAYER1
  6
CONTINUOUS
 62
     3
 10
47.053680
 20
213.922760
 30
0.0
  0
VERTEX
  8
CSLAYER1
  6
CONTINUOUS
 62
     3
 10
47.044492
 20
213.939600
 30
0.0
  0
VERTEX
  8
CSLAYER1
  6
CONTINUOUS
 62
     3
 10
47.034604
 20
213.954773
 30
0.0
  0
VERTEX
  8
CSLAYER1
  6
CONTINUOUS
 62
     3
 10
47.024093
 20
213.968166
 30
0.0
  0
VERTEX
  8
CSLAYER1
  6
CONTINUOUS
 62
     3
 10
47.013039
 20
213.979675
 30
0.0
  0
VERTEX
  8
CSLAYER1
  6
CONTINUOUS
 62
     3
 10
47.001525
 20
213.989214
 30
0.0
  0
VERTEX
  8
CSLAYER1
  6
CONTINUOUS
 62
     3
 10
46.989639
 20
213.996709
 30
0.0
  0
VERTEX
  8
CSLAYER1
  6
CONTINUOUS
 62
     3
 10
46.977472
 20
214.002104
 30
0.0
  0
VERTEX
  8
CSLAYER1
  6
CONTINUOUS
 62
     3
 10
46.965116
 20
214.005357
 30
0.0
  0
VERTEX
  8
CSLAYER1
  6
CONTINUOUS
 62
     3
 10
46.952665
 20
214.006444
 30
0.0
  0
VERTEX
  8
CSLAYER1
  6
CONTINUOUS
 62
     3
 10
46.940214
 20
214.005357
 30
0.0
  0
VERTEX
  8
CSLAYER1
  6
CONTINUOUS
 62
     3
 10
46.927858
 20
214.002104
 30
0.0
  0
VERTEX
  8
CSLAYER1
  6
CONTINUOUS
 62
     3
 10
46.915691
 20
213.996709
 30
0.0
  0
VERTEX
  8
CSLAYER1
  6
CONTINUOUS
 62
     3
 10
46.903805
 20
213.989213
 30
0.0
  0
VERTEX
  8
CSLAYER1
  6
CONTINUOUS
 62
     3
 10
46.892291
 20
213.979675
 30
0.0
  0
VERTEX
  8
CSLAYER1
  6
CONTINUOUS
 62
     3
 10
46.881236
 20
213.968166
 30
0.0
  0
VERTEX
  8
CSLAYER1
  6
CONTINUOUS
 62
     3
 10
46.870725
 20
213.954773
 30
0.0
  0
VERTEX
  8
CSLAYER1
  6
CONTINUOUS
 62
     3
 10
46.860838
 20
213.939600
 30
0.0
  0
VERTEX
  8
CSLAYER1
  6
CONTINUOUS
 62
     3
 10
46.851826
 20
213.923113
 30
0.0
  0
SEQEND
  0
LINE
  8
CSLAYER1
  6
CONTINUOUS
 62
     3
 10
47.452665
 20
210.435016
 11
47.452665
 21
213.720730
  0
POLYLINE
  8
CSLAYER1
  6
CONTINUOUS
 62
     3
 66
     1
 10
0.0
 20
0.0
 30
0.0
  0
VERTEX
  8
CSLAYER1
  6
CONTINUOUS
 62
     3
 10
47.452665
 20
213.720730
 30
0.0
  0
VERTEX
  8
CSLAYER1
  6
CONTINUOUS
 62
     3
 10
47.452121
 20
213.745632
 30
0.0
  0
VERTEX
  8
CSLAYER1
  6
CONTINUOUS
 62
     3
 10
47.450495
 20
213.770344
 30
0.0
  0
VERTEX
  8
CSLAYER1
  6
CONTINUOUS
 62
     3
 10
47.447797
 20
213.794678
 30
0.0
  0
VERTEX
  8
CSLAYER1
  6
CONTINUOUS
 62
     3
 10
47.444049
 20
213.818450
 30
0.0
  0
VERTEX
  8
CSLAYER1
  6
CONTINUOUS
 62
     3
 10
47.439280
 20
213.841478
 30
0.0
  0
VERTEX
  8
CSLAYER1
  6
CONTINUOUS
 62
     3
 10
47.433526
 20
213.863587
 30
0.0
  0
VERTEX
  8
CSLAYER1
  6
CONTINUOUS
 62
     3
 10
47.426829
 20
213.884609
 30
0.0
  0
VERTEX
  8
CSLAYER1
  6
CONTINUOUS
 62
     3
 10
47.419243
 20
213.904384
 30
0.0
  0
VERTEX
  8
CSLAYER1
  6
CONTINUOUS
 62
     3
 10
47.410823
 20
213.922760
 30
0.0
  0
VERTEX
  8
CSLAYER1
  6
CONTINUOUS
 62
     3
 10
47.401634
 20
213.939600
 30
0.0
  0
VERTEX
  8
CSLAYER1
  6
CONTINUOUS
 62
     3
 10
47.391747
 20
213.954773
 30
0.0
  0
VERTEX
  8
CSLAYER1
  6
CONTINUOUS
 62
     3
 10
47.381236
 20
213.968166
 30
0.0
  0
VERTEX
  8
CSLAYER1
  6
CONTINUOUS
 62
     3
 10
47.370182
 20
213.979675
 30
0.0
  0
VERTEX
  8
CSLAYER1
  6
CONTINUOUS
 62
     3
 10
47.358668
 20
213.989214
 30
0.0
  0
VERTEX
  8
CSLAYER1
  6
CONTINUOUS
 62
     3
 10
47.346782
 20
213.996709
 30
0.0
  0
VERTEX
  8
CSLAYER1
  6
CONTINUOUS
 62
     3
 10
47.334615
 20
214.002104
 30
0.0
  0
VERTEX
  8
CSLAYER1
  6
CONTINUOUS
 62
     3
 10
47.322258
 20
214.005357
 30
0.0
  0
VERTEX
  8
CSLAYER1
  6
CONTINUOUS
 62
     3
 10
47.309808
 20
214.006444
 30
0.0
  0
VERTEX
  8
CSLAYER1
  6
CONTINUOUS
 62
     3
 10
47.297357
 20
214.005357
 30
0.0
  0
VERTEX
  8
CSLAYER1
  6
CONTINUOUS
 62
     3
 10
47.285001
 20
214.002104
 30
0.0
  0
VERTEX
  8
CSLAYER1
  6
CONTINUOUS
 62
     3
 10
47.272834
 20
213.996709
 30
0.0
  0
VERTEX
  8
CSLAYER1
  6
CONTINUOUS
 62
     3
 10
47.260948
 20
213.989213
 30
0.0
  0
VERTEX
  8
CSLAYER1
  6
CONTINUOUS
 62
     3
 10
47.249434
 20
213.979675
 30
0.0
  0
VERTEX
  8
CSLAYER1
  6
CONTINUOUS
 62
     3
 10
47.238379
 20
213.968166
 30
0.0
  0
VERTEX
  8
CSLAYER1
  6
CONTINUOUS
 62
     3
 10
47.227868
 20
213.954773
 30
0.0
  0
VERTEX
  8
CSLAYER1
  6
CONTINUOUS
 62
     3
 10
47.217981
 20
213.939600
 30
0.0
  0
VERTEX
  8
CSLAYER1
  6
CONTINUOUS
 62
     3
 10
47.208969
 20
213.923113
 30
0.0
  0
SEQEND
  0
LINE
  8
CSLAYER1
  6
CONTINUOUS
 62
     3
 10
47.952665
 20
210.435016
 11
47.952665
 21
213.720730
  0
POLYLINE
  8
CSLAYER1
  6
CONTINUOUS
 62
     3
 66
     1
 10
0.0
 20
0.0
 30
0.0
  0
VERTEX
  8
CSLAYER1
  6
CONTINUOUS
 62
     3
 10
47.952665
 20
213.720730
 30
0.0
  0
VERTEX
  8
CSLAYER1
  6
CONTINUOUS
 62
     3
 10
47.952121
 20
213.745632
 30
0.0
  0
VERTEX
  8
CSLAYER1
  6
CONTINUOUS
 62
     3
 10
47.950495
 20
213.770344
 30
0.0
  0
VERTEX
  8
CSLAYER1
  6
CONTINUOUS
 62
     3
 10
47.947797
 20
213.794678
 30
0.0
  0
VERTEX
  8
CSLAYER1
  6
CONTINUOUS
 62
     3
 10
47.944049
 20
213.818450
 30
0.0
  0
VERTEX
  8
CSLAYER1
  6
CONTINUOUS
 62
     3
 10
47.939280
 20
213.841478
 30
0.0
  0
VERTEX
  8
CSLAYER1
  6
CONTINUOUS
 62
     3
 10
47.933526
 20
213.863587
 30
0.0
  0
VERTEX
  8
CSLAYER1
  6
CONTINUOUS
 62
     3
 10
47.926829
 20
213.884609
 30
0.0
  0
VERTEX
  8
CSLAYER1
  6
CONTINUOUS
 62
     3
 10
47.919243
 20
213.904384
 30
0.0
  0
VERTEX
  8
CSLAYER1
  6
CONTINUOUS
 62
     3
 10
47.910823
 20
213.922760
 30
0.0
  0
VERTEX
  8
CSLAYER1
  6
CONTINUOUS
 62
     3
 10
47.901634
 20
213.939600
 30
0.0
  0
VERTEX
  8
CSLAYER1
  6
CONTINUOUS
 62
     3
 10
47.891747
 20
213.954773
 30
0.0
  0
VERTEX
  8
CSLAYER1
  6
CONTINUOUS
 62
     3
 10
47.881236
 20
213.968166
 30
0.0
  0
VERTEX
  8
CSLAYER1
  6
CONTINUOUS
 62
     3
 10
47.870182
 20
213.979675
 30
0.0
  0
VERTEX
  8
CSLAYER1
  6
CONTINUOUS
 62
     3
 10
47.858668
 20
213.989214
 30
0.0
  0
VERTEX
  8
CSLAYER1
  6
CONTINUOUS
 62
     3
 10
47.846782
 20
213.996709
 30
0.0
  0
VERTEX
  8
CSLAYER1
  6
CONTINUOUS
 62
     3
 10
47.834615
 20
214.002104
 30
0.0
  0
VERTEX
  8
CSLAYER1
  6
CONTINUOUS
 62
     3
 10
47.822258
 20
214.005357
 30
0.0
  0
VERTEX
  8
CSLAYER1
  6
CONTINUOUS
 62
     3
 10
47.809808
 20
214.006444
 30
0.0
  0
VERTEX
  8
CSLAYER1
  6
CONTINUOUS
 62
     3
 10
47.797357
 20
214.005357
 30
0.0
  0
VERTEX
  8
CSLAYER1
  6
CONTINUOUS
 62
     3
 10
47.785001
 20
214.002104
 30
0.0
  0
VERTEX
  8
CSLAYER1
  6
CONTINUOUS
 62
     3
 10
47.772834
 20
213.996709
 30
0.0
  0
VERTEX
  8
CSLAYER1
  6
CONTINUOUS
 62
     3
 10
47.760948
 20
213.989213
 30
0.0
  0
VERTEX
  8
CSLAYER1
  6
CONTINUOUS
 62
     3
 10
47.749434
 20
213.979675
 30
0.0
  0
VERTEX
  8
CSLAYER1
  6
CONTINUOUS
 62
     3
 10
47.738379
 20
213.968166
 30
0.0
  0
VERTEX
  8
CSLAYER1
  6
CONTINUOUS
 62
     3
 10
47.727868
 20
213.954773
 30
0.0
  0
VERTEX
  8
CSLAYER1
  6
CONTINUOUS
 62
     3
 10
47.717981
 20
213.939600
 30
0.0
  0
VERTEX
  8
CSLAYER1
  6
CONTINUOUS
 62
     3
 10
47.708969
 20
213.923113
 30
0.0
  0
SEQEND
  0
LINE
  8
CSLAYER1
  6
CONTINUOUS
 62
     3
 10
48.452665
 20
210.435016
 11
48.452665
 21
213.720730
  0
POLYLINE
  8
CSLAYER1
  6
CONTINUOUS
 62
     3
 66
     1
 10
0.0
 20
0.0
 30
0.0
  0
VERTEX
  8
CSLAYER1
  6
CONTINUOUS
 62
     3
 10
48.452665
 20
213.720730
 30
0.0
  0
VERTEX
  8
CSLAYER1
  6
CONTINUOUS
 62
     3
 10
48.452121
 20
213.745632
 30
0.0
  0
VERTEX
  8
CSLAYER1
  6
CONTINUOUS
 62
     3
 10
48.450495
 20
213.770344
 30
0.0
  0
VERTEX
  8
CSLAYER1
  6
CONTINUOUS
 62
     3
 10
48.447797
 20
213.794678
 30
0.0
  0
VERTEX
  8
CSLAYER1
  6
CONTINUOUS
 62
     3
 10
48.444049
 20
213.818450
 30
0.0
  0
VERTEX
  8
CSLAYER1
  6
CONTINUOUS
 62
     3
 10
48.439280
 20
213.841478
 30
0.0
  0
VERTEX
  8
CSLAYER1
  6
CONTINUOUS
 62
     3
 10
48.433526
 20
213.863587
 30
0.0
  0
VERTEX
  8
CSLAYER1
  6
CONTINUOUS
 62
     3
 10
48.426829
 20
213.884609
 30
0.0
  0
VERTEX
  8
CSLAYER1
  6
CONTINUOUS
 62
     3
 10
48.419243
 20
213.904384
 30
0.0
  0
VERTEX
  8
CSLAYER1
  6
CONTINUOUS
 62
     3
 10
48.410823
 20
213.922760
 30
0.0
  0
VERTEX
  8
CSLAYER1
  6
CONTINUOUS
 62
     3
 10
48.401634
 20
213.939600
 30
0.0
  0
VERTEX
  8
CSLAYER1
  6
CONTINUOUS
 62
     3
 10
48.391747
 20
213.954773
 30
0.0
  0
VERTEX
  8
CSLAYER1
  6
CONTINUOUS
 62
     3
 10
48.381236
 20
213.968166
 30
0.0
  0
VERTEX
  8
CSLAYER1
  6
CONTINUOUS
 62
     3
 10
48.370182
 20
213.979675
 30
0.0
  0
VERTEX
  8
CSLAYER1
  6
CONTINUOUS
 62
     3
 10
48.358668
 20
213.989214
 30
0.0
  0
VERTEX
  8
CSLAYER1
  6
CONTINUOUS
 62
     3
 10
48.346782
 20
213.996709
 30
0.0
  0
VERTEX
  8
CSLAYER1
  6
CONTINUOUS
 62
     3
 10
48.334615
 20
214.002104
 30
0.0
  0
VERTEX
  8
CSLAYER1
  6
CONTINUOUS
 62
     3
 10
48.322258
 20
214.005357
 30
0.0
  0
VERTEX
  8
CSLAYER1
  6
CONTINUOUS
 62
     3
 10
48.309808
 20
214.006444
 30
0.0
  0
VERTEX
  8
CSLAYER1
  6
CONTINUOUS
 62
     3
 10
48.297357
 20
214.005357
 30
0.0
  0
VERTEX
  8
CSLAYER1
  6
CONTINUOUS
 62
     3
 10
48.285001
 20
214.002104
 30
0.0
  0
VERTEX
  8
CSLAYER1
  6
CONTINUOUS
 62
     3
 10
48.272834
 20
213.996709
 30
0.0
  0
VERTEX
  8
CSLAYER1
  6
CONTINUOUS
 62
     3
 10
48.260948
 20
213.989213
 30
0.0
  0
VERTEX
  8
CSLAYER1
  6
CONTINUOUS
 62
     3
 10
48.249434
 20
213.979675
 30
0.0
  0
VERTEX
  8
CSLAYER1
  6
CONTINUOUS
 62
     3
 10
48.238379
 20
213.968166
 30
0.0
  0
VERTEX
  8
CSLAYER1
  6
CONTINUOUS
 62
     3
 10
48.227868
 20
213.954773
 30
0.0
  0
VERTEX
  8
CSLAYER1
  6
CONTINUOUS
 62
     3
 10
48.217981
 20
213.939600
 30
0.0
  0
VERTEX
  8
CSLAYER1
  6
CONTINUOUS
 62
     3
 10
48.208969
 20
213.923113
 30
0.0
  0
SEQEND
  0
LINE
  8
CSLAYER1
  6
CONTINUOUS
 62
     3
 10
49.024093
 20
210.435016
 11
49.024093
 21
213.720730
  0
POLYLINE
  8
CSLAYER1
  6
CONTINUOUS
 62
     3
 66
     1
 10
0.0
 20
0.0
 30
0.0
  0
VERTEX
  8
CSLAYER1
  6
CONTINUOUS
 62
     3
 10
49.024093
 20
213.720730
 30
0.0
  0
VERTEX
  8
CSLAYER1
  6
CONTINUOUS
 62
     3
 10
49.023550
 20
213.745632
 30
0.0
  0
VERTEX
  8
CSLAYER1
  6
CONTINUOUS
 62
     3
 10
49.021923
 20
213.770344
 30
0.0
  0
VERTEX
  8
CSLAYER1
  6
CONTINUOUS
 62
     3
 10
49.019226
 20
213.794678
 30
0.0
  0
VERTEX
  8
CSLAYER1
  6
CONTINUOUS
 62
     3
 10
49.015478
 20
213.818450
 30
0.0
  0
VERTEX
  8
CSLAYER1
  6
CONTINUOUS
 62
     3
 10
49.010709
 20
213.841478
 30
0.0
  0
VERTEX
  8
CSLAYER1
  6
CONTINUOUS
 62
     3
 10
49.004954
 20
213.863587
 30
0.0
  0
VERTEX
  8
CSLAYER1
  6
CONTINUOUS
 62
     3
 10
48.998258
 20
213.884609
 30
0.0
  0
VERTEX
  8
CSLAYER1
  6
CONTINUOUS
 62
     3
 10
48.990671
 20
213.904384
 30
0.0
  0
VERTEX
  8
CSLAYER1
  6
CONTINUOUS
 62
     3
 10
48.982252
 20
213.922760
 30
0.0
  0
VERTEX
  8
CSLAYER1
  6
CONTINUOUS
 62
     3
 10
48.973063
 20
213.939600
 30
0.0
  0
VERTEX
  8
CSLAYER1
  6
CONTINUOUS
 62
     3
 10
48.963176
 20
213.954773
 30
0.0
  0
VERTEX
  8
CSLAYER1
  6
CONTINUOUS
 62
     3
 10
48.952665
 20
213.968166
 30
0.0
  0
VERTEX
  8
CSLAYER1
  6
CONTINUOUS
 62
     3
 10
48.941610
 20
213.979675
 30
0.0
  0
VERTEX
  8
CSLAYER1
  6
CONTINUOUS
 62
     3
 10
48.930096
 20
213.989214
 30
0.0
  0
VERTEX
  8
CSLAYER1
  6
CONTINUOUS
 62
     3
 10
48.918210
 20
213.996709
 30
0.0
  0
VERTEX
  8
CSLAYER1
  6
CONTINUOUS
 62
     3
 10
48.906043
 20
214.002104
 30
0.0
  0
VERTEX
  8
CSLAYER1
  6
CONTINUOUS
 62
     3
 10
48.893687
 20
214.005357
 30
0.0
  0
VERTEX
  8
CSLAYER1
  6
CONTINUOUS
 62
     3
 10
48.881236
 20
214.006444
 30
0.0
  0
VERTEX
  8
CSLAYER1
  6
CONTINUOUS
 62
     3
 10
48.868785
 20
214.005357
 30
0.0
  0
VERTEX
  8
CSLAYER1
  6
CONTINUOUS
 62
     3
 10
48.856429
 20
214.002104
 30
0.0
  0
VERTEX
  8
CSLAYER1
  6
CONTINUOUS
 62
     3
 10
48.844262
 20
213.996709
 30
0.0
  0
VERTEX
  8
CSLAYER1
  6
CONTINUOUS
 62
     3
 10
48.832376
 20
213.989213
 30
0.0
  0
VERTEX
  8
CSLAYER1
  6
CONTINUOUS
 62
     3
 10
48.820862
 20
213.979675
 30
0.0
  0
VERTEX
  8
CSLAYER1
  6
CONTINUOUS
 62
     3
 10
48.809808
 20
213.968166
 30
0.0
  0
VERTEX
  8
CSLAYER1
  6
CONTINUOUS
 62
     3
 10
48.799297
 20
213.954773
 30
0.0
  0
VERTEX
  8
CSLAYER1
  6
CONTINUOUS
 62
     3
 10
48.789409
 20
213.939600
 30
0.0
  0
VERTEX
  8
CSLAYER1
  6
CONTINUOUS
 62
     3
 10
48.780397
 20
213.923113
 30
0.0
  0
SEQEND
  0
LINE
  8
CSLAYER1
  6
CONTINUOUS
 62
     3
 10
49.595522
 20
210.435016
 11
49.595522
 21
213.720730
  0
POLYLINE
  8
CSLAYER1
  6
CONTINUOUS
 62
     3
 66
     1
 10
0.0
 20
0.0
 30
0.0
  0
VERTEX
  8
CSLAYER1
  6
CONTINUOUS
 62
     3
 10
49.595522
 20
213.720730
 30
0.0
  0
VERTEX
  8
CSLAYER1
  6
CONTINUOUS
 62
     3
 10
49.594978
 20
213.745632
 30
0.0
  0
VERTEX
  8
CSLAYER1
  6
CONTINUOUS
 62
     3
 10
49.593352
 20
213.770344
 30
0.0
  0
VERTEX
  8
CSLAYER1
  6
CONTINUOUS
 62
     3
 10
49.590654
 20
213.794678
 30
0.0
  0
VERTEX
  8
CSLAYER1
  6
CONTINUOUS
 62
     3
 10
49.586907
 20
213.818450
 30
0.0
  0
VERTEX
  8
CSLAYER1
  6
CONTINUOUS
 62
     3
 10
49.582137
 20
213.841478
 30
0.0
  0
VERTEX
  8
CSLAYER1
  6
CONTINUOUS
 62
     3
 10
49.576383
 20
213.863587
 30
0.0
  0
VERTEX
  8
CSLAYER1
  6
CONTINUOUS
 62
     3
 10
49.569687
 20
213.884609
 30
0.0
  0
VERTEX
  8
CSLAYER1
  6
CONTINUOUS
 62
     3
 10
49.562100
 20
213.904384
 30
0.0
  0
VERTEX
  8
CSLAYER1
  6
CONTINUOUS
 62
     3
 10
49.553680
 20
213.922760
 30
0.0
  0
VERTEX
  8
CSLAYER1
  6
CONTINUOUS
 62
     3
 10
49.544492
 20
213.939600
 30
0.0
  0
VERTEX
  8
CSLAYER1
  6
CONTINUOUS
 62
     3
 10
49.534604
 20
213.954773
 30
0.0
  0
VERTEX
  8
CSLAYER1
  6
CONTINUOUS
 62
     3
 10
49.524093
 20
213.968166
 30
0.0
  0
VERTEX
  8
CSLAYER1
  6
CONTINUOUS
 62
     3
 10
49.513039
 20
213.979675
 30
0.0
  0
VERTEX
  8
CSLAYER1
  6
CONTINUOUS
 62
     3
 10
49.501525
 20
213.989214
 30
0.0
  0
VERTEX
  8
CSLAYER1
  6
CONTINUOUS
 62
     3
 10
49.489639
 20
213.996709
 30
0.0
  0
VERTEX
  8
CSLAYER1
  6
CONTINUOUS
 62
     3
 10
49.477472
 20
214.002104
 30
0.0
  0
VERTEX
  8
CSLAYER1
  6
CONTINUOUS
 62
     3
 10
49.465116
 20
214.005357
 30
0.0
  0
VERTEX
  8
CSLAYER1
  6
CONTINUOUS
 62
     3
 10
49.452665
 20
214.006444
 30
0.0
  0
VERTEX
  8
CSLAYER1
  6
CONTINUOUS
 62
     3
 10
49.440214
 20
214.005357
 30
0.0
  0
VERTEX
  8
CSLAYER1
  6
CONTINUOUS
 62
     3
 10
49.427858
 20
214.002104
 30
0.0
  0
VERTEX
  8
CSLAYER1
  6
CONTINUOUS
 62
     3
 10
49.415691
 20
213.996709
 30
0.0
  0
VERTEX
  8
CSLAYER1
  6
CONTINUOUS
 62
     3
 10
49.403805
 20
213.989213
 30
0.0
  0
VERTEX
  8
CSLAYER1
  6
CONTINUOUS
 62
     3
 10
49.392291
 20
213.979675
 30
0.0
  0
VERTEX
  8
CSLAYER1
  6
CONTINUOUS
 62
     3
 10
49.381236
 20
213.968166
 30
0.0
  0
VERTEX
  8
CSLAYER1
  6
CONTINUOUS
 62
     3
 10
49.370725
 20
213.954773
 30
0.0
  0
VERTEX
  8
CSLAYER1
  6
CONTINUOUS
 62
     3
 10
49.360838
 20
213.939600
 30
0.0
  0
VERTEX
  8
CSLAYER1
  6
CONTINUOUS
 62
     3
 10
49.351826
 20
213.923113
 30
0.0
  0
SEQEND
  0
LINE
  8
CSLAYER1
  6
CONTINUOUS
 62
     3
 10
50.381236
 20
210.435016
 11
50.381236
 21
213.720730
  0
POLYLINE
  8
CSLAYER1
  6
CONTINUOUS
 62
     3
 66
     1
 10
0.0
 20
0.0
 30
0.0
  0
VERTEX
  8
CSLAYER1
  6
CONTINUOUS
 62
     3
 10
50.381236
 20
213.720730
 30
0.0
  0
VERTEX
  8
CSLAYER1
  6
CONTINUOUS
 62
     3
 10
50.380693
 20
213.745632
 30
0.0
  0
VERTEX
  8
CSLAYER1
  6
CONTINUOUS
 62
     3
 10
50.379066
 20
213.770344
 30
0.0
  0
VERTEX
  8
CSLAYER1
  6
CONTINUOUS
 62
     3
 10
50.376369
 20
213.794678
 30
0.0
  0
VERTEX
  8
CSLAYER1
  6
CONTINUOUS
 62
     3
 10
50.372621
 20
213.818450
 30
0.0
  0
VERTEX
  8
CSLAYER1
  6
CONTINUOUS
 62
     3
 10
50.367852
 20
213.841478
 30
0.0
  0
VERTEX
  8
CSLAYER1
  6
CONTINUOUS
 62
     3
 10
50.362097
 20
213.863587
 30
0.0
  0
VERTEX
  8
CSLAYER1
  6
CONTINUOUS
 62
     3
 10
50.355401
 20
213.884609
 30
0.0
  0
VERTEX
  8
CSLAYER1
  6
CONTINUOUS
 62
     3
 10
50.347814
 20
213.904384
 30
0.0
  0
VERTEX
  8
CSLAYER1
  6
CONTINUOUS
 62
     3
 10
50.339394
 20
213.922760
 30
0.0
  0
VERTEX
  8
CSLAYER1
  6
CONTINUOUS
 62
     3
 10
50.330206
 20
213.939600
 30
0.0
  0
VERTEX
  8
CSLAYER1
  6
CONTINUOUS
 62
     3
 10
50.320319
 20
213.954773
 30
0.0
  0
VERTEX
  8
CSLAYER1
  6
CONTINUOUS
 62
     3
 10
50.309808
 20
213.968166
 30
0.0
  0
VERTEX
  8
CSLAYER1
  6
CONTINUOUS
 62
     3
 10
50.298753
 20
213.979675
 30
0.0
  0
VERTEX
  8
CSLAYER1
  6
CONTINUOUS
 62
     3
 10
50.287239
 20
213.989214
 30
0.0
  0
VERTEX
  8
CSLAYER1
  6
CONTINUOUS
 62
     3
 10
50.275353
 20
213.996709
 30
0.0
  0
VERTEX
  8
CSLAYER1
  6
CONTINUOUS
 62
     3
 10
50.263186
 20
214.002104
 30
0.0
  0
VERTEX
  8
CSLAYER1
  6
CONTINUOUS
 62
     3
 10
50.250830
 20
214.005357
 30
0.0
  0
VERTEX
  8
CSLAYER1
  6
CONTINUOUS
 62
     3
 10
50.238379
 20
214.006444
 30
0.0
  0
VERTEX
  8
CSLAYER1
  6
CONTINUOUS
 62
     3
 10
50.225928
 20
214.005357
 30
0.0
  0
VERTEX
  8
CSLAYER1
  6
CONTINUOUS
 62
     3
 10
50.213572
 20
214.002104
 30
0.0
  0
VERTEX
  8
CSLAYER1
  6
CONTINUOUS
 62
     3
 10
50.201405
 20
213.996709
 30
0.0
  0
VERTEX
  8
CSLAYER1
  6
CONTINUOUS
 62
     3
 10
50.189519
 20
213.989213
 30
0.0
  0
VERTEX
  8
CSLAYER1
  6
CONTINUOUS
 62
     3
 10
50.178005
 20
213.979675
 30
0.0
  0
VERTEX
  8
CSLAYER1
  6
CONTINUOUS
 62
     3
 10
50.166951
 20
213.968166
 30
0.0
  0
VERTEX
  8
CSLAYER1
  6
CONTINUOUS
 62
     3
 10
50.156440
 20
213.954773
 30
0.0
  0
VERTEX
  8
CSLAYER1
  6
CONTINUOUS
 62
     3
 10
50.146552
 20
213.939600
 30
0.0
  0
VERTEX
  8
CSLAYER1
  6
CONTINUOUS
 62
     3
 10
50.137540
 20
213.923113
 30
0.0
  0
SEQEND
  0
LINE
  8
CSLAYER1
  6
CONTINUOUS
 62
     3
 10
50.166951
 20
210.435016
 11
50.166951
 21
213.720730
  0
POLYLINE
  8
CSLAYER1
  6
CONTINUOUS
 62
     3
 66
     1
 10
0.0
 20
0.0
 30
0.0
  0
VERTEX
  8
CSLAYER1
  6
CONTINUOUS
 62
     3
 10
50.166951
 20
213.720730
 30
0.0
  0
VERTEX
  8
CSLAYER1
  6
CONTINUOUS
 62
     3
 10
50.166407
 20
213.745632
 30
0.0
  0
VERTEX
  8
CSLAYER1
  6
CONTINUOUS
 62
     3
 10
50.164780
 20
213.770344
 30
0.0
  0
VERTEX
  8
CSLAYER1
  6
CONTINUOUS
 62
     3
 10
50.162083
 20
213.794678
 30
0.0
  0
VERTEX
  8
CSLAYER1
  6
CONTINUOUS
 62
     3
 10
50.158335
 20
213.818450
 30
0.0
  0
VERTEX
  8
CSLAYER1
  6
CONTINUOUS
 62
     3
 10
50.153566
 20
213.841478
 30
0.0
  0
VERTEX
  8
CSLAYER1
  6
CONTINUOUS
 62
     3
 10
50.147811
 20
213.863587
 30
0.0
  0
VERTEX
  8
CSLAYER1
  6
CONTINUOUS
 62
     3
 10
50.141115
 20
213.884609
 30
0.0
  0
VERTEX
  8
CSLAYER1
  6
CONTINUOUS
 62
     3
 10
50.133528
 20
213.904384
 30
0.0
  0
VERTEX
  8
CSLAYER1
  6
CONTINUOUS
 62
     3
 10
50.125109
 20
213.922760
 30
0.0
  0
VERTEX
  8
CSLAYER1
  6
CONTINUOUS
 62
     3
 10
50.115920
 20
213.939600
 30
0.0
  0
VERTEX
  8
CSLAYER1
  6
CONTINUOUS
 62
     3
 10
50.106033
 20
213.954773
 30
0.0
  0
VERTEX
  8
CSLAYER1
  6
CONTINUOUS
 62
     3
 10
50.095522
 20
213.968166
 30
0.0
  0
VERTEX
  8
CSLAYER1
  6
CONTINUOUS
 62
     3
 10
50.084467
 20
213.979675
 30
0.0
  0
VERTEX
  8
CSLAYER1
  6
CONTINUOUS
 62
     3
 10
50.072953
 20
213.989214
 30
0.0
  0
VERTEX
  8
CSLAYER1
  6
CONTINUOUS
 62
     3
 10
50.061068
 20
213.996709
 30
0.0
  0
VERTEX
  8
CSLAYER1
  6
CONTINUOUS
 62
     3
 10
50.048900
 20
214.002104
 30
0.0
  0
VERTEX
  8
CSLAYER1
  6
CONTINUOUS
 62
     3
 10
50.036544
 20
214.005357
 30
0.0
  0
VERTEX
  8
CSLAYER1
  6
CONTINUOUS
 62
     3
 10
50.024093
 20
214.006444
 30
0.0
  0
VERTEX
  8
CSLAYER1
  6
CONTINUOUS
 62
     3
 10
50.011643
 20
214.005357
 30
0.0
  0
VERTEX
  8
CSLAYER1
  6
CONTINUOUS
 62
     3
 10
49.999286
 20
214.002104
 30
0.0
  0
VERTEX
  8
CSLAYER1
  6
CONTINUOUS
 62
     3
 10
49.987119
 20
213.996709
 30
0.0
  0
VERTEX
  8
CSLAYER1
  6
CONTINUOUS
 62
     3
 10
49.975233
 20
213.989213
 30
0.0
  0
VERTEX
  8
CSLAYER1
  6
CONTINUOUS
 62
     3
 10
49.963719
 20
213.979675
 30
0.0
  0
VERTEX
  8
CSLAYER1
  6
CONTINUOUS
 62
     3
 10
49.952665
 20
213.968166
 30
0.0
  0
VERTEX
  8
CSLAYER1
  6
CONTINUOUS
 62
     3
 10
49.942154
 20
213.954773
 30
0.0
  0
VERTEX
  8
CSLAYER1
  6
CONTINUOUS
 62
     3
 10
49.932267
 20
213.939600
 30
0.0
  0
VERTEX
  8
CSLAYER1
  6
CONTINUOUS
 62
     3
 10
49.923255
 20
213.923113
 30
0.0
  0
SEQEND
  0
LINE
  8
CSLAYER1
  6
CONTINUOUS
 62
     3
 10
49.952665
 20
210.435016
 11
49.952665
 21
213.720730
  0
POLYLINE
  8
CSLAYER1
  6
CONTINUOUS
 62
     3
 66
     1
 10
0.0
 20
0.0
 30
0.0
  0
VERTEX
  8
CSLAYER1
  6
CONTINUOUS
 62
     3
 10
49.952665
 20
213.720730
 30
0.0
  0
VERTEX
  8
CSLAYER1
  6
CONTINUOUS
 62
     3
 10
49.952121
 20
213.745632
 30
0.0
  0
VERTEX
  8
CSLAYER1
  6
CONTINUOUS
 62
     3
 10
49.950495
 20
213.770344
 30
0.0
  0
VERTEX
  8
CSLAYER1
  6
CONTINUOUS
 62
     3
 10
49.947797
 20
213.794678
 30
0.0
  0
VERTEX
  8
CSLAYER1
  6
CONTINUOUS
 62
     3
 10
49.944049
 20
213.818450
 30
0.0
  0
VERTEX
  8
CSLAYER1
  6
CONTINUOUS
 62
     3
 10
49.939280
 20
213.841478
 30
0.0
  0
VERTEX
  8
CSLAYER1
  6
CONTINUOUS
 62
     3
 10
49.933526
 20
213.863587
 30
0.0
  0
VERTEX
  8
CSLAYER1
  6
CONTINUOUS
 62
     3
 10
49.926829
 20
213.884609
 30
0.0
  0
VERTEX
  8
CSLAYER1
  6
CONTINUOUS
 62
     3
 10
49.919243
 20
213.904384
 30
0.0
  0
VERTEX
  8
CSLAYER1
  6
CONTINUOUS
 62
     3
 10
49.910823
 20
213.922760
 30
0.0
  0
VERTEX
  8
CSLAYER1
  6
CONTINUOUS
 62
     3
 10
49.901634
 20
213.939600
 30
0.0
  0
VERTEX
  8
CSLAYER1
  6
CONTINUOUS
 62
     3
 10
49.891747
 20
213.954773
 30
0.0
  0
VERTEX
  8
CSLAYER1
  6
CONTINUOUS
 62
     3
 10
49.881236
 20
213.968166
 30
0.0
  0
VERTEX
  8
CSLAYER1
  6
CONTINUOUS
 62
     3
 10
49.870182
 20
213.979675
 30
0.0
  0
VERTEX
  8
CSLAYER1
  6
CONTINUOUS
 62
     3
 10
49.858668
 20
213.989214
 30
0.0
  0
VERTEX
  8
CSLAYER1
  6
CONTINUOUS
 62
     3
 10
49.846782
 20
213.996709
 30
0.0
  0
VERTEX
  8
CSLAYER1
  6
CONTINUOUS
 62
     3
 10
49.834615
 20
214.002104
 30
0.0
  0
VERTEX
  8
CSLAYER1
  6
CONTINUOUS
 62
     3
 10
49.822258
 20
214.005357
 30
0.0
  0
VERTEX
  8
CSLAYER1
  6
CONTINUOUS
 62
     3
 10
49.809808
 20
214.006444
 30
0.0
  0
VERTEX
  8
CSLAYER1
  6
CONTINUOUS
 62
     3
 10
49.797357
 20
214.005357
 30
0.0
  0
VERTEX
  8
CSLAYER1
  6
CONTINUOUS
 62
     3
 10
49.785001
 20
214.002104
 30
0.0
  0
VERTEX
  8
CSLAYER1
  6
CONTINUOUS
 62
     3
 10
49.772834
 20
213.996709
 30
0.0
  0
VERTEX
  8
CSLAYER1
  6
CONTINUOUS
 62
     3
 10
49.760948
 20
213.989213
 30
0.0
  0
VERTEX
  8
CSLAYER1
  6
CONTINUOUS
 62
     3
 10
49.749434
 20
213.979675
 30
0.0
  0
VERTEX
  8
CSLAYER1
  6
CONTINUOUS
 62
     3
 10
49.738379
 20
213.968166
 30
0.0
  0
VERTEX
  8
CSLAYER1
  6
CONTINUOUS
 62
     3
 10
49.727868
 20
213.954773
 30
0.0
  0
VERTEX
  8
CSLAYER1
  6
CONTINUOUS
 62
     3
 10
49.717981
 20
213.939600
 30
0.0
  0
VERTEX
  8
CSLAYER1
  6
CONTINUOUS
 62
     3
 10
49.708969
 20
213.923113
 30
0.0
  0
SEQEND
  0
LINE
  8
CSLAYER1
  6
CONTINUOUS
 62
     3
 10
46.024093
 20
210.435016
 11
46.024093
 21
213.720730
  0
POLYLINE
  8
CSLAYER1
  6
CONTINUOUS
 62
     3
 66
     1
 10
0.0
 20
0.0
 30
0.0
  0
VERTEX
  8
CSLAYER1
  6
CONTINUOUS
 62
     3
 10
46.202665
 20
213.997372
 30
0.0
  0
VERTEX
  8
CSLAYER1
  6
CONTINUOUS
 62
     3
 10
46.190473
 20
214.002544
 30
0.0
  0
VERTEX
  8
CSLAYER1
  6
CONTINUOUS
 62
     3
 10
46.178103
 20
214.005572
 30
0.0
  0
VERTEX
  8
CSLAYER1
  6
CONTINUOUS
 62
     3
 10
46.165648
 20
214.006432
 30
0.0
  0
VERTEX
  8
CSLAYER1
  6
CONTINUOUS
 62
     3
 10
46.153203
 20
214.005118
 30
0.0
  0
VERTEX
  8
CSLAYER1
  6
CONTINUOUS
 62
     3
 10
46.140862
 20
214.001639
 30
0.0
  0
VERTEX
  8
CSLAYER1
  6
CONTINUOUS
 62
     3
 10
46.128720
 20
213.996023
 30
0.0
  0
VERTEX
  8
CSLAYER1
  6
CONTINUOUS
 62
     3
 10
46.116868
 20
213.988311
 30
0.0
  0
VERTEX
  8
CSLAYER1
  6
CONTINUOUS
 62
     3
 10
46.105398
 20
213.978563
 30
0.0
  0
VERTEX
  8
CSLAYER1
  6
CONTINUOUS
 62
     3
 10
46.094397
 20
213.966853
 30
0.0
  0
VERTEX
  8
CSLAYER1
  6
CONTINUOUS
 62
     3
 10
46.083947
 20
213.953269
 30
0.0
  0
VERTEX
  8
CSLAYER1
  6
CONTINUOUS
 62
     3
 10
46.074130
 20
213.937916
 30
0.0
  0
VERTEX
  8
CSLAYER1
  6
CONTINUOUS
 62
     3
 10
46.065018
 20
213.920910
 30
0.0
  0
VERTEX
  8
CSLAYER1
  6
CONTINUOUS
 62
     3
 10
46.056683
 20
213.902380
 30
0.0
  0
VERTEX
  8
CSLAYER1
  6
CONTINUOUS
 62
     3
 10
46.049187
 20
213.882468
 30
0.0
  0
VERTEX
  8
CSLAYER1
  6
CONTINUOUS
 62
     3
 10
46.042586
 20
213.861325
 30
0.0
  0
VERTEX
  8
CSLAYER1
  6
CONTINUOUS
 62
     3
 10
46.036933
 20
213.839112
 30
0.0
  0
VERTEX
  8
CSLAYER1
  6
CONTINUOUS
 62
     3
 10
46.032269
 20
213.815998
 30
0.0
  0
VERTEX
  8
CSLAYER1
  6
CONTINUOUS
 62
     3
 10
46.028630
 20
213.792158
 30
0.0
  0
VERTEX
  8
CSLAYER1
  6
CONTINUOUS
 62
     3
 10
46.026043
 20
213.767776
 30
0.0
  0
VERTEX
  8
CSLAYER1
  6
CONTINUOUS
 62
     3
 10
46.024529
 20
213.743035
 30
0.0
  0
VERTEX
  8
CSLAYER1
  6
CONTINUOUS
 62
     3
 10
46.024093
 20
213.720730
 30
0.0
  0
SEQEND
  0
POLYLINE
  8
CSLAYER1
  6
CONTINUOUS
 62
     3
 66
     1
 10
0.0
 20
0.0
 30
0.0
  0
VERTEX
  8
CSLAYER1
  6
CONTINUOUS
 62
     3
 10
46.024093
 20
210.435015
 30
0.0
  0
VERTEX
  8
CSLAYER1
  6
CONTINUOUS
 62
     3
 10
46.024637
 20
210.410114
 30
0.0
  0
VERTEX
  8
CSLAYER1
  6
CONTINUOUS
 62
     3
 10
46.026264
 20
210.385402
 30
0.0
  0
VERTEX
  8
CSLAYER1
  6
CONTINUOUS
 62
     3
 10
46.028961
 20
210.361067
 30
0.0
  0
VERTEX
  8
CSLAYER1
  6
CONTINUOUS
 62
     3
 10
46.032709
 20
210.337295
 30
0.0
  0
VERTEX
  8
CSLAYER1
  6
CONTINUOUS
 62
     3
 10
46.037478
 20
210.314267
 30
0.0
  0
VERTEX
  8
CSLAYER1
  6
CONTINUOUS
 62
     3
 10
46.043233
 20
210.292158
 30
0.0
  0
VERTEX
  8
CSLAYER1
  6
CONTINUOUS
 62
     3
 10
46.049929
 20
210.271137
 30
0.0
  0
VERTEX
  8
CSLAYER1
  6
CONTINUOUS
 62
     3
 10
46.057516
 20
210.251362
 30
0.0
  0
VERTEX
  8
CSLAYER1
  6
CONTINUOUS
 62
     3
 10
46.065935
 20
210.232985
 30
0.0
  0
VERTEX
  8
CSLAYER1
  6
CONTINUOUS
 62
     3
 10
46.075124
 20
210.216146
 30
0.0
  0
VERTEX
  8
CSLAYER1
  6
CONTINUOUS
 62
     3
 10
46.085011
 20
210.200972
 30
0.0
  0
VERTEX
  8
CSLAYER1
  6
CONTINUOUS
 62
     3
 10
46.095522
 20
210.187580
 30
0.0
  0
VERTEX
  8
CSLAYER1
  6
CONTINUOUS
 62
     3
 10
46.106577
 20
210.176070
 30
0.0
  0
VERTEX
  8
CSLAYER1
  6
CONTINUOUS
 62
     3
 10
46.118091
 20
210.166532
 30
0.0
  0
VERTEX
  8
CSLAYER1
  6
CONTINUOUS
 62
     3
 10
46.129976
 20
210.159037
 30
0.0
  0
VERTEX
  8
CSLAYER1
  6
CONTINUOUS
 62
     3
 10
46.142144
 20
210.153642
 30
0.0
  0
VERTEX
  8
CSLAYER1
  6
CONTINUOUS
 62
     3
 10
46.154500
 20
210.150389
 30
0.0
  0
VERTEX
  8
CSLAYER1
  6
CONTINUOUS
 62
     3
 10
46.166951
 20
210.149301
 30
0.0
  0
SEQEND
  0
LINE
  8
CSLAYER1
  6
CONTINUOUS
 62
     3
 10
45.666951
 20
210.435016
 11
45.666951
 21
213.720730
  0
POLYLINE
  8
CSLAYER1
  6
CONTINUOUS
 62
     3
 66
     1
 10
0.0
 20
0.0
 30
0.0
  0
VERTEX
  8
CSLAYER1
  6
CONTINUOUS
 62
     3
 10
45.910647
 20
213.923113
 30
0.0
  0
VERTEX
  8
CSLAYER1
  6
CONTINUOUS
 62
     3
 10
45.901443
 20
213.939920
 30
0.0
  0
VERTEX
  8
CSLAYER1
  6
CONTINUOUS
 62
     3
 10
45.891543
 20
213.955059
 30
0.0
  0
VERTEX
  8
CSLAYER1
  6
CONTINUOUS
 62
     3
 10
45.881020
 20
213.968415
 30
0.0
  0
VERTEX
  8
CSLAYER1
  6
CONTINUOUS
 62
     3
 10
45.869956
 20
213.979885
 30
0.0
  0
VERTEX
  8
CSLAYER1
  6
CONTINUOUS
 62
     3
 10
45.858433
 20
213.989384
 30
0.0
  0
VERTEX
  8
CSLAYER1
  6
CONTINUOUS
 62
     3
 10
45.846541
 20
213.996837
 30
0.0
  0
VERTEX
  8
CSLAYER1
  6
CONTINUOUS
 62
     3
 10
45.834369
 20
214.002190
 30
0.0
  0
VERTEX
  8
CSLAYER1
  6
CONTINUOUS
 62
     3
 10
45.822010
 20
214.005400
 30
0.0
  0
VERTEX
  8
CSLAYER1
  6
CONTINUOUS
 62
     3
 10
45.809558
 20
214.006444
 30
0.0
  0
VERTEX
  8
CSLAYER1
  6
CONTINUOUS
 62
     3
 10
45.797109
 20
214.005313
 30
0.0
  0
VERTEX
  8
CSLAYER1
  6
CONTINUOUS
 62
     3
 10
45.784755
 20
214.002017
 30
0.0
  0
VERTEX
  8
CSLAYER1
  6
CONTINUOUS
 62
     3
 10
45.772593
 20
213.996579
 30
0.0
  0
VERTEX
  8
CSLAYER1
  6
CONTINUOUS
 62
     3
 10
45.760714
 20
213.989043
 30
0.0
  0
VERTEX
  8
CSLAYER1
  6
CONTINUOUS
 62
     3
 10
45.749208
 20
213.979464
 30
0.0
  0
VERTEX
  8
CSLAYER1
  6
CONTINUOUS
 62
     3
 10
45.738163
 20
213.967916
 30
0.0
  0
VERTEX
  8
CSLAYER1
  6
CONTINUOUS
 62
     3
 10
45.727664
 20
213.954487
 30
0.0
  0
VERTEX
  8
CSLAYER1
  6
CONTINUOUS
 62
     3
 10
45.717790
 20
213.939279
 30
0.0
  0
VERTEX
  8
CSLAYER1
  6
CONTINUOUS
 62
     3
 10
45.708616
 20
213.922408
 30
0.0
  0
VERTEX
  8
CSLAYER1
  6
CONTINUOUS
 62
     3
 10
45.700213
 20
213.904001
 30
0.0
  0
VERTEX
  8
CSLAYER1
  6
CONTINUOUS
 62
     3
 10
45.692643
 20
213.884200
 30
0.0
  0
VERTEX
  8
CSLAYER1
  6
CONTINUOUS
 62
     3
 10
45.685965
 20
213.863155
 30
0.0
  0
VERTEX
  8
CSLAYER1
  6
CONTINUOUS
 62
     3
 10
45.680230
 20
213.841026
 30
0.0
  0
VERTEX
  8
CSLAYER1
  6
CONTINUOUS
 62
     3
 10
45.675481
 20
213.817981
 30
0.0
  0
VERTEX
  8
CSLAYER1
  6
CONTINUOUS
 62
     3
 10
45.671754
 20
213.794196
 30
0.0
  0
VERTEX
  8
CSLAYER1
  6
CONTINUOUS
 62
     3
 10
45.669078
 20
213.769853
 30
0.0
  0
VERTEX
  8
CSLAYER1
  6
CONTINUOUS
 62
     3
 10
45.667473
 20
213.745135
 30
0.0
  0
VERTEX
  8
CSLAYER1
  6
CONTINUOUS
 62
     3
 10
45.666951
 20
213.720730
 30
0.0
  0
SEQEND
  0
LINE
  8
CSLAYER1
  6
CONTINUOUS
 62
     3
 10
45.309808
 20
210.435016
 11
45.309808
 21
213.720730
  0
POLYLINE
  8
CSLAYER1
  6
CONTINUOUS
 62
     3
 66
     1
 10
0.0
 20
0.0
 30
0.0
  0
VERTEX
  8
CSLAYER1
  6
CONTINUOUS
 62
     3
 10
45.553504
 20
213.923113
 30
0.0
  0
VERTEX
  8
CSLAYER1
  6
CONTINUOUS
 62
     3
 10
45.544301
 20
213.939920
 30
0.0
  0
VERTEX
  8
CSLAYER1
  6
CONTINUOUS
 62
     3
 10
45.534400
 20
213.955059
 30
0.0
  0
VERTEX
  8
CSLAYER1
  6
CONTINUOUS
 62
     3
 10
45.523877
 20
213.968415
 30
0.0
  0
VERTEX
  8
CSLAYER1
  6
CONTINUOUS
 62
     3
 10
45.512813
 20
213.979885
 30
0.0
  0
VERTEX
  8
CSLAYER1
  6
CONTINUOUS
 62
     3
 10
45.501291
 20
213.989384
 30
0.0
  0
VERTEX
  8
CSLAYER1
  6
CONTINUOUS
 62
     3
 10
45.489398
 20
213.996837
 30
0.0
  0
VERTEX
  8
CSLAYER1
  6
CONTINUOUS
 62
     3
 10
45.477226
 20
214.002190
 30
0.0
  0
VERTEX
  8
CSLAYER1
  6
CONTINUOUS
 62
     3
 10
45.464867
 20
214.005400
 30
0.0
  0
VERTEX
  8
CSLAYER1
  6
CONTINUOUS
 62
     3
 10
45.452416
 20
214.006444
 30
0.0
  0
VERTEX
  8
CSLAYER1
  6
CONTINUOUS
 62
     3
 10
45.439966
 20
214.005313
 30
0.0
  0
VERTEX
  8
CSLAYER1
  6
CONTINUOUS
 62
     3
 10
45.427613
 20
214.002017
 30
0.0
  0
VERTEX
  8
CSLAYER1
  6
CONTINUOUS
 62
     3
 10
45.415450
 20
213.996579
 30
0.0
  0
VERTEX
  8
CSLAYER1
  6
CONTINUOUS
 62
     3
 10
45.403571
 20
213.989043
 30
0.0
  0
VERTEX
  8
CSLAYER1
  6
CONTINUOUS
 62
     3
 10
45.392065
 20
213.979464
 30
0.0
  0
VERTEX
  8
CSLAYER1
  6
CONTINUOUS
 62
     3
 10
45.381021
 20
213.967916
 30
0.0
  0
VERTEX
  8
CSLAYER1
  6
CONTINUOUS
 62
     3
 10
45.370521
 20
213.954487
 30
0.0
  0
VERTEX
  8
CSLAYER1
  6
CONTINUOUS
 62
     3
 10
45.360647
 20
213.939279
 30
0.0
  0
VERTEX
  8
CSLAYER1
  6
CONTINUOUS
 62
     3
 10
45.351473
 20
213.922408
 30
0.0
  0
VERTEX
  8
CSLAYER1
  6
CONTINUOUS
 62
     3
 10
45.343070
 20
213.904001
 30
0.0
  0
VERTEX
  8
CSLAYER1
  6
CONTINUOUS
 62
     3
 10
45.335500
 20
213.884200
 30
0.0
  0
VERTEX
  8
CSLAYER1
  6
CONTINUOUS
 62
     3
 10
45.328822
 20
213.863155
 30
0.0
  0
VERTEX
  8
CSLAYER1
  6
CONTINUOUS
 62
     3
 10
45.323087
 20
213.841026
 30
0.0
  0
VERTEX
  8
CSLAYER1
  6
CONTINUOUS
 62
     3
 10
45.318338
 20
213.817981
 30
0.0
  0
VERTEX
  8
CSLAYER1
  6
CONTINUOUS
 62
     3
 10
45.314611
 20
213.794196
 30
0.0
  0
VERTEX
  8
CSLAYER1
  6
CONTINUOUS
 62
     3
 10
45.311935
 20
213.769853
 30
0.0
  0
VERTEX
  8
CSLAYER1
  6
CONTINUOUS
 62
     3
 10
45.310330
 20
213.745135
 30
0.0
  0
VERTEX
  8
CSLAYER1
  6
CONTINUOUS
 62
     3
 10
45.309808
 20
213.720730
 30
0.0
  0
SEQEND
  0
LINE
  8
CSLAYER1
  6
CONTINUOUS
 62
     3
 10
44.809808
 20
210.435016
 11
44.809808
 21
213.720730
  0
POLYLINE
  8
CSLAYER1
  6
CONTINUOUS
 62
     3
 66
     1
 10
0.0
 20
0.0
 30
0.0
  0
VERTEX
  8
CSLAYER1
  6
CONTINUOUS
 62
     3
 10
45.053504
 20
213.923113
 30
0.0
  0
VERTEX
  8
CSLAYER1
  6
CONTINUOUS
 62
     3
 10
45.044301
 20
213.939920
 30
0.0
  0
VERTEX
  8
CSLAYER1
  6
CONTINUOUS
 62
     3
 10
45.034400
 20
213.955059
 30
0.0
  0
VERTEX
  8
CSLAYER1
  6
CONTINUOUS
 62
     3
 10
45.023877
 20
213.968415
 30
0.0
  0
VERTEX
  8
CSLAYER1
  6
CONTINUOUS
 62
     3
 10
45.012813
 20
213.979885
 30
0.0
  0
VERTEX
  8
CSLAYER1
  6
CONTINUOUS
 62
     3
 10
45.001291
 20
213.989384
 30
0.0
  0
VERTEX
  8
CSLAYER1
  6
CONTINUOUS
 62
     3
 10
44.989398
 20
213.996837
 30
0.0
  0
VERTEX
  8
CSLAYER1
  6
CONTINUOUS
 62
     3
 10
44.977226
 20
214.002190
 30
0.0
  0
VERTEX
  8
CSLAYER1
  6
CONTINUOUS
 62
     3
 10
44.964867
 20
214.005400
 30
0.0
  0
VERTEX
  8
CSLAYER1
  6
CONTINUOUS
 62
     3
 10
44.952416
 20
214.006444
 30
0.0
  0
VERTEX
  8
CSLAYER1
  6
CONTINUOUS
 62
     3
 10
44.939966
 20
214.005313
 30
0.0
  0
VERTEX
  8
CSLAYER1
  6
CONTINUOUS
 62
     3
 10
44.927613
 20
214.002017
 30
0.0
  0
VERTEX
  8
CSLAYER1
  6
CONTINUOUS
 62
     3
 10
44.915450
 20
213.996579
 30
0.0
  0
VERTEX
  8
CSLAYER1
  6
CONTINUOUS
 62
     3
 10
44.903571
 20
213.989043
 30
0.0
  0
VERTEX
  8
CSLAYER1
  6
CONTINUOUS
 62
     3
 10
44.892065
 20
213.979464
 30
0.0
  0
VERTEX
  8
CSLAYER1
  6
CONTINUOUS
 62
     3
 10
44.881021
 20
213.967916
 30
0.0
  0
VERTEX
  8
CSLAYER1
  6
CONTINUOUS
 62
     3
 10
44.870521
 20
213.954487
 30
0.0
  0
VERTEX
  8
CSLAYER1
  6
CONTINUOUS
 62
     3
 10
44.860647
 20
213.939279
 30
0.0
  0
VERTEX
  8
CSLAYER1
  6
CONTINUOUS
 62
     3
 10
44.851473
 20
213.922408
 30
0.0
  0
VERTEX
  8
CSLAYER1
  6
CONTINUOUS
 62
     3
 10
44.843070
 20
213.904001
 30
0.0
  0
VERTEX
  8
CSLAYER1
  6
CONTINUOUS
 62
     3
 10
44.835500
 20
213.884200
 30
0.0
  0
VERTEX
  8
CSLAYER1
  6
CONTINUOUS
 62
     3
 10
44.828822
 20
213.863155
 30
0.0
  0
VERTEX
  8
CSLAYER1
  6
CONTINUOUS
 62
     3
 10
44.823087
 20
213.841026
 30
0.0
  0
VERTEX
  8
CSLAYER1
  6
CONTINUOUS
 62
     3
 10
44.818338
 20
213.817981
 30
0.0
  0
VERTEX
  8
CSLAYER1
  6
CONTINUOUS
 62
     3
 10
44.814611
 20
213.794196
 30
0.0
  0
VERTEX
  8
CSLAYER1
  6
CONTINUOUS
 62
     3
 10
44.811935
 20
213.769853
 30
0.0
  0
VERTEX
  8
CSLAYER1
  6
CONTINUOUS
 62
     3
 10
44.810330
 20
213.745135
 30
0.0
  0
VERTEX
  8
CSLAYER1
  6
CONTINUOUS
 62
     3
 10
44.809808
 20
213.720730
 30
0.0
  0
SEQEND
  0
LINE
  8
CSLAYER1
  6
CONTINUOUS
 62
     3
 10
44.309808
 20
210.435016
 11
44.309808
 21
213.720730
  0
POLYLINE
  8
CSLAYER1
  6
CONTINUOUS
 62
     3
 66
     1
 10
0.0
 20
0.0
 30
0.0
  0
VERTEX
  8
CSLAYER1
  6
CONTINUOUS
 62
     3
 10
44.553504
 20
213.923113
 30
0.0
  0
VERTEX
  8
CSLAYER1
  6
CONTINUOUS
 62
     3
 10
44.544301
 20
213.939920
 30
0.0
  0
VERTEX
  8
CSLAYER1
  6
CONTINUOUS
 62
     3
 10
44.534400
 20
213.955059
 30
0.0
  0
VERTEX
  8
CSLAYER1
  6
CONTINUOUS
 62
     3
 10
44.523877
 20
213.968415
 30
0.0
  0
VERTEX
  8
CSLAYER1
  6
CONTINUOUS
 62
     3
 10
44.512813
 20
213.979885
 30
0.0
  0
VERTEX
  8
CSLAYER1
  6
CONTINUOUS
 62
     3
 10
44.501291
 20
213.989384
 30
0.0
  0
VERTEX
  8
CSLAYER1
  6
CONTINUOUS
 62
     3
 10
44.489398
 20
213.996837
 30
0.0
  0
VERTEX
  8
CSLAYER1
  6
CONTINUOUS
 62
     3
 10
44.477226
 20
214.002190
 30
0.0
  0
VERTEX
  8
CSLAYER1
  6
CONTINUOUS
 62
     3
 10
44.464867
 20
214.005400
 30
0.0
  0
VERTEX
  8
CSLAYER1
  6
CONTINUOUS
 62
     3
 10
44.452416
 20
214.006444
 30
0.0
  0
VERTEX
  8
CSLAYER1
  6
CONTINUOUS
 62
     3
 10
44.439966
 20
214.005313
 30
0.0
  0
VERTEX
  8
CSLAYER1
  6
CONTINUOUS
 62
     3
 10
44.427613
 20
214.002017
 30
0.0
  0
VERTEX
  8
CSLAYER1
  6
CONTINUOUS
 62
     3
 10
44.415450
 20
213.996579
 30
0.0
  0
VERTEX
  8
CSLAYER1
  6
CONTINUOUS
 62
     3
 10
44.403571
 20
213.989043
 30
0.0
  0
VERTEX
  8
CSLAYER1
  6
CONTINUOUS
 62
     3
 10
44.392065
 20
213.979464
 30
0.0
  0
VERTEX
  8
CSLAYER1
  6
CONTINUOUS
 62
     3
 10
44.381021
 20
213.967916
 30
0.0
  0
VERTEX
  8
CSLAYER1
  6
CONTINUOUS
 62
     3
 10
44.370521
 20
213.954487
 30
0.0
  0
VERTEX
  8
CSLAYER1
  6
CONTINUOUS
 62
     3
 10
44.360647
 20
213.939279
 30
0.0
  0
VERTEX
  8
CSLAYER1
  6
CONTINUOUS
 62
     3
 10
44.351473
 20
213.922408
 30
0.0
  0
VERTEX
  8
CSLAYER1
  6
CONTINUOUS
 62
     3
 10
44.343070
 20
213.904001
 30
0.0
  0
VERTEX
  8
CSLAYER1
  6
CONTINUOUS
 62
     3
 10
44.335500
 20
213.884200
 30
0.0
  0
VERTEX
  8
CSLAYER1
  6
CONTINUOUS
 62
     3
 10
44.328822
 20
213.863155
 30
0.0
  0
VERTEX
  8
CSLAYER1
  6
CONTINUOUS
 62
     3
 10
44.323087
 20
213.841026
 30
0.0
  0
VERTEX
  8
CSLAYER1
  6
CONTINUOUS
 62
     3
 10
44.318338
 20
213.817981
 30
0.0
  0
VERTEX
  8
CSLAYER1
  6
CONTINUOUS
 62
     3
 10
44.314611
 20
213.794196
 30
0.0
  0
VERTEX
  8
CSLAYER1
  6
CONTINUOUS
 62
     3
 10
44.311935
 20
213.769853
 30
0.0
  0
VERTEX
  8
CSLAYER1
  6
CONTINUOUS
 62
     3
 10
44.310330
 20
213.745135
 30
0.0
  0
VERTEX
  8
CSLAYER1
  6
CONTINUOUS
 62
     3
 10
44.309808
 20
213.720730
 30
0.0
  0
SEQEND
  0
LINE
  8
CSLAYER1
  6
CONTINUOUS
 62
     3
 10
43.738379
 20
210.435016
 11
43.738379
 21
213.720730
  0
POLYLINE
  8
CSLAYER1
  6
CONTINUOUS
 62
     3
 66
     1
 10
0.0
 20
0.0
 30
0.0
  0
VERTEX
  8
CSLAYER1
  6
CONTINUOUS
 62
     3
 10
43.982075
 20
213.923113
 30
0.0
  0
VERTEX
  8
CSLAYER1
  6
CONTINUOUS
 62
     3
 10
43.972872
 20
213.939920
 30
0.0
  0
VERTEX
  8
CSLAYER1
  6
CONTINUOUS
 62
     3
 10
43.962971
 20
213.955059
 30
0.0
  0
VERTEX
  8
CSLAYER1
  6
CONTINUOUS
 62
     3
 10
43.952449
 20
213.968415
 30
0.0
  0
VERTEX
  8
CSLAYER1
  6
CONTINUOUS
 62
     3
 10
43.941384
 20
213.979885
 30
0.0
  0
VERTEX
  8
CSLAYER1
  6
CONTINUOUS
 62
     3
 10
43.929862
 20
213.989384
 30
0.0
  0
VERTEX
  8
CSLAYER1
  6
CONTINUOUS
 62
     3
 10
43.917970
 20
213.996837
 30
0.0
  0
VERTEX
  8
CSLAYER1
  6
CONTINUOUS
 62
     3
 10
43.905798
 20
214.002190
 30
0.0
  0
VERTEX
  8
CSLAYER1
  6
CONTINUOUS
 62
     3
 10
43.893439
 20
214.005400
 30
0.0
  0
VERTEX
  8
CSLAYER1
  6
CONTINUOUS
 62
     3
 10
43.880987
 20
214.006444
 30
0.0
  0
VERTEX
  8
CSLAYER1
  6
CONTINUOUS
 62
     3
 10
43.868537
 20
214.005313
 30
0.0
  0
VERTEX
  8
CSLAYER1
  6
CONTINUOUS
 62
     3
 10
43.856184
 20
214.002017
 30
0.0
  0
VERTEX
  8
CSLAYER1
  6
CONTINUOUS
 62
     3
 10
43.844021
 20
213.996579
 30
0.0
  0
VERTEX
  8
CSLAYER1
  6
CONTINUOUS
 62
     3
 10
43.832142
 20
213.989043
 30
0.0
  0
VERTEX
  8
CSLAYER1
  6
CONTINUOUS
 62
     3
 10
43.820636
 20
213.979464
 30
0.0
  0
VERTEX
  8
CSLAYER1
  6
CONTINUOUS
 62
     3
 10
43.809592
 20
213.967916
 30
0.0
  0
VERTEX
  8
CSLAYER1
  6
CONTINUOUS
 62
     3
 10
43.799093
 20
213.954487
 30
0.0
  0
VERTEX
  8
CSLAYER1
  6
CONTINUOUS
 62
     3
 10
43.789219
 20
213.939279
 30
0.0
  0
VERTEX
  8
CSLAYER1
  6
CONTINUOUS
 62
     3
 10
43.780045
 20
213.922408
 30
0.0
  0
VERTEX
  8
CSLAYER1
  6
CONTINUOUS
 62
     3
 10
43.771641
 20
213.904001
 30
0.0
  0
VERTEX
  8
CSLAYER1
  6
CONTINUOUS
 62
     3
 10
43.764072
 20
213.884200
 30
0.0
  0
VERTEX
  8
CSLAYER1
  6
CONTINUOUS
 62
     3
 10
43.757394
 20
213.863155
 30
0.0
  0
VERTEX
  8
CSLAYER1
  6
CONTINUOUS
 62
     3
 10
43.751659
 20
213.841026
 30
0.0
  0
VERTEX
  8
CSLAYER1
  6
CONTINUOUS
 62
     3
 10
43.746909
 20
213.817981
 30
0.0
  0
VERTEX
  8
CSLAYER1
  6
CONTINUOUS
 62
     3
 10
43.743183
 20
213.794196
 30
0.0
  0
VERTEX
  8
CSLAYER1
  6
CONTINUOUS
 62
     3
 10
43.740506
 20
213.769853
 30
0.0
  0
VERTEX
  8
CSLAYER1
  6
CONTINUOUS
 62
     3
 10
43.738901
 20
213.745135
 30
0.0
  0
VERTEX
  8
CSLAYER1
  6
CONTINUOUS
 62
     3
 10
43.738379
 20
213.720730
 30
0.0
  0
SEQEND
  0
LINE
  8
CSLAYER1
  6
CONTINUOUS
 62
     3
 10
43.166951
 20
210.435016
 11
43.166951
 21
213.720730
  0
POLYLINE
  8
CSLAYER1
  6
CONTINUOUS
 62
     3
 66
     1
 10
0.0
 20
0.0
 30
0.0
  0
VERTEX
  8
CSLAYER1
  6
CONTINUOUS
 62
     3
 10
43.410647
 20
213.923113
 30
0.0
  0
VERTEX
  8
CSLAYER1
  6
CONTINUOUS
 62
     3
 10
43.401443
 20
213.939920
 30
0.0
  0
VERTEX
  8
CSLAYER1
  6
CONTINUOUS
 62
     3
 10
43.391543
 20
213.955059
 30
0.0
  0
VERTEX
  8
CSLAYER1
  6
CONTINUOUS
 62
     3
 10
43.381020
 20
213.968415
 30
0.0
  0
VERTEX
  8
CSLAYER1
  6
CONTINUOUS
 62
     3
 10
43.369956
 20
213.979885
 30
0.0
  0
VERTEX
  8
CSLAYER1
  6
CONTINUOUS
 62
     3
 10
43.358433
 20
213.989384
 30
0.0
  0
VERTEX
  8
CSLAYER1
  6
CONTINUOUS
 62
     3
 10
43.346541
 20
213.996837
 30
0.0
  0
VERTEX
  8
CSLAYER1
  6
CONTINUOUS
 62
     3
 10
43.334369
 20
214.002190
 30
0.0
  0
VERTEX
  8
CSLAYER1
  6
CONTINUOUS
 62
     3
 10
43.322010
 20
214.005400
 30
0.0
  0
VERTEX
  8
CSLAYER1
  6
CONTINUOUS
 62
     3
 10
43.309558
 20
214.006444
 30
0.0
  0
VERTEX
  8
CSLAYER1
  6
CONTINUOUS
 62
     3
 10
43.297109
 20
214.005313
 30
0.0
  0
VERTEX
  8
CSLAYER1
  6
CONTINUOUS
 62
     3
 10
43.284755
 20
214.002017
 30
0.0
  0
VERTEX
  8
CSLAYER1
  6
CONTINUOUS
 62
     3
 10
43.272593
 20
213.996579
 30
0.0
  0
VERTEX
  8
CSLAYER1
  6
CONTINUOUS
 62
     3
 10
43.260714
 20
213.989043
 30
0.0
  0
VERTEX
  8
CSLAYER1
  6
CONTINUOUS
 62
     3
 10
43.249208
 20
213.979464
 30
0.0
  0
VERTEX
  8
CSLAYER1
  6
CONTINUOUS
 62
     3
 10
43.238163
 20
213.967916
 30
0.0
  0
VERTEX
  8
CSLAYER1
  6
CONTINUOUS
 62
     3
 10
43.227664
 20
213.954487
 30
0.0
  0
VERTEX
  8
CSLAYER1
  6
CONTINUOUS
 62
     3
 10
43.217790
 20
213.939279
 30
0.0
  0
VERTEX
  8
CSLAYER1
  6
CONTINUOUS
 62
     3
 10
43.208616
 20
213.922408
 30
0.0
  0
VERTEX
  8
CSLAYER1
  6
CONTINUOUS
 62
     3
 10
43.200213
 20
213.904001
 30
0.0
  0
VERTEX
  8
CSLAYER1
  6
CONTINUOUS
 62
     3
 10
43.192643
 20
213.884200
 30
0.0
  0
VERTEX
  8
CSLAYER1
  6
CONTINUOUS
 62
     3
 10
43.185965
 20
213.863155
 30
0.0
  0
VERTEX
  8
CSLAYER1
  6
CONTINUOUS
 62
     3
 10
43.180230
 20
213.841026
 30
0.0
  0
VERTEX
  8
CSLAYER1
  6
CONTINUOUS
 62
     3
 10
43.175481
 20
213.817981
 30
0.0
  0
VERTEX
  8
CSLAYER1
  6
CONTINUOUS
 62
     3
 10
43.171754
 20
213.794196
 30
0.0
  0
VERTEX
  8
CSLAYER1
  6
CONTINUOUS
 62
     3
 10
43.169078
 20
213.769853
 30
0.0
  0
VERTEX
  8
CSLAYER1
  6
CONTINUOUS
 62
     3
 10
43.167473
 20
213.745135
 30
0.0
  0
VERTEX
  8
CSLAYER1
  6
CONTINUOUS
 62
     3
 10
43.166951
 20
213.720730
 30
0.0
  0
SEQEND
  0
LINE
  8
CSLAYER1
  6
CONTINUOUS
 62
     3
 10
42.381236
 20
210.435016
 11
42.381236
 21
213.720730
  0
POLYLINE
  8
CSLAYER1
  6
CONTINUOUS
 62
     3
 66
     1
 10
0.0
 20
0.0
 30
0.0
  0
VERTEX
  8
CSLAYER1
  6
CONTINUOUS
 62
     3
 10
42.624932
 20
213.923113
 30
0.0
  0
VERTEX
  8
CSLAYER1
  6
CONTINUOUS
 62
     3
 10
42.615729
 20
213.939920
 30
0.0
  0
VERTEX
  8
CSLAYER1
  6
CONTINUOUS
 62
     3
 10
42.605829
 20
213.955059
 30
0.0
  0
VERTEX
  8
CSLAYER1
  6
CONTINUOUS
 62
     3
 10
42.595306
 20
213.968415
 30
0.0
  0
VERTEX
  8
CSLAYER1
  6
CONTINUOUS
 62
     3
 10
42.584241
 20
213.979885
 30
0.0
  0
VERTEX
  8
CSLAYER1
  6
CONTINUOUS
 62
     3
 10
42.572719
 20
213.989384
 30
0.0
  0
VERTEX
  8
CSLAYER1
  6
CONTINUOUS
 62
     3
 10
42.560827
 20
213.996837
 30
0.0
  0
VERTEX
  8
CSLAYER1
  6
CONTINUOUS
 62
     3
 10
42.548655
 20
214.002190
 30
0.0
  0
VERTEX
  8
CSLAYER1
  6
CONTINUOUS
 62
     3
 10
42.536296
 20
214.005400
 30
0.0
  0
VERTEX
  8
CSLAYER1
  6
CONTINUOUS
 62
     3
 10
42.523844
 20
214.006444
 30
0.0
  0
VERTEX
  8
CSLAYER1
  6
CONTINUOUS
 62
     3
 10
42.511394
 20
214.005313
 30
0.0
  0
VERTEX
  8
CSLAYER1
  6
CONTINUOUS
 62
     3
 10
42.499041
 20
214.002017
 30
0.0
  0
VERTEX
  8
CSLAYER1
  6
CONTINUOUS
 62
     3
 10
42.486879
 20
213.996579
 30
0.0
  0
VERTEX
  8
CSLAYER1
  6
CONTINUOUS
 62
     3
 10
42.474999
 20
213.989043
 30
0.0
  0
VERTEX
  8
CSLAYER1
  6
CONTINUOUS
 62
     3
 10
42.463494
 20
213.979464
 30
0.0
  0
VERTEX
  8
CSLAYER1
  6
CONTINUOUS
 62
     3
 10
42.452449
 20
213.967916
 30
0.0
  0
VERTEX
  8
CSLAYER1
  6
CONTINUOUS
 62
     3
 10
42.441950
 20
213.954487
 30
0.0
  0
VERTEX
  8
CSLAYER1
  6
CONTINUOUS
 62
     3
 10
42.432076
 20
213.939279
 30
0.0
  0
VERTEX
  8
CSLAYER1
  6
CONTINUOUS
 62
     3
 10
42.422902
 20
213.922408
 30
0.0
  0
VERTEX
  8
CSLAYER1
  6
CONTINUOUS
 62
     3
 10
42.414498
 20
213.904001
 30
0.0
  0
VERTEX
  8
CSLAYER1
  6
CONTINUOUS
 62
     3
 10
42.406929
 20
213.884200
 30
0.0
  0
VERTEX
  8
CSLAYER1
  6
CONTINUOUS
 62
     3
 10
42.400251
 20
213.863155
 30
0.0
  0
VERTEX
  8
CSLAYER1
  6
CONTINUOUS
 62
     3
 10
42.394516
 20
213.841026
 30
0.0
  0
VERTEX
  8
CSLAYER1
  6
CONTINUOUS
 62
     3
 10
42.389767
 20
213.817981
 30
0.0
  0
VERTEX
  8
CSLAYER1
  6
CONTINUOUS
 62
     3
 10
42.386040
 20
213.794196
 30
0.0
  0
VERTEX
  8
CSLAYER1
  6
CONTINUOUS
 62
     3
 10
42.383364
 20
213.769853
 30
0.0
  0
VERTEX
  8
CSLAYER1
  6
CONTINUOUS
 62
     3
 10
42.381758
 20
213.745135
 30
0.0
  0
VERTEX
  8
CSLAYER1
  6
CONTINUOUS
 62
     3
 10
42.381236
 20
213.720730
 30
0.0
  0
SEQEND
  0
LINE
  8
CSLAYER1
  6
CONTINUOUS
 62
     3
 10
42.595522
 20
210.435016
 11
42.595522
 21
213.720730
  0
POLYLINE
  8
CSLAYER1
  6
CONTINUOUS
 62
     3
 66
     1
 10
0.0
 20
0.0
 30
0.0
  0
VERTEX
  8
CSLAYER1
  6
CONTINUOUS
 62
     3
 10
42.839218
 20
213.923113
 30
0.0
  0
VERTEX
  8
CSLAYER1
  6
CONTINUOUS
 62
     3
 10
42.830015
 20
213.939920
 30
0.0
  0
VERTEX
  8
CSLAYER1
  6
CONTINUOUS
 62
     3
 10
42.820114
 20
213.955059
 30
0.0
  0
VERTEX
  8
CSLAYER1
  6
CONTINUOUS
 62
     3
 10
42.809592
 20
213.968415
 30
0.0
  0
VERTEX
  8
CSLAYER1
  6
CONTINUOUS
 62
     3
 10
42.798527
 20
213.979885
 30
0.0
  0
VERTEX
  8
CSLAYER1
  6
CONTINUOUS
 62
     3
 10
42.787005
 20
213.989384
 30
0.0
  0
VERTEX
  8
CSLAYER1
  6
CONTINUOUS
 62
     3
 10
42.775112
 20
213.996837
 30
0.0
  0
VERTEX
  8
CSLAYER1
  6
CONTINUOUS
 62
     3
 10
42.762940
 20
214.002190
 30
0.0
  0
VERTEX
  8
CSLAYER1
  6
CONTINUOUS
 62
     3
 10
42.750582
 20
214.005400
 30
0.0
  0
VERTEX
  8
CSLAYER1
  6
CONTINUOUS
 62
     3
 10
42.738130
 20
214.006444
 30
0.0
  0
VERTEX
  8
CSLAYER1
  6
CONTINUOUS
 62
     3
 10
42.725680
 20
214.005313
 30
0.0
  0
VERTEX
  8
CSLAYER1
  6
CONTINUOUS
 62
     3
 10
42.713327
 20
214.002017
 30
0.0
  0
VERTEX
  8
CSLAYER1
  6
CONTINUOUS
 62
     3
 10
42.701164
 20
213.996579
 30
0.0
  0
VERTEX
  8
CSLAYER1
  6
CONTINUOUS
 62
     3
 10
42.689285
 20
213.989043
 30
0.0
  0
VERTEX
  8
CSLAYER1
  6
CONTINUOUS
 62
     3
 10
42.677779
 20
213.979464
 30
0.0
  0
VERTEX
  8
CSLAYER1
  6
CONTINUOUS
 62
     3
 10
42.666735
 20
213.967916
 30
0.0
  0
VERTEX
  8
CSLAYER1
  6
CONTINUOUS
 62
     3
 10
42.656236
 20
213.954487
 30
0.0
  0
VERTEX
  8
CSLAYER1
  6
CONTINUOUS
 62
     3
 10
42.646362
 20
213.939279
 30
0.0
  0
VERTEX
  8
CSLAYER1
  6
CONTINUOUS
 62
     3
 10
42.637188
 20
213.922408
 30
0.0
  0
VERTEX
  8
CSLAYER1
  6
CONTINUOUS
 62
     3
 10
42.628784
 20
213.904001
 30
0.0
  0
VERTEX
  8
CSLAYER1
  6
CONTINUOUS
 62
     3
 10
42.621215
 20
213.884200
 30
0.0
  0
VERTEX
  8
CSLAYER1
  6
CONTINUOUS
 62
     3
 10
42.614537
 20
213.863155
 30
0.0
  0
VERTEX
  8
CSLAYER1
  6
CONTINUOUS
 62
     3
 10
42.608801
 20
213.841026
 30
0.0
  0
VERTEX
  8
CSLAYER1
  6
CONTINUOUS
 62
     3
 10
42.604052
 20
213.817981
 30
0.0
  0
VERTEX
  8
CSLAYER1
  6
CONTINUOUS
 62
     3
 10
42.600325
 20
213.794196
 30
0.0
  0
VERTEX
  8
CSLAYER1
  6
CONTINUOUS
 62
     3
 10
42.597649
 20
213.769853
 30
0.0
  0
VERTEX
  8
CSLAYER1
  6
CONTINUOUS
 62
     3
 10
42.596044
 20
213.745135
 30
0.0
  0
VERTEX
  8
CSLAYER1
  6
CONTINUOUS
 62
     3
 10
42.595522
 20
213.720730
 30
0.0
  0
SEQEND
  0
LINE
  8
CSLAYER1
  6
CONTINUOUS
 62
     3
 10
42.809808
 20
210.435016
 11
42.809808
 21
213.720730
  0
POLYLINE
  8
CSLAYER1
  6
CONTINUOUS
 62
     3
 66
     1
 10
0.0
 20
0.0
 30
0.0
  0
VERTEX
  8
CSLAYER1
  6
CONTINUOUS
 62
     3
 10
43.053504
 20
213.923113
 30
0.0
  0
VERTEX
  8
CSLAYER1
  6
CONTINUOUS
 62
     3
 10
43.044301
 20
213.939920
 30
0.0
  0
VERTEX
  8
CSLAYER1
  6
CONTINUOUS
 62
     3
 10
43.034400
 20
213.955059
 30
0.0
  0
VERTEX
  8
CSLAYER1
  6
CONTINUOUS
 62
     3
 10
43.023877
 20
213.968415
 30
0.0
  0
VERTEX
  8
CSLAYER1
  6
CONTINUOUS
 62
     3
 10
43.012813
 20
213.979885
 30
0.0
  0
VERTEX
  8
CSLAYER1
  6
CONTINUOUS
 62
     3
 10
43.001291
 20
213.989384
 30
0.0
  0
VERTEX
  8
CSLAYER1
  6
CONTINUOUS
 62
     3
 10
42.989398
 20
213.996837
 30
0.0
  0
VERTEX
  8
CSLAYER1
  6
CONTINUOUS
 62
     3
 10
42.977226
 20
214.002190
 30
0.0
  0
VERTEX
  8
CSLAYER1
  6
CONTINUOUS
 62
     3
 10
42.964867
 20
214.005400
 30
0.0
  0
VERTEX
  8
CSLAYER1
  6
CONTINUOUS
 62
     3
 10
42.952416
 20
214.006444
 30
0.0
  0
VERTEX
  8
CSLAYER1
  6
CONTINUOUS
 62
     3
 10
42.939966
 20
214.005313
 30
0.0
  0
VERTEX
  8
CSLAYER1
  6
CONTINUOUS
 62
     3
 10
42.927613
 20
214.002017
 30
0.0
  0
VERTEX
  8
CSLAYER1
  6
CONTINUOUS
 62
     3
 10
42.915450
 20
213.996579
 30
0.0
  0
VERTEX
  8
CSLAYER1
  6
CONTINUOUS
 62
     3
 10
42.903571
 20
213.989043
 30
0.0
  0
VERTEX
  8
CSLAYER1
  6
CONTINUOUS
 62
     3
 10
42.892065
 20
213.979464
 30
0.0
  0
VERTEX
  8
CSLAYER1
  6
CONTINUOUS
 62
     3
 10
42.881021
 20
213.967916
 30
0.0
  0
VERTEX
  8
CSLAYER1
  6
CONTINUOUS
 62
     3
 10
42.870521
 20
213.954487
 30
0.0
  0
VERTEX
  8
CSLAYER1
  6
CONTINUOUS
 62
     3
 10
42.860647
 20
213.939279
 30
0.0
  0
VERTEX
  8
CSLAYER1
  6
CONTINUOUS
 62
     3
 10
42.851473
 20
213.922408
 30
0.0
  0
VERTEX
  8
CSLAYER1
  6
CONTINUOUS
 62
     3
 10
42.843070
 20
213.904001
 30
0.0
  0
VERTEX
  8
CSLAYER1
  6
CONTINUOUS
 62
     3
 10
42.835500
 20
213.884200
 30
0.0
  0
VERTEX
  8
CSLAYER1
  6
CONTINUOUS
 62
     3
 10
42.828822
 20
213.863155
 30
0.0
  0
VERTEX
  8
CSLAYER1
  6
CONTINUOUS
 62
     3
 10
42.823087
 20
213.841026
 30
0.0
  0
VERTEX
  8
CSLAYER1
  6
CONTINUOUS
 62
     3
 10
42.818338
 20
213.817981
 30
0.0
  0
VERTEX
  8
CSLAYER1
  6
CONTINUOUS
 62
     3
 10
42.814611
 20
213.794196
 30
0.0
  0
VERTEX
  8
CSLAYER1
  6
CONTINUOUS
 62
     3
 10
42.811935
 20
213.769853
 30
0.0
  0
VERTEX
  8
CSLAYER1
  6
CONTINUOUS
 62
     3
 10
42.810330
 20
213.745135
 30
0.0
  0
VERTEX
  8
CSLAYER1
  6
CONTINUOUS
 62
     3
 10
42.809808
 20
213.720730
 30
0.0
  0
SEQEND
  0
LINE
  8
CSLAYER1
  6
CONTINUOUS
 62
     3
 10
42.452665
 20
213.863587
 11
42.452665
 21
210.292158
  0
LINE
  8
CSLAYER1
  6
CONTINUOUS
 62
     3
 10
42.452665
 20
210.292158
 11
50.309808
 21
210.292158
  0
LINE
  8
CSLAYER1
  6
CONTINUOUS
 62
     3
 10
50.309808
 20
210.292158
 11
50.309808
 21
213.863587
  0
LINE
  8
CSLAYER1
  6
CONTINUOUS
 62
     3
 10
50.309808
 20
213.863587
 11
42.452665
 21
213.863587
  0
LINE
  8
CSLAYER1
  6
CONTINUOUS
 62
     3
 10
50.166951
 20
210.435016
 11
50.166951
 21
213.720730
  0
POLYLINE
  8
CSLAYER1
  6
CONTINUOUS
 62
     3
 66
     1
 10
0.0
 20
0.0
 30
0.0
  0
VERTEX
  8
CSLAYER1
  6
CONTINUOUS
 62
     3
 10
50.166951
 20
213.720730
 30
0.0
  0
VERTEX
  8
CSLAYER1
  6
CONTINUOUS
 62
     3
 10
50.166407
 20
213.745632
 30
0.0
  0
VERTEX
  8
CSLAYER1
  6
CONTINUOUS
 62
     3
 10
50.164780
 20
213.770344
 30
0.0
  0
VERTEX
  8
CSLAYER1
  6
CONTINUOUS
 62
     3
 10
50.162083
 20
213.794678
 30
0.0
  0
VERTEX
  8
CSLAYER1
  6
CONTINUOUS
 62
     3
 10
50.158335
 20
213.818450
 30
0.0
  0
VERTEX
  8
CSLAYER1
  6
CONTINUOUS
 62
     3
 10
50.153566
 20
213.841478
 30
0.0
  0
VERTEX
  8
CSLAYER1
  6
CONTINUOUS
 62
     3
 10
50.147811
 20
213.863587
 30
0.0
  0
VERTEX
  8
CSLAYER1
  6
CONTINUOUS
 62
     3
 10
50.141115
 20
213.884609
 30
0.0
  0
VERTEX
  8
CSLAYER1
  6
CONTINUOUS
 62
     3
 10
50.133528
 20
213.904384
 30
0.0
  0
VERTEX
  8
CSLAYER1
  6
CONTINUOUS
 62
     3
 10
50.125109
 20
213.922760
 30
0.0
  0
VERTEX
  8
CSLAYER1
  6
CONTINUOUS
 62
     3
 10
50.115920
 20
213.939600
 30
0.0
  0
VERTEX
  8
CSLAYER1
  6
CONTINUOUS
 62
     3
 10
50.106033
 20
213.954773
 30
0.0
  0
VERTEX
  8
CSLAYER1
  6
CONTINUOUS
 62
     3
 10
50.095522
 20
213.968166
 30
0.0
  0
VERTEX
  8
CSLAYER1
  6
CONTINUOUS
 62
     3
 10
50.084467
 20
213.979675
 30
0.0
  0
VERTEX
  8
CSLAYER1
  6
CONTINUOUS
 62
     3
 10
50.072953
 20
213.989214
 30
0.0
  0
VERTEX
  8
CSLAYER1
  6
CONTINUOUS
 62
     3
 10
50.061068
 20
213.996709
 30
0.0
  0
VERTEX
  8
CSLAYER1
  6
CONTINUOUS
 62
     3
 10
50.048900
 20
214.002104
 30
0.0
  0
VERTEX
  8
CSLAYER1
  6
CONTINUOUS
 62
     3
 10
50.036544
 20
214.005357
 30
0.0
  0
VERTEX
  8
CSLAYER1
  6
CONTINUOUS
 62
     3
 10
50.024093
 20
214.006444
 30
0.0
  0
VERTEX
  8
CSLAYER1
  6
CONTINUOUS
 62
     3
 10
50.011643
 20
214.005357
 30
0.0
  0
VERTEX
  8
CSLAYER1
  6
CONTINUOUS
 62
     3
 10
49.999286
 20
214.002104
 30
0.0
  0
VERTEX
  8
CSLAYER1
  6
CONTINUOUS
 62
     3
 10
49.987119
 20
213.996709
 30
0.0
  0
VERTEX
  8
CSLAYER1
  6
CONTINUOUS
 62
     3
 10
49.975233
 20
213.989213
 30
0.0
  0
VERTEX
  8
CSLAYER1
  6
CONTINUOUS
 62
     3
 10
49.963719
 20
213.979675
 30
0.0
  0
VERTEX
  8
CSLAYER1
  6
CONTINUOUS
 62
     3
 10
49.952665
 20
213.968166
 30
0.0
  0
VERTEX
  8
CSLAYER1
  6
CONTINUOUS
 62
     3
 10
49.942154
 20
213.954773
 30
0.0
  0
VERTEX
  8
CSLAYER1
  6
CONTINUOUS
 62
     3
 10
49.932267
 20
213.939600
 30
0.0
  0
VERTEX
  8
CSLAYER1
  6
CONTINUOUS
 62
     3
 10
49.923255
 20
213.923113
 30
0.0
  0
SEQEND
  0
LINE
  8
CSLAYER1
  6
CONTINUOUS
 62
     3
 10
42.595522
 20
210.435016
 11
42.595522
 21
213.720730
  0
POLYLINE
  8
CSLAYER1
  6
CONTINUOUS
 62
     3
 66
     1
 10
0.0
 20
0.0
 30
0.0
  0
VERTEX
  8
CSLAYER1
  6
CONTINUOUS
 62
     3
 10
42.839218
 20
213.923113
 30
0.0
  0
VERTEX
  8
CSLAYER1
  6
CONTINUOUS
 62
     3
 10
42.830015
 20
213.939920
 30
0.0
  0
VERTEX
  8
CSLAYER1
  6
CONTINUOUS
 62
     3
 10
42.820114
 20
213.955059
 30
0.0
  0
VERTEX
  8
CSLAYER1
  6
CONTINUOUS
 62
     3
 10
42.809592
 20
213.968415
 30
0.0
  0
VERTEX
  8
CSLAYER1
  6
CONTINUOUS
 62
     3
 10
42.798527
 20
213.979885
 30
0.0
  0
VERTEX
  8
CSLAYER1
  6
CONTINUOUS
 62
     3
 10
42.787005
 20
213.989384
 30
0.0
  0
VERTEX
  8
CSLAYER1
  6
CONTINUOUS
 62
     3
 10
42.775112
 20
213.996837
 30
0.0
  0
VERTEX
  8
CSLAYER1
  6
CONTINUOUS
 62
     3
 10
42.762940
 20
214.002190
 30
0.0
  0
VERTEX
  8
CSLAYER1
  6
CONTINUOUS
 62
     3
 10
42.750582
 20
214.005400
 30
0.0
  0
VERTEX
  8
CSLAYER1
  6
CONTINUOUS
 62
     3
 10
42.738130
 20
214.006444
 30
0.0
  0
VERTEX
  8
CSLAYER1
  6
CONTINUOUS
 62
     3
 10
42.725680
 20
214.005313
 30
0.0
  0
VERTEX
  8
CSLAYER1
  6
CONTINUOUS
 62
     3
 10
42.713327
 20
214.002017
 30
0.0
  0
VERTEX
  8
CSLAYER1
  6
CONTINUOUS
 62
     3
 10
42.701164
 20
213.996579
 30
0.0
  0
VERTEX
  8
CSLAYER1
  6
CONTINUOUS
 62
     3
 10
42.689285
 20
213.989043
 30
0.0
  0
VERTEX
  8
CSLAYER1
  6
CONTINUOUS
 62
     3
 10
42.677779
 20
213.979464
 30
0.0
  0
VERTEX
  8
CSLAYER1
  6
CONTINUOUS
 62
     3
 10
42.666735
 20
213.967916
 30
0.0
  0
VERTEX
  8
CSLAYER1
  6
CONTINUOUS
 62
     3
 10
42.656236
 20
213.954487
 30
0.0
  0
VERTEX
  8
CSLAYER1
  6
CONTINUOUS
 62
     3
 10
42.646362
 20
213.939279
 30
0.0
  0
VERTEX
  8
CSLAYER1
  6
CONTINUOUS
 62
     3
 10
42.637188
 20
213.922408
 30
0.0
  0
VERTEX
  8
CSLAYER1
  6
CONTINUOUS
 62
     3
 10
42.628784
 20
213.904001
 30
0.0
  0
VERTEX
  8
CSLAYER1
  6
CONTINUOUS
 62
     3
 10
42.621215
 20
213.884200
 30
0.0
  0
VERTEX
  8
CSLAYER1
  6
CONTINUOUS
 62
     3
 10
42.614537
 20
213.863155
 30
0.0
  0
VERTEX
  8
CSLAYER1
  6
CONTINUOUS
 62
     3
 10
42.608801
 20
213.841026
 30
0.0
  0
VERTEX
  8
CSLAYER1
  6
CONTINUOUS
 62
     3
 10
42.604052
 20
213.817981
 30
0.0
  0
VERTEX
  8
CSLAYER1
  6
CONTINUOUS
 62
     3
 10
42.600325
 20
213.794196
 30
0.0
  0
VERTEX
  8
CSLAYER1
  6
CONTINUOUS
 62
     3
 10
42.597649
 20
213.769853
 30
0.0
  0
VERTEX
  8
CSLAYER1
  6
CONTINUOUS
 62
     3
 10
42.596044
 20
213.745135
 30
0.0
  0
VERTEX
  8
CSLAYER1
  6
CONTINUOUS
 62
     3
 10
42.595522
 20
213.720730
 30
0.0
  0
SEQEND
  0
LINE
  8
CSLAYER1
  6
CONTINUOUS
 62
     6
 10
49.381236
 20
209.955936
 11
49.381236
 21
209.577873
  0
LINE
  8
CSLAYER1
  6
CONTINUOUS
 62
     6
 10
50.381236
 20
225.577873
 11
49.381236
 21
225.577873
  0
LINE
  8
CSLAYER1
  6
CONTINUOUS
 62
     6
 10
50.381236
 20
220.577873
 11
49.381236
 21
220.577873
  0
LINE
  8
CSLAYER1
  6
CONTINUOUS
 62
     6
 10
50.381236
 20
214.577873
 11
49.381236
 21
214.577873
  0
LINE
  8
CSLAYER1
  6
CONTINUOUS
 62
     6
 10
50.381236
 20
209.577873
 11
49.381236
 21
209.577873
  0
LINE
  8
CSLAYER1
  6
CONTINUOUS
 62
     6
 10
50.381236
 20
225.577873
 11
50.381236
 21
220.577873
  0
LINE
  8
CSLAYER1
  6
CONTINUOUS
 62
     6
 10
50.381236
 20
214.577873
 11
50.381236
 21
209.577873
  0
LINE
  8
CSLAYER1
  6
CONTINUOUS
 62
     6
 10
100.381236
 20
170.577873
 11
100.381236
 21
189.777873
  0
LINE
  8
CSLAYER1
  6
CONTINUOUS
 62
     6
 10
91.381236
 20
170.577873
 11
100.381236
 21
170.577873
  0
LINE
  8
CSLAYER1
  6
CONTINUOUS
 62
     6
 10
91.381236
 20
170.577873
 11
91.381236
 21
189.777873
  0
LINE
  8
CSLAYER1
  6
CONTINUOUS
 62
     6
 10
91.381236
 20
189.777873
 11
100.381236
 21
189.777873
  0
LINE
  8
CSLAYER1
  6
CONTINUOUS
 62
     3
 10
93.381236
 20
170.577873
 11
93.381236
 21
189.777873
  0
LINE
  8
CSLAYER1
  6
CONTINUOUS
 62
     3
 10
98.381236
 20
170.577873
 11
98.381236
 21
189.777873
  0
CIRCLE
  8
CSLAYER1
  6
CONTINUOUS
 62
     6
 10
95.881236
 20
172.977873
 40
2.000000
  0
CIRCLE
  8
CSLAYER1
  6
CONTINUOUS
 62
     6
 10
95.881236
 20
177.777873
 40
2.000000
  0
CIRCLE
  8
CSLAYER1
  6
CONTINUOUS
 62
     6
 10
95.881236
 20
182.577873
 40
2.000000
  0
CIRCLE
  8
CSLAYER1
  6
CONTINUOUS
 62
     6
 10
95.881236
 20
187.377873
 40
2.000000
  0
LINE
  8
CSLAYER1
  6
CONTINUOUS
 62
     6
 10
94.000914
 20
173.659332
 11
97.411559
 21
171.690195
  0
LINE
  8
CSLAYER1
  6
CONTINUOUS
 62
     6
 10
94.350914
 20
174.265550
 11
97.761559
 21
172.296413
  0
LINE
  8
CSLAYER1
  6
CONTINUOUS
 62
     6
 10
96.562696
 20
179.658195
 11
94.593559
 21
176.247550
  0
LINE
  8
CSLAYER1
  6
CONTINUOUS
 62
     6
 10
97.168914
 20
179.308195
 11
95.199777
 21
175.897550
  0
LINE
  8
CSLAYER1
  6
CONTINUOUS
 62
     6
 10
95.033512
 20
184.389326
 11
96.052812
 21
180.585246
  0
LINE
  8
CSLAYER1
  6
CONTINUOUS
 62
     6
 10
95.709660
 20
184.570500
 11
96.728960
 21
180.766419
  0
LINE
  8
CSLAYER1
  6
CONTINUOUS
 62
     6
 10
97.692690
 20
186.530149
 11
93.888609
 21
187.549449
  0
LINE
  8
CSLAYER1
  6
CONTINUOUS
 62
     6
 10
97.873863
 20
187.206297
 11
94.069783
 21
188.225597
  0
LINE
  8
CSLAYER1
  6
CONTINUOUS
 62
     6
 10
51.381236
 20
189.777873
 11
51.381236
 21
218.577873
  0
LINE
  8
CSLAYER1
  6
CONTINUOUS
 62
     6
 10
51.381236
 20
218.577873
 11
49.381236
 21
218.577873
  0
LINE
  8
CSLAYER1
  6
CONTINUOUS
 62
     6
 10
47.381236
 20
208.327873
 11
43.381236
 21
208.327873
  0
LINE
  8
CSLAYER1
  6
CONTINUOUS
 62
     6
 10
47.381236
 20
204.827873
 11
43.381236
 21
204.827873
  0
LINE
  8
CSLAYER1
  6
CONTINUOUS
 62
     6
 10
47.381236
 20
204.827873
 11
47.381236
 21
208.327873
  0
LINE
  8
CSLAYER1
  6
CONTINUOUS
 62
     6
 10
43.381236
 20
204.827873
 11
43.381236
 21
208.327873
  0
LINE
  8
CSLAYER1
  6
CONTINUOUS
 62
     6
 10
46.381236
 20
208.027873
 11
44.381236
 21
208.027873
  0
LINE
  8
CSLAYER1
  6
CONTINUOUS
 62
     6
 10
46.381236
 20
205.127873
 11
44.381236
 21
205.127873
  0
LINE
  8
CSLAYER1
  6
CONTINUOUS
 62
     6
 10
46.381236
 20
205.127873
 11
46.381236
 21
208.027873
  0
LINE
  8
CSLAYER1
  6
CONTINUOUS
 62
     6
 10
44.381236
 20
205.127873
 11
44.381236
 21
208.027873
  0
LINE
  8
CSLAYER1
  6
CONTINUOUS
 62
     6
 10
47.381236
 20
203.527873
 11
43.381236
 21
203.527873
  0
LINE
  8
CSLAYER1
  6
CONTINUOUS
 62
     6
 10
47.381236
 20
203.527873
 11
43.381236
 21
203.527873
  0
LINE
  8
CSLAYER1
  6
CONTINUOUS
 62
     6
 10
47.381236
 20
200.577873
 11
47.381236
 21
203.527873
  0
LINE
  8
CSLAYER1
  6
CONTINUOUS
 62
     6
 10
43.381236
 20
200.577873
 11
43.381236
 21
203.527873
  0
LINE
  8
CSLAYER1
  6
CONTINUOUS
 62
     6
 10
46.381236
 20
203.227873
 11
44.381236
 21
203.227873
  0
LINE
  8
CSLAYER1
  6
CONTINUOUS
 62
     6
 10
46.381236
 20
200.577873
 11
46.381236
 21
203.227873
  0
LINE
  8
CSLAYER1
  6
CONTINUOUS
 62
     6
 10
44.381236
 20
200.577873
 11
44.381236
 21
203.227873
  0
LINE
  8
CSLAYER1
  6
CONTINUOUS
 62
     6
 10
47.381236
 20
195.227873
 11
43.381236
 21
195.227873
  0
LINE
  8
CSLAYER1
  6
CONTINUOUS
 62
     6
 10
47.381236
 20
195.227873
 11
47.381236
 21
195.577873
  0
LINE
  8
CSLAYER1
  6
CONTINUOUS
 62
     6
 10
43.381236
 20
195.227873
 11
43.381236
 21
195.577873
  0
LINE
  8
CSLAYER1
  6
CONTINUOUS
 62
     6
 10
142.325587
 20
198.077873
 11
142.325587
 21
198.577873
  0
LINE
  8
CSLAYER1
  6
CONTINUOUS
 62
     6
 10
146.686875
 20
198.077873
 11
146.686875
 21
198.577873
  0
LINE
  8
CSLAYER1
  6
CONTINUOUS
 62
     6
 10
147.881231
 20
196.077873
 11
147.381231
 21
196.077873
  0
LINE
  8
CSLAYER1
  6
CONTINUOUS
 62
     6
 10
147.881231
 20
195.577873
 11
147.381231
 21
195.577873
  0
POINT
  8
CSLAYER1
 62
     3
 10
144.506231
 20
195.827873
  0
LINE
  8
CSLAYER1
  6
CONTINUOUS
 62
     6
 10
147.881231
 20
196.077873
 11
147.881231
 21
195.577873
  0
LINE
  8
CSLAYER1
  6
CONTINUOUS
 62
     6
 10
141.131231
 20
196.077873
 11
141.631231
 21
196.077873
  0
LINE
  8
CSLAYER1
  6
CONTINUOUS
 62
     6
 10
141.131231
 20
195.577873
 11
141.631231
 21
195.577873
  0
LINE
  8
CSLAYER1
  6
CONTINUOUS
 62
     6
 10
141.131231
 20
196.077873
 11
141.131231
 21
195.577873
  0
ARC
  8
CSLAYER1
  6
CONTINUOUS
 62
     6
 10
144.506231
 20
196.200269
 40
2.877604
 50
-2.437750
 51
40.729502
  0
ARC
  8
CSLAYER1
  6
CONTINUOUS
 62
     6
 10
144.506231
 20
195.455477
 40
2.877604
 50
177.562250
 51
220.729502
  0
ARC
  8
CSLAYER1
  6
CONTINUOUS
 62
     6
 10
144.506231
 20
195.455477
 40
2.877604
 50
-40.729502
 51
2.437750
  0
LINE
  8
CSLAYER1
  6
CONTINUOUS
 62
     6
 10
142.325587
 20
193.577873
 11
142.325587
 21
193.078451
  0
LINE
  8
CSLAYER1
  6
CONTINUOUS
 62
     6
 10
146.686875
 20
193.577873
 11
146.686875
 21
193.078451
  0
CIRCLE
  8
CSLAYER1
  6
CONTINUOUS
 62
     6
 10
144.506231
 20
194.077873
 40
1.000000
  0
LINE
  8
CSLAYER1
  6
CONTINUOUS
 62
     6
 10
142.325587
 20
198.577873
 11
146.686875
 21
198.577873
  0
ARC
  8
CSLAYER1
  6
CONTINUOUS
 62
     6
 10
144.506231
 20
196.200269
 40
2.877604
 50
55.714852
 51
124.285148
  0
ARC
  8
CSLAYER1
  6
CONTINUOUS
 62
     6
 10
144.506231
 20
196.200269
 40
2.877604
 50
139.270498
 51
182.437750
  0
ARC
  8
CSLAYER1
  6
CONTINUOUS
 62
     6
 10
144.506231
 20
197.577873
 40
5.000000
 50
244.142857
 51
295.857143
  0
LINE
  8
CSLAYER1
  6
CONTINUOUS
 62
     3
 10
144.930495
 20
193.502137
 11
144.706231
 21
193.502137
  0
LINE
  8
CSLAYER1
  6
CONTINUOUS
 62
     3
 10
144.930495
 20
193.502137
 11
144.506231
 21
193.077873
  0
LINE
  8
CSLAYER1
  6
CONTINUOUS
 62
     3
 10
144.706231
 20
195.057669
 11
144.706231
 21
193.502137
  0
LINE
  8
CSLAYER1
  6
CONTINUOUS
 62
     3
 10
144.306231
 20
195.057669
 11
144.306231
 21
193.502137
  0
LINE
  8
CSLAYER1
  6
CONTINUOUS
 62
     3
 10
144.081967
 20
193.502137
 11
144.306231
 21
193.502137
  0
LINE
  8
CSLAYER1
  6
CONTINUOUS
 62
     3
 10
144.081967
 20
193.502137
 11
144.506231
 21
193.077873
  0
LINE
  8
CSLAYER1
  6
CENTER
 62
     3
 10
78.381236
 20
112.177873
 11
78.381236
 21
104.977873
  0
LINE
  8
CSLAYER1
  6
CENTER
 62
     3
 10
74.781236
 20
108.577873
 11
81.981236
 21
108.577873
  0
LINE
  8
CSLAYER1
  6
CENTER
 62
     3
 10
183.381236
 20
127.177873
 11
183.381236
 21
119.977873
  0
LINE
  8
CSLAYER1
  6
CENTER
 62
     3
 10
179.781236
 20
123.577873
 11
186.981236
 21
123.577873
  0
LINE
  8
CSLAYER1
  6
CENTER
 62
     3
 10
183.381236
 20
112.177873
 11
183.381236
 21
104.977873
  0
LINE
  8
CSLAYER1
  6
CENTER
 62
     3
 10
179.781236
 20
108.577873
 11
186.981236
 21
108.577873
  0
LINE
  8
CSLAYER1
  6
DASHED
 62
     6
 10
73.381236
 20
100.577873
 11
188.381236
 21
100.577873
  0
ARC
  8
CSLAYER1
  6
CONTINUOUS
 62
     6
 10
39.045003
 20
228.577861
 40
5.431046
 50
-16.257006
 51
16.257016
  0
LINE
  8
CSLAYER1
  6
CONTINUOUS
 62
     6
 10
43.093048
 20
226.458999
 11
43.581703
 21
226.501748
  0
ARC
  8
CSLAYER1
  6
CONTINUOUS
 62
     6
 10
43.514081
 20
227.274664
 40
0.775864
 50
275.000111
 51
343.742611
  0
ARC
  8
CSLAYER1
  6
CONTINUOUS
 62
     6
 10
43.079504
 20
226.613577
 40
0.155173
 50
180.000000
 51
275.000152
  0
LINE
  8
CSLAYER1
  6
CONTINUOUS
 62
     6
 10
43.093048
 20
230.696723
 11
43.581703
 21
230.653974
  0
ARC
  8
CSLAYER1
  6
CONTINUOUS
 62
     6
 10
43.514081
 20
229.881058
 40
0.775864
 50
16.257399
 51
84.999892
  0
ARC
  8
CSLAYER1
  6
CONTINUOUS
 62
     6
 10
43.079504
 20
230.542145
 40
0.155173
 50
84.999865
 51
179.942691
  0
LINE
  8
CSLAYER1
  6
CONTINUOUS
 62
     6
 10
42.924331
 20
226.613577
 11
42.924331
 21
230.542300
  0
LINE
  8
CSLAYER1
  6
CONTINUOUS
 62
     6
 10
42.924322
 20
230.750270
 11
42.924322
 21
226.405452
  0
LINE
  8
CSLAYER1
  6
CONTINUOUS
 62
     6
 10
42.846754
 20
226.327861
 11
42.458823
 21
226.327861
  0
ARC
  8
CSLAYER1
  6
CONTINUOUS
 62
     6
 10
42.846754
 20
226.405452
 40
0.077586
 50
-89.999997
 51
0.000005
  0
ARC
  8
CSLAYER1
  6
CONTINUOUS
 62
     6
 10
42.458823
 20
226.405452
 40
0.077586
 50
180.000000
 51
270.000003
  0
ARC
  8
CSLAYER1
  6
CONTINUOUS
 62
     6
 10
42.846754
 20
230.750270
 40
0.077586
 50
0.000005
 51
90.000001
  0
LINE
  8
CSLAYER1
  6
CONTINUOUS
 62
     6
 10
42.846754
 20
230.827861
 11
42.458823
 21
230.827861
  0
ARC
  8
CSLAYER1
  6
CONTINUOUS
 62
     6
 10
42.458823
 20
230.750270
 40
0.077586
 50
90.000001
 51
179.942691
  0
LINE
  8
CSLAYER1
  6
CONTINUOUS
 62
     6
 10
42.924322
 20
229.040223
 11
42.381232
 21
228.695846
  0
LINE
  8
CSLAYER1
  6
CONTINUOUS
 62
     6
 10
42.924322
 20
228.652291
 11
42.381232
 21
228.307914
  0
LINE
  8
CSLAYER1
  6
CONTINUOUS
 62
     6
 10
42.381236
 20
230.750347
 11
42.381236
 21
226.405452
  0
ARC
  8
CSLAYER1
  6
CONTINUOUS
 62
     6
 10
39.045003
 20
163.577861
 40
5.431046
 50
-16.257006
 51
16.257016
  0
LINE
  8
CSLAYER1
  6
CONTINUOUS
 62
     6
 10
43.093048
 20
161.458999
 11
43.581703
 21
161.501748
  0
ARC
  8
CSLAYER1
  6
CONTINUOUS
 62
     6
 10
43.514081
 20
162.274664
 40
0.775864
 50
275.000111
 51
343.742611
  0
ARC
  8
CSLAYER1
  6
CONTINUOUS
 62
     6
 10
43.079504
 20
161.613577
 40
0.155173
 50
180.000000
 51
275.000152
  0
LINE
  8
CSLAYER1
  6
CONTINUOUS
 62
     6
 10
43.093048
 20
165.696723
 11
43.581703
 21
165.653974
  0
ARC
  8
CSLAYER1
  6
CONTINUOUS
 62
     6
 10
43.514081
 20
164.881058
 40
0.775864
 50
16.257399
 51
84.999892
  0
ARC
  8
CSLAYER1
  6
CONTINUOUS
 62
     6
 10
43.079504
 20
165.542145
 40
0.155173
 50
84.999865
 51
179.942691
  0
LINE
  8
CSLAYER1
  6
CONTINUOUS
 62
     6
 10
42.924331
 20
161.613577
 11
42.924331
 21
165.542300
  0
LINE
  8
CSLAYER1
  6
CONTINUOUS
 62
     6
 10
42.924322
 20
165.750270
 11
42.924322
 21
161.405452
  0
LINE
  8
CSLAYER1
  6
CONTINUOUS
 62
     6
 10
42.846754
 20
161.327861
 11
42.458823
 21
161.327861
  0
ARC
  8
CSLAYER1
  6
CONTINUOUS
 62
     6
 10
42.846754
 20
161.405452
 40
0.077586
 50
-89.999997
 51
0.000005
  0
ARC
  8
CSLAYER1
  6
CONTINUOUS
 62
     6
 10
42.458823
 20
161.405452
 40
0.077586
 50
180.000000
 51
270.000003
  0
ARC
  8
CSLAYER1
  6
CONTINUOUS
 62
     6
 10
42.846754
 20
165.750270
 40
0.077586
 50
0.000005
 51
90.000001
  0
LINE
  8
CSLAYER1
  6
CONTINUOUS
 62
     6
 10
42.846754
 20
165.827861
 11
42.458823
 21
165.827861
  0
ARC
  8
CSLAYER1
  6
CONTINUOUS
 62
     6
 10
42.458823
 20
165.750270
 40
0.077586
 50
90.000001
 51
179.942691
  0
LINE
  8
CSLAYER1
  6
CONTINUOUS
 62
     6
 10
42.924322
 20
164.040223
 11
42.381232
 21
163.695846
  0
LINE
  8
CSLAYER1
  6
CONTINUOUS
 62
     6
 10
42.924322
 20
163.652291
 11
42.381232
 21
163.307914
  0
LINE
  8
CSLAYER1
  6
CONTINUOUS
 62
     6
 10
42.381236
 20
165.750347
 11
42.381236
 21
161.405452
  0
ENDSEC
  0
EOF
