  0
SECTION
  2
HEADER
  9
$ACADVER
  1
AC1006
  9
$INSBASE
 10
0.000000
 20
0.000000
 30
0.0
  9
$EXTMIN
 10
0.000000
 20
0.000000
  9
$EXTMAX
 10
420.000000
 20
297.000000
  9
$LIMMIN
 10
0.000000
 20
0.000000
  9
$LIMMAX
 10
420.000000
 20
297.000000
  9
$VIEWCTR
 10
210.000000
 20
148.500000
  9
$VIEWSIZE
 40
297.000000
  9
$SNAPMODE
 70
     0
  9
$SNAPUNIT
 10
1.0
 20
1.0
  9
$SNAPBASE
 10
0.0
 20
0.0
  9
$SNAPANG
 50
0.0
  9
$SNAPSTYLE
 70
     0
  9
$SNAPISOPAIR
 70
     0
  9
$GRIDMODE
 70
     0
  9
$GRIDUNIT
 10
0.0
 20
0.0
  9
$ORTHOMODE
 70
     0
  9
$REGENMODE
 70
     1
  9
$FILLMODE
 70
     1
  9
$QTEXTMODE
 70
     0
  9
$DRAGMODE
 70
     2
  9
$LTSCALE
 40
15.000000
  9
$OSMODE
 70
     0
  9
$ATTMODE
 70
     1
  9
$TEXTSIZE
 40
0.2
  9
$TRACEWID
 40
0.05
  9
$TEXTSTYLE
  7
STANDARD
  9
$CLAYER
  8
CSLAYER1
  9
$CELTYPE
  6
BYLAYER
  9
$CECOLOR
 62
   256
  9
$DIMSCALE
 40
1.0
  9
$DIMASZ
 40
0.18
  9
$DIMEXO
 40
0.0625
  9
$DIMDLI
 40
0.38
  9
$DIMRND
 40
0.0
  9
$DIMDLE
 40
0.0
  9
$DIMEXE
 40
0.18
  9
$DIMTP
 40
0.0
  9
$DIMTM
 40
0.0
  9
$DIMTXT
 40
0.18
  9
$DIMCEN
 40
0.09
  9
$DIMTSZ
 40
0.0
  9
$DIMTOL
 70
     0
  9
$DIMLIM
 70
     0
  9
$DIMTIH
 70
     1
  9
$DIMTOH
 70
     1
  9
$DIMSE1
 70
     0
  9
$DIMSE2
 70
     0
  9
$DIMTAD
 70
     0
  9
$DIMZIN
 70
     0
  9
$DIMBLK
  1

  9
$LUNITS
 70
     2
  9
$LUPREC
 70
     4
  9
$AXISMODE
 70
     0
  9
$AXISUNIT
 10
0.0
 20
0.0
  9
$SKETCHINC
 40
0.1
  9
$FILLETRAD
 40
0.0
  9
$AUNITS
 70
     0
  9
$AUPREC
 70
     0
  9
$MENU
  1
ACAD
  9
$ELEVATION
 40
0.0
  9
$THICKNESS
 40
0.0
  9
$VIEWDIR
 10
0.0
 20
0.0
 30
1.0
  9
$LIMCHECK
 70
     0
  9
$BLIPMODE
 70
     1
  9
$CHAMFERA
 40
0.0
  9
$CHAMFERB
 40
0.0
  9
$FASTZOOM
 70
     1
  9
$SKPOLY
 70
     0
  9
$TDCREATE
 40
2454214.000000
  9
$TDUPDATE
 40
2454223.000000
  9
$TDINDWG
 40
0.0
  9
$TDUSRTIMER
 40
0.0
  9
$USRTIMER
 70
     1
  9
$ANGBASE
 50
0.0
  9
$ANGDIR
 70
     0
  9
$PDMODE
 70
     0
  9
$PDSIZE
 40
0.0
  9
$PLINEWID
 40
0.0
  9
$COORDS
 70
     0
  9
$USERI1
 70
     0
  9
$USERI2
 70
     0
  9
$USERI3
 70
     0
  9
$USERI4
 70
     0
  9
$USERI5
 70
     0
  9
$USERR1
 40
0.0
  9
$USERR2
 40
0.0
  9
$USERR3
 40
0.0
  9
$USERR4
 40
0.0
  9
$USERR5
 40
0.0
  0
ENDSEC
  0
SECTION
  2
TABLES
  0
TABLE
  2
LTYPE
 70
     9
  0
LTYPE
  2
CONTINUOUS
 70
    64
  3
Solid line
 72
    65
 73
     0
 40
0.0
  0
LTYPE
  2
DASHED
 70
    64
  3
__ __ __ __ __ __ __ __ __ __ __ __ __ __ __
 72
    65
 73
     2
 40
0.75
 49
0.5
 49
-0.25
  0
LTYPE
  2
HIDDEN
 70
    64
  3
_ _ _ _ _ _ _ _ _ _ _ _ _ _ _ _ _ _ _ _ _ _ _
 72
    65
 73
     2
 40
0.375
 49
0.25
 49
-0.125
  0
LTYPE
  2
DOT
 70
    64
  3
...............................................
 72
    65
 73
     2
 40
0.25
 49
0.0
 49
-0.25
  0
LTYPE
  2
DASHDOT
 70
    64
  3
__ . __ . __ . __ . __ . __ . __ . __ . __ . __
 72
    65
 73
     4
 40
1.0
 49
0.5
 49
-0.25
 49
0.0
 49
-0.25
  0
LTYPE
  2
DIVIDE
 70
    64
  3
__ . . __ . . __ . . __ . . __ . . __ . . __
 72
    65
 73
     6
 40
1.25
 49
0.5
 49
-0.25
 49
0.0
 49
-0.25
 49
0.0
 49
-0.25
  0
LTYPE
  2
CENTER
 70
    64
  3
____ _ ____ _ ____ _ ____ _ ____ _ ____ _ ____ 
 72
    65
 73
     4
 40
2.0
 49
1.25
 49
-0.25
 49
0.25
 49
-0.25
  0
LTYPE
  2
PHANTOM
 70
    64
  3
______  __  __  ______  __  __  ______  __  __ 
 72
    65
 73
     6
 40
2.5
 49
1.25
 49
-0.25
 49
0.25
 49
-0.25
 49
0.25
 49
-0.25
  0
LTYPE
  2
BORDER
 70
    64
  3
__ __ . __ __ . __ __ . __ __ . __ __ . __ __ .
 72
    65
 73
     6
 40
1.75
 49
0.5
 49
-0.25
 49
0.5
 49
-0.25
 49
0.0
 49
-0.25
  0
ENDTAB
  0
TABLE
  2
LAYER
 70
    16
  0
LAYER
  2
CSLAYER1
 70
    64
 62
     7
  6
CONTINUOUS
  0
LAYER
  2
CSLAYER2
 70
    64
 62
     7
  6
CONTINUOUS
  0
LAYER
  2
CSLAYER3
 70
    64
 62
     7
  6
CONTINUOUS
  0
LAYER
  2
CSLAYER4
 70
    64
 62
     7
  6
CONTINUOUS
  0
LAYER
  2
CSLAYER5
 70
    64
 62
     7
  6
CONTINUOUS
  0
LAYER
  2
CSLAYER6
 70
    64
 62
     7
  6
CONTINUOUS
  0
LAYER
  2
CSLAYER7
 70
    64
 62
     7
  6
CONTINUOUS
  0
LAYER
  2
CSLAYER8
 70
    64
 62
     7
  6
CONTINUOUS
  0
LAYER
  2
CSLAYER9
 70
    64
 62
     7
  6
CONTINUOUS
  0
LAYER
  2
CSLAYER10
 70
    64
 62
     7
  6
CONTINUOUS
  0
LAYER
  2
CSLAYER11
 70
    64
 62
     7
  6
CONTINUOUS
  0
LAYER
  2
CSLAYER12
 70
    64
 62
     7
  6
CONTINUOUS
  0
LAYER
  2
CSLAYER13
 70
    64
 62
     7
  6
CONTINUOUS
  0
LAYER
  2
CSLAYER14
 70
    64
 62
     7
  6
CONTINUOUS
  0
LAYER
  2
CSLAYER15
 70
    64
 62
     7
  6
CONTINUOUS
  0
LAYER
  2
CSLAYER16
 70
    64
 62
     7
  6
CONTINUOUS
  0
ENDTAB
  0
TABLE
  2
STYLE
 70
     1
  0
STYLE
  2
FX_FONT
 70
     0
 40
1.0
 41
1.0
 50
0.0
 71
     0
 42
1.0
  3
monotxt
  4
bigfont
  0
ENDTAB
  0
TABLE
  2
VIEW
 70
     0
  0
ENDTAB
  0
ENDSEC
  0
SECTION
  2
BLOCKS
  0
ENDSEC
  0
SECTION
  2
ENTITIES
  0
LINE
  8
CSLAYER1
  6
CONTINUOUS
 62
     6
 10
151.227767
 20
133.020712
 11
371.227767
 21
133.020712
  0
LINE
  8
CSLAYER1
  6
CONTINUOUS
 62
     6
 10
151.227767
 20
263.020712
 11
371.227767
 21
263.020712
  0
LINE
  8
CSLAYER1
  6
CONTINUOUS
 62
     6
 10
371.227767
 20
263.020712
 11
371.227767
 21
133.020712
  0
LINE
  8
CSLAYER1
  6
CONTINUOUS
 62
     6
 10
151.227767
 20
263.020712
 11
151.227767
 21
133.020712
  0
TEXT
  8
CSLAYER1
 62
     3
 10
351.377716
 20
193.345718
 40
2.200000
 41
0.920455
  1
VR3
 50
-90.000000
 51
0.000000
  7
FX_FONT
 72
     5
 11
351.377716
 21
187.945719
  0
TEXT
  8
CSLAYER1
 62
     3
 10
351.377716
 20
183.595718
 40
2.200000
 41
0.920455
  1
VR4
 50
-90.000000
 51
0.000000
  7
FX_FONT
 72
     5
 11
351.377716
 21
178.195719
  0
TEXT
  8
CSLAYER1
 62
     3
 10
351.377716
 20
203.095718
 40
2.200000
 41
0.920455
  1
VR2
 50
-90.000000
 51
0.000000
  7
FX_FONT
 72
     5
 11
351.377716
 21
197.695719
  0
TEXT
  8
CSLAYER1
 62
     3
 10
351.377716
 20
212.845718
 40
2.200000
 41
0.920455
  1
VR5
 50
-90.000000
 51
0.000000
  7
FX_FONT
 72
     5
 11
351.377716
 21
207.445719
  0
TEXT
  8
CSLAYER1
 62
     3
 10
316.877716
 20
201.830704
 40
2.200000
 41
0.920455
  1
VR6
 50
-90.000000
 51
0.000000
  7
FX_FONT
 72
     5
 11
316.877716
 21
196.430704
  0
CIRCLE
  8
CSLAYER1
  6
CONTINUOUS
 62
     6
 10
196.727767
 20
219.270712
 40
15.000000
  0
TEXT
  8
CSLAYER1
 62
     3
 10
154.877762
 20
158.345718
 40
2.200000
 41
0.920455
  1
VR1
 50
-90.000000
 51
0.000000
  7
FX_FONT
 72
     5
 11
154.877762
 21
152.945719
  0
POINT
  8
CSLAYER1
 62
     3
 10
196.727767
 20
219.270712
  0
LINE
  8
CSLAYER1
  6
CENTER
 62
     3
 10
71.322580
 20
138.020712
 11
49.227767
 21
138.020712
  0
LINE
  8
CSLAYER1
  6
CENTER
 62
     3
 10
71.322580
 20
258.020712
 11
49.227767
 21
258.020712
  0
TEXT
  8
CSLAYER1
 62
     3
 10
54.089539
 20
35.476463
 40
4.000000
 41
0.768293
  1
MS-400□**15,30
 50
0.000000
 51
10.000000
  7
FX_FONT
 72
     5
 11
96.089539
 21
35.476463
  0
TEXT
  8
CSLAYER1
 62
     4
 10
54.089539
 20
29.476463
 40
3.500000
 41
1.071429
  1
尺度1：1
 50
0.000000
 51
10.000000
  7
FX_FONT
 72
     5
 11
71.589539
 21
29.476463
  0
TEXT
  8
CSLAYER1
 62
     3
 10
54.089539
 20
41.476463
 40
4.000000
 41
1.038462
  1
DCモータドライバ
 50
0.000000
 51
10.000000
  7
FX_FONT
 72
     5
 11
90.089539
 21
41.476463
  0
LINE
  8
CSLAYER1
  6
CONTINUOUS
 62
     6
 10
139.227767
 20
268.020712
 11
383.227767
 21
268.020712
  0
LINE
  8
CSLAYER1
  6
CONTINUOUS
 62
     6
 10
136.227767
 20
128.020712
 11
386.227767
 21
128.020712
  0
LINE
  8
CSLAYER1
  6
CONTINUOUS
 62
     6
 10
386.227767
 20
265.020712
 11
386.227767
 21
128.020712
  0
LINE
  8
CSLAYER1
  6
CONTINUOUS
 62
     6
 10
136.227767
 20
131.020712
 11
386.227767
 21
131.020712
  0
LINE
  8
CSLAYER1
  6
CONTINUOUS
 62
     6
 10
136.227767
 20
265.020712
 11
136.227767
 21
128.020712
  0
LINE
  8
CSLAYER1
  6
CENTER
 62
     3
 10
376.227767
 20
262.770717
 11
376.227767
 21
253.270706
  0
LINE
  8
CSLAYER1
  6
CENTER
 62
     3
 10
146.227767
 20
253.270706
 11
146.227767
 21
262.770717
  0
CIRCLE
  8
CSLAYER1
  6
CONTINUOUS
 62
     6
 10
376.227767
 20
258.020712
 40
2.250000
  0
CIRCLE
  8
CSLAYER1
  6
CONTINUOUS
 62
     6
 10
376.227767
 20
138.020712
 40
2.250000
  0
CIRCLE
  8
CSLAYER1
  6
CONTINUOUS
 62
     6
 10
146.227767
 20
138.020712
 40
2.250000
  0
CIRCLE
  8
CSLAYER1
  6
CONTINUOUS
 62
     6
 10
146.227767
 20
258.020712
 40
2.250000
  0
LINE
  8
CSLAYER1
  6
CENTER
 62
     3
 10
376.227767
 20
142.770717
 11
376.227767
 21
133.270706
  0
LINE
  8
CSLAYER1
  6
CENTER
 62
     3
 10
146.227767
 20
142.770717
 11
146.227767
 21
133.270706
  0
LINE
  8
CSLAYER1
  6
CENTER
 62
     3
 10
361.477772
 20
258.020712
 11
381.692052
 21
258.020712
  0
ARC
  8
CSLAYER1
  6
CONTINUOUS
 62
     6
 10
139.227767
 20
265.020712
 40
3.000000
 50
90.000000
 51
180.000000
  0
ARC
  8
CSLAYER1
  6
CONTINUOUS
 62
     6
 10
383.227767
 20
265.020712
 40
3.000000
 50
0.000000
 51
90.000000
  0
LINE
  8
CSLAYER1
  6
CENTER
 62
     3
 10
366.227767
 20
262.770717
 11
366.227767
 21
253.270706
  0
CIRCLE
  8
CSLAYER1
  6
CONTINUOUS
 62
     6
 10
366.227772
 20
258.020721
 40
2.250000
  0
ARC
  8
CSLAYER1
  6
CONTINUOUS
 62
     6
 10
366.227764
 20
258.020722
 40
1.250000
 50
163.398416
 51
196.601577
  0
ARC
  8
CSLAYER1
  6
CONTINUOUS
 62
     6
 10
366.227764
 20
258.020722
 40
1.250000
 50
253.398422
 51
286.601583
  0
ARC
  8
CSLAYER1
  6
CONTINUOUS
 62
     6
 10
366.227764
 20
258.020722
 40
1.250000
 50
-16.601562
 51
16.601572
  0
ARC
  8
CSLAYER1
  6
CONTINUOUS
 62
     6
 10
366.227764
 20
258.020722
 40
1.250000
 50
73.398406
 51
106.601595
  0
LINE
  8
CSLAYER1
  6
CONTINUOUS
 62
     6
 10
366.942058
 20
257.663575
 11
367.425652
 21
257.663575
  0
LINE
  8
CSLAYER1
  6
CONTINUOUS
 62
     6
 10
365.513469
 20
257.663575
 11
365.029876
 21
257.663575
  0
LINE
  8
CSLAYER1
  6
CONTINUOUS
 62
     6
 10
366.942058
 20
258.377869
 11
367.425652
 21
258.377869
  0
LINE
  8
CSLAYER1
  6
CONTINUOUS
 62
     6
 10
365.513469
 20
258.377869
 11
365.029876
 21
258.377869
  0
LINE
  8
CSLAYER1
  6
CONTINUOUS
 62
     6
 10
365.870616
 20
257.306446
 11
365.870616
 21
256.822815
  0
LINE
  8
CSLAYER1
  6
CONTINUOUS
 62
     6
 10
365.870616
 20
258.734998
 11
365.870616
 21
259.218628
  0
LINE
  8
CSLAYER1
  6
CONTINUOUS
 62
     6
 10
366.584911
 20
257.306446
 11
366.584911
 21
256.822815
  0
LINE
  8
CSLAYER1
  6
CONTINUOUS
 62
     6
 10
366.584911
 20
258.734998
 11
366.584911
 21
259.218628
  0
ARC
  8
CSLAYER1
  6
CONTINUOUS
 62
     6
 10
366.942058
 20
257.306446
 40
0.357143
 50
90.000001
 51
179.942691
  0
ARC
  8
CSLAYER1
  6
CONTINUOUS
 62
     6
 10
366.942058
 20
258.734998
 40
0.357143
 50
180.000010
 51
270.000016
  0
ARC
  8
CSLAYER1
  6
CONTINUOUS
 62
     6
 10
365.513469
 20
258.734998
 40
0.357143
 50
-89.999984
 51
0.000005
  0
ARC
  8
CSLAYER1
  6
CONTINUOUS
 62
     6
 10
365.513469
 20
257.306446
 40
0.357143
 50
0.000005
 51
89.942654
  0
LINE
  8
CSLAYER1
  6
CONTINUOUS
 62
     6
 10
307.227767
 20
234.270712
 11
307.227767
 21
215.270712
  0
LINE
  8
CSLAYER1
  6
CONTINUOUS
 62
     6
 10
217.227767
 20
234.270712
 11
307.227767
 21
234.270712
  0
LINE
  8
CSLAYER1
  6
CONTINUOUS
 62
     6
 10
217.227767
 20
215.270712
 11
307.227767
 21
215.270712
  0
LINE
  8
CSLAYER1
  6
CONTINUOUS
 62
     6
 10
217.227767
 20
234.270712
 11
217.227767
 21
215.270712
  0
LINE
  8
CSLAYER1
  6
CONTINUOUS
 62
     6
 10
232.227767
 20
255.270712
 11
267.227767
 21
255.270712
  0
LINE
  8
CSLAYER1
  6
CONTINUOUS
 62
     6
 10
232.227767
 20
240.270712
 11
267.227767
 21
240.270712
  0
LINE
  8
CSLAYER1
  6
CONTINUOUS
 62
     6
 10
267.227767
 20
255.270712
 11
267.227767
 21
240.270712
  0
LINE
  8
CSLAYER1
  6
CONTINUOUS
 62
     6
 10
232.227767
 20
255.270712
 11
232.227767
 21
240.270712
  0
LINE
  8
CSLAYER1
  6
CONTINUOUS
 62
     6
 10
366.227767
 20
224.520712
 11
366.227767
 21
180.020712
  0
LINE
  8
CSLAYER1
  6
CONTINUOUS
 62
     6
 10
363.727767
 20
224.520712
 11
363.727767
 21
180.020712
  0
LINE
  8
CSLAYER1
  6
CONTINUOUS
 62
     6
 10
363.727767
 20
224.520712
 11
366.227767
 21
224.520712
  0
LINE
  8
CSLAYER1
  6
CONTINUOUS
 62
     6
 10
363.727767
 20
180.020712
 11
366.227767
 21
180.020712
  0
LINE
  8
CSLAYER1
  6
CONTINUOUS
 62
     6
 10
344.227767
 20
201.270712
 11
344.227767
 21
189.270712
  0
LINE
  8
CSLAYER1
  6
CONTINUOUS
 62
     6
 10
335.227767
 20
201.270712
 11
335.227767
 21
189.270712
  0
LINE
  8
CSLAYER1
  6
CONTINUOUS
 62
     6
 10
335.227767
 20
201.270712
 11
344.227767
 21
201.270712
  0
LINE
  8
CSLAYER1
  6
CONTINUOUS
 62
     6
 10
335.227767
 20
197.270712
 11
344.227767
 21
197.270712
  0
LINE
  8
CSLAYER1
  6
CONTINUOUS
 62
     6
 10
335.227767
 20
193.270712
 11
344.227767
 21
193.270712
  0
LINE
  8
CSLAYER1
  6
CONTINUOUS
 62
     6
 10
335.227767
 20
189.270712
 11
344.227767
 21
189.270712
  0
LINE
  8
CSLAYER1
  6
CONTINUOUS
 62
     6
 10
341.977767
 20
199.937378
 11
337.477767
 21
199.937378
  0
LINE
  8
CSLAYER1
  6
CONTINUOUS
 62
     6
 10
337.477767
 20
199.937378
 11
337.477767
 21
198.604045
  0
LINE
  8
CSLAYER1
  6
CONTINUOUS
 62
     6
 10
341.977767
 20
199.937378
 11
341.977767
 21
198.604045
  0
TEXT
  8
CSLAYER1
 62
     3
 10
348.377716
 20
182.695709
 40
2.200000
 41
0.981818
  1
PH
 50
-90.000000
 51
0.000000
  7
FX_FONT
 72
     5
 11
348.377716
 21
179.095709
  0
LINE
  8
CSLAYER1
  6
CONTINUOUS
 62
     3
 10
348.227767
 20
183.020712
 11
348.227767
 21
178.770712
  0
LINE
  8
CSLAYER1
  6
CONTINUOUS
 62
     3
 10
350.727767
 20
183.020712
 11
350.727767
 21
178.770712
  0
LINE
  8
CSLAYER1
  6
CONTINUOUS
 62
     3
 10
350.727767
 20
183.020712
 11
348.227767
 21
183.020712
  0
LINE
  8
CSLAYER1
  6
CONTINUOUS
 62
     3
 10
350.727767
 20
178.770712
 11
348.227767
 21
178.770712
  0
TEXT
  8
CSLAYER1
 62
     3
 10
348.377716
 20
212.845718
 40
2.200000
 41
0.920455
  1
OSF
 50
-90.000000
 51
0.000000
  7
FX_FONT
 72
     5
 11
348.377716
 21
207.445719
  0
LINE
  8
CSLAYER1
  6
CONTINUOUS
 62
     3
 10
348.227767
 20
213.020712
 11
348.227767
 21
207.270712
  0
LINE
  8
CSLAYER1
  6
CONTINUOUS
 62
     3
 10
350.727767
 20
213.020712
 11
350.727767
 21
207.270712
  0
LINE
  8
CSLAYER1
  6
CONTINUOUS
 62
     3
 10
350.727767
 20
213.020712
 11
348.227767
 21
213.020712
  0
LINE
  8
CSLAYER1
  6
CONTINUOUS
 62
     3
 10
350.727767
 20
207.270712
 11
348.227767
 21
207.270712
  0
TEXT
  8
CSLAYER1
 62
     3
 10
348.377716
 20
203.095718
 40
2.200000
 41
0.920455
  1
SPD
 50
-90.000000
 51
0.000000
  7
FX_FONT
 72
     5
 11
348.377716
 21
197.695719
  0
LINE
  8
CSLAYER1
  6
CONTINUOUS
 62
     3
 10
348.227767
 20
203.270712
 11
348.227767
 21
197.520712
  0
LINE
  8
CSLAYER1
  6
CONTINUOUS
 62
     3
 10
350.727767
 20
203.270712
 11
350.727767
 21
197.520712
  0
LINE
  8
CSLAYER1
  6
CONTINUOUS
 62
     3
 10
350.727767
 20
203.270712
 11
348.227767
 21
203.270712
  0
LINE
  8
CSLAYER1
  6
CONTINUOUS
 62
     3
 10
350.727767
 20
197.520712
 11
348.227767
 21
197.520712
  0
TEXT
  8
CSLAYER1
 62
     3
 10
331.377716
 20
197.970718
 40
2.200000
 41
0.920455
  1
SW2
 50
-90.000000
 51
0.000000
  7
FX_FONT
 72
     5
 11
331.377716
 21
192.570719
  0
LINE
  8
CSLAYER1
  6
CONTINUOUS
 62
     3
 10
331.227767
 20
198.145712
 11
331.227767
 21
192.395712
  0
LINE
  8
CSLAYER1
  6
CONTINUOUS
 62
     3
 10
333.727767
 20
198.145712
 11
333.727767
 21
192.395712
  0
LINE
  8
CSLAYER1
  6
CONTINUOUS
 62
     3
 10
333.727767
 20
198.145712
 11
331.227767
 21
198.145712
  0
LINE
  8
CSLAYER1
  6
CONTINUOUS
 62
     3
 10
333.727767
 20
192.395712
 11
331.227767
 21
192.395712
  0
TEXT
  8
CSLAYER1
 62
     3
 10
316.877716
 20
195.820709
 40
2.200000
 41
0.981818
  1
CL
 50
-90.000000
 51
0.000000
  7
FX_FONT
 72
     5
 11
316.877716
 21
192.220709
  0
LINE
  8
CSLAYER1
  6
CONTINUOUS
 62
     3
 10
316.727767
 20
196.145712
 11
316.727767
 21
191.895712
  0
LINE
  8
CSLAYER1
  6
CONTINUOUS
 62
     3
 10
319.227767
 20
196.145712
 11
319.227767
 21
191.895712
  0
LINE
  8
CSLAYER1
  6
CONTINUOUS
 62
     3
 10
319.227767
 20
196.145712
 11
316.727767
 21
196.145712
  0
LINE
  8
CSLAYER1
  6
CONTINUOUS
 62
     3
 10
319.227767
 20
191.895712
 11
316.727767
 21
191.895712
  0
LINE
  8
CSLAYER1
  6
CONTINUOUS
 62
     6
 10
201.227767
 20
254.020712
 11
171.227767
 21
254.020712
  0
LINE
  8
CSLAYER1
  6
CONTINUOUS
 62
     6
 10
171.227767
 20
254.020712
 11
171.227767
 21
249.020712
  0
LINE
  8
CSLAYER1
  6
CONTINUOUS
 62
     6
 10
201.227767
 20
254.020712
 11
201.227767
 21
249.020712
  0
LINE
  8
CSLAYER1
  6
CONTINUOUS
 62
     6
 10
201.227767
 20
249.020712
 11
171.227767
 21
249.020712
  0
LINE
  8
CSLAYER1
  6
CONTINUOUS
 62
     6
 10
194.727767
 20
254.020712
 11
194.727767
 21
249.020712
  0
LINE
  8
CSLAYER1
  6
CONTINUOUS
 62
     6
 10
177.727767
 20
254.020712
 11
177.727767
 21
249.020712
  0
TEXT
  8
CSLAYER1
 62
     3
 10
151.877762
 20
158.195694
 40
2.200000
 41
0.920455
  1
ACC
 50
-90.000000
 51
0.000000
  7
FX_FONT
 72
     5
 11
151.877762
 21
152.795694
  0
LINE
  8
CSLAYER1
  6
CONTINUOUS
 62
     3
 10
151.727767
 20
158.520712
 11
151.727767
 21
152.770712
  0
LINE
  8
CSLAYER1
  6
CONTINUOUS
 62
     3
 10
154.227767
 20
158.520712
 11
154.227767
 21
152.770712
  0
LINE
  8
CSLAYER1
  6
CONTINUOUS
 62
     3
 10
154.227767
 20
158.520712
 11
151.727767
 21
158.520712
  0
LINE
  8
CSLAYER1
  6
CONTINUOUS
 62
     3
 10
154.227767
 20
152.770712
 11
151.727767
 21
152.770712
  0
TEXT
  8
CSLAYER1
 62
     3
 10
154.877762
 20
149.945694
 40
2.200000
 41
0.920455
  1
SW1
 50
-90.000000
 51
0.000000
  7
FX_FONT
 72
     5
 11
154.877762
 21
144.545694
  0
LINE
  8
CSLAYER1
  6
CONTINUOUS
 62
     3
 10
154.727767
 20
150.270712
 11
154.727767
 21
144.520712
  0
LINE
  8
CSLAYER1
  6
CONTINUOUS
 62
     3
 10
157.227767
 20
150.270712
 11
157.227767
 21
144.520712
  0
LINE
  8
CSLAYER1
  6
CONTINUOUS
 62
     3
 10
157.227767
 20
150.270712
 11
154.727767
 21
150.270712
  0
LINE
  8
CSLAYER1
  6
CONTINUOUS
 62
     3
 10
157.227767
 20
144.520712
 11
154.727767
 21
144.520712
  0
LINE
  8
CSLAYER1
  6
CONTINUOUS
 62
     6
 10
354.227767
 20
213.020712
 11
355.727767
 21
213.020712
  0
LINE
  8
CSLAYER1
  6
CONTINUOUS
 62
     6
 10
355.727767
 20
213.520712
 11
355.727767
 21
213.020712
  0
LINE
  8
CSLAYER1
  6
CONTINUOUS
 62
     6
 10
359.227767
 20
213.520712
 11
359.227767
 21
213.020712
  0
LINE
  8
CSLAYER1
  6
CONTINUOUS
 62
     6
 10
359.227767
 20
213.020712
 11
360.727767
 21
213.020712
  0
LINE
  8
CSLAYER1
  6
CONTINUOUS
 62
     6
 10
360.727767
 20
207.270712
 11
359.227767
 21
207.270712
  0
LINE
  8
CSLAYER1
  6
CONTINUOUS
 62
     6
 10
359.227767
 20
206.770712
 11
359.227767
 21
207.270712
  0
LINE
  8
CSLAYER1
  6
CONTINUOUS
 62
     6
 10
355.727767
 20
206.770712
 11
355.727767
 21
207.270712
  0
LINE
  8
CSLAYER1
  6
CONTINUOUS
 62
     6
 10
355.727767
 20
207.270712
 11
354.227767
 21
207.270712
  0
POINT
  8
CSLAYER1
 62
     3
 10
357.477767
 20
210.145712
  0
ARC
  8
CSLAYER1
  6
CONTINUOUS
 62
     6
 10
357.477767
 20
210.145712
 40
2.000000
 50
-138.590378
 51
138.590378
  0
CIRCLE
  8
CSLAYER1
  6
CONTINUOUS
 62
     3
 10
357.477767
 20
210.145712
 40
1.650000
  0
LINE
  8
CSLAYER1
  6
CONTINUOUS
 62
     6
 10
355.977767
 20
211.968587
 11
355.977767
 21
211.468587
  0
LINE
  8
CSLAYER1
  6
CONTINUOUS
 62
     6
 10
355.977767
 20
208.822836
 11
355.977767
 21
208.322836
  0
LINE
  8
CSLAYER1
  6
CONTINUOUS
 62
     6
 10
359.477767
 20
210.145712
 11
359.977767
 21
210.145712
  0
LINE
  8
CSLAYER1
  6
CONTINUOUS
 62
     6
 10
359.209817
 20
211.145712
 11
359.642830
 21
211.395712
  0
LINE
  8
CSLAYER1
  6
CONTINUOUS
 62
     6
 10
358.477767
 20
211.877763
 11
358.727767
 21
212.310775
  0
LINE
  8
CSLAYER1
  6
CONTINUOUS
 62
     6
 10
357.477767
 20
212.145712
 11
357.477767
 21
212.645712
  0
LINE
  8
CSLAYER1
  6
CONTINUOUS
 62
     6
 10
356.477767
 20
211.877763
 11
356.227767
 21
212.310775
  0
LINE
  8
CSLAYER1
  6
CONTINUOUS
 62
     6
 10
359.209817
 20
209.145712
 11
359.642830
 21
208.895712
  0
LINE
  8
CSLAYER1
  6
CONTINUOUS
 62
     6
 10
358.477767
 20
208.413661
 11
358.727767
 21
207.980648
  0
LINE
  8
CSLAYER1
  6
CONTINUOUS
 62
     6
 10
357.477767
 20
208.145712
 11
357.477767
 21
207.645712
  0
LINE
  8
CSLAYER1
  6
CONTINUOUS
 62
     6
 10
356.477767
 20
208.413661
 11
356.227767
 21
207.980648
  0
LINE
  8
CSLAYER1
  6
CONTINUOUS
 62
     3
 10
357.807767
 20
211.465712
 11
357.807767
 21
210.475712
  0
LINE
  8
CSLAYER1
  6
CONTINUOUS
 62
     3
 10
357.147767
 20
211.465712
 11
357.147767
 21
210.475712
  0
LINE
  8
CSLAYER1
  6
CONTINUOUS
 62
     3
 10
356.157767
 20
210.475712
 11
357.147767
 21
210.475712
  0
LINE
  8
CSLAYER1
  6
CONTINUOUS
 62
     3
 10
356.157767
 20
209.815712
 11
357.147767
 21
209.815712
  0
LINE
  8
CSLAYER1
  6
CONTINUOUS
 62
     3
 10
356.157767
 20
210.475712
 11
356.157767
 21
209.815712
  0
LINE
  8
CSLAYER1
  6
CONTINUOUS
 62
     3
 10
357.807767
 20
211.465712
 11
357.147767
 21
211.465712
  0
LINE
  8
CSLAYER1
  6
CONTINUOUS
 62
     3
 10
357.147767
 20
208.825712
 11
357.807767
 21
208.825712
  0
LINE
  8
CSLAYER1
  6
CONTINUOUS
 62
     3
 10
358.401767
 20
210.831604
 11
358.401767
 21
210.475712
  0
LINE
  8
CSLAYER1
  6
CONTINUOUS
 62
     3
 10
358.401767
 20
210.831604
 11
358.797767
 21
210.145712
  0
LINE
  8
CSLAYER1
  6
CONTINUOUS
 62
     3
 10
358.401767
 20
209.459820
 11
358.797767
 21
210.145712
  0
LINE
  8
CSLAYER1
  6
CONTINUOUS
 62
     3
 10
358.401767
 20
209.815712
 11
358.401767
 21
209.459820
  0
LINE
  8
CSLAYER1
  6
CONTINUOUS
 62
     3
 10
357.807767
 20
209.815712
 11
357.807767
 21
208.825712
  0
LINE
  8
CSLAYER1
  6
CONTINUOUS
 62
     3
 10
357.147767
 20
209.815712
 11
357.147767
 21
208.825712
  0
LINE
  8
CSLAYER1
  6
CONTINUOUS
 62
     3
 10
357.807767
 20
210.475712
 11
358.401767
 21
210.475712
  0
LINE
  8
CSLAYER1
  6
CONTINUOUS
 62
     3
 10
357.807767
 20
209.815712
 11
358.401767
 21
209.815712
  0
LINE
  8
CSLAYER1
  6
CONTINUOUS
 62
     6
 10
354.227767
 20
193.520712
 11
355.727767
 21
193.520712
  0
LINE
  8
CSLAYER1
  6
CONTINUOUS
 62
     6
 10
355.727767
 20
194.020712
 11
355.727767
 21
193.520712
  0
LINE
  8
CSLAYER1
  6
CONTINUOUS
 62
     6
 10
359.227767
 20
194.020712
 11
359.227767
 21
193.520712
  0
LINE
  8
CSLAYER1
  6
CONTINUOUS
 62
     6
 10
359.227767
 20
193.520712
 11
360.727767
 21
193.520712
  0
LINE
  8
CSLAYER1
  6
CONTINUOUS
 62
     6
 10
360.727767
 20
187.770712
 11
359.227767
 21
187.770712
  0
LINE
  8
CSLAYER1
  6
CONTINUOUS
 62
     6
 10
359.227767
 20
187.270712
 11
359.227767
 21
187.770712
  0
LINE
  8
CSLAYER1
  6
CONTINUOUS
 62
     6
 10
355.727767
 20
187.270712
 11
355.727767
 21
187.770712
  0
LINE
  8
CSLAYER1
  6
CONTINUOUS
 62
     6
 10
355.727767
 20
187.770712
 11
354.227767
 21
187.770712
  0
POINT
  8
CSLAYER1
 62
     3
 10
357.477767
 20
190.645712
  0
ARC
  8
CSLAYER1
  6
CONTINUOUS
 62
     6
 10
357.477767
 20
190.645712
 40
2.000000
 50
-138.590378
 51
138.590378
  0
CIRCLE
  8
CSLAYER1
  6
CONTINUOUS
 62
     3
 10
357.477767
 20
190.645712
 40
1.650000
  0
LINE
  8
CSLAYER1
  6
CONTINUOUS
 62
     6
 10
355.977767
 20
192.468587
 11
355.977767
 21
191.968587
  0
LINE
  8
CSLAYER1
  6
CONTINUOUS
 62
     6
 10
355.977767
 20
189.322836
 11
355.977767
 21
188.822836
  0
LINE
  8
CSLAYER1
  6
CONTINUOUS
 62
     6
 10
359.477767
 20
190.645712
 11
359.977767
 21
190.645712
  0
LINE
  8
CSLAYER1
  6
CONTINUOUS
 62
     6
 10
359.209817
 20
191.645712
 11
359.642830
 21
191.895712
  0
LINE
  8
CSLAYER1
  6
CONTINUOUS
 62
     6
 10
358.477767
 20
192.377763
 11
358.727767
 21
192.810775
  0
LINE
  8
CSLAYER1
  6
CONTINUOUS
 62
     6
 10
357.477767
 20
192.645712
 11
357.477767
 21
193.145712
  0
LINE
  8
CSLAYER1
  6
CONTINUOUS
 62
     6
 10
356.477767
 20
192.377763
 11
356.227767
 21
192.810775
  0
LINE
  8
CSLAYER1
  6
CONTINUOUS
 62
     6
 10
359.209817
 20
189.645712
 11
359.642830
 21
189.395712
  0
LINE
  8
CSLAYER1
  6
CONTINUOUS
 62
     6
 10
358.477767
 20
188.913661
 11
358.727767
 21
188.480648
  0
LINE
  8
CSLAYER1
  6
CONTINUOUS
 62
     6
 10
357.477767
 20
188.645712
 11
357.477767
 21
188.145712
  0
LINE
  8
CSLAYER1
  6
CONTINUOUS
 62
     6
 10
356.477767
 20
188.913661
 11
356.227767
 21
188.480648
  0
LINE
  8
CSLAYER1
  6
CONTINUOUS
 62
     3
 10
357.807767
 20
191.965712
 11
357.807767
 21
190.975712
  0
LINE
  8
CSLAYER1
  6
CONTINUOUS
 62
     3
 10
357.147767
 20
191.965712
 11
357.147767
 21
190.975712
  0
LINE
  8
CSLAYER1
  6
CONTINUOUS
 62
     3
 10
356.157767
 20
190.975712
 11
357.147767
 21
190.975712
  0
LINE
  8
CSLAYER1
  6
CONTINUOUS
 62
     3
 10
356.157767
 20
190.315712
 11
357.147767
 21
190.315712
  0
LINE
  8
CSLAYER1
  6
CONTINUOUS
 62
     3
 10
356.157767
 20
190.975712
 11
356.157767
 21
190.315712
  0
LINE
  8
CSLAYER1
  6
CONTINUOUS
 62
     3
 10
357.807767
 20
191.965712
 11
357.147767
 21
191.965712
  0
LINE
  8
CSLAYER1
  6
CONTINUOUS
 62
     3
 10
357.147767
 20
189.325712
 11
357.807767
 21
189.325712
  0
LINE
  8
CSLAYER1
  6
CONTINUOUS
 62
     3
 10
358.401767
 20
191.331604
 11
358.401767
 21
190.975712
  0
LINE
  8
CSLAYER1
  6
CONTINUOUS
 62
     3
 10
358.401767
 20
191.331604
 11
358.797767
 21
190.645712
  0
LINE
  8
CSLAYER1
  6
CONTINUOUS
 62
     3
 10
358.401767
 20
189.959820
 11
358.797767
 21
190.645712
  0
LINE
  8
CSLAYER1
  6
CONTINUOUS
 62
     3
 10
358.401767
 20
190.315712
 11
358.401767
 21
189.959820
  0
LINE
  8
CSLAYER1
  6
CONTINUOUS
 62
     3
 10
357.807767
 20
190.315712
 11
357.807767
 21
189.325712
  0
LINE
  8
CSLAYER1
  6
CONTINUOUS
 62
     3
 10
357.147767
 20
190.315712
 11
357.147767
 21
189.325712
  0
LINE
  8
CSLAYER1
  6
CONTINUOUS
 62
     3
 10
357.807767
 20
190.975712
 11
358.401767
 21
190.975712
  0
LINE
  8
CSLAYER1
  6
CONTINUOUS
 62
     3
 10
357.807767
 20
190.315712
 11
358.401767
 21
190.315712
  0
LINE
  8
CSLAYER1
  6
CONTINUOUS
 62
     6
 10
354.227767
 20
183.770712
 11
355.727767
 21
183.770712
  0
LINE
  8
CSLAYER1
  6
CONTINUOUS
 62
     6
 10
355.727767
 20
184.270712
 11
355.727767
 21
183.770712
  0
LINE
  8
CSLAYER1
  6
CONTINUOUS
 62
     6
 10
359.227767
 20
184.270712
 11
359.227767
 21
183.770712
  0
LINE
  8
CSLAYER1
  6
CONTINUOUS
 62
     6
 10
359.227767
 20
183.770712
 11
360.727767
 21
183.770712
  0
LINE
  8
CSLAYER1
  6
CONTINUOUS
 62
     6
 10
360.727767
 20
178.020712
 11
359.227767
 21
178.020712
  0
LINE
  8
CSLAYER1
  6
CONTINUOUS
 62
     6
 10
359.227767
 20
177.520712
 11
359.227767
 21
178.020712
  0
LINE
  8
CSLAYER1
  6
CONTINUOUS
 62
     6
 10
355.727767
 20
177.520712
 11
355.727767
 21
178.020712
  0
LINE
  8
CSLAYER1
  6
CONTINUOUS
 62
     6
 10
355.727767
 20
178.020712
 11
354.227767
 21
178.020712
  0
POINT
  8
CSLAYER1
 62
     3
 10
357.477767
 20
180.895712
  0
ARC
  8
CSLAYER1
  6
CONTINUOUS
 62
     6
 10
357.477767
 20
180.895712
 40
2.000000
 50
-138.590378
 51
138.590378
  0
CIRCLE
  8
CSLAYER1
  6
CONTINUOUS
 62
     3
 10
357.477767
 20
180.895712
 40
1.650000
  0
LINE
  8
CSLAYER1
  6
CONTINUOUS
 62
     6
 10
355.977767
 20
182.718587
 11
355.977767
 21
182.218587
  0
LINE
  8
CSLAYER1
  6
CONTINUOUS
 62
     6
 10
355.977767
 20
179.572836
 11
355.977767
 21
179.072836
  0
LINE
  8
CSLAYER1
  6
CONTINUOUS
 62
     6
 10
359.477767
 20
180.895712
 11
359.977767
 21
180.895712
  0
LINE
  8
CSLAYER1
  6
CONTINUOUS
 62
     6
 10
359.209817
 20
181.895712
 11
359.642830
 21
182.145712
  0
LINE
  8
CSLAYER1
  6
CONTINUOUS
 62
     6
 10
358.477767
 20
182.627763
 11
358.727767
 21
183.060775
  0
LINE
  8
CSLAYER1
  6
CONTINUOUS
 62
     6
 10
357.477767
 20
182.895712
 11
357.477767
 21
183.395712
  0
LINE
  8
CSLAYER1
  6
CONTINUOUS
 62
     6
 10
356.477767
 20
182.627763
 11
356.227767
 21
183.060775
  0
LINE
  8
CSLAYER1
  6
CONTINUOUS
 62
     6
 10
359.209817
 20
179.895712
 11
359.642830
 21
179.645712
  0
LINE
  8
CSLAYER1
  6
CONTINUOUS
 62
     6
 10
358.477767
 20
179.163661
 11
358.727767
 21
178.730648
  0
LINE
  8
CSLAYER1
  6
CONTINUOUS
 62
     6
 10
357.477767
 20
178.895712
 11
357.477767
 21
178.395712
  0
LINE
  8
CSLAYER1
  6
CONTINUOUS
 62
     6
 10
356.477767
 20
179.163661
 11
356.227767
 21
178.730648
  0
LINE
  8
CSLAYER1
  6
CONTINUOUS
 62
     3
 10
357.807767
 20
182.215712
 11
357.807767
 21
181.225712
  0
LINE
  8
CSLAYER1
  6
CONTINUOUS
 62
     3
 10
357.147767
 20
182.215712
 11
357.147767
 21
181.225712
  0
LINE
  8
CSLAYER1
  6
CONTINUOUS
 62
     3
 10
356.157767
 20
181.225712
 11
357.147767
 21
181.225712
  0
LINE
  8
CSLAYER1
  6
CONTINUOUS
 62
     3
 10
356.157767
 20
180.565712
 11
357.147767
 21
180.565712
  0
LINE
  8
CSLAYER1
  6
CONTINUOUS
 62
     3
 10
356.157767
 20
181.225712
 11
356.157767
 21
180.565712
  0
LINE
  8
CSLAYER1
  6
CONTINUOUS
 62
     3
 10
357.807767
 20
182.215712
 11
357.147767
 21
182.215712
  0
LINE
  8
CSLAYER1
  6
CONTINUOUS
 62
     3
 10
357.147767
 20
179.575712
 11
357.807767
 21
179.575712
  0
LINE
  8
CSLAYER1
  6
CONTINUOUS
 62
     3
 10
358.401767
 20
181.581604
 11
358.401767
 21
181.225712
  0
LINE
  8
CSLAYER1
  6
CONTINUOUS
 62
     3
 10
358.401767
 20
181.581604
 11
358.797767
 21
180.895712
  0
LINE
  8
CSLAYER1
  6
CONTINUOUS
 62
     3
 10
358.401767
 20
180.209820
 11
358.797767
 21
180.895712
  0
LINE
  8
CSLAYER1
  6
CONTINUOUS
 62
     3
 10
358.401767
 20
180.565712
 11
358.401767
 21
180.209820
  0
LINE
  8
CSLAYER1
  6
CONTINUOUS
 62
     3
 10
357.807767
 20
180.565712
 11
357.807767
 21
179.575712
  0
LINE
  8
CSLAYER1
  6
CONTINUOUS
 62
     3
 10
357.147767
 20
180.565712
 11
357.147767
 21
179.575712
  0
LINE
  8
CSLAYER1
  6
CONTINUOUS
 62
     3
 10
357.807767
 20
181.225712
 11
358.401767
 21
181.225712
  0
LINE
  8
CSLAYER1
  6
CONTINUOUS
 62
     3
 10
357.807767
 20
180.565712
 11
358.401767
 21
180.565712
  0
LINE
  8
CSLAYER1
  6
CONTINUOUS
 62
     6
 10
354.227767
 20
203.270712
 11
355.727767
 21
203.270712
  0
LINE
  8
CSLAYER1
  6
CONTINUOUS
 62
     6
 10
355.727767
 20
203.770712
 11
355.727767
 21
203.270712
  0
LINE
  8
CSLAYER1
  6
CONTINUOUS
 62
     6
 10
359.227767
 20
203.770712
 11
359.227767
 21
203.270712
  0
LINE
  8
CSLAYER1
  6
CONTINUOUS
 62
     6
 10
359.227767
 20
203.270712
 11
360.727767
 21
203.270712
  0
LINE
  8
CSLAYER1
  6
CONTINUOUS
 62
     6
 10
360.727767
 20
197.520712
 11
359.227767
 21
197.520712
  0
LINE
  8
CSLAYER1
  6
CONTINUOUS
 62
     6
 10
359.227767
 20
197.020712
 11
359.227767
 21
197.520712
  0
LINE
  8
CSLAYER1
  6
CONTINUOUS
 62
     6
 10
355.727767
 20
197.020712
 11
355.727767
 21
197.520712
  0
LINE
  8
CSLAYER1
  6
CONTINUOUS
 62
     6
 10
355.727767
 20
197.520712
 11
354.227767
 21
197.520712
  0
POINT
  8
CSLAYER1
 62
     3
 10
357.477767
 20
200.395712
  0
ARC
  8
CSLAYER1
  6
CONTINUOUS
 62
     6
 10
357.477767
 20
200.395712
 40
2.000000
 50
-138.590378
 51
138.590378
  0
CIRCLE
  8
CSLAYER1
  6
CONTINUOUS
 62
     3
 10
357.477767
 20
200.395712
 40
1.650000
  0
LINE
  8
CSLAYER1
  6
CONTINUOUS
 62
     6
 10
355.977767
 20
202.218587
 11
355.977767
 21
201.718587
  0
LINE
  8
CSLAYER1
  6
CONTINUOUS
 62
     6
 10
355.977767
 20
199.072836
 11
355.977767
 21
198.572836
  0
LINE
  8
CSLAYER1
  6
CONTINUOUS
 62
     6
 10
359.477767
 20
200.395712
 11
359.977767
 21
200.395712
  0
LINE
  8
CSLAYER1
  6
CONTINUOUS
 62
     6
 10
359.209817
 20
201.395712
 11
359.642830
 21
201.645712
  0
LINE
  8
CSLAYER1
  6
CONTINUOUS
 62
     6
 10
358.477767
 20
202.127763
 11
358.727767
 21
202.560775
  0
LINE
  8
CSLAYER1
  6
CONTINUOUS
 62
     6
 10
357.477767
 20
202.395712
 11
357.477767
 21
202.895712
  0
LINE
  8
CSLAYER1
  6
CONTINUOUS
 62
     6
 10
356.477767
 20
202.127763
 11
356.227767
 21
202.560775
  0
LINE
  8
CSLAYER1
  6
CONTINUOUS
 62
     6
 10
359.209817
 20
199.395712
 11
359.642830
 21
199.145712
  0
LINE
  8
CSLAYER1
  6
CONTINUOUS
 62
     6
 10
358.477767
 20
198.663661
 11
358.727767
 21
198.230648
  0
LINE
  8
CSLAYER1
  6
CONTINUOUS
 62
     6
 10
357.477767
 20
198.395712
 11
357.477767
 21
197.895712
  0
LINE
  8
CSLAYER1
  6
CONTINUOUS
 62
     6
 10
356.477767
 20
198.663661
 11
356.227767
 21
198.230648
  0
LINE
  8
CSLAYER1
  6
CONTINUOUS
 62
     3
 10
356.157767
 20
200.725712
 11
357.147767
 21
200.725712
  0
LINE
  8
CSLAYER1
  6
CONTINUOUS
 62
     3
 10
356.157767
 20
200.065712
 11
357.147767
 21
200.065712
  0
LINE
  8
CSLAYER1
  6
CONTINUOUS
 62
     3
 10
357.147767
 20
199.075712
 11
357.147767
 21
200.065712
  0
LINE
  8
CSLAYER1
  6
CONTINUOUS
 62
     3
 10
357.807767
 20
199.075712
 11
357.807767
 21
200.065712
  0
LINE
  8
CSLAYER1
  6
CONTINUOUS
 62
     3
 10
357.147767
 20
199.075712
 11
357.807767
 21
199.075712
  0
LINE
  8
CSLAYER1
  6
CONTINUOUS
 62
     3
 10
356.157767
 20
200.725712
 11
356.157767
 21
200.065712
  0
LINE
  8
CSLAYER1
  6
CONTINUOUS
 62
     3
 10
358.797767
 20
200.065712
 11
358.797767
 21
200.725712
  0
LINE
  8
CSLAYER1
  6
CONTINUOUS
 62
     3
 10
356.791874
 20
201.319712
 11
357.147767
 21
201.319712
  0
LINE
  8
CSLAYER1
  6
CONTINUOUS
 62
     3
 10
356.791874
 20
201.319712
 11
357.477767
 21
201.715712
  0
LINE
  8
CSLAYER1
  6
CONTINUOUS
 62
     3
 10
358.163659
 20
201.319712
 11
357.477767
 21
201.715712
  0
LINE
  8
CSLAYER1
  6
CONTINUOUS
 62
     3
 10
357.807767
 20
201.319712
 11
358.163659
 21
201.319712
  0
LINE
  8
CSLAYER1
  6
CONTINUOUS
 62
     3
 10
357.807767
 20
200.725712
 11
358.797767
 21
200.725712
  0
LINE
  8
CSLAYER1
  6
CONTINUOUS
 62
     3
 10
357.807767
 20
200.065712
 11
358.797767
 21
200.065712
  0
LINE
  8
CSLAYER1
  6
CONTINUOUS
 62
     3
 10
357.147767
 20
200.725712
 11
357.147767
 21
201.319712
  0
LINE
  8
CSLAYER1
  6
CONTINUOUS
 62
     3
 10
357.807767
 20
200.725712
 11
357.807767
 21
201.319712
  0
LINE
  8
CSLAYER1
  6
CONTINUOUS
 62
     6
 10
320.227767
 20
199.520712
 11
321.727767
 21
199.520712
  0
LINE
  8
CSLAYER1
  6
CONTINUOUS
 62
     6
 10
321.727767
 20
200.020712
 11
321.727767
 21
199.520712
  0
LINE
  8
CSLAYER1
  6
CONTINUOUS
 62
     6
 10
325.227767
 20
200.020712
 11
325.227767
 21
199.520712
  0
LINE
  8
CSLAYER1
  6
CONTINUOUS
 62
     6
 10
325.227767
 20
199.520712
 11
326.727767
 21
199.520712
  0
LINE
  8
CSLAYER1
  6
CONTINUOUS
 62
     6
 10
326.727767
 20
193.770712
 11
325.227767
 21
193.770712
  0
LINE
  8
CSLAYER1
  6
CONTINUOUS
 62
     6
 10
325.227767
 20
193.270712
 11
325.227767
 21
193.770712
  0
LINE
  8
CSLAYER1
  6
CONTINUOUS
 62
     6
 10
321.727767
 20
193.270712
 11
321.727767
 21
193.770712
  0
LINE
  8
CSLAYER1
  6
CONTINUOUS
 62
     6
 10
321.727767
 20
193.770712
 11
320.227767
 21
193.770712
  0
POINT
  8
CSLAYER1
 62
     3
 10
323.477767
 20
196.645712
  0
ARC
  8
CSLAYER1
  6
CONTINUOUS
 62
     6
 10
323.477767
 20
196.645712
 40
2.000000
 50
-138.590378
 51
138.590378
  0
CIRCLE
  8
CSLAYER1
  6
CONTINUOUS
 62
     3
 10
323.477767
 20
196.645712
 40
1.650000
  0
LINE
  8
CSLAYER1
  6
CONTINUOUS
 62
     6
 10
321.977767
 20
198.468587
 11
321.977767
 21
197.968587
  0
LINE
  8
CSLAYER1
  6
CONTINUOUS
 62
     6
 10
321.977767
 20
195.322836
 11
321.977767
 21
194.822836
  0
LINE
  8
CSLAYER1
  6
CONTINUOUS
 62
     6
 10
325.477767
 20
196.645712
 11
325.977767
 21
196.645712
  0
LINE
  8
CSLAYER1
  6
CONTINUOUS
 62
     6
 10
325.209817
 20
197.645712
 11
325.642830
 21
197.895712
  0
LINE
  8
CSLAYER1
  6
CONTINUOUS
 62
     6
 10
324.477767
 20
198.377763
 11
324.727767
 21
198.810775
  0
LINE
  8
CSLAYER1
  6
CONTINUOUS
 62
     6
 10
323.477767
 20
198.645712
 11
323.477767
 21
199.145712
  0
LINE
  8
CSLAYER1
  6
CONTINUOUS
 62
     6
 10
322.477767
 20
198.377763
 11
322.227767
 21
198.810775
  0
LINE
  8
CSLAYER1
  6
CONTINUOUS
 62
     6
 10
325.209817
 20
195.645712
 11
325.642830
 21
195.395712
  0
LINE
  8
CSLAYER1
  6
CONTINUOUS
 62
     6
 10
324.477767
 20
194.913661
 11
324.727767
 21
194.480648
  0
LINE
  8
CSLAYER1
  6
CONTINUOUS
 62
     6
 10
323.477767
 20
194.645712
 11
323.477767
 21
194.145712
  0
LINE
  8
CSLAYER1
  6
CONTINUOUS
 62
     6
 10
322.477767
 20
194.913661
 11
322.227767
 21
194.480648
  0
LINE
  8
CSLAYER1
  6
CONTINUOUS
 62
     3
 10
322.777731
 20
197.812438
 11
323.477767
 21
197.112402
  0
LINE
  8
CSLAYER1
  6
CONTINUOUS
 62
     3
 10
322.311040
 20
197.345747
 11
323.011076
 21
196.645712
  0
LINE
  8
CSLAYER1
  6
CONTINUOUS
 62
     3
 10
322.311040
 20
195.945676
 11
323.011076
 21
196.645712
  0
LINE
  8
CSLAYER1
  6
CONTINUOUS
 62
     3
 10
322.777731
 20
195.478986
 11
323.477767
 21
196.179021
  0
LINE
  8
CSLAYER1
  6
CONTINUOUS
 62
     3
 10
322.311040
 20
195.945676
 11
322.777731
 21
195.478986
  0
LINE
  8
CSLAYER1
  6
CONTINUOUS
 62
     3
 10
322.777731
 20
197.812438
 11
322.311040
 21
197.345747
  0
LINE
  8
CSLAYER1
  6
CONTINUOUS
 62
     3
 10
324.177802
 20
195.478986
 11
324.644493
 21
195.945676
  0
LINE
  8
CSLAYER1
  6
CONTINUOUS
 62
     3
 10
323.646134
 20
197.784077
 11
323.897788
 21
197.532424
  0
LINE
  8
CSLAYER1
  6
CONTINUOUS
 62
     3
 10
323.646134
 20
197.784077
 11
324.411148
 21
197.579093
  0
LINE
  8
CSLAYER1
  6
CONTINUOUS
 62
     3
 10
324.616132
 20
196.814079
 11
324.411148
 21
197.579093
  0
LINE
  8
CSLAYER1
  6
CONTINUOUS
 62
     3
 10
324.364478
 20
197.065733
 11
324.616132
 21
196.814079
  0
LINE
  8
CSLAYER1
  6
CONTINUOUS
 62
     3
 10
323.944457
 20
196.645712
 11
324.644493
 21
195.945676
  0
LINE
  8
CSLAYER1
  6
CONTINUOUS
 62
     3
 10
323.477767
 20
196.179021
 11
324.177802
 21
195.478986
  0
LINE
  8
CSLAYER1
  6
CONTINUOUS
 62
     3
 10
323.477767
 20
197.112402
 11
323.897788
 21
197.532424
  0
LINE
  8
CSLAYER1
  6
CONTINUOUS
 62
     3
 10
323.944457
 20
196.645712
 11
324.364478
 21
197.065733
  0
LINE
  8
CSLAYER1
  6
CONTINUOUS
 62
     6
 10
158.227767
 20
149.395712
 11
158.227767
 21
145.395712
  0
LINE
  8
CSLAYER1
  6
CONTINUOUS
 62
     6
 10
158.227767
 20
149.395712
 11
164.727767
 21
149.395712
  0
LINE
  8
CSLAYER1
  6
CONTINUOUS
 62
     6
 10
158.227767
 20
145.395712
 11
164.727767
 21
145.395712
  0
LINE
  8
CSLAYER1
  6
CONTINUOUS
 62
     6
 10
164.727767
 20
149.395712
 11
164.727767
 21
145.395712
  0
LINE
  8
CSLAYER1
  6
CONTINUOUS
 62
     6
 10
163.477767
 20
148.062378
 11
159.477767
 21
148.062378
  0
LINE
  8
CSLAYER1
  6
CONTINUOUS
 62
     6
 10
163.477767
 20
146.729045
 11
159.477767
 21
146.729045
  0
LINE
  8
CSLAYER1
  6
CONTINUOUS
 62
     6
 10
163.477767
 20
148.062378
 11
163.477767
 21
146.729045
  0
LINE
  8
CSLAYER1
  6
CONTINUOUS
 62
     6
 10
159.477767
 20
148.062378
 11
159.477767
 21
146.729045
  0
LINE
  8
CSLAYER1
  6
CONTINUOUS
 62
     6
 10
161.477767
 20
148.062378
 11
161.477767
 21
146.729045
  0
LINE
  8
CSLAYER1
  6
CONTINUOUS
 62
     3
 10
159.811100
 20
148.062378
 11
159.811100
 21
146.729045
  0
LINE
  8
CSLAYER1
  6
CONTINUOUS
 62
     3
 10
160.144433
 20
148.062378
 11
160.144433
 21
146.729045
  0
LINE
  8
CSLAYER1
  6
CONTINUOUS
 62
     3
 10
160.477767
 20
148.062378
 11
160.477767
 21
146.729045
  0
LINE
  8
CSLAYER1
  6
CONTINUOUS
 62
     3
 10
160.811100
 20
148.062378
 11
160.811100
 21
146.729045
  0
LINE
  8
CSLAYER1
  6
CONTINUOUS
 62
     3
 10
161.144433
 20
148.062378
 11
161.144433
 21
146.729045
  0
TEXT
  8
CSLAYER1
 62
     3
 10
154.877762
 20
240.008224
 40
2.200000
 41
0.920455
  1
PS+
 50
-90.000000
 51
0.000000
  7
FX_FONT
 72
     5
 11
154.877762
 21
234.608225
  0
LINE
  8
CSLAYER1
  6
CONTINUOUS
 62
     3
 10
154.727767
 20
240.333220
 11
154.727767
 21
234.583220
  0
LINE
  8
CSLAYER1
  6
CONTINUOUS
 62
     3
 10
157.227767
 20
240.333220
 11
157.227767
 21
234.583220
  0
LINE
  8
CSLAYER1
  6
CONTINUOUS
 62
     3
 10
157.227767
 20
240.333220
 11
154.727767
 21
240.333220
  0
LINE
  8
CSLAYER1
  6
CONTINUOUS
 62
     3
 10
157.227767
 20
234.583220
 11
154.727767
 21
234.583220
  0
TEXT
  8
CSLAYER1
 62
     3
 10
154.877762
 20
228.383224
 40
2.200000
 41
0.920455
  1
PS-
 50
-90.000000
 51
0.000000
  7
FX_FONT
 72
     5
 11
154.877762
 21
222.983225
  0
LINE
  8
CSLAYER1
  6
CONTINUOUS
 62
     3
 10
154.727767
 20
228.708220
 11
154.727767
 21
222.958220
  0
LINE
  8
CSLAYER1
  6
CONTINUOUS
 62
     3
 10
157.227767
 20
228.708220
 11
157.227767
 21
222.958220
  0
LINE
  8
CSLAYER1
  6
CONTINUOUS
 62
     3
 10
157.227767
 20
228.708220
 11
154.727767
 21
228.708220
  0
LINE
  8
CSLAYER1
  6
CONTINUOUS
 62
     3
 10
157.227767
 20
222.958220
 11
154.727767
 21
222.958220
  0
TEXT
  8
CSLAYER1
 62
     3
 10
154.877762
 20
216.008209
 40
2.200000
 41
0.981818
  1
M+
 50
-90.000000
 51
0.000000
  7
FX_FONT
 72
     5
 11
154.877762
 21
212.408209
  0
LINE
  8
CSLAYER1
  6
CONTINUOUS
 62
     3
 10
154.727767
 20
216.333220
 11
154.727767
 21
212.083220
  0
LINE
  8
CSLAYER1
  6
CONTINUOUS
 62
     3
 10
157.227767
 20
216.333220
 11
157.227767
 21
212.083220
  0
LINE
  8
CSLAYER1
  6
CONTINUOUS
 62
     3
 10
157.227767
 20
216.333220
 11
154.727767
 21
216.333220
  0
LINE
  8
CSLAYER1
  6
CONTINUOUS
 62
     3
 10
157.227767
 20
212.083220
 11
154.727767
 21
212.083220
  0
TEXT
  8
CSLAYER1
 62
     3
 10
154.877762
 20
204.383209
 40
2.200000
 41
0.981818
  1
M-
 50
-90.000000
 51
0.000000
  7
FX_FONT
 72
     5
 11
154.877762
 21
200.783209
  0
LINE
  8
CSLAYER1
  6
CONTINUOUS
 62
     3
 10
154.727767
 20
204.708220
 11
154.727767
 21
200.458220
  0
LINE
  8
CSLAYER1
  6
CONTINUOUS
 62
     3
 10
157.227767
 20
204.708220
 11
157.227767
 21
200.458220
  0
LINE
  8
CSLAYER1
  6
CONTINUOUS
 62
     3
 10
157.227767
 20
204.708220
 11
154.727767
 21
204.708220
  0
LINE
  8
CSLAYER1
  6
CONTINUOUS
 62
     3
 10
157.227767
 20
200.458220
 11
154.727767
 21
200.458220
  0
TEXT
  8
CSLAYER1
 62
     3
 10
154.877762
 20
195.070709
 40
2.200000
 41
0.920455
  1
TG+
 50
-90.000000
 51
0.000000
  7
FX_FONT
 72
     5
 11
154.877762
 21
189.670709
  0
LINE
  8
CSLAYER1
  6
CONTINUOUS
 62
     3
 10
154.727767
 20
195.395712
 11
154.727767
 21
189.645712
  0
LINE
  8
CSLAYER1
  6
CONTINUOUS
 62
     3
 10
157.227767
 20
195.395712
 11
157.227767
 21
189.645712
  0
LINE
  8
CSLAYER1
  6
CONTINUOUS
 62
     3
 10
157.227767
 20
195.395712
 11
154.727767
 21
195.395712
  0
LINE
  8
CSLAYER1
  6
CONTINUOUS
 62
     3
 10
157.227767
 20
189.645712
 11
154.727767
 21
189.645712
  0
TEXT
  8
CSLAYER1
 62
     3
 10
154.877762
 20
188.320709
 40
2.200000
 41
0.920455
  1
TG-
 50
-90.000000
 51
0.000000
  7
FX_FONT
 72
     5
 11
154.877762
 21
182.920709
  0
LINE
  8
CSLAYER1
  6
CONTINUOUS
 62
     3
 10
154.727767
 20
188.645712
 11
154.727767
 21
182.895712
  0
LINE
  8
CSLAYER1
  6
CONTINUOUS
 62
     3
 10
157.227767
 20
188.645712
 11
157.227767
 21
182.895712
  0
LINE
  8
CSLAYER1
  6
CONTINUOUS
 62
     3
 10
157.227767
 20
188.645712
 11
154.727767
 21
188.645712
  0
LINE
  8
CSLAYER1
  6
CONTINUOUS
 62
     3
 10
157.227767
 20
182.895712
 11
154.727767
 21
182.895712
  0
TEXT
  8
CSLAYER1
 62
     3
 10
154.877762
 20
181.570709
 40
2.200000
 41
0.920455
  1
VR1
 50
-90.000000
 51
0.000000
  7
FX_FONT
 72
     5
 11
154.877762
 21
176.170709
  0
LINE
  8
CSLAYER1
  6
CONTINUOUS
 62
     3
 10
154.727767
 20
181.895712
 11
154.727767
 21
176.145712
  0
LINE
  8
CSLAYER1
  6
CONTINUOUS
 62
     3
 10
157.227767
 20
181.895712
 11
157.227767
 21
176.145712
  0
LINE
  8
CSLAYER1
  6
CONTINUOUS
 62
     3
 10
157.227767
 20
181.895712
 11
154.727767
 21
181.895712
  0
LINE
  8
CSLAYER1
  6
CONTINUOUS
 62
     3
 10
157.227767
 20
176.145712
 11
154.727767
 21
176.145712
  0
TEXT
  8
CSLAYER1
 62
     3
 10
154.877762
 20
174.820709
 40
2.200000
 41
0.920455
  1
VR2
 50
-90.000000
 51
0.000000
  7
FX_FONT
 72
     5
 11
154.877762
 21
169.420709
  0
LINE
  8
CSLAYER1
  6
CONTINUOUS
 62
     3
 10
154.727767
 20
175.145712
 11
154.727767
 21
169.395712
  0
LINE
  8
CSLAYER1
  6
CONTINUOUS
 62
     3
 10
157.227767
 20
175.145712
 11
157.227767
 21
169.395712
  0
LINE
  8
CSLAYER1
  6
CONTINUOUS
 62
     3
 10
157.227767
 20
175.145712
 11
154.727767
 21
175.145712
  0
LINE
  8
CSLAYER1
  6
CONTINUOUS
 62
     3
 10
157.227767
 20
169.395712
 11
154.727767
 21
169.395712
  0
TEXT
  8
CSLAYER1
 62
     3
 10
154.877762
 20
168.070709
 40
2.200000
 41
0.920455
  1
VR3
 50
-90.000000
 51
0.000000
  7
FX_FONT
 72
     5
 11
154.877762
 21
162.670709
  0
LINE
  8
CSLAYER1
  6
CONTINUOUS
 62
     3
 10
154.727767
 20
168.395712
 11
154.727767
 21
162.645712
  0
LINE
  8
CSLAYER1
  6
CONTINUOUS
 62
     3
 10
157.227767
 20
168.395712
 11
157.227767
 21
162.645712
  0
LINE
  8
CSLAYER1
  6
CONTINUOUS
 62
     3
 10
157.227767
 20
168.395712
 11
154.727767
 21
168.395712
  0
LINE
  8
CSLAYER1
  6
CONTINUOUS
 62
     3
 10
157.227767
 20
162.645712
 11
154.727767
 21
162.645712
  0
LINE
  8
CSLAYER1
  6
CONTINUOUS
 62
     6
 10
66.770852
 20
140.193109
 11
66.770852
 21
135.848291
  0
ARC
  8
CSLAYER1
  6
CONTINUOUS
 62
     6
 10
62.891534
 20
138.020700
 40
5.431046
 50
-16.257006
 51
16.257016
  0
LINE
  8
CSLAYER1
  6
CONTINUOUS
 62
     6
 10
66.939578
 20
135.901838
 11
67.428234
 21
135.944587
  0
ARC
  8
CSLAYER1
  6
CONTINUOUS
 62
     6
 10
67.360611
 20
136.717503
 40
0.775864
 50
275.000111
 51
343.742611
  0
ARC
  8
CSLAYER1
  6
CONTINUOUS
 62
     6
 10
66.926034
 20
136.056416
 40
0.155173
 50
180.000000
 51
275.000152
  0
LINE
  8
CSLAYER1
  6
CONTINUOUS
 62
     6
 10
66.693285
 20
135.770700
 11
66.305353
 21
135.770700
  0
ARC
  8
CSLAYER1
  6
CONTINUOUS
 62
     6
 10
66.693285
 20
135.848291
 40
0.077586
 50
-89.999997
 51
0.000005
  0
ARC
  8
CSLAYER1
  6
CONTINUOUS
 62
     6
 10
66.305353
 20
135.848291
 40
0.077586
 50
180.000000
 51
270.000003
  0
LINE
  8
CSLAYER1
  6
CONTINUOUS
 62
     6
 10
66.939578
 20
140.139562
 11
67.428234
 21
140.096813
  0
ARC
  8
CSLAYER1
  6
CONTINUOUS
 62
     6
 10
67.360611
 20
139.323897
 40
0.775864
 50
16.257399
 51
84.999892
  0
ARC
  8
CSLAYER1
  6
CONTINUOUS
 62
     6
 10
66.926034
 20
139.984984
 40
0.155173
 50
84.999865
 51
179.942691
  0
ARC
  8
CSLAYER1
  6
CONTINUOUS
 62
     6
 10
66.693285
 20
140.193109
 40
0.077586
 50
0.000005
 51
90.000001
  0
LINE
  8
CSLAYER1
  6
CONTINUOUS
 62
     6
 10
66.693285
 20
140.270700
 11
66.305353
 21
140.270700
  0
ARC
  8
CSLAYER1
  6
CONTINUOUS
 62
     6
 10
66.305353
 20
140.193109
 40
0.077586
 50
90.000001
 51
179.942691
  0
LINE
  8
CSLAYER1
  6
CONTINUOUS
 62
     6
 10
66.770852
 20
138.483062
 11
66.227762
 21
138.138685
  0
LINE
  8
CSLAYER1
  6
CONTINUOUS
 62
     6
 10
66.770852
 20
138.095130
 11
66.227762
 21
137.750753
  0
LINE
  8
CSLAYER1
  6
CONTINUOUS
 62
     6
 10
66.770852
 20
260.193109
 11
66.770852
 21
255.848291
  0
ARC
  8
CSLAYER1
  6
CONTINUOUS
 62
     6
 10
62.891534
 20
258.020700
 40
5.431046
 50
-16.257006
 51
16.257016
  0
LINE
  8
CSLAYER1
  6
CONTINUOUS
 62
     6
 10
66.939578
 20
255.901838
 11
67.428234
 21
255.944587
  0
ARC
  8
CSLAYER1
  6
CONTINUOUS
 62
     6
 10
67.360611
 20
256.717503
 40
0.775864
 50
275.000111
 51
343.742611
  0
ARC
  8
CSLAYER1
  6
CONTINUOUS
 62
     6
 10
66.926034
 20
256.056416
 40
0.155173
 50
180.000000
 51
275.000152
  0
LINE
  8
CSLAYER1
  6
CONTINUOUS
 62
     6
 10
66.693285
 20
255.770700
 11
66.305353
 21
255.770700
  0
ARC
  8
CSLAYER1
  6
CONTINUOUS
 62
     6
 10
66.693285
 20
255.848291
 40
0.077586
 50
-89.999997
 51
0.000005
  0
ARC
  8
CSLAYER1
  6
CONTINUOUS
 62
     6
 10
66.305353
 20
255.848291
 40
0.077586
 50
180.000000
 51
270.000003
  0
LINE
  8
CSLAYER1
  6
CONTINUOUS
 62
     6
 10
66.939578
 20
260.139562
 11
67.428234
 21
260.096813
  0
ARC
  8
CSLAYER1
  6
CONTINUOUS
 62
     6
 10
67.360611
 20
259.323897
 40
0.775864
 50
16.257399
 51
84.999892
  0
ARC
  8
CSLAYER1
  6
CONTINUOUS
 62
     6
 10
66.926034
 20
259.984984
 40
0.155173
 50
84.999865
 51
179.942691
  0
ARC
  8
CSLAYER1
  6
CONTINUOUS
 62
     6
 10
66.693285
 20
260.193109
 40
0.077586
 50
0.000005
 51
90.000001
  0
LINE
  8
CSLAYER1
  6
CONTINUOUS
 62
     6
 10
66.693285
 20
260.270700
 11
66.305353
 21
260.270700
  0
ARC
  8
CSLAYER1
  6
CONTINUOUS
 62
     6
 10
66.305353
 20
260.193109
 40
0.077586
 50
90.000001
 51
179.942691
  0
LINE
  8
CSLAYER1
  6
CONTINUOUS
 62
     6
 10
66.770852
 20
258.483062
 11
66.227762
 21
258.138685
  0
LINE
  8
CSLAYER1
  6
CONTINUOUS
 62
     6
 10
66.770852
 20
258.095130
 11
66.227762
 21
257.750753
  0
LINE
  8
CSLAYER1
  6
CONTINUOUS
 62
     6
 10
75.227767
 20
167.020712
 11
75.227767
 21
191.020712
  0
LINE
  8
CSLAYER1
  6
CONTINUOUS
 62
     3
 10
72.227767
 20
167.020712
 11
72.227767
 21
191.020712
  0
LINE
  8
CSLAYER1
  6
CONTINUOUS
 62
     6
 10
75.227767
 20
191.020712
 11
66.227767
 21
191.020712
  0
LINE
  8
CSLAYER1
  6
CONTINUOUS
 62
     6
 10
75.227767
 20
167.020712
 11
66.227767
 21
167.020712
  0
LINE
  8
CSLAYER1
  6
CONTINUOUS
 62
     6
 10
71.227767
 20
185.270712
 11
67.227767
 21
185.270712
  0
LINE
  8
CSLAYER1
  6
CONTINUOUS
 62
     6
 10
70.227767
 20
189.470712
 11
68.227767
 21
189.470712
  0
LINE
  8
CSLAYER1
  6
CONTINUOUS
 62
     6
 10
70.227767
 20
186.570712
 11
68.227767
 21
186.570712
  0
LINE
  8
CSLAYER1
  6
CONTINUOUS
 62
     6
 10
71.227767
 20
189.770712
 11
67.227767
 21
189.770712
  0
LINE
  8
CSLAYER1
  6
CONTINUOUS
 62
     6
 10
71.227767
 20
186.270712
 11
67.227767
 21
186.270712
  0
LINE
  8
CSLAYER1
  6
CONTINUOUS
 62
     6
 10
71.227767
 20
186.270712
 11
71.227767
 21
189.770712
  0
LINE
  8
CSLAYER1
  6
CONTINUOUS
 62
     6
 10
70.227767
 20
186.570712
 11
70.227767
 21
189.470712
  0
LINE
  8
CSLAYER1
  6
CONTINUOUS
 62
     6
 10
68.227767
 20
186.570712
 11
68.227767
 21
189.470712
  0
LINE
  8
CSLAYER1
  6
CONTINUOUS
 62
     6
 10
67.227767
 20
186.270712
 11
67.227767
 21
189.770712
  0
LINE
  8
CSLAYER1
  6
CONTINUOUS
 62
     6
 10
71.227767
 20
185.270712
 11
67.227767
 21
185.270712
  0
LINE
  8
CSLAYER1
  6
CONTINUOUS
 62
     6
 10
71.227767
 20
181.770712
 11
67.227767
 21
181.770712
  0
LINE
  8
CSLAYER1
  6
CONTINUOUS
 62
     6
 10
71.227767
 20
181.770712
 11
71.227767
 21
185.270712
  0
LINE
  8
CSLAYER1
  6
CONTINUOUS
 62
     6
 10
67.227767
 20
181.770712
 11
67.227767
 21
185.270712
  0
LINE
  8
CSLAYER1
  6
CONTINUOUS
 62
     6
 10
71.227767
 20
180.770712
 11
67.227767
 21
180.770712
  0
LINE
  8
CSLAYER1
  6
CONTINUOUS
 62
     6
 10
71.227767
 20
177.270712
 11
67.227767
 21
177.270712
  0
LINE
  8
CSLAYER1
  6
CONTINUOUS
 62
     6
 10
71.227767
 20
177.270712
 11
71.227767
 21
180.770712
  0
LINE
  8
CSLAYER1
  6
CONTINUOUS
 62
     6
 10
67.227767
 20
177.270712
 11
67.227767
 21
180.770712
  0
LINE
  8
CSLAYER1
  6
CONTINUOUS
 62
     6
 10
71.227767
 20
176.270712
 11
67.227767
 21
176.270712
  0
LINE
  8
CSLAYER1
  6
CONTINUOUS
 62
     6
 10
71.227767
 20
172.770712
 11
67.227767
 21
172.770712
  0
LINE
  8
CSLAYER1
  6
CONTINUOUS
 62
     6
 10
71.227767
 20
172.770712
 11
71.227767
 21
176.270712
  0
LINE
  8
CSLAYER1
  6
CONTINUOUS
 62
     6
 10
67.227767
 20
172.770712
 11
67.227767
 21
176.270712
  0
LINE
  8
CSLAYER1
  6
CONTINUOUS
 62
     6
 10
71.227767
 20
171.770712
 11
67.227767
 21
171.770712
  0
LINE
  8
CSLAYER1
  6
CONTINUOUS
 62
     6
 10
71.227767
 20
168.270712
 11
67.227767
 21
168.270712
  0
LINE
  8
CSLAYER1
  6
CONTINUOUS
 62
     6
 10
71.227767
 20
168.270712
 11
71.227767
 21
171.770712
  0
LINE
  8
CSLAYER1
  6
CONTINUOUS
 62
     6
 10
67.227767
 20
168.270712
 11
67.227767
 21
171.770712
  0
LINE
  8
CSLAYER1
  6
CONTINUOUS
 62
     6
 10
70.227767
 20
184.970712
 11
68.227767
 21
184.970712
  0
LINE
  8
CSLAYER1
  6
CONTINUOUS
 62
     6
 10
70.227767
 20
182.070712
 11
68.227767
 21
182.070712
  0
LINE
  8
CSLAYER1
  6
CONTINUOUS
 62
     6
 10
70.227767
 20
182.070712
 11
70.227767
 21
184.970712
  0
LINE
  8
CSLAYER1
  6
CONTINUOUS
 62
     6
 10
68.227767
 20
182.070712
 11
68.227767
 21
184.970712
  0
LINE
  8
CSLAYER1
  6
CONTINUOUS
 62
     6
 10
70.227767
 20
180.470712
 11
68.227767
 21
180.470712
  0
LINE
  8
CSLAYER1
  6
CONTINUOUS
 62
     6
 10
70.227767
 20
177.570712
 11
68.227767
 21
177.570712
  0
LINE
  8
CSLAYER1
  6
CONTINUOUS
 62
     6
 10
70.227767
 20
177.570712
 11
70.227767
 21
180.470712
  0
LINE
  8
CSLAYER1
  6
CONTINUOUS
 62
     6
 10
68.227767
 20
177.570712
 11
68.227767
 21
180.470712
  0
LINE
  8
CSLAYER1
  6
CONTINUOUS
 62
     6
 10
70.227767
 20
175.970712
 11
68.227767
 21
175.970712
  0
LINE
  8
CSLAYER1
  6
CONTINUOUS
 62
     6
 10
70.227767
 20
173.070712
 11
68.227767
 21
173.070712
  0
LINE
  8
CSLAYER1
  6
CONTINUOUS
 62
     6
 10
70.227767
 20
173.070712
 11
70.227767
 21
175.970712
  0
LINE
  8
CSLAYER1
  6
CONTINUOUS
 62
     6
 10
68.227767
 20
173.070712
 11
68.227767
 21
175.970712
  0
LINE
  8
CSLAYER1
  6
CONTINUOUS
 62
     6
 10
70.227767
 20
171.470712
 11
68.227767
 21
171.470712
  0
LINE
  8
CSLAYER1
  6
CONTINUOUS
 62
     6
 10
70.227767
 20
168.570712
 11
68.227767
 21
168.570712
  0
LINE
  8
CSLAYER1
  6
CONTINUOUS
 62
     6
 10
70.227767
 20
168.570712
 11
70.227767
 21
171.470712
  0
LINE
  8
CSLAYER1
  6
CONTINUOUS
 62
     6
 10
68.227767
 20
168.570712
 11
68.227767
 21
171.470712
  0
LINE
  8
CSLAYER1
  6
CONTINUOUS
 62
     6
 10
74.227767
 20
145.395712
 11
66.227767
 21
145.395712
  0
LINE
  8
CSLAYER1
  6
CONTINUOUS
 62
     6
 10
74.227767
 20
145.395712
 11
74.227767
 21
149.395712
  0
CIRCLE
  8
CSLAYER1
  6
CONTINUOUS
 62
     6
 10
76.227767
 20
251.520712
 40
2.500000
  0
LINE
  8
CSLAYER1
  6
CONTINUOUS
 62
     6
 10
66.227767
 20
254.095598
 11
73.324026
 21
253.474756
  0
LINE
  8
CSLAYER1
  6
CONTINUOUS
 62
     6
 10
73.324026
 20
249.566667
 11
66.227767
 21
248.945825
  0
LINE
  8
CSLAYER1
  6
CONTINUOUS
 62
     6
 10
106.227767
 20
128.020712
 11
54.227767
 21
128.020712
  0
LINE
  8
CSLAYER1
  6
CONTINUOUS
 62
     6
 10
51.227767
 20
131.020712
 11
51.227767
 21
268.020712
  0
LINE
  8
CSLAYER1
  6
CONTINUOUS
 62
     6
 10
54.227767
 20
132.020712
 11
54.227767
 21
268.020712
  0
LINE
  8
CSLAYER1
  6
CONTINUOUS
 62
     6
 10
106.227767
 20
131.020712
 11
55.227767
 21
131.020712
  0
ARC
  8
CSLAYER1
  6
CONTINUOUS
 62
     6
 10
54.227767
 20
131.020712
 40
3.000000
 50
180.000000
 51
270.000000
  0
LINE
  8
CSLAYER1
  6
CONTINUOUS
 62
     6
 10
51.227767
 20
268.020712
 11
54.227767
 21
268.020712
  0
LINE
  8
CSLAYER1
  6
CONTINUOUS
 62
     6
 10
106.227767
 20
131.020712
 11
106.227767
 21
128.020712
  0
LINE
  8
CSLAYER1
  6
CENTER
 62
     3
 10
61.227767
 20
125.020712
 11
61.227767
 21
134.020712
  0
LINE
  8
CSLAYER1
  6
CENTER
 62
     3
 10
96.227767
 20
125.020712
 11
96.227767
 21
134.020712
  0
LINE
  8
CSLAYER1
  6
CONTINUOUS
 62
     6
 10
64.227767
 20
133.020712
 11
64.227767
 21
263.020712
  0
LINE
  8
CSLAYER1
  6
CONTINUOUS
 62
     6
 10
66.227767
 20
133.020712
 11
66.227767
 21
263.020712
  0
LINE
  8
CSLAYER1
  6
CONTINUOUS
 62
     6
 10
66.227767
 20
263.020712
 11
64.227767
 21
263.020712
  0
LINE
  8
CSLAYER1
  6
CONTINUOUS
 62
     6
 10
66.227767
 20
133.020712
 11
64.227767
 21
133.020712
  0
LINE
  8
CSLAYER1
  6
CONTINUOUS
 62
     6
 10
64.227767
 20
141.020712
 11
54.227767
 21
141.020712
  0
LINE
  8
CSLAYER1
  6
CONTINUOUS
 62
     6
 10
64.227767
 20
135.020712
 11
54.227767
 21
135.020712
  0
LINE
  8
CSLAYER1
  6
CONTINUOUS
 62
     6
 10
64.227767
 20
261.020712
 11
54.227767
 21
261.020712
  0
LINE
  8
CSLAYER1
  6
CONTINUOUS
 62
     6
 10
64.227767
 20
255.020712
 11
54.227767
 21
255.020712
  0
LINE
  8
CSLAYER1
  6
CONTINUOUS
 62
     6
 10
106.227767
 20
186.270712
 11
75.227767
 21
186.270712
  0
LINE
  8
CSLAYER1
  6
CONTINUOUS
 62
     6
 10
106.227767
 20
137.020712
 11
68.229725
 21
137.020712
  0
LINE
  8
CSLAYER1
  6
CONTINUOUS
 62
     6
 10
106.227767
 20
137.020712
 11
106.227767
 21
186.270712
  0
LINE
  8
CSLAYER1
  6
CONTINUOUS
 62
     6
 10
158.227767
 20
191.020712
 11
158.227767
 21
167.020712
  0
LINE
  8
CSLAYER1
  6
CONTINUOUS
 62
     6
 10
167.227767
 20
191.020712
 11
158.227767
 21
191.020712
  0
LINE
  8
CSLAYER1
  6
CONTINUOUS
 62
     6
 10
167.227767
 20
191.020712
 11
167.227767
 21
167.020712
  0
LINE
  8
CSLAYER1
  6
CONTINUOUS
 62
     6
 10
167.227767
 20
167.020712
 11
158.227767
 21
167.020712
  0
LINE
  8
CSLAYER1
  6
CONTINUOUS
 62
     3
 10
165.227767
 20
191.020712
 11
165.227767
 21
167.020712
  0
LINE
  8
CSLAYER1
  6
CONTINUOUS
 62
     3
 10
160.227767
 20
191.020712
 11
160.227767
 21
167.020712
  0
CIRCLE
  8
CSLAYER1
  6
CONTINUOUS
 62
     6
 10
162.727767
 20
188.620712
 40
2.000000
  0
CIRCLE
  8
CSLAYER1
  6
CONTINUOUS
 62
     6
 10
162.727767
 20
183.820712
 40
2.000000
  0
CIRCLE
  8
CSLAYER1
  6
CONTINUOUS
 62
     6
 10
162.727767
 20
179.020712
 40
2.000000
  0
CIRCLE
  8
CSLAYER1
  6
CONTINUOUS
 62
     6
 10
162.727767
 20
174.220712
 40
2.000000
  0
CIRCLE
  8
CSLAYER1
  6
CONTINUOUS
 62
     6
 10
162.727767
 20
169.420712
 40
2.000000
  0
LINE
  8
CSLAYER1
  6
CONTINUOUS
 62
     6
 10
164.608089
 20
187.939252
 11
161.197444
 21
189.908389
  0
LINE
  8
CSLAYER1
  6
CONTINUOUS
 62
     6
 10
164.258089
 20
187.333034
 11
160.847444
 21
189.302171
  0
LINE
  8
CSLAYER1
  6
CONTINUOUS
 62
     6
 10
162.046307
 20
181.940389
 11
164.015444
 21
185.351034
  0
LINE
  8
CSLAYER1
  6
CONTINUOUS
 62
     6
 10
161.440089
 20
182.290389
 11
163.409226
 21
185.701034
  0
LINE
  8
CSLAYER1
  6
CONTINUOUS
 62
     6
 10
163.575491
 20
177.209258
 11
162.556190
 21
181.013339
  0
LINE
  8
CSLAYER1
  6
CONTINUOUS
 62
     6
 10
162.899343
 20
177.028085
 11
161.880042
 21
180.832165
  0
LINE
  8
CSLAYER1
  6
CONTINUOUS
 62
     6
 10
160.916313
 20
175.068436
 11
164.720393
 21
174.049136
  0
LINE
  8
CSLAYER1
  6
CONTINUOUS
 62
     6
 10
160.735140
 20
174.392288
 11
164.539220
 21
173.372988
  0
LINE
  8
CSLAYER1
  6
CONTINUOUS
 62
     6
 10
160.916313
 20
168.572988
 11
164.720393
 21
169.592288
  0
LINE
  8
CSLAYER1
  6
CONTINUOUS
 62
     6
 10
160.735140
 20
169.249136
 11
164.539220
 21
170.268436
  0
LINE
  8
CSLAYER1
  6
CONTINUOUS
 62
     6
 10
386.227767
 20
95.020712
 11
386.227767
 21
43.020712
  0
LINE
  8
CSLAYER1
  6
CONTINUOUS
 62
     6
 10
136.227767
 20
95.020712
 11
136.227767
 21
43.020712
  0
LINE
  8
CSLAYER1
  6
CONTINUOUS
 62
     6
 10
139.227767
 20
98.020712
 11
383.227767
 21
98.020712
  0
LINE
  8
CSLAYER1
  6
CONTINUOUS
 62
     6
 10
136.227767
 20
43.020712
 11
386.227767
 21
43.020712
  0
ARC
  8
CSLAYER1
  6
CONTINUOUS
 62
     6
 10
383.227767
 20
95.020712
 40
3.000000
 50
0.000000
 51
90.000000
  0
ARC
  8
CSLAYER1
  6
CONTINUOUS
 62
     6
 10
139.227767
 20
95.020712
 40
3.000000
 50
90.000000
 51
180.000000
  0
LINE
  8
CSLAYER1
  6
CONTINUOUS
 62
     6
 10
158.227767
 20
158.520712
 11
159.727767
 21
158.520712
  0
LINE
  8
CSLAYER1
  6
CONTINUOUS
 62
     6
 10
159.727767
 20
159.020712
 11
159.727767
 21
158.520712
  0
LINE
  8
CSLAYER1
  6
CONTINUOUS
 62
     6
 10
163.227767
 20
159.020712
 11
163.227767
 21
158.520712
  0
LINE
  8
CSLAYER1
  6
CONTINUOUS
 62
     6
 10
163.227767
 20
158.520712
 11
164.727767
 21
158.520712
  0
LINE
  8
CSLAYER1
  6
CONTINUOUS
 62
     6
 10
164.727767
 20
152.770712
 11
163.227767
 21
152.770712
  0
LINE
  8
CSLAYER1
  6
CONTINUOUS
 62
     6
 10
163.227767
 20
152.270712
 11
163.227767
 21
152.770712
  0
LINE
  8
CSLAYER1
  6
CONTINUOUS
 62
     6
 10
159.727767
 20
152.270712
 11
159.727767
 21
152.770712
  0
LINE
  8
CSLAYER1
  6
CONTINUOUS
 62
     6
 10
159.727767
 20
152.770712
 11
158.227767
 21
152.770712
  0
POINT
  8
CSLAYER1
 62
     3
 10
161.477767
 20
155.645712
  0
ARC
  8
CSLAYER1
  6
CONTINUOUS
 62
     6
 10
161.477767
 20
155.645712
 40
2.000000
 50
-138.590378
 51
138.590378
  0
CIRCLE
  8
CSLAYER1
  6
CONTINUOUS
 62
     3
 10
161.477767
 20
155.645712
 40
1.650000
  0
LINE
  8
CSLAYER1
  6
CONTINUOUS
 62
     6
 10
159.977767
 20
157.468587
 11
159.977767
 21
156.968587
  0
LINE
  8
CSLAYER1
  6
CONTINUOUS
 62
     6
 10
159.977767
 20
154.322836
 11
159.977767
 21
153.822836
  0
LINE
  8
CSLAYER1
  6
CONTINUOUS
 62
     6
 10
163.477767
 20
155.645712
 11
163.977767
 21
155.645712
  0
LINE
  8
CSLAYER1
  6
CONTINUOUS
 62
     6
 10
163.209817
 20
156.645712
 11
163.642830
 21
156.895712
  0
LINE
  8
CSLAYER1
  6
CONTINUOUS
 62
     6
 10
162.477767
 20
157.377763
 11
162.727767
 21
157.810775
  0
LINE
  8
CSLAYER1
  6
CONTINUOUS
 62
     6
 10
161.477767
 20
157.645712
 11
161.477767
 21
158.145712
  0
LINE
  8
CSLAYER1
  6
CONTINUOUS
 62
     6
 10
160.477767
 20
157.377763
 11
160.227767
 21
157.810775
  0
LINE
  8
CSLAYER1
  6
CONTINUOUS
 62
     6
 10
163.209817
 20
154.645712
 11
163.642830
 21
154.395712
  0
LINE
  8
CSLAYER1
  6
CONTINUOUS
 62
     6
 10
162.477767
 20
153.913661
 11
162.727767
 21
153.480648
  0
LINE
  8
CSLAYER1
  6
CONTINUOUS
 62
     6
 10
161.477767
 20
153.645712
 11
161.477767
 21
153.145712
  0
LINE
  8
CSLAYER1
  6
CONTINUOUS
 62
     6
 10
160.477767
 20
153.913661
 11
160.227767
 21
153.480648
  0
LINE
  8
CSLAYER1
  6
CONTINUOUS
 62
     3
 10
161.807767
 20
156.965712
 11
161.807767
 21
155.975712
  0
LINE
  8
CSLAYER1
  6
CONTINUOUS
 62
     3
 10
161.147767
 20
156.965712
 11
161.147767
 21
155.975712
  0
LINE
  8
CSLAYER1
  6
CONTINUOUS
 62
     3
 10
160.157767
 20
155.975712
 11
161.147767
 21
155.975712
  0
LINE
  8
CSLAYER1
  6
CONTINUOUS
 62
     3
 10
160.157767
 20
155.315712
 11
161.147767
 21
155.315712
  0
LINE
  8
CSLAYER1
  6
CONTINUOUS
 62
     3
 10
160.157767
 20
155.975712
 11
160.157767
 21
155.315712
  0
LINE
  8
CSLAYER1
  6
CONTINUOUS
 62
     3
 10
161.807767
 20
156.965712
 11
161.147767
 21
156.965712
  0
LINE
  8
CSLAYER1
  6
CONTINUOUS
 62
     3
 10
161.147767
 20
154.325712
 11
161.807767
 21
154.325712
  0
LINE
  8
CSLAYER1
  6
CONTINUOUS
 62
     3
 10
162.401767
 20
156.331604
 11
162.401767
 21
155.975712
  0
LINE
  8
CSLAYER1
  6
CONTINUOUS
 62
     3
 10
162.401767
 20
156.331604
 11
162.797767
 21
155.645712
  0
LINE
  8
CSLAYER1
  6
CONTINUOUS
 62
     3
 10
162.401767
 20
154.959820
 11
162.797767
 21
155.645712
  0
LINE
  8
CSLAYER1
  6
CONTINUOUS
 62
     3
 10
162.401767
 20
155.315712
 11
162.401767
 21
154.959820
  0
LINE
  8
CSLAYER1
  6
CONTINUOUS
 62
     3
 10
161.807767
 20
155.315712
 11
161.807767
 21
154.325712
  0
LINE
  8
CSLAYER1
  6
CONTINUOUS
 62
     3
 10
161.147767
 20
155.315712
 11
161.147767
 21
154.325712
  0
LINE
  8
CSLAYER1
  6
CONTINUOUS
 62
     3
 10
161.807767
 20
155.975712
 11
162.401767
 21
155.975712
  0
LINE
  8
CSLAYER1
  6
CONTINUOUS
 62
     3
 10
161.807767
 20
155.315712
 11
162.401767
 21
155.315712
  0
LINE
  8
CSLAYER1
  6
CONTINUOUS
 62
     3
 10
194.727767
 20
251.667813
 11
197.080666
 21
254.020712
  0
LINE
  8
CSLAYER1
  6
CONTINUOUS
 62
     3
 10
194.727767
 20
253.082026
 11
195.666452
 21
254.020712
  0
LINE
  8
CSLAYER1
  6
CONTINUOUS
 62
     3
 10
176.524316
 20
249.020712
 11
177.727767
 21
250.224162
  0
LINE
  8
CSLAYER1
  6
CONTINUOUS
 62
     3
 10
175.110103
 20
249.020712
 11
177.727767
 21
251.638376
  0
LINE
  8
CSLAYER1
  6
CONTINUOUS
 62
     3
 10
173.695889
 20
249.020712
 11
177.727767
 21
253.052589
  0
LINE
  8
CSLAYER1
  6
CONTINUOUS
 62
     3
 10
172.281676
 20
249.020712
 11
177.281676
 21
254.020712
  0
LINE
  8
CSLAYER1
  6
CONTINUOUS
 62
     3
 10
171.227767
 20
249.381016
 11
175.867462
 21
254.020712
  0
LINE
  8
CSLAYER1
  6
CONTINUOUS
 62
     3
 10
171.227767
 20
250.795230
 11
174.453249
 21
254.020712
  0
LINE
  8
CSLAYER1
  6
CONTINUOUS
 62
     3
 10
171.227767
 20
252.209443
 11
173.039035
 21
254.020712
  0
LINE
  8
CSLAYER1
  6
CONTINUOUS
 62
     3
 10
171.227767
 20
253.623657
 11
171.624821
 21
254.020712
  0
LINE
  8
CSLAYER1
  6
CONTINUOUS
 62
     3
 10
194.727767
 20
250.253599
 11
198.494879
 21
254.020712
  0
LINE
  8
CSLAYER1
  6
CONTINUOUS
 62
     3
 10
194.909093
 20
249.020712
 11
199.909093
 21
254.020712
  0
LINE
  8
CSLAYER1
  6
CONTINUOUS
 62
     3
 10
196.323306
 20
249.020712
 11
201.227767
 21
253.925172
  0
LINE
  8
CSLAYER1
  6
CONTINUOUS
 62
     3
 10
197.737520
 20
249.020712
 11
201.227767
 21
252.510959
  0
LINE
  8
CSLAYER1
  6
CONTINUOUS
 62
     3
 10
199.151733
 20
249.020712
 11
201.227767
 21
251.096745
  0
LINE
  8
CSLAYER1
  6
CONTINUOUS
 62
     3
 10
200.565947
 20
249.020712
 11
201.227767
 21
249.682531
  0
LINE
  8
CSLAYER1
  6
CONTINUOUS
 62
     6
 10
360.727767
 20
213.520712
 11
360.727767
 21
206.770712
  0
LINE
  8
CSLAYER1
  6
CONTINUOUS
 62
     6
 10
354.227767
 20
213.520712
 11
354.227767
 21
206.770712
  0
LINE
  8
CSLAYER1
  6
CONTINUOUS
 62
     6
 10
354.227767
 20
213.520712
 11
360.727767
 21
213.520712
  0
LINE
  8
CSLAYER1
  6
CONTINUOUS
 62
     6
 10
354.227767
 20
206.770712
 11
360.727767
 21
206.770712
  0
LINE
  8
CSLAYER1
  6
CONTINUOUS
 62
     6
 10
360.727767
 20
194.020712
 11
360.727767
 21
187.270712
  0
LINE
  8
CSLAYER1
  6
CONTINUOUS
 62
     6
 10
354.227767
 20
194.020712
 11
354.227767
 21
187.270712
  0
LINE
  8
CSLAYER1
  6
CONTINUOUS
 62
     6
 10
354.227767
 20
194.020712
 11
360.727767
 21
194.020712
  0
LINE
  8
CSLAYER1
  6
CONTINUOUS
 62
     6
 10
354.227767
 20
187.270712
 11
360.727767
 21
187.270712
  0
LINE
  8
CSLAYER1
  6
CONTINUOUS
 62
     6
 10
360.727767
 20
184.270712
 11
360.727767
 21
177.520712
  0
LINE
  8
CSLAYER1
  6
CONTINUOUS
 62
     6
 10
354.227767
 20
184.270712
 11
354.227767
 21
177.520712
  0
LINE
  8
CSLAYER1
  6
CONTINUOUS
 62
     6
 10
354.227767
 20
184.270712
 11
360.727767
 21
184.270712
  0
LINE
  8
CSLAYER1
  6
CONTINUOUS
 62
     6
 10
354.227767
 20
177.520712
 11
360.727767
 21
177.520712
  0
LINE
  8
CSLAYER1
  6
CONTINUOUS
 62
     6
 10
360.727767
 20
203.770712
 11
360.727767
 21
197.020712
  0
LINE
  8
CSLAYER1
  6
CONTINUOUS
 62
     6
 10
354.227767
 20
203.770712
 11
354.227767
 21
197.020712
  0
LINE
  8
CSLAYER1
  6
CONTINUOUS
 62
     6
 10
354.227767
 20
203.770712
 11
360.727767
 21
203.770712
  0
LINE
  8
CSLAYER1
  6
CONTINUOUS
 62
     6
 10
354.227767
 20
197.020712
 11
360.727767
 21
197.020712
  0
LINE
  8
CSLAYER1
  6
CONTINUOUS
 62
     6
 10
326.727767
 20
200.020712
 11
326.727767
 21
193.270712
  0
LINE
  8
CSLAYER1
  6
CONTINUOUS
 62
     6
 10
320.227767
 20
200.020712
 11
320.227767
 21
193.270712
  0
LINE
  8
CSLAYER1
  6
CONTINUOUS
 62
     6
 10
320.227767
 20
200.020712
 11
326.727767
 21
200.020712
  0
LINE
  8
CSLAYER1
  6
CONTINUOUS
 62
     6
 10
320.227767
 20
193.270712
 11
326.727767
 21
193.270712
  0
ARC
  8
CSLAYER1
  6
CONTINUOUS
 62
     6
 10
76.227767
 20
251.520712
 40
3.500000
 50
45.000000
 51
146.061798
  0
LINE
  8
CSLAYER1
  6
CONTINUOUS
 62
     6
 10
78.702640
 20
253.995586
 11
79.409747
 21
254.702692
  0
LINE
  8
CSLAYER1
  6
CONTINUOUS
 62
     6
 10
78.702640
 20
249.045838
 11
79.409747
 21
248.338731
  0
ARC
  8
CSLAYER1
  6
CONTINUOUS
 62
     6
 10
76.227767
 20
251.520712
 40
3.500000
 50
213.938202
 51
315.000000
  0
CIRCLE
  8
CSLAYER1
  6
CONTINUOUS
 62
     6
 10
376.227767
 20
88.020712
 40
2.250000
  0
LINE
  8
CSLAYER1
  6
CENTER
 62
     3
 10
376.227767
 20
93.484997
 11
376.227767
 21
82.556426
  0
LINE
  8
CSLAYER1
  6
CENTER
 62
     3
 10
370.763481
 20
88.020712
 11
381.692052
 21
88.020712
  0
LINE
  8
CSLAYER1
  6
CONTINUOUS
 62
     6
 10
164.727767
 20
159.020712
 11
164.727767
 21
152.270712
  0
LINE
  8
CSLAYER1
  6
CONTINUOUS
 62
     6
 10
158.227767
 20
159.020712
 11
158.227767
 21
152.270712
  0
LINE
  8
CSLAYER1
  6
CONTINUOUS
 62
     6
 10
158.227767
 20
159.020712
 11
164.727767
 21
159.020712
  0
LINE
  8
CSLAYER1
  6
CONTINUOUS
 62
     6
 10
158.227767
 20
152.270712
 11
164.727767
 21
152.270712
  0
LINE
  8
CSLAYER1
  6
CONTINUOUS
 62
     3
 10
180.227767
 20
251.520712
 11
180.377767
 21
251.595649
  0
LINE
  8
CSLAYER1
  6
CONTINUOUS
 62
     3
 10
180.377767
 20
251.595649
 11
180.527767
 21
251.670212
  0
LINE
  8
CSLAYER1
  6
CONTINUOUS
 62
     3
 10
180.527767
 20
251.670212
 11
180.677767
 21
251.744024
  0
LINE
  8
CSLAYER1
  6
CONTINUOUS
 62
     3
 10
180.677767
 20
251.744024
 11
180.827767
 21
251.816712
  0
LINE
  8
CSLAYER1
  6
CONTINUOUS
 62
     3
 10
180.827767
 20
251.816712
 11
180.977767
 21
251.887899
  0
LINE
  8
CSLAYER1
  6
CONTINUOUS
 62
     3
 10
180.977767
 20
251.887899
 11
181.127767
 21
251.957212
  0
LINE
  8
CSLAYER1
  6
CONTINUOUS
 62
     3
 10
181.127767
 20
251.957212
 11
181.277767
 21
252.024274
  0
LINE
  8
CSLAYER1
  6
CONTINUOUS
 62
     3
 10
181.277767
 20
252.024274
 11
181.427767
 21
252.088712
  0
LINE
  8
CSLAYER1
  6
CONTINUOUS
 62
     3
 10
181.427767
 20
252.088712
 11
181.577767
 21
252.150149
  0
LINE
  8
CSLAYER1
  6
CONTINUOUS
 62
     3
 10
181.577767
 20
252.150149
 11
181.727767
 21
252.208212
  0
LINE
  8
CSLAYER1
  6
CONTINUOUS
 62
     3
 10
181.727767
 20
252.208212
 11
181.877767
 21
252.262524
  0
LINE
  8
CSLAYER1
  6
CONTINUOUS
 62
     3
 10
181.877767
 20
252.262524
 11
182.027767
 21
252.312712
  0
LINE
  8
CSLAYER1
  6
CONTINUOUS
 62
     3
 10
182.027767
 20
252.312712
 11
182.177767
 21
252.358399
  0
LINE
  8
CSLAYER1
  6
CONTINUOUS
 62
     3
 10
182.177767
 20
252.358399
 11
182.327767
 21
252.399212
  0
LINE
  8
CSLAYER1
  6
CONTINUOUS
 62
     3
 10
182.327767
 20
252.399212
 11
182.477767
 21
252.434774
  0
LINE
  8
CSLAYER1
  6
CONTINUOUS
 62
     3
 10
182.477767
 20
252.434774
 11
182.627767
 21
252.464712
  0
LINE
  8
CSLAYER1
  6
CONTINUOUS
 62
     3
 10
182.627767
 20
252.464712
 11
182.777767
 21
252.488649
  0
LINE
  8
CSLAYER1
  6
CONTINUOUS
 62
     3
 10
182.777767
 20
252.488649
 11
182.927767
 21
252.506212
  0
LINE
  8
CSLAYER1
  6
CONTINUOUS
 62
     3
 10
182.927767
 20
252.506212
 11
183.077767
 21
252.517024
  0
LINE
  8
CSLAYER1
  6
CONTINUOUS
 62
     3
 10
183.077767
 20
252.517024
 11
183.227767
 21
252.520712
  0
LINE
  8
CSLAYER1
  6
CONTINUOUS
 62
     3
 10
183.227767
 20
252.520712
 11
183.377767
 21
252.517024
  0
LINE
  8
CSLAYER1
  6
CONTINUOUS
 62
     3
 10
183.377767
 20
252.517024
 11
183.527767
 21
252.506212
  0
LINE
  8
CSLAYER1
  6
CONTINUOUS
 62
     3
 10
183.527767
 20
252.506212
 11
183.677767
 21
252.488649
  0
LINE
  8
CSLAYER1
  6
CONTINUOUS
 62
     3
 10
183.677767
 20
252.488649
 11
183.827767
 21
252.464712
  0
LINE
  8
CSLAYER1
  6
CONTINUOUS
 62
     3
 10
183.827767
 20
252.464712
 11
183.977767
 21
252.434774
  0
LINE
  8
CSLAYER1
  6
CONTINUOUS
 62
     3
 10
183.977767
 20
252.434774
 11
184.127767
 21
252.399212
  0
LINE
  8
CSLAYER1
  6
CONTINUOUS
 62
     3
 10
184.127767
 20
252.399212
 11
184.277767
 21
252.358399
  0
LINE
  8
CSLAYER1
  6
CONTINUOUS
 62
     3
 10
184.277767
 20
252.358399
 11
184.427767
 21
252.312712
  0
LINE
  8
CSLAYER1
  6
CONTINUOUS
 62
     3
 10
184.427767
 20
252.312712
 11
184.577767
 21
252.262524
  0
LINE
  8
CSLAYER1
  6
CONTINUOUS
 62
     3
 10
184.577767
 20
252.262524
 11
184.727767
 21
252.208212
  0
LINE
  8
CSLAYER1
  6
CONTINUOUS
 62
     3
 10
184.727767
 20
252.208212
 11
184.877767
 21
252.150149
  0
LINE
  8
CSLAYER1
  6
CONTINUOUS
 62
     3
 10
184.877767
 20
252.150149
 11
185.027767
 21
252.088712
  0
LINE
  8
CSLAYER1
  6
CONTINUOUS
 62
     3
 10
185.027767
 20
252.088712
 11
185.177767
 21
252.024274
  0
LINE
  8
CSLAYER1
  6
CONTINUOUS
 62
     3
 10
185.177767
 20
252.024274
 11
185.327767
 21
251.957212
  0
LINE
  8
CSLAYER1
  6
CONTINUOUS
 62
     3
 10
185.327767
 20
251.957212
 11
185.477767
 21
251.887899
  0
LINE
  8
CSLAYER1
  6
CONTINUOUS
 62
     3
 10
185.477767
 20
251.887899
 11
185.627767
 21
251.816712
  0
LINE
  8
CSLAYER1
  6
CONTINUOUS
 62
     3
 10
185.627767
 20
251.816712
 11
185.777767
 21
251.744024
  0
LINE
  8
CSLAYER1
  6
CONTINUOUS
 62
     3
 10
185.777767
 20
251.744024
 11
185.927767
 21
251.670212
  0
LINE
  8
CSLAYER1
  6
CONTINUOUS
 62
     3
 10
185.927767
 20
251.670212
 11
186.077767
 21
251.595649
  0
LINE
  8
CSLAYER1
  6
CONTINUOUS
 62
     3
 10
186.077767
 20
251.595649
 11
186.227767
 21
251.520712
  0
LINE
  8
CSLAYER1
  6
CONTINUOUS
 62
     3
 10
192.227767
 20
251.520712
 11
192.077767
 21
251.445774
  0
LINE
  8
CSLAYER1
  6
CONTINUOUS
 62
     3
 10
192.077767
 20
251.445774
 11
191.927767
 21
251.371212
  0
LINE
  8
CSLAYER1
  6
CONTINUOUS
 62
     3
 10
191.927767
 20
251.371212
 11
191.777767
 21
251.297399
  0
LINE
  8
CSLAYER1
  6
CONTINUOUS
 62
     3
 10
191.777767
 20
251.297399
 11
191.627767
 21
251.224712
  0
LINE
  8
CSLAYER1
  6
CONTINUOUS
 62
     3
 10
191.627767
 20
251.224712
 11
191.477767
 21
251.153524
  0
LINE
  8
CSLAYER1
  6
CONTINUOUS
 62
     3
 10
191.477767
 20
251.153524
 11
191.327767
 21
251.084212
  0
LINE
  8
CSLAYER1
  6
CONTINUOUS
 62
     3
 10
191.327767
 20
251.084212
 11
191.177767
 21
251.017149
  0
LINE
  8
CSLAYER1
  6
CONTINUOUS
 62
     3
 10
191.177767
 20
251.017149
 11
191.027767
 21
250.952712
  0
LINE
  8
CSLAYER1
  6
CONTINUOUS
 62
     3
 10
191.027767
 20
250.952712
 11
190.877767
 21
250.891274
  0
LINE
  8
CSLAYER1
  6
CONTINUOUS
 62
     3
 10
190.877767
 20
250.891274
 11
190.727767
 21
250.833212
  0
LINE
  8
CSLAYER1
  6
CONTINUOUS
 62
     3
 10
190.727767
 20
250.833212
 11
190.577767
 21
250.778899
  0
LINE
  8
CSLAYER1
  6
CONTINUOUS
 62
     3
 10
190.577767
 20
250.778899
 11
190.427767
 21
250.728712
  0
LINE
  8
CSLAYER1
  6
CONTINUOUS
 62
     3
 10
190.427767
 20
250.728712
 11
190.277767
 21
250.683024
  0
LINE
  8
CSLAYER1
  6
CONTINUOUS
 62
     3
 10
190.277767
 20
250.683024
 11
190.127767
 21
250.642212
  0
LINE
  8
CSLAYER1
  6
CONTINUOUS
 62
     3
 10
190.127767
 20
250.642212
 11
189.977767
 21
250.606649
  0
LINE
  8
CSLAYER1
  6
CONTINUOUS
 62
     3
 10
189.977767
 20
250.606649
 11
189.827767
 21
250.576712
  0
LINE
  8
CSLAYER1
  6
CONTINUOUS
 62
     3
 10
189.827767
 20
250.576712
 11
189.677767
 21
250.552774
  0
LINE
  8
CSLAYER1
  6
CONTINUOUS
 62
     3
 10
189.677767
 20
250.552774
 11
189.527767
 21
250.535212
  0
LINE
  8
CSLAYER1
  6
CONTINUOUS
 62
     3
 10
189.527767
 20
250.535212
 11
189.377767
 21
250.524399
  0
LINE
  8
CSLAYER1
  6
CONTINUOUS
 62
     3
 10
189.377767
 20
250.524399
 11
189.227767
 21
250.520712
  0
LINE
  8
CSLAYER1
  6
CONTINUOUS
 62
     3
 10
189.227767
 20
250.520712
 11
189.077767
 21
250.524399
  0
LINE
  8
CSLAYER1
  6
CONTINUOUS
 62
     3
 10
189.077767
 20
250.524399
 11
188.927767
 21
250.535212
  0
LINE
  8
CSLAYER1
  6
CONTINUOUS
 62
     3
 10
188.927767
 20
250.535212
 11
188.777767
 21
250.552774
  0
LINE
  8
CSLAYER1
  6
CONTINUOUS
 62
     3
 10
188.777767
 20
250.552774
 11
188.627767
 21
250.576712
  0
LINE
  8
CSLAYER1
  6
CONTINUOUS
 62
     3
 10
188.627767
 20
250.576712
 11
188.477767
 21
250.606649
  0
LINE
  8
CSLAYER1
  6
CONTINUOUS
 62
     3
 10
188.477767
 20
250.606649
 11
188.327767
 21
250.642212
  0
LINE
  8
CSLAYER1
  6
CONTINUOUS
 62
     3
 10
188.327767
 20
250.642212
 11
188.177767
 21
250.683024
  0
LINE
  8
CSLAYER1
  6
CONTINUOUS
 62
     3
 10
188.177767
 20
250.683024
 11
188.027767
 21
250.728712
  0
LINE
  8
CSLAYER1
  6
CONTINUOUS
 62
     3
 10
188.027767
 20
250.728712
 11
187.877767
 21
250.778899
  0
LINE
  8
CSLAYER1
  6
CONTINUOUS
 62
     3
 10
187.877767
 20
250.778899
 11
187.727767
 21
250.833212
  0
LINE
  8
CSLAYER1
  6
CONTINUOUS
 62
     3
 10
187.727767
 20
250.833212
 11
187.577767
 21
250.891274
  0
LINE
  8
CSLAYER1
  6
CONTINUOUS
 62
     3
 10
187.577767
 20
250.891274
 11
187.427767
 21
250.952712
  0
LINE
  8
CSLAYER1
  6
CONTINUOUS
 62
     3
 10
187.427767
 20
250.952712
 11
187.277767
 21
251.017149
  0
LINE
  8
CSLAYER1
  6
CONTINUOUS
 62
     3
 10
187.277767
 20
251.017149
 11
187.127767
 21
251.084212
  0
LINE
  8
CSLAYER1
  6
CONTINUOUS
 62
     3
 10
187.127767
 20
251.084212
 11
186.977767
 21
251.153524
  0
LINE
  8
CSLAYER1
  6
CONTINUOUS
 62
     3
 10
186.977767
 20
251.153524
 11
186.827767
 21
251.224712
  0
LINE
  8
CSLAYER1
  6
CONTINUOUS
 62
     3
 10
186.827767
 20
251.224712
 11
186.677767
 21
251.297399
  0
LINE
  8
CSLAYER1
  6
CONTINUOUS
 62
     3
 10
186.677767
 20
251.297399
 11
186.527767
 21
251.371212
  0
LINE
  8
CSLAYER1
  6
CONTINUOUS
 62
     3
 10
186.527767
 20
251.371212
 11
186.377767
 21
251.445774
  0
LINE
  8
CSLAYER1
  6
CONTINUOUS
 62
     3
 10
186.377767
 20
251.445774
 11
186.227767
 21
251.520712
  0
LINE
  8
CSLAYER1
  6
CONTINUOUS
 62
     6
 10
217.227767
 20
212.270712
 11
307.227767
 21
212.270712
  0
LINE
  8
CSLAYER1
  6
CONTINUOUS
 62
     6
 10
217.227767
 20
193.270712
 11
307.227767
 21
193.270712
  0
LINE
  8
CSLAYER1
  6
CONTINUOUS
 62
     6
 10
307.227767
 20
212.270712
 11
307.227767
 21
193.270712
  0
LINE
  8
CSLAYER1
  6
CONTINUOUS
 62
     6
 10
217.227767
 20
212.270712
 11
217.227767
 21
193.270712
  0
CIRCLE
  8
CSLAYER1
  6
CONTINUOUS
 62
     6
 10
376.227767
 20
53.020712
 40
2.250000
  0
LINE
  8
CSLAYER1
  6
CENTER
 62
     3
 10
376.227767
 20
58.484997
 11
376.227767
 21
47.556426
  0
LINE
  8
CSLAYER1
  6
CENTER
 62
     3
 10
370.763481
 20
53.020712
 11
381.692052
 21
53.020712
  0
CIRCLE
  8
CSLAYER1
  6
CONTINUOUS
 62
     6
 10
146.227767
 20
88.020712
 40
2.250000
  0
LINE
  8
CSLAYER1
  6
CENTER
 62
     3
 10
146.227767
 20
93.484997
 11
146.227767
 21
82.556426
  0
LINE
  8
CSLAYER1
  6
CENTER
 62
     3
 10
140.763481
 20
88.020712
 11
151.692052
 21
88.020712
  0
CIRCLE
  8
CSLAYER1
  6
CONTINUOUS
 62
     6
 10
146.227767
 20
53.020712
 40
2.250000
  0
LINE
  8
CSLAYER1
  6
CENTER
 62
     3
 10
146.227767
 20
58.484997
 11
146.227767
 21
47.556426
  0
LINE
  8
CSLAYER1
  6
CENTER
 62
     3
 10
140.763481
 20
53.020712
 11
151.692052
 21
53.020712
  0
LINE
  8
CSLAYER1
  6
CENTER
 62
     3
 10
361.477772
 20
138.020712
 11
381.692052
 21
138.020712
  0
LINE
  8
CSLAYER1
  6
CENTER
 62
     3
 10
366.227767
 20
142.770717
 11
366.227767
 21
133.270706
  0
CIRCLE
  8
CSLAYER1
  6
CONTINUOUS
 62
     6
 10
366.227772
 20
138.020721
 40
2.250000
  0
ARC
  8
CSLAYER1
  6
CONTINUOUS
 62
     6
 10
366.227764
 20
138.020722
 40
1.250000
 50
163.398416
 51
196.601577
  0
ARC
  8
CSLAYER1
  6
CONTINUOUS
 62
     6
 10
366.227764
 20
138.020722
 40
1.250000
 50
253.398422
 51
286.601583
  0
ARC
  8
CSLAYER1
  6
CONTINUOUS
 62
     6
 10
366.227764
 20
138.020722
 40
1.250000
 50
-16.601562
 51
16.601572
  0
ARC
  8
CSLAYER1
  6
CONTINUOUS
 62
     6
 10
366.227764
 20
138.020722
 40
1.250000
 50
73.398406
 51
106.601595
  0
LINE
  8
CSLAYER1
  6
CONTINUOUS
 62
     6
 10
366.942058
 20
137.663575
 11
367.425652
 21
137.663575
  0
LINE
  8
CSLAYER1
  6
CONTINUOUS
 62
     6
 10
365.513469
 20
137.663575
 11
365.029876
 21
137.663575
  0
LINE
  8
CSLAYER1
  6
CONTINUOUS
 62
     6
 10
366.942058
 20
138.377869
 11
367.425652
 21
138.377869
  0
LINE
  8
CSLAYER1
  6
CONTINUOUS
 62
     6
 10
365.513469
 20
138.377869
 11
365.029876
 21
138.377869
  0
LINE
  8
CSLAYER1
  6
CONTINUOUS
 62
     6
 10
365.870616
 20
137.306446
 11
365.870616
 21
136.822815
  0
LINE
  8
CSLAYER1
  6
CONTINUOUS
 62
     6
 10
365.870616
 20
138.734998
 11
365.870616
 21
139.218628
  0
LINE
  8
CSLAYER1
  6
CONTINUOUS
 62
     6
 10
366.584911
 20
137.306446
 11
366.584911
 21
136.822815
  0
LINE
  8
CSLAYER1
  6
CONTINUOUS
 62
     6
 10
366.584911
 20
138.734998
 11
366.584911
 21
139.218628
  0
ARC
  8
CSLAYER1
  6
CONTINUOUS
 62
     6
 10
366.942058
 20
137.306446
 40
0.357143
 50
90.000001
 51
179.942691
  0
ARC
  8
CSLAYER1
  6
CONTINUOUS
 62
     6
 10
366.942058
 20
138.734998
 40
0.357143
 50
180.000010
 51
270.000016
  0
ARC
  8
CSLAYER1
  6
CONTINUOUS
 62
     6
 10
365.513469
 20
138.734998
 40
0.357143
 50
-89.999984
 51
0.000005
  0
ARC
  8
CSLAYER1
  6
CONTINUOUS
 62
     6
 10
365.513469
 20
137.306446
 40
0.357143
 50
0.000005
 51
89.942654
  0
LINE
  8
CSLAYER1
  6
CENTER
 62
     3
 10
160.977761
 20
258.020712
 11
140.763481
 21
258.020712
  0
LINE
  8
CSLAYER1
  6
CENTER
 62
     3
 10
156.227767
 20
253.270706
 11
156.227767
 21
262.770717
  0
CIRCLE
  8
CSLAYER1
  6
CONTINUOUS
 62
     6
 10
156.227761
 20
258.020702
 40
2.250000
  0
ARC
  8
CSLAYER1
  6
CONTINUOUS
 62
     6
 10
156.227769
 20
258.020702
 40
1.250000
 50
-16.601584
 51
16.601577
  0
ARC
  8
CSLAYER1
  6
CONTINUOUS
 62
     6
 10
156.227769
 20
258.020702
 40
1.250000
 50
73.398422
 51
106.601583
  0
ARC
  8
CSLAYER1
  6
CONTINUOUS
 62
     6
 10
156.227769
 20
258.020702
 40
1.250000
 50
163.398438
 51
196.601572
  0
ARC
  8
CSLAYER1
  6
CONTINUOUS
 62
     6
 10
156.227769
 20
258.020702
 40
1.250000
 50
253.398406
 51
286.601595
  0
LINE
  8
CSLAYER1
  6
CONTINUOUS
 62
     6
 10
155.513475
 20
258.377849
 11
155.029881
 21
258.377849
  0
LINE
  8
CSLAYER1
  6
CONTINUOUS
 62
     6
 10
156.942064
 20
258.377849
 11
157.425657
 21
258.377849
  0
LINE
  8
CSLAYER1
  6
CONTINUOUS
 62
     6
 10
155.513475
 20
257.663554
 11
155.029881
 21
257.663554
  0
LINE
  8
CSLAYER1
  6
CONTINUOUS
 62
     6
 10
156.942064
 20
257.663554
 11
157.425657
 21
257.663554
  0
LINE
  8
CSLAYER1
  6
CONTINUOUS
 62
     6
 10
156.584917
 20
258.734978
 11
156.584917
 21
259.218608
  0
LINE
  8
CSLAYER1
  6
CONTINUOUS
 62
     6
 10
156.584917
 20
257.306426
 11
156.584917
 21
256.822795
  0
LINE
  8
CSLAYER1
  6
CONTINUOUS
 62
     6
 10
155.870622
 20
258.734978
 11
155.870622
 21
259.218608
  0
LINE
  8
CSLAYER1
  6
CONTINUOUS
 62
     6
 10
155.870622
 20
257.306426
 11
155.870622
 21
256.822795
  0
ARC
  8
CSLAYER1
  6
CONTINUOUS
 62
     6
 10
155.513475
 20
258.734978
 40
0.357143
 50
270.000001
 51
359.942691
  0
ARC
  8
CSLAYER1
  6
CONTINUOUS
 62
     6
 10
155.513475
 20
257.306426
 40
0.357143
 50
0.000010
 51
90.000016
  0
ARC
  8
CSLAYER1
  6
CONTINUOUS
 62
     6
 10
156.942064
 20
257.306426
 40
0.357143
 50
90.000016
 51
180.000005
  0
ARC
  8
CSLAYER1
  6
CONTINUOUS
 62
     6
 10
156.942064
 20
258.734978
 40
0.357143
 50
180.000005
 51
269.942654
  0
LINE
  8
CSLAYER1
  6
CENTER
 62
     3
 10
160.977761
 20
138.020712
 11
140.763481
 21
138.020712
  0
LINE
  8
CSLAYER1
  6
CENTER
 62
     3
 10
156.227767
 20
133.270706
 11
156.227767
 21
142.770717
  0
CIRCLE
  8
CSLAYER1
  6
CONTINUOUS
 62
     6
 10
156.227761
 20
138.020702
 40
2.250000
  0
ARC
  8
CSLAYER1
  6
CONTINUOUS
 62
     6
 10
156.227769
 20
138.020702
 40
1.250000
 50
-16.601584
 51
16.601577
  0
ARC
  8
CSLAYER1
  6
CONTINUOUS
 62
     6
 10
156.227769
 20
138.020702
 40
1.250000
 50
73.398422
 51
106.601583
  0
ARC
  8
CSLAYER1
  6
CONTINUOUS
 62
     6
 10
156.227769
 20
138.020702
 40
1.250000
 50
163.398438
 51
196.601572
  0
ARC
  8
CSLAYER1
  6
CONTINUOUS
 62
     6
 10
156.227769
 20
138.020702
 40
1.250000
 50
253.398406
 51
286.601595
  0
LINE
  8
CSLAYER1
  6
CONTINUOUS
 62
     6
 10
155.513475
 20
138.377849
 11
155.029881
 21
138.377849
  0
LINE
  8
CSLAYER1
  6
CONTINUOUS
 62
     6
 10
156.942064
 20
138.377849
 11
157.425657
 21
138.377849
  0
LINE
  8
CSLAYER1
  6
CONTINUOUS
 62
     6
 10
155.513475
 20
137.663554
 11
155.029881
 21
137.663554
  0
LINE
  8
CSLAYER1
  6
CONTINUOUS
 62
     6
 10
156.942064
 20
137.663554
 11
157.425657
 21
137.663554
  0
LINE
  8
CSLAYER1
  6
CONTINUOUS
 62
     6
 10
156.584917
 20
138.734978
 11
156.584917
 21
139.218608
  0
LINE
  8
CSLAYER1
  6
CONTINUOUS
 62
     6
 10
156.584917
 20
137.306426
 11
156.584917
 21
136.822795
  0
LINE
  8
CSLAYER1
  6
CONTINUOUS
 62
     6
 10
155.870622
 20
138.734978
 11
155.870622
 21
139.218608
  0
LINE
  8
CSLAYER1
  6
CONTINUOUS
 62
     6
 10
155.870622
 20
137.306426
 11
155.870622
 21
136.822795
  0
ARC
  8
CSLAYER1
  6
CONTINUOUS
 62
     6
 10
155.513475
 20
138.734978
 40
0.357143
 50
270.000001
 51
359.942691
  0
ARC
  8
CSLAYER1
  6
CONTINUOUS
 62
     6
 10
155.513475
 20
137.306426
 40
0.357143
 50
0.000010
 51
90.000016
  0
ARC
  8
CSLAYER1
  6
CONTINUOUS
 62
     6
 10
156.942064
 20
137.306426
 40
0.357143
 50
90.000016
 51
180.000005
  0
ARC
  8
CSLAYER1
  6
CONTINUOUS
 62
     6
 10
156.942064
 20
138.734978
 40
0.357143
 50
180.000005
 51
269.942654
  0
ARC
  8
CSLAYER1
  6
CONTINUOUS
 62
     6
 10
55.227767
 20
132.020712
 40
1.000000
 50
180.000000
 51
270.000000
  0
LINE
  8
CSLAYER1
  6
CONTINUOUS
 62
     6
 10
293.227767
 20
255.270712
 11
338.227767
 21
255.270712
  0
LINE
  8
CSLAYER1
  6
CONTINUOUS
 62
     6
 10
293.227767
 20
240.270712
 11
338.227767
 21
240.270712
  0
LINE
  8
CSLAYER1
  6
CONTINUOUS
 62
     6
 10
338.227767
 20
255.270712
 11
338.227767
 21
240.270712
  0
LINE
  8
CSLAYER1
  6
CONTINUOUS
 62
     6
 10
293.227767
 20
255.270712
 11
293.227767
 21
240.270712
  0
TEXT
  8
CSLAYER1
 62
     3
 10
348.377716
 20
192.445709
 40
2.200000
 41
0.981818
  1
GA
 50
-90.000000
 51
0.000000
  7
FX_FONT
 72
     5
 11
348.377716
 21
188.845709
  0
LINE
  8
CSLAYER1
  6
CONTINUOUS
 62
     3
 10
348.227767
 20
192.770712
 11
348.227767
 21
188.520712
  0
LINE
  8
CSLAYER1
  6
CONTINUOUS
 62
     3
 10
350.727767
 20
192.770712
 11
350.727767
 21
188.520712
  0
LINE
  8
CSLAYER1
  6
CONTINUOUS
 62
     3
 10
350.727767
 20
192.770712
 11
348.227767
 21
192.770712
  0
LINE
  8
CSLAYER1
  6
CONTINUOUS
 62
     3
 10
350.727767
 20
188.520712
 11
348.227767
 21
188.520712
  0
LINE
  8
CSLAYER1
  6
CONTINUOUS
 62
     6
 10
158.227767
 20
244.020712
 11
158.227767
 21
196.020712
  0
LINE
  8
CSLAYER1
  6
CONTINUOUS
 62
     6
 10
174.227767
 20
244.020712
 11
174.227767
 21
196.020712
  0
LINE
  8
CSLAYER1
  6
CONTINUOUS
 62
     6
 10
174.227767
 20
244.020712
 11
158.227767
 21
244.020712
  0
LINE
  8
CSLAYER1
  6
CONTINUOUS
 62
     6
 10
174.227767
 20
242.520712
 11
158.227767
 21
242.520712
  0
LINE
  8
CSLAYER1
  6
CONTINUOUS
 62
     3
 10
160.227767
 20
242.520712
 11
160.227767
 21
232.395712
  0
LINE
  8
CSLAYER1
  6
CONTINUOUS
 62
     3
 10
172.227767
 20
242.520712
 11
172.227767
 21
232.395712
  0
POINT
  8
CSLAYER1
 62
     3
 10
166.227771
 20
237.458220
  0
LINE
  8
CSLAYER1
  6
CONTINUOUS
 62
     6
 10
162.227767
 20
241.520712
 11
162.227767
 21
233.395729
  0
LINE
  8
CSLAYER1
  6
CONTINUOUS
 62
     6
 10
162.227767
 20
241.520712
 11
170.227776
 21
241.520712
  0
LINE
  8
CSLAYER1
  6
CONTINUOUS
 62
     6
 10
162.227767
 20
233.395729
 11
170.227776
 21
233.395729
  0
LINE
  8
CSLAYER1
  6
CONTINUOUS
 62
     6
 10
161.227767
 20
240.520712
 11
161.227767
 21
234.395729
  0
LINE
  8
CSLAYER1
  6
CONTINUOUS
 62
     6
 10
162.227767
 20
240.520712
 11
161.227767
 21
240.520712
  0
LINE
  8
CSLAYER1
  6
CONTINUOUS
 62
     6
 10
162.227767
 20
234.395729
 11
161.227767
 21
234.395729
  0
LINE
  8
CSLAYER1
  6
CONTINUOUS
 62
     6
 10
174.227767
 20
230.895712
 11
158.227767
 21
230.895712
  0
LINE
  8
CSLAYER1
  6
CONTINUOUS
 62
     6
 10
174.227767
 20
232.395712
 11
158.227767
 21
232.395712
  0
LINE
  8
CSLAYER1
  6
CONTINUOUS
 62
     6
 10
174.227767
 20
196.020712
 11
158.227767
 21
196.020712
  0
CIRCLE
  8
CSLAYER1
  6
CONTINUOUS
 62
     6
 10
166.227779
 20
237.458234
 40
3.500000
  0
ARC
  8
CSLAYER1
  6
CONTINUOUS
 62
     6
 10
166.227766
 20
237.458234
 40
1.944444
 50
163.398416
 51
196.601577
  0
ARC
  8
CSLAYER1
  6
CONTINUOUS
 62
     6
 10
166.227766
 20
237.458234
 40
1.944444
 50
253.398422
 51
286.601583
  0
ARC
  8
CSLAYER1
  6
CONTINUOUS
 62
     6
 10
166.227766
 20
237.458234
 40
1.944444
 50
-16.601562
 51
16.601572
  0
ARC
  8
CSLAYER1
  6
CONTINUOUS
 62
     6
 10
166.227766
 20
237.458234
 40
1.944444
 50
73.398406
 51
106.601595
  0
LINE
  8
CSLAYER1
  6
CONTINUOUS
 62
     6
 10
167.338891
 20
236.902672
 11
168.091147
 21
236.902672
  0
LINE
  8
CSLAYER1
  6
CONTINUOUS
 62
     6
 10
165.116641
 20
236.902672
 11
164.364385
 21
236.902672
  0
LINE
  8
CSLAYER1
  6
CONTINUOUS
 62
     6
 10
167.338891
 20
238.013797
 11
168.091147
 21
238.013797
  0
LINE
  8
CSLAYER1
  6
CONTINUOUS
 62
     6
 10
165.116641
 20
238.013797
 11
164.364385
 21
238.013797
  0
LINE
  8
CSLAYER1
  6
CONTINUOUS
 62
     6
 10
165.672204
 20
236.347139
 11
165.672204
 21
235.594824
  0
LINE
  8
CSLAYER1
  6
CONTINUOUS
 62
     6
 10
165.672204
 20
238.569330
 11
165.672204
 21
239.321645
  0
LINE
  8
CSLAYER1
  6
CONTINUOUS
 62
     6
 10
166.783328
 20
236.347139
 11
166.783328
 21
235.594824
  0
LINE
  8
CSLAYER1
  6
CONTINUOUS
 62
     6
 10
166.783328
 20
238.569330
 11
166.783328
 21
239.321645
  0
ARC
  8
CSLAYER1
  6
CONTINUOUS
 62
     6
 10
167.338891
 20
236.347139
 40
0.555556
 50
90.000001
 51
179.942691
  0
ARC
  8
CSLAYER1
  6
CONTINUOUS
 62
     6
 10
167.338891
 20
238.569330
 40
0.555556
 50
180.000010
 51
270.000016
  0
ARC
  8
CSLAYER1
  6
CONTINUOUS
 62
     6
 10
165.116641
 20
238.569330
 40
0.555556
 50
-89.999984
 51
0.000005
  0
ARC
  8
CSLAYER1
  6
CONTINUOUS
 62
     6
 10
165.116641
 20
236.347139
 40
0.555556
 50
0.000005
 51
89.942654
  0
LINE
  8
CSLAYER1
  6
CONTINUOUS
 62
     6
 10
174.227767
 20
197.520712
 11
158.227767
 21
197.520712
  0
LINE
  8
CSLAYER1
  6
CONTINUOUS
 62
     6
 10
174.227767
 20
219.270712
 11
158.227767
 21
219.270712
  0
LINE
  8
CSLAYER1
  6
CONTINUOUS
 62
     6
 10
174.227767
 20
220.770712
 11
158.227767
 21
220.770712
  0
LINE
  8
CSLAYER1
  6
CONTINUOUS
 62
     6
 10
174.227767
 20
209.145712
 11
158.227767
 21
209.145712
  0
LINE
  8
CSLAYER1
  6
CONTINUOUS
 62
     6
 10
174.227767
 20
207.645712
 11
158.227767
 21
207.645712
  0
LINE
  8
CSLAYER1
  6
CONTINUOUS
 62
     6
 10
170.227776
 20
241.520712
 11
170.227776
 21
233.395729
  0
LINE
  8
CSLAYER1
  6
CONTINUOUS
 62
     6
 10
171.227776
 20
240.520712
 11
171.227776
 21
234.395729
  0
LINE
  8
CSLAYER1
  6
CONTINUOUS
 62
     6
 10
170.227776
 20
240.520712
 11
171.227776
 21
240.520712
  0
LINE
  8
CSLAYER1
  6
CONTINUOUS
 62
     6
 10
170.227776
 20
234.395729
 11
171.227776
 21
234.395729
  0
LINE
  8
CSLAYER1
  6
CONTINUOUS
 62
     3
 10
160.227767
 20
230.895712
 11
160.227767
 21
220.770712
  0
LINE
  8
CSLAYER1
  6
CONTINUOUS
 62
     3
 10
172.227767
 20
230.895712
 11
172.227767
 21
220.770712
  0
POINT
  8
CSLAYER1
 62
     3
 10
166.227771
 20
225.833220
  0
LINE
  8
CSLAYER1
  6
CONTINUOUS
 62
     6
 10
162.227767
 20
229.895712
 11
162.227767
 21
221.770729
  0
LINE
  8
CSLAYER1
  6
CONTINUOUS
 62
     6
 10
162.227767
 20
229.895712
 11
170.227776
 21
229.895712
  0
LINE
  8
CSLAYER1
  6
CONTINUOUS
 62
     6
 10
162.227767
 20
221.770729
 11
170.227776
 21
221.770729
  0
LINE
  8
CSLAYER1
  6
CONTINUOUS
 62
     6
 10
161.227767
 20
228.895712
 11
161.227767
 21
222.770729
  0
LINE
  8
CSLAYER1
  6
CONTINUOUS
 62
     6
 10
162.227767
 20
228.895712
 11
161.227767
 21
228.895712
  0
LINE
  8
CSLAYER1
  6
CONTINUOUS
 62
     6
 10
162.227767
 20
222.770729
 11
161.227767
 21
222.770729
  0
CIRCLE
  8
CSLAYER1
  6
CONTINUOUS
 62
     6
 10
166.227779
 20
225.833234
 40
3.500000
  0
ARC
  8
CSLAYER1
  6
CONTINUOUS
 62
     6
 10
166.227766
 20
225.833234
 40
1.944444
 50
163.398416
 51
196.601577
  0
ARC
  8
CSLAYER1
  6
CONTINUOUS
 62
     6
 10
166.227766
 20
225.833234
 40
1.944444
 50
253.398422
 51
286.601583
  0
ARC
  8
CSLAYER1
  6
CONTINUOUS
 62
     6
 10
166.227766
 20
225.833234
 40
1.944444
 50
-16.601562
 51
16.601572
  0
ARC
  8
CSLAYER1
  6
CONTINUOUS
 62
     6
 10
166.227766
 20
225.833234
 40
1.944444
 50
73.398406
 51
106.601595
  0
LINE
  8
CSLAYER1
  6
CONTINUOUS
 62
     6
 10
167.338891
 20
225.277672
 11
168.091147
 21
225.277672
  0
LINE
  8
CSLAYER1
  6
CONTINUOUS
 62
     6
 10
165.116641
 20
225.277672
 11
164.364385
 21
225.277672
  0
LINE
  8
CSLAYER1
  6
CONTINUOUS
 62
     6
 10
167.338891
 20
226.388797
 11
168.091147
 21
226.388797
  0
LINE
  8
CSLAYER1
  6
CONTINUOUS
 62
     6
 10
165.116641
 20
226.388797
 11
164.364385
 21
226.388797
  0
LINE
  8
CSLAYER1
  6
CONTINUOUS
 62
     6
 10
165.672204
 20
224.722139
 11
165.672204
 21
223.969824
  0
LINE
  8
CSLAYER1
  6
CONTINUOUS
 62
     6
 10
165.672204
 20
226.944330
 11
165.672204
 21
227.696645
  0
LINE
  8
CSLAYER1
  6
CONTINUOUS
 62
     6
 10
166.783328
 20
224.722139
 11
166.783328
 21
223.969824
  0
LINE
  8
CSLAYER1
  6
CONTINUOUS
 62
     6
 10
166.783328
 20
226.944330
 11
166.783328
 21
227.696645
  0
ARC
  8
CSLAYER1
  6
CONTINUOUS
 62
     6
 10
167.338891
 20
224.722139
 40
0.555556
 50
90.000001
 51
179.942691
  0
ARC
  8
CSLAYER1
  6
CONTINUOUS
 62
     6
 10
167.338891
 20
226.944330
 40
0.555556
 50
180.000010
 51
270.000016
  0
ARC
  8
CSLAYER1
  6
CONTINUOUS
 62
     6
 10
165.116641
 20
226.944330
 40
0.555556
 50
-89.999984
 51
0.000005
  0
ARC
  8
CSLAYER1
  6
CONTINUOUS
 62
     6
 10
165.116641
 20
224.722139
 40
0.555556
 50
0.000005
 51
89.942654
  0
LINE
  8
CSLAYER1
  6
CONTINUOUS
 62
     6
 10
170.227776
 20
229.895712
 11
170.227776
 21
221.770729
  0
LINE
  8
CSLAYER1
  6
CONTINUOUS
 62
     6
 10
171.227776
 20
228.895712
 11
171.227776
 21
222.770729
  0
LINE
  8
CSLAYER1
  6
CONTINUOUS
 62
     6
 10
170.227776
 20
228.895712
 11
171.227776
 21
228.895712
  0
LINE
  8
CSLAYER1
  6
CONTINUOUS
 62
     6
 10
170.227776
 20
222.770729
 11
171.227776
 21
222.770729
  0
LINE
  8
CSLAYER1
  6
CONTINUOUS
 62
     3
 10
160.227767
 20
219.270712
 11
160.227767
 21
209.145712
  0
LINE
  8
CSLAYER1
  6
CONTINUOUS
 62
     3
 10
172.227767
 20
219.270712
 11
172.227767
 21
209.145712
  0
POINT
  8
CSLAYER1
 62
     3
 10
166.227771
 20
214.208220
  0
LINE
  8
CSLAYER1
  6
CONTINUOUS
 62
     6
 10
162.227767
 20
218.270712
 11
162.227767
 21
210.145729
  0
LINE
  8
CSLAYER1
  6
CONTINUOUS
 62
     6
 10
162.227767
 20
218.270712
 11
170.227776
 21
218.270712
  0
LINE
  8
CSLAYER1
  6
CONTINUOUS
 62
     6
 10
162.227767
 20
210.145729
 11
170.227776
 21
210.145729
  0
LINE
  8
CSLAYER1
  6
CONTINUOUS
 62
     6
 10
161.227767
 20
217.270712
 11
161.227767
 21
211.145729
  0
LINE
  8
CSLAYER1
  6
CONTINUOUS
 62
     6
 10
162.227767
 20
217.270712
 11
161.227767
 21
217.270712
  0
LINE
  8
CSLAYER1
  6
CONTINUOUS
 62
     6
 10
162.227767
 20
211.145729
 11
161.227767
 21
211.145729
  0
CIRCLE
  8
CSLAYER1
  6
CONTINUOUS
 62
     6
 10
166.227779
 20
214.208234
 40
3.500000
  0
ARC
  8
CSLAYER1
  6
CONTINUOUS
 62
     6
 10
166.227766
 20
214.208234
 40
1.944444
 50
163.398416
 51
196.601577
  0
ARC
  8
CSLAYER1
  6
CONTINUOUS
 62
     6
 10
166.227766
 20
214.208234
 40
1.944444
 50
253.398422
 51
286.601583
  0
ARC
  8
CSLAYER1
  6
CONTINUOUS
 62
     6
 10
166.227766
 20
214.208234
 40
1.944444
 50
-16.601562
 51
16.601572
  0
ARC
  8
CSLAYER1
  6
CONTINUOUS
 62
     6
 10
166.227766
 20
214.208234
 40
1.944444
 50
73.398406
 51
106.601595
  0
LINE
  8
CSLAYER1
  6
CONTINUOUS
 62
     6
 10
167.338891
 20
213.652672
 11
168.091147
 21
213.652672
  0
LINE
  8
CSLAYER1
  6
CONTINUOUS
 62
     6
 10
165.116641
 20
213.652672
 11
164.364385
 21
213.652672
  0
LINE
  8
CSLAYER1
  6
CONTINUOUS
 62
     6
 10
167.338891
 20
214.763797
 11
168.091147
 21
214.763797
  0
LINE
  8
CSLAYER1
  6
CONTINUOUS
 62
     6
 10
165.116641
 20
214.763797
 11
164.364385
 21
214.763797
  0
LINE
  8
CSLAYER1
  6
CONTINUOUS
 62
     6
 10
165.672204
 20
213.097139
 11
165.672204
 21
212.344824
  0
LINE
  8
CSLAYER1
  6
CONTINUOUS
 62
     6
 10
165.672204
 20
215.319330
 11
165.672204
 21
216.071645
  0
LINE
  8
CSLAYER1
  6
CONTINUOUS
 62
     6
 10
166.783328
 20
213.097139
 11
166.783328
 21
212.344824
  0
LINE
  8
CSLAYER1
  6
CONTINUOUS
 62
     6
 10
166.783328
 20
215.319330
 11
166.783328
 21
216.071645
  0
ARC
  8
CSLAYER1
  6
CONTINUOUS
 62
     6
 10
167.338891
 20
213.097139
 40
0.555556
 50
90.000001
 51
179.942691
  0
ARC
  8
CSLAYER1
  6
CONTINUOUS
 62
     6
 10
167.338891
 20
215.319330
 40
0.555556
 50
180.000010
 51
270.000016
  0
ARC
  8
CSLAYER1
  6
CONTINUOUS
 62
     6
 10
165.116641
 20
215.319330
 40
0.555556
 50
-89.999984
 51
0.000005
  0
ARC
  8
CSLAYER1
  6
CONTINUOUS
 62
     6
 10
165.116641
 20
213.097139
 40
0.555556
 50
0.000005
 51
89.942654
  0
LINE
  8
CSLAYER1
  6
CONTINUOUS
 62
     6
 10
170.227776
 20
218.270712
 11
170.227776
 21
210.145729
  0
LINE
  8
CSLAYER1
  6
CONTINUOUS
 62
     6
 10
171.227776
 20
217.270712
 11
171.227776
 21
211.145729
  0
LINE
  8
CSLAYER1
  6
CONTINUOUS
 62
     6
 10
170.227776
 20
217.270712
 11
171.227776
 21
217.270712
  0
LINE
  8
CSLAYER1
  6
CONTINUOUS
 62
     6
 10
170.227776
 20
211.145729
 11
171.227776
 21
211.145729
  0
LINE
  8
CSLAYER1
  6
CONTINUOUS
 62
     3
 10
160.227767
 20
207.645712
 11
160.227767
 21
197.520712
  0
LINE
  8
CSLAYER1
  6
CONTINUOUS
 62
     3
 10
172.227767
 20
207.645712
 11
172.227767
 21
197.520712
  0
POINT
  8
CSLAYER1
 62
     3
 10
166.227771
 20
202.583220
  0
LINE
  8
CSLAYER1
  6
CONTINUOUS
 62
     6
 10
162.227767
 20
206.645712
 11
162.227767
 21
198.520729
  0
LINE
  8
CSLAYER1
  6
CONTINUOUS
 62
     6
 10
162.227767
 20
206.645712
 11
170.227776
 21
206.645712
  0
LINE
  8
CSLAYER1
  6
CONTINUOUS
 62
     6
 10
162.227767
 20
198.520729
 11
170.227776
 21
198.520729
  0
LINE
  8
CSLAYER1
  6
CONTINUOUS
 62
     6
 10
161.227767
 20
205.645712
 11
161.227767
 21
199.520729
  0
LINE
  8
CSLAYER1
  6
CONTINUOUS
 62
     6
 10
162.227767
 20
205.645712
 11
161.227767
 21
205.645712
  0
LINE
  8
CSLAYER1
  6
CONTINUOUS
 62
     6
 10
162.227767
 20
199.520729
 11
161.227767
 21
199.520729
  0
CIRCLE
  8
CSLAYER1
  6
CONTINUOUS
 62
     6
 10
166.227779
 20
202.583234
 40
3.500000
  0
ARC
  8
CSLAYER1
  6
CONTINUOUS
 62
     6
 10
166.227766
 20
202.583234
 40
1.944444
 50
163.398416
 51
196.601577
  0
ARC
  8
CSLAYER1
  6
CONTINUOUS
 62
     6
 10
166.227766
 20
202.583234
 40
1.944444
 50
253.398422
 51
286.601583
  0
ARC
  8
CSLAYER1
  6
CONTINUOUS
 62
     6
 10
166.227766
 20
202.583234
 40
1.944444
 50
-16.601562
 51
16.601572
  0
ARC
  8
CSLAYER1
  6
CONTINUOUS
 62
     6
 10
166.227766
 20
202.583234
 40
1.944444
 50
73.398406
 51
106.601595
  0
LINE
  8
CSLAYER1
  6
CONTINUOUS
 62
     6
 10
167.338891
 20
202.027672
 11
168.091147
 21
202.027672
  0
LINE
  8
CSLAYER1
  6
CONTINUOUS
 62
     6
 10
165.116641
 20
202.027672
 11
164.364385
 21
202.027672
  0
LINE
  8
CSLAYER1
  6
CONTINUOUS
 62
     6
 10
167.338891
 20
203.138797
 11
168.091147
 21
203.138797
  0
LINE
  8
CSLAYER1
  6
CONTINUOUS
 62
     6
 10
165.116641
 20
203.138797
 11
164.364385
 21
203.138797
  0
LINE
  8
CSLAYER1
  6
CONTINUOUS
 62
     6
 10
165.672204
 20
201.472139
 11
165.672204
 21
200.719824
  0
LINE
  8
CSLAYER1
  6
CONTINUOUS
 62
     6
 10
165.672204
 20
203.694330
 11
165.672204
 21
204.446645
  0
LINE
  8
CSLAYER1
  6
CONTINUOUS
 62
     6
 10
166.783328
 20
201.472139
 11
166.783328
 21
200.719824
  0
LINE
  8
CSLAYER1
  6
CONTINUOUS
 62
     6
 10
166.783328
 20
203.694330
 11
166.783328
 21
204.446645
  0
ARC
  8
CSLAYER1
  6
CONTINUOUS
 62
     6
 10
167.338891
 20
201.472139
 40
0.555556
 50
90.000001
 51
179.942691
  0
ARC
  8
CSLAYER1
  6
CONTINUOUS
 62
     6
 10
167.338891
 20
203.694330
 40
0.555556
 50
180.000010
 51
270.000016
  0
ARC
  8
CSLAYER1
  6
CONTINUOUS
 62
     6
 10
165.116641
 20
203.694330
 40
0.555556
 50
-89.999984
 51
0.000005
  0
ARC
  8
CSLAYER1
  6
CONTINUOUS
 62
     6
 10
165.116641
 20
201.472139
 40
0.555556
 50
0.000005
 51
89.942654
  0
LINE
  8
CSLAYER1
  6
CONTINUOUS
 62
     6
 10
170.227776
 20
206.645712
 11
170.227776
 21
198.520729
  0
LINE
  8
CSLAYER1
  6
CONTINUOUS
 62
     6
 10
171.227776
 20
205.645712
 11
171.227776
 21
199.520729
  0
LINE
  8
CSLAYER1
  6
CONTINUOUS
 62
     6
 10
170.227776
 20
205.645712
 11
171.227776
 21
205.645712
  0
LINE
  8
CSLAYER1
  6
CONTINUOUS
 62
     6
 10
170.227776
 20
199.520729
 11
171.227776
 21
199.520729
  0
LINE
  8
CSLAYER1
  6
CONTINUOUS
 62
     6
 10
75.227767
 20
159.020712
 11
75.227767
 21
152.270712
  0
LINE
  8
CSLAYER1
  6
CONTINUOUS
 62
     6
 10
74.227767
 20
149.395712
 11
66.227767
 21
149.395712
  0
LINE
  8
CSLAYER1
  6
CONTINUOUS
 62
     6
 10
75.227767
 20
152.270712
 11
66.227767
 21
152.270712
  0
LINE
  8
CSLAYER1
  6
CONTINUOUS
 62
     6
 10
75.227767
 20
159.020712
 11
66.227767
 21
159.020712
  0
LINE
  8
CSLAYER1
  6
CONTINUOUS
 62
     6
 10
100.227767
 20
234.270712
 11
82.254628
 21
234.270712
  0
LINE
  8
CSLAYER1
  6
CONTINUOUS
 62
     6
 10
100.227767
 20
204.270712
 11
82.922024
 21
204.270712
  0
LINE
  8
CSLAYER1
  6
CONTINUOUS
 62
     6
 10
100.227767
 20
204.270712
 11
100.227767
 21
234.270712
  0
LINE
  8
CSLAYER1
  6
CONTINUOUS
 62
     6
 10
97.227767
 20
193.270712
 11
66.227767
 21
193.270712
  0
LINE
  8
CSLAYER1
  6
CONTINUOUS
 62
     6
 10
97.227767
 20
193.270712
 11
97.227767
 21
204.270712
  0
LINE
  8
CSLAYER1
  6
CONTINUOUS
 62
     6
 10
71.227767
 20
197.520712
 11
71.227767
 21
207.645712
  0
LINE
  8
CSLAYER1
  6
CONTINUOUS
 62
     6
 10
66.227767
 20
244.020712
 11
84.227767
 21
244.020712
  0
LINE
  8
CSLAYER1
  6
CONTINUOUS
 62
     6
 10
66.227767
 20
196.020712
 11
84.227767
 21
196.020712
  0
LINE
  8
CSLAYER1
  6
CONTINUOUS
 62
     6
 10
71.227767
 20
197.520712
 11
84.227767
 21
197.520712
  0
LINE
  8
CSLAYER1
  6
CONTINUOUS
 62
     6
 10
84.227767
 20
196.020712
 11
84.227767
 21
197.520712
  0
LINE
  8
CSLAYER1
  6
CONTINUOUS
 62
     6
 10
84.227767
 20
207.645712
 11
71.227767
 21
207.645712
  0
LINE
  8
CSLAYER1
  6
CONTINUOUS
 62
     6
 10
84.227767
 20
209.145712
 11
71.227767
 21
209.145712
  0
LINE
  8
CSLAYER1
  6
CONTINUOUS
 62
     6
 10
84.227767
 20
219.270712
 11
71.227767
 21
219.270712
  0
LINE
  8
CSLAYER1
  6
CONTINUOUS
 62
     6
 10
84.227767
 20
220.770712
 11
71.227767
 21
220.770712
  0
LINE
  8
CSLAYER1
  6
CONTINUOUS
 62
     6
 10
84.227767
 20
230.895712
 11
71.227767
 21
230.895712
  0
LINE
  8
CSLAYER1
  6
CONTINUOUS
 62
     6
 10
84.227767
 20
232.395712
 11
71.227767
 21
232.395712
  0
LINE
  8
CSLAYER1
  6
CONTINUOUS
 62
     6
 10
84.227767
 20
242.520712
 11
71.227767
 21
242.520712
  0
LINE
  8
CSLAYER1
  6
CONTINUOUS
 62
     6
 10
71.227767
 20
232.395712
 11
71.227767
 21
242.520712
  0
LINE
  8
CSLAYER1
  6
CONTINUOUS
 62
     6
 10
71.227767
 20
220.770712
 11
71.227767
 21
230.895712
  0
LINE
  8
CSLAYER1
  6
CONTINUOUS
 62
     6
 10
71.227767
 20
209.145712
 11
71.227767
 21
219.270712
  0
LINE
  8
CSLAYER1
  6
CONTINUOUS
 62
     6
 10
84.227767
 20
242.520712
 11
84.227767
 21
244.020712
  0
LINE
  8
CSLAYER1
  6
CONTINUOUS
 62
     6
 10
84.227767
 20
230.895712
 11
84.227767
 21
232.395712
  0
LINE
  8
CSLAYER1
  6
CONTINUOUS
 62
     6
 10
84.227767
 20
219.270712
 11
84.227767
 21
220.770712
  0
LINE
  8
CSLAYER1
  6
CONTINUOUS
 62
     6
 10
84.227767
 20
207.645712
 11
84.227767
 21
209.145712
  0
LINE
  8
CSLAYER1
  6
CONTINUOUS
 62
     6
 10
73.227767
 20
197.520712
 11
73.227767
 21
207.645712
  0
LINE
  8
CSLAYER1
  6
CONTINUOUS
 62
     6
 10
73.227767
 20
209.145712
 11
73.227767
 21
219.270712
  0
LINE
  8
CSLAYER1
  6
CONTINUOUS
 62
     6
 10
73.227767
 20
220.770712
 11
73.227767
 21
230.895712
  0
LINE
  8
CSLAYER1
  6
CONTINUOUS
 62
     6
 10
73.227767
 20
232.395712
 11
73.227767
 21
242.520712
  0
LINE
  8
CSLAYER1
  6
CONTINUOUS
 62
     6
 10
76.227767
 20
197.520712
 11
76.227767
 21
207.645712
  0
LINE
  8
CSLAYER1
  6
CONTINUOUS
 62
     6
 10
76.227767
 20
209.145712
 11
76.227767
 21
219.270712
  0
LINE
  8
CSLAYER1
  6
CONTINUOUS
 62
     6
 10
76.227767
 20
220.770712
 11
76.227767
 21
230.895712
  0
LINE
  8
CSLAYER1
  6
CONTINUOUS
 62
     6
 10
76.227767
 20
232.395712
 11
76.227767
 21
242.520712
  0
LINE
  8
CSLAYER1
  6
CONTINUOUS
 62
     6
 10
77.727767
 20
232.395712
 11
77.727767
 21
242.520712
  0
LINE
  8
CSLAYER1
  6
CONTINUOUS
 62
     6
 10
77.727767
 20
240.520712
 11
76.227767
 21
240.520712
  0
LINE
  8
CSLAYER1
  6
CONTINUOUS
 62
     6
 10
77.727767
 20
238.458212
 11
78.660779
 21
238.458212
  0
LINE
  8
CSLAYER1
  6
CONTINUOUS
 62
     6
 10
77.727767
 20
236.458212
 11
78.660779
 21
236.458212
  0
LINE
  8
CSLAYER1
  6
CONTINUOUS
 62
     6
 10
77.727767
 20
241.940263
 11
78.660779
 21
238.458212
  0
LINE
  8
CSLAYER1
  6
CONTINUOUS
 62
     6
 10
77.727767
 20
241.940263
 11
79.659618
 21
242.457901
  0
LINE
  8
CSLAYER1
  6
CONTINUOUS
 62
     6
 10
77.727767
 20
232.976161
 11
78.660779
 21
236.458212
  0
LINE
  8
CSLAYER1
  6
CONTINUOUS
 62
     6
 10
79.659618
 20
242.457901
 11
80.481643
 21
239.390063
  0
LINE
  8
CSLAYER1
  6
CONTINUOUS
 62
     6
 10
77.727767
 20
232.976161
 11
79.659618
 21
232.458523
  0
LINE
  8
CSLAYER1
  6
CONTINUOUS
 62
     6
 10
79.659618
 20
232.458523
 11
80.481643
 21
235.526360
  0
LINE
  8
CSLAYER1
  6
CONTINUOUS
 62
     6
 10
77.727767
 20
234.395712
 11
76.227767
 21
234.395712
  0
LINE
  8
CSLAYER1
  6
CONTINUOUS
 62
     3
 10
80.481643
 20
238.958212
 11
79.981643
 21
238.958212
  0
LINE
  8
CSLAYER1
  6
CONTINUOUS
 62
     3
 10
79.981643
 20
238.958212
 11
79.981643
 21
235.958212
  0
LINE
  8
CSLAYER1
  6
CONTINUOUS
 62
     3
 10
79.981643
 20
235.958212
 11
80.481643
 21
235.958212
  0
LINE
  8
CSLAYER1
  6
CONTINUOUS
 62
     6
 10
77.727767
 20
220.770712
 11
77.727767
 21
230.895712
  0
LINE
  8
CSLAYER1
  6
CONTINUOUS
 62
     6
 10
77.727767
 20
228.895712
 11
76.227767
 21
228.895712
  0
LINE
  8
CSLAYER1
  6
CONTINUOUS
 62
     6
 10
77.727767
 20
226.833212
 11
78.660779
 21
226.833212
  0
LINE
  8
CSLAYER1
  6
CONTINUOUS
 62
     6
 10
77.727767
 20
224.833212
 11
78.660779
 21
224.833212
  0
LINE
  8
CSLAYER1
  6
CONTINUOUS
 62
     6
 10
77.727767
 20
230.315263
 11
78.660779
 21
226.833212
  0
LINE
  8
CSLAYER1
  6
CONTINUOUS
 62
     6
 10
77.727767
 20
230.315263
 11
79.659618
 21
230.832901
  0
LINE
  8
CSLAYER1
  6
CONTINUOUS
 62
     6
 10
77.727767
 20
221.351161
 11
78.660779
 21
224.833212
  0
LINE
  8
CSLAYER1
  6
CONTINUOUS
 62
     6
 10
79.659618
 20
230.832901
 11
80.481643
 21
227.765063
  0
LINE
  8
CSLAYER1
  6
CONTINUOUS
 62
     6
 10
77.727767
 20
221.351161
 11
79.659618
 21
220.833523
  0
LINE
  8
CSLAYER1
  6
CONTINUOUS
 62
     6
 10
79.659618
 20
220.833523
 11
80.481643
 21
223.901360
  0
LINE
  8
CSLAYER1
  6
CONTINUOUS
 62
     6
 10
77.727767
 20
222.770712
 11
76.227767
 21
222.770712
  0
LINE
  8
CSLAYER1
  6
CONTINUOUS
 62
     3
 10
80.481643
 20
227.333212
 11
79.981643
 21
227.333212
  0
LINE
  8
CSLAYER1
  6
CONTINUOUS
 62
     3
 10
79.981643
 20
227.333212
 11
79.981643
 21
224.333212
  0
LINE
  8
CSLAYER1
  6
CONTINUOUS
 62
     3
 10
79.981643
 20
224.333212
 11
80.481643
 21
224.333212
  0
LINE
  8
CSLAYER1
  6
CONTINUOUS
 62
     6
 10
77.727767
 20
209.145712
 11
77.727767
 21
219.270712
  0
LINE
  8
CSLAYER1
  6
CONTINUOUS
 62
     6
 10
77.727767
 20
217.270712
 11
76.227767
 21
217.270712
  0
LINE
  8
CSLAYER1
  6
CONTINUOUS
 62
     6
 10
77.727767
 20
215.208212
 11
78.660779
 21
215.208212
  0
LINE
  8
CSLAYER1
  6
CONTINUOUS
 62
     6
 10
77.727767
 20
213.208212
 11
78.660779
 21
213.208212
  0
LINE
  8
CSLAYER1
  6
CONTINUOUS
 62
     6
 10
77.727767
 20
218.690263
 11
78.660779
 21
215.208212
  0
LINE
  8
CSLAYER1
  6
CONTINUOUS
 62
     6
 10
77.727767
 20
218.690263
 11
79.659618
 21
219.207901
  0
LINE
  8
CSLAYER1
  6
CONTINUOUS
 62
     6
 10
77.727767
 20
209.726161
 11
78.660779
 21
213.208212
  0
LINE
  8
CSLAYER1
  6
CONTINUOUS
 62
     6
 10
79.659618
 20
219.207901
 11
80.481643
 21
216.140063
  0
LINE
  8
CSLAYER1
  6
CONTINUOUS
 62
     6
 10
77.727767
 20
209.726161
 11
79.659618
 21
209.208523
  0
LINE
  8
CSLAYER1
  6
CONTINUOUS
 62
     6
 10
79.659618
 20
209.208523
 11
80.481643
 21
212.276360
  0
LINE
  8
CSLAYER1
  6
CONTINUOUS
 62
     6
 10
77.727767
 20
211.145712
 11
76.227767
 21
211.145712
  0
LINE
  8
CSLAYER1
  6
CONTINUOUS
 62
     3
 10
80.481643
 20
215.708212
 11
79.981643
 21
215.708212
  0
LINE
  8
CSLAYER1
  6
CONTINUOUS
 62
     3
 10
79.981643
 20
215.708212
 11
79.981643
 21
212.708212
  0
LINE
  8
CSLAYER1
  6
CONTINUOUS
 62
     3
 10
79.981643
 20
212.708212
 11
80.481643
 21
212.708212
  0
LINE
  8
CSLAYER1
  6
CONTINUOUS
 62
     6
 10
77.727767
 20
197.520712
 11
77.727767
 21
207.645712
  0
LINE
  8
CSLAYER1
  6
CONTINUOUS
 62
     6
 10
77.727767
 20
205.645712
 11
76.227767
 21
205.645712
  0
LINE
  8
CSLAYER1
  6
CONTINUOUS
 62
     6
 10
77.727767
 20
203.583212
 11
78.660779
 21
203.583212
  0
LINE
  8
CSLAYER1
  6
CONTINUOUS
 62
     6
 10
77.727767
 20
201.583212
 11
78.660779
 21
201.583212
  0
LINE
  8
CSLAYER1
  6
CONTINUOUS
 62
     6
 10
77.727767
 20
207.065263
 11
78.660779
 21
203.583212
  0
LINE
  8
CSLAYER1
  6
CONTINUOUS
 62
     6
 10
77.727767
 20
207.065263
 11
79.659618
 21
207.582901
  0
LINE
  8
CSLAYER1
  6
CONTINUOUS
 62
     6
 10
77.727767
 20
198.101161
 11
78.660779
 21
201.583212
  0
LINE
  8
CSLAYER1
  6
CONTINUOUS
 62
     6
 10
79.659618
 20
207.582901
 11
80.481643
 21
204.515063
  0
LINE
  8
CSLAYER1
  6
CONTINUOUS
 62
     6
 10
77.727767
 20
198.101161
 11
79.659618
 21
197.583523
  0
LINE
  8
CSLAYER1
  6
CONTINUOUS
 62
     6
 10
79.659618
 20
197.583523
 11
80.481643
 21
200.651360
  0
LINE
  8
CSLAYER1
  6
CONTINUOUS
 62
     6
 10
77.727767
 20
199.520712
 11
76.227767
 21
199.520712
  0
LINE
  8
CSLAYER1
  6
CONTINUOUS
 62
     3
 10
80.481643
 20
204.083212
 11
79.981643
 21
204.083212
  0
LINE
  8
CSLAYER1
  6
CONTINUOUS
 62
     3
 10
79.981643
 20
204.083212
 11
79.981643
 21
201.083212
  0
LINE
  8
CSLAYER1
  6
CONTINUOUS
 62
     3
 10
79.981643
 20
201.083212
 11
80.481643
 21
201.083212
  0
LINE
  8
CSLAYER1
  6
CONTINUOUS
 62
     6
 10
341.977767
 20
198.604045
 11
337.477767
 21
198.604045
  0
LINE
  8
CSLAYER1
  6
CONTINUOUS
 62
     6
 10
341.977767
 20
195.937378
 11
337.477767
 21
195.937378
  0
LINE
  8
CSLAYER1
  6
CONTINUOUS
 62
     6
 10
337.477767
 20
195.937378
 11
337.477767
 21
194.604045
  0
LINE
  8
CSLAYER1
  6
CONTINUOUS
 62
     6
 10
341.977767
 20
195.937378
 11
341.977767
 21
194.604045
  0
LINE
  8
CSLAYER1
  6
CONTINUOUS
 62
     6
 10
341.977767
 20
194.604045
 11
337.477767
 21
194.604045
  0
LINE
  8
CSLAYER1
  6
CONTINUOUS
 62
     6
 10
341.977767
 20
191.937378
 11
337.477767
 21
191.937378
  0
LINE
  8
CSLAYER1
  6
CONTINUOUS
 62
     6
 10
337.477767
 20
191.937378
 11
337.477767
 21
190.604045
  0
LINE
  8
CSLAYER1
  6
CONTINUOUS
 62
     6
 10
341.977767
 20
191.937378
 11
341.977767
 21
190.604045
  0
LINE
  8
CSLAYER1
  6
CONTINUOUS
 62
     6
 10
341.977767
 20
190.604045
 11
337.477767
 21
190.604045
  0
LINE
  8
CSLAYER1
  6
CONTINUOUS
 62
     6
 10
171.227767
 20
186.270712
 11
341.227767
 21
186.270712
  0
LINE
  8
CSLAYER1
  6
CONTINUOUS
 62
     6
 10
174.806694
 20
175.876532
 11
185.200874
 21
175.876532
  0
ARC
  8
CSLAYER1
  6
CONTINUOUS
 62
     6
 10
256.227767
 20
138.319984
 40
1.299272
 50
180.629485
 51
359.370515
  0
LINE
  8
CSLAYER1
  6
CONTINUOUS
 62
     6
 10
254.495403
 20
175.876532
 11
254.928573
 21
138.305710
  0
LINE
  8
CSLAYER1
  6
CONTINUOUS
 62
     6
 10
257.960130
 20
175.876532
 11
257.526961
 21
138.305710
  0
LINE
  8
CSLAYER1
  6
CONTINUOUS
 62
     6
 10
257.960130
 20
175.876532
 11
268.354309
 21
175.876532
  0
ARC
  8
CSLAYER1
  6
CONTINUOUS
 62
     6
 10
270.086673
 20
138.319984
 40
1.299272
 50
180.629485
 51
359.370515
  0
LINE
  8
CSLAYER1
  6
CONTINUOUS
 62
     6
 10
268.354309
 20
175.876532
 11
268.787478
 21
138.305710
  0
LINE
  8
CSLAYER1
  6
CONTINUOUS
 62
     6
 10
271.819036
 20
175.876532
 11
271.385867
 21
138.305710
  0
ARC
  8
CSLAYER1
  6
CONTINUOUS
 62
     6
 10
283.945578
 20
138.319984
 40
1.299272
 50
180.629485
 51
359.370515
  0
LINE
  8
CSLAYER1
  6
CONTINUOUS
 62
     6
 10
282.213215
 20
175.876532
 11
282.646384
 21
138.305710
  0
LINE
  8
CSLAYER1
  6
CONTINUOUS
 62
     6
 10
285.677942
 20
175.876532
 11
285.244772
 21
138.305710
  0
ARC
  8
CSLAYER1
  6
CONTINUOUS
 62
     6
 10
297.804484
 20
138.319984
 40
1.299272
 50
180.629485
 51
359.370515
  0
LINE
  8
CSLAYER1
  6
CONTINUOUS
 62
     6
 10
296.072121
 20
175.876532
 11
296.505290
 21
138.305710
  0
LINE
  8
CSLAYER1
  6
CONTINUOUS
 62
     6
 10
299.536848
 20
175.876532
 11
299.103678
 21
138.305710
  0
ARC
  8
CSLAYER1
  6
CONTINUOUS
 62
     6
 10
311.663390
 20
138.319984
 40
1.299272
 50
180.629485
 51
359.370515
  0
LINE
  8
CSLAYER1
  6
CONTINUOUS
 62
     6
 10
309.931027
 20
175.876532
 11
310.364196
 21
138.305710
  0
LINE
  8
CSLAYER1
  6
CONTINUOUS
 62
     6
 10
313.395754
 20
175.876532
 11
312.962584
 21
138.305710
  0
ARC
  8
CSLAYER1
  6
CONTINUOUS
 62
     6
 10
325.522296
 20
138.319984
 40
1.299272
 50
180.629485
 51
359.370515
  0
LINE
  8
CSLAYER1
  6
CONTINUOUS
 62
     6
 10
323.789933
 20
175.876532
 11
324.223102
 21
138.305710
  0
LINE
  8
CSLAYER1
  6
CONTINUOUS
 62
     6
 10
327.254660
 20
175.876532
 11
326.821490
 21
138.305710
  0
ARC
  8
CSLAYER1
  6
CONTINUOUS
 62
     6
 10
339.381202
 20
138.319984
 40
1.299272
 50
180.629485
 51
359.370515
  0
LINE
  8
CSLAYER1
  6
CONTINUOUS
 62
     6
 10
337.648839
 20
175.876532
 11
338.082008
 21
138.305710
  0
LINE
  8
CSLAYER1
  6
CONTINUOUS
 62
     6
 10
341.227767
 20
186.270712
 11
340.680396
 21
138.305710
  0
LINE
  8
CSLAYER1
  6
CONTINUOUS
 62
     6
 10
171.227767
 20
186.270712
 11
171.775137
 21
138.305710
  0
ARC
  8
CSLAYER1
  6
CONTINUOUS
 62
     6
 10
242.368861
 20
138.319984
 40
1.299272
 50
180.629485
 51
359.370515
  0
LINE
  8
CSLAYER1
  6
CONTINUOUS
 62
     6
 10
244.101224
 20
175.876532
 11
243.668055
 21
138.305710
  0
LINE
  8
CSLAYER1
  6
CONTINUOUS
 62
     6
 10
240.636497
 20
175.876532
 11
241.069667
 21
138.305710
  0
ARC
  8
CSLAYER1
  6
CONTINUOUS
 62
     6
 10
228.509955
 20
138.319984
 40
1.299272
 50
180.629485
 51
359.370515
  0
LINE
  8
CSLAYER1
  6
CONTINUOUS
 62
     6
 10
230.242318
 20
175.876532
 11
229.809149
 21
138.305710
  0
LINE
  8
CSLAYER1
  6
CONTINUOUS
 62
     6
 10
226.777591
 20
175.876532
 11
227.210761
 21
138.305710
  0
ARC
  8
CSLAYER1
  6
CONTINUOUS
 62
     6
 10
214.651049
 20
138.319984
 40
1.299272
 50
180.629485
 51
359.370515
  0
LINE
  8
CSLAYER1
  6
CONTINUOUS
 62
     6
 10
216.383412
 20
175.876532
 11
215.950243
 21
138.305710
  0
LINE
  8
CSLAYER1
  6
CONTINUOUS
 62
     6
 10
212.918685
 20
175.876532
 11
213.351855
 21
138.305710
  0
ARC
  8
CSLAYER1
  6
CONTINUOUS
 62
     6
 10
200.792143
 20
138.319984
 40
1.299272
 50
180.629485
 51
359.370515
  0
LINE
  8
CSLAYER1
  6
CONTINUOUS
 62
     6
 10
202.524506
 20
175.876532
 11
202.091337
 21
138.305710
  0
LINE
  8
CSLAYER1
  6
CONTINUOUS
 62
     6
 10
199.059780
 20
175.876532
 11
199.492949
 21
138.305710
  0
ARC
  8
CSLAYER1
  6
CONTINUOUS
 62
     6
 10
186.933237
 20
138.319984
 40
1.299272
 50
180.629485
 51
359.370515
  0
LINE
  8
CSLAYER1
  6
CONTINUOUS
 62
     6
 10
188.665600
 20
175.876532
 11
188.232431
 21
138.305710
  0
LINE
  8
CSLAYER1
  6
CONTINUOUS
 62
     6
 10
185.200874
 20
175.876532
 11
185.634043
 21
138.305710
  0
ARC
  8
CSLAYER1
  6
CONTINUOUS
 62
     6
 10
173.074331
 20
138.319984
 40
1.299272
 50
180.629485
 51
359.370515
  0
LINE
  8
CSLAYER1
  6
CONTINUOUS
 62
     6
 10
174.806694
 20
175.876532
 11
174.373525
 21
138.305710
  0
LINE
  8
CSLAYER1
  6
CONTINUOUS
 62
     6
 10
188.665600
 20
175.876532
 11
199.059780
 21
175.876532
  0
LINE
  8
CSLAYER1
  6
CONTINUOUS
 62
     6
 10
202.524506
 20
175.876532
 11
212.918685
 21
175.876532
  0
LINE
  8
CSLAYER1
  6
CONTINUOUS
 62
     6
 10
216.383412
 20
175.876532
 11
226.777591
 21
175.876532
  0
LINE
  8
CSLAYER1
  6
CONTINUOUS
 62
     6
 10
230.242318
 20
175.876532
 11
240.636497
 21
175.876532
  0
LINE
  8
CSLAYER1
  6
CONTINUOUS
 62
     6
 10
271.819036
 20
175.876532
 11
282.213215
 21
175.876532
  0
LINE
  8
CSLAYER1
  6
CONTINUOUS
 62
     6
 10
285.677942
 20
175.876532
 11
296.072121
 21
175.876532
  0
LINE
  8
CSLAYER1
  6
CONTINUOUS
 62
     6
 10
299.536848
 20
175.876532
 11
309.931027
 21
175.876532
  0
LINE
  8
CSLAYER1
  6
CONTINUOUS
 62
     6
 10
313.395754
 20
175.876532
 11
323.789933
 21
175.876532
  0
LINE
  8
CSLAYER1
  6
CONTINUOUS
 62
     6
 10
327.254660
 20
175.876532
 11
337.648839
 21
175.876532
  0
LINE
  8
CSLAYER1
  6
CONTINUOUS
 62
     6
 10
80.481643
 20
240.958212
 11
81.544567
 21
240.902506
  0
LINE
  8
CSLAYER1
  6
CONTINUOUS
 62
     6
 10
80.481643
 20
233.958212
 11
81.544567
 21
234.013917
  0
LINE
  8
CSLAYER1
  6
CONTINUOUS
 62
     6
 10
80.481643
 20
240.958212
 11
80.481643
 21
233.958212
  0
ARC
  8
CSLAYER1
  6
CONTINUOUS
 62
     6
 10
81.476530
 20
239.604288
 40
1.300000
 50
16.183299
 51
87.000000
  0
ARC
  8
CSLAYER1
  6
CONTINUOUS
 62
     6
 10
81.476530
 20
235.312136
 40
1.300000
 50
273.000000
 51
343.816701
  0
ARC
  8
CSLAYER1
  6
CONTINUOUS
 62
     6
 10
74.081643
 20
237.458212
 40
9.000000
 50
-16.183299
 51
16.183299
  0
LINE
  8
CSLAYER1
  6
CONTINUOUS
 62
     6
 10
80.481643
 20
229.333212
 11
81.544567
 21
229.277506
  0
LINE
  8
CSLAYER1
  6
CONTINUOUS
 62
     6
 10
80.481643
 20
222.333212
 11
81.544567
 21
222.388917
  0
LINE
  8
CSLAYER1
  6
CONTINUOUS
 62
     6
 10
80.481643
 20
229.333212
 11
80.481643
 21
222.333212
  0
ARC
  8
CSLAYER1
  6
CONTINUOUS
 62
     6
 10
81.476530
 20
227.979288
 40
1.300000
 50
16.183299
 51
87.000000
  0
ARC
  8
CSLAYER1
  6
CONTINUOUS
 62
     6
 10
81.476530
 20
223.687136
 40
1.300000
 50
273.000000
 51
343.816701
  0
ARC
  8
CSLAYER1
  6
CONTINUOUS
 62
     6
 10
74.081643
 20
225.833212
 40
9.000000
 50
-16.183299
 51
16.183299
  0
LINE
  8
CSLAYER1
  6
CONTINUOUS
 62
     6
 10
80.481643
 20
217.708212
 11
81.544567
 21
217.652506
  0
LINE
  8
CSLAYER1
  6
CONTINUOUS
 62
     6
 10
80.481643
 20
210.708212
 11
81.544567
 21
210.763917
  0
LINE
  8
CSLAYER1
  6
CONTINUOUS
 62
     6
 10
80.481643
 20
217.708212
 11
80.481643
 21
210.708212
  0
ARC
  8
CSLAYER1
  6
CONTINUOUS
 62
     6
 10
81.476530
 20
216.354288
 40
1.300000
 50
16.183299
 51
87.000000
  0
ARC
  8
CSLAYER1
  6
CONTINUOUS
 62
     6
 10
81.476530
 20
212.062136
 40
1.300000
 50
273.000000
 51
343.816701
  0
ARC
  8
CSLAYER1
  6
CONTINUOUS
 62
     6
 10
74.081643
 20
214.208212
 40
9.000000
 50
-16.183299
 51
16.183299
  0
LINE
  8
CSLAYER1
  6
CONTINUOUS
 62
     6
 10
80.481643
 20
206.083212
 11
81.544567
 21
206.027506
  0
LINE
  8
CSLAYER1
  6
CONTINUOUS
 62
     6
 10
80.481643
 20
199.083212
 11
81.544567
 21
199.138917
  0
LINE
  8
CSLAYER1
  6
CONTINUOUS
 62
     6
 10
80.481643
 20
206.083212
 11
80.481643
 21
199.083212
  0
ARC
  8
CSLAYER1
  6
CONTINUOUS
 62
     6
 10
81.476530
 20
204.729288
 40
1.300000
 50
16.183299
 51
87.000000
  0
ARC
  8
CSLAYER1
  6
CONTINUOUS
 62
     6
 10
81.476530
 20
200.437136
 40
1.300000
 50
273.000000
 51
343.816701
  0
ARC
  8
CSLAYER1
  6
CONTINUOUS
 62
     6
 10
74.081643
 20
202.583212
 40
9.000000
 50
-16.183299
 51
16.183299
  0
LINE
  8
CSLAYER1
  6
CONTINUOUS
 62
     6
 10
244.101224
 20
175.876532
 11
254.495403
 21
175.876532
  0
LINE
  8
CSLAYER1
  6
DASHED
 62
     6
 10
136.227767
 20
46.020712
 11
386.227767
 21
46.020712
  0
CIRCLE
  8
CSLAYER1
  6
CONTINUOUS
 62
     6
 10
166.227771
 20
237.458220
 40
3.500000
  0
CIRCLE
  8
CSLAYER1
  6
CONTINUOUS
 62
     6
 10
166.227771
 20
225.833220
 40
3.500000
  0
CIRCLE
  8
CSLAYER1
  6
CONTINUOUS
 62
     6
 10
166.227771
 20
214.208220
 40
3.500000
  0
CIRCLE
  8
CSLAYER1
  6
CONTINUOUS
 62
     6
 10
166.227771
 20
202.583220
 40
3.500000
  0
ENDSEC
  0
EOF
