  0
SECTION
  2
HEADER
  9
$ACADVER
  1
AC1006
  9
$INSBASE
 10
0.000000
 20
0.000000
 30
0.0
  9
$EXTMIN
 10
0.000000
 20
0.000000
  9
$EXTMAX
 10
420.000000
 20
297.000000
  9
$LIMMIN
 10
0.000000
 20
0.000000
  9
$LIMMAX
 10
420.000000
 20
297.000000
  9
$VIEWCTR
 10
210.000000
 20
148.500000
  9
$VIEWSIZE
 40
297.000000
  9
$SNAPMODE
 70
     0
  9
$SNAPUNIT
 10
1.0
 20
1.0
  9
$SNAPBASE
 10
0.0
 20
0.0
  9
$SNAPANG
 50
0.0
  9
$SNAPSTYLE
 70
     0
  9
$SNAPISOPAIR
 70
     0
  9
$GRIDMODE
 70
     0
  9
$GRIDUNIT
 10
0.0
 20
0.0
  9
$ORTHOMODE
 70
     0
  9
$REGENMODE
 70
     1
  9
$FILLMODE
 70
     1
  9
$QTEXTMODE
 70
     0
  9
$DRAGMODE
 70
     2
  9
$LTSCALE
 40
15.000000
  9
$OSMODE
 70
     0
  9
$ATTMODE
 70
     1
  9
$TEXTSIZE
 40
0.2
  9
$TRACEWID
 40
0.05
  9
$TEXTSTYLE
  7
STANDARD
  9
$CLAYER
  8
CSLAYER1
  9
$CELTYPE
  6
BYLAYER
  9
$CECOLOR
 62
   256
  9
$DIMSCALE
 40
1.0
  9
$DIMASZ
 40
0.18
  9
$DIMEXO
 40
0.0625
  9
$DIMDLI
 40
0.38
  9
$DIMRND
 40
0.0
  9
$DIMDLE
 40
0.0
  9
$DIMEXE
 40
0.18
  9
$DIMTP
 40
0.0
  9
$DIMTM
 40
0.0
  9
$DIMTXT
 40
0.18
  9
$DIMCEN
 40
0.09
  9
$DIMTSZ
 40
0.0
  9
$DIMTOL
 70
     0
  9
$DIMLIM
 70
     0
  9
$DIMTIH
 70
     1
  9
$DIMTOH
 70
     1
  9
$DIMSE1
 70
     0
  9
$DIMSE2
 70
     0
  9
$DIMTAD
 70
     0
  9
$DIMZIN
 70
     0
  9
$DIMBLK
  1

  9
$LUNITS
 70
     2
  9
$LUPREC
 70
     4
  9
$AXISMODE
 70
     0
  9
$AXISUNIT
 10
0.0
 20
0.0
  9
$SKETCHINC
 40
0.1
  9
$FILLETRAD
 40
0.0
  9
$AUNITS
 70
     0
  9
$AUPREC
 70
     0
  9
$MENU
  1
ACAD
  9
$ELEVATION
 40
0.0
  9
$THICKNESS
 40
0.0
  9
$VIEWDIR
 10
0.0
 20
0.0
 30
1.0
  9
$LIMCHECK
 70
     0
  9
$BLIPMODE
 70
     1
  9
$CHAMFERA
 40
0.0
  9
$CHAMFERB
 40
0.0
  9
$FASTZOOM
 70
     1
  9
$SKPOLY
 70
     0
  9
$TDCREATE
 40
2454214.000000
  9
$TDUPDATE
 40
2454223.000000
  9
$TDINDWG
 40
0.0
  9
$TDUSRTIMER
 40
0.0
  9
$USRTIMER
 70
     1
  9
$ANGBASE
 50
0.0
  9
$ANGDIR
 70
     0
  9
$PDMODE
 70
     0
  9
$PDSIZE
 40
0.0
  9
$PLINEWID
 40
0.0
  9
$COORDS
 70
     0
  9
$USERI1
 70
     0
  9
$USERI2
 70
     0
  9
$USERI3
 70
     0
  9
$USERI4
 70
     0
  9
$USERI5
 70
     0
  9
$USERR1
 40
0.0
  9
$USERR2
 40
0.0
  9
$USERR3
 40
0.0
  9
$USERR4
 40
0.0
  9
$USERR5
 40
0.0
  0
ENDSEC
  0
SECTION
  2
TABLES
  0
TABLE
  2
LTYPE
 70
     9
  0
LTYPE
  2
CONTINUOUS
 70
    64
  3
Solid line
 72
    65
 73
     0
 40
0.0
  0
LTYPE
  2
DASHED
 70
    64
  3
__ __ __ __ __ __ __ __ __ __ __ __ __ __ __
 72
    65
 73
     2
 40
0.75
 49
0.5
 49
-0.25
  0
LTYPE
  2
HIDDEN
 70
    64
  3
_ _ _ _ _ _ _ _ _ _ _ _ _ _ _ _ _ _ _ _ _ _ _
 72
    65
 73
     2
 40
0.375
 49
0.25
 49
-0.125
  0
LTYPE
  2
DOT
 70
    64
  3
...............................................
 72
    65
 73
     2
 40
0.25
 49
0.0
 49
-0.25
  0
LTYPE
  2
DASHDOT
 70
    64
  3
__ . __ . __ . __ . __ . __ . __ . __ . __ . __
 72
    65
 73
     4
 40
1.0
 49
0.5
 49
-0.25
 49
0.0
 49
-0.25
  0
LTYPE
  2
DIVIDE
 70
    64
  3
__ . . __ . . __ . . __ . . __ . . __ . . __
 72
    65
 73
     6
 40
1.25
 49
0.5
 49
-0.25
 49
0.0
 49
-0.25
 49
0.0
 49
-0.25
  0
LTYPE
  2
CENTER
 70
    64
  3
____ _ ____ _ ____ _ ____ _ ____ _ ____ _ ____ 
 72
    65
 73
     4
 40
2.0
 49
1.25
 49
-0.25
 49
0.25
 49
-0.25
  0
LTYPE
  2
PHANTOM
 70
    64
  3
______  __  __  ______  __  __  ______  __  __ 
 72
    65
 73
     6
 40
2.5
 49
1.25
 49
-0.25
 49
0.25
 49
-0.25
 49
0.25
 49
-0.25
  0
LTYPE
  2
BORDER
 70
    64
  3
__ __ . __ __ . __ __ . __ __ . __ __ . __ __ .
 72
    65
 73
     6
 40
1.75
 49
0.5
 49
-0.25
 49
0.5
 49
-0.25
 49
0.0
 49
-0.25
  0
ENDTAB
  0
TABLE
  2
LAYER
 70
    16
  0
LAYER
  2
CSLAYER1
 70
    64
 62
     7
  6
CONTINUOUS
  0
LAYER
  2
CSLAYER2
 70
    64
 62
     7
  6
CONTINUOUS
  0
LAYER
  2
CSLAYER3
 70
    64
 62
     7
  6
CONTINUOUS
  0
LAYER
  2
CSLAYER4
 70
    64
 62
     7
  6
CONTINUOUS
  0
LAYER
  2
CSLAYER5
 70
    64
 62
     7
  6
CONTINUOUS
  0
LAYER
  2
CSLAYER6
 70
    64
 62
     7
  6
CONTINUOUS
  0
LAYER
  2
CSLAYER7
 70
    64
 62
     7
  6
CONTINUOUS
  0
LAYER
  2
CSLAYER8
 70
    64
 62
     7
  6
CONTINUOUS
  0
LAYER
  2
CSLAYER9
 70
    64
 62
     7
  6
CONTINUOUS
  0
LAYER
  2
CSLAYER10
 70
    64
 62
     7
  6
CONTINUOUS
  0
LAYER
  2
CSLAYER11
 70
    64
 62
     7
  6
CONTINUOUS
  0
LAYER
  2
CSLAYER12
 70
    64
 62
     7
  6
CONTINUOUS
  0
LAYER
  2
CSLAYER13
 70
    64
 62
     7
  6
CONTINUOUS
  0
LAYER
  2
CSLAYER14
 70
    64
 62
     7
  6
CONTINUOUS
  0
LAYER
  2
CSLAYER15
 70
    64
 62
     7
  6
CONTINUOUS
  0
LAYER
  2
CSLAYER16
 70
    64
 62
     7
  6
CONTINUOUS
  0
ENDTAB
  0
TABLE
  2
STYLE
 70
     1
  0
STYLE
  2
FX_FONT
 70
     0
 40
1.0
 41
1.0
 50
0.0
 71
     0
 42
1.0
  3
monotxt
  4
bigfont
  0
ENDTAB
  0
TABLE
  2
VIEW
 70
     0
  0
ENDTAB
  0
ENDSEC
  0
SECTION
  2
BLOCKS
  0
BLOCK
  8
CSLAYER1
  2
BLKF0000
 70
   64
 10
0.0
 20
0.0
 30
0.0
  0
LINE
  8
CSLAYER1
  6
CONTINUOUS
 62
     6
 10
147.337514
 20
143.020712
 11
322.337514
 21
143.020712
  0
LINE
  8
CSLAYER1
  6
CONTINUOUS
 62
     6
 10
147.337514
 20
243.020712
 11
322.337514
 21
243.020712
  0
LINE
  8
CSLAYER1
  6
CONTINUOUS
 62
     6
 10
322.337514
 20
243.020712
 11
322.337514
 21
143.020712
  0
LINE
  8
CSLAYER1
  6
CONTINUOUS
 62
     6
 10
147.337514
 20
243.020712
 11
147.337514
 21
143.020712
  0
CIRCLE
  8
CSLAYER1
  6
CONTINUOUS
 62
     6
 10
183.837514
 20
215.020712
 40
15.000000
  0
POINT
  8
CSLAYER1
 62
     3
 10
183.837514
 20
215.020712
  0
LINE
  8
CSLAYER1
  6
CONTINUOUS
 62
     6
 10
140.833587
 20
248.020712
 11
329.833587
 21
248.020712
  0
LINE
  8
CSLAYER1
  6
CONTINUOUS
 62
     6
 10
137.833587
 20
138.020712
 11
332.833587
 21
138.020712
  0
LINE
  8
CSLAYER1
  6
CONTINUOUS
 62
     6
 10
332.833587
 20
245.020712
 11
332.833587
 21
138.020712
  0
LINE
  8
CSLAYER1
  6
CONTINUOUS
 62
     6
 10
137.833587
 20
140.020712
 11
332.833587
 21
140.020712
  0
LINE
  8
CSLAYER1
  6
CONTINUOUS
 62
     6
 10
137.833587
 20
245.020712
 11
137.833587
 21
138.020712
  0
CIRCLE
  8
CSLAYER1
  6
CONTINUOUS
 62
     6
 10
327.833587
 20
238.020712
 40
1.750000
  0
CIRCLE
  8
CSLAYER1
  6
CONTINUOUS
 62
     6
 10
327.833587
 20
148.020712
 40
1.750000
  0
CIRCLE
  8
CSLAYER1
  6
CONTINUOUS
 62
     6
 10
142.833587
 20
148.020712
 40
1.750000
  0
CIRCLE
  8
CSLAYER1
  6
CONTINUOUS
 62
     6
 10
142.833587
 20
238.020712
 40
1.750000
  0
ARC
  8
CSLAYER1
  6
CONTINUOUS
 62
     6
 10
140.833587
 20
245.020712
 40
3.000000
 50
90.000000
 51
180.000000
  0
ARC
  8
CSLAYER1
  6
CONTINUOUS
 62
     6
 10
329.833587
 20
245.020712
 40
3.000000
 50
0.000000
 51
90.000000
  0
CIRCLE
  8
CSLAYER1
  6
CONTINUOUS
 62
     6
 10
317.833592
 20
238.020721
 40
2.250000
  0
ARC
  8
CSLAYER1
  6
CONTINUOUS
 62
     6
 10
317.833584
 20
238.020722
 40
1.250000
 50
163.398416
 51
196.601577
  0
ARC
  8
CSLAYER1
  6
CONTINUOUS
 62
     6
 10
317.833584
 20
238.020722
 40
1.250000
 50
253.398422
 51
286.601583
  0
ARC
  8
CSLAYER1
  6
CONTINUOUS
 62
     6
 10
317.833584
 20
238.020722
 40
1.250000
 50
-16.601562
 51
16.601572
  0
ARC
  8
CSLAYER1
  6
CONTINUOUS
 62
     6
 10
317.833584
 20
238.020722
 40
1.250000
 50
73.398406
 51
106.601595
  0
LINE
  8
CSLAYER1
  6
CONTINUOUS
 62
     6
 10
318.547879
 20
237.663575
 11
319.031472
 21
237.663575
  0
LINE
  8
CSLAYER1
  6
CONTINUOUS
 62
     6
 10
317.119290
 20
237.663575
 11
316.635696
 21
237.663575
  0
LINE
  8
CSLAYER1
  6
CONTINUOUS
 62
     6
 10
318.547879
 20
238.377869
 11
319.031472
 21
238.377869
  0
LINE
  8
CSLAYER1
  6
CONTINUOUS
 62
     6
 10
317.119290
 20
238.377869
 11
316.635696
 21
238.377869
  0
LINE
  8
CSLAYER1
  6
CONTINUOUS
 62
     6
 10
317.476437
 20
237.306446
 11
317.476437
 21
236.822815
  0
LINE
  8
CSLAYER1
  6
CONTINUOUS
 62
     6
 10
317.476437
 20
238.734998
 11
317.476437
 21
239.218628
  0
LINE
  8
CSLAYER1
  6
CONTINUOUS
 62
     6
 10
318.190732
 20
237.306446
 11
318.190732
 21
236.822815
  0
LINE
  8
CSLAYER1
  6
CONTINUOUS
 62
     6
 10
318.190732
 20
238.734998
 11
318.190732
 21
239.218628
  0
ARC
  8
CSLAYER1
  6
CONTINUOUS
 62
     6
 10
318.547879
 20
237.306446
 40
0.357143
 50
90.000001
 51
179.942691
  0
ARC
  8
CSLAYER1
  6
CONTINUOUS
 62
     6
 10
318.547879
 20
238.734998
 40
0.357143
 50
180.000010
 51
270.000016
  0
ARC
  8
CSLAYER1
  6
CONTINUOUS
 62
     6
 10
317.119290
 20
238.734998
 40
0.357143
 50
-89.999984
 51
0.000005
  0
ARC
  8
CSLAYER1
  6
CONTINUOUS
 62
     6
 10
317.119290
 20
237.306446
 40
0.357143
 50
0.000005
 51
89.942654
  0
CIRCLE
  8
CSLAYER1
  6
CONTINUOUS
 62
     6
 10
152.833592
 20
238.020721
 40
2.250000
  0
ARC
  8
CSLAYER1
  6
CONTINUOUS
 62
     6
 10
152.833584
 20
238.020722
 40
1.250000
 50
163.398416
 51
196.601577
  0
ARC
  8
CSLAYER1
  6
CONTINUOUS
 62
     6
 10
152.833584
 20
238.020722
 40
1.250000
 50
253.398422
 51
286.601583
  0
ARC
  8
CSLAYER1
  6
CONTINUOUS
 62
     6
 10
152.833584
 20
238.020722
 40
1.250000
 50
-16.601562
 51
16.601572
  0
ARC
  8
CSLAYER1
  6
CONTINUOUS
 62
     6
 10
152.833584
 20
238.020722
 40
1.250000
 50
73.398406
 51
106.601595
  0
LINE
  8
CSLAYER1
  6
CONTINUOUS
 62
     6
 10
153.547879
 20
237.663575
 11
154.031472
 21
237.663575
  0
LINE
  8
CSLAYER1
  6
CONTINUOUS
 62
     6
 10
152.119290
 20
237.663575
 11
151.635696
 21
237.663575
  0
LINE
  8
CSLAYER1
  6
CONTINUOUS
 62
     6
 10
153.547879
 20
238.377869
 11
154.031472
 21
238.377869
  0
LINE
  8
CSLAYER1
  6
CONTINUOUS
 62
     6
 10
152.119290
 20
238.377869
 11
151.635696
 21
238.377869
  0
LINE
  8
CSLAYER1
  6
CONTINUOUS
 62
     6
 10
152.476437
 20
237.306446
 11
152.476437
 21
236.822815
  0
LINE
  8
CSLAYER1
  6
CONTINUOUS
 62
     6
 10
152.476437
 20
238.734998
 11
152.476437
 21
239.218628
  0
LINE
  8
CSLAYER1
  6
CONTINUOUS
 62
     6
 10
153.190732
 20
237.306446
 11
153.190732
 21
236.822815
  0
LINE
  8
CSLAYER1
  6
CONTINUOUS
 62
     6
 10
153.190732
 20
238.734998
 11
153.190732
 21
239.218628
  0
ARC
  8
CSLAYER1
  6
CONTINUOUS
 62
     6
 10
153.547879
 20
237.306446
 40
0.357143
 50
90.000001
 51
179.942691
  0
ARC
  8
CSLAYER1
  6
CONTINUOUS
 62
     6
 10
153.547879
 20
238.734998
 40
0.357143
 50
180.000010
 51
270.000016
  0
ARC
  8
CSLAYER1
  6
CONTINUOUS
 62
     6
 10
152.119290
 20
238.734998
 40
0.357143
 50
-89.999984
 51
0.000005
  0
ARC
  8
CSLAYER1
  6
CONTINUOUS
 62
     6
 10
152.119290
 20
237.306446
 40
0.357143
 50
0.000005
 51
89.942654
  0
CIRCLE
  8
CSLAYER1
  6
CONTINUOUS
 62
     6
 10
152.833592
 20
148.020721
 40
2.250000
  0
ARC
  8
CSLAYER1
  6
CONTINUOUS
 62
     6
 10
152.833584
 20
148.020722
 40
1.250000
 50
163.398416
 51
196.601577
  0
ARC
  8
CSLAYER1
  6
CONTINUOUS
 62
     6
 10
152.833584
 20
148.020722
 40
1.250000
 50
253.398422
 51
286.601583
  0
ARC
  8
CSLAYER1
  6
CONTINUOUS
 62
     6
 10
152.833584
 20
148.020722
 40
1.250000
 50
-16.601562
 51
16.601572
  0
ARC
  8
CSLAYER1
  6
CONTINUOUS
 62
     6
 10
152.833584
 20
148.020722
 40
1.250000
 50
73.398406
 51
106.601595
  0
LINE
  8
CSLAYER1
  6
CONTINUOUS
 62
     6
 10
153.547879
 20
147.663575
 11
154.031472
 21
147.663575
  0
LINE
  8
CSLAYER1
  6
CONTINUOUS
 62
     6
 10
152.119290
 20
147.663575
 11
151.635696
 21
147.663575
  0
LINE
  8
CSLAYER1
  6
CONTINUOUS
 62
     6
 10
153.547879
 20
148.377869
 11
154.031472
 21
148.377869
  0
LINE
  8
CSLAYER1
  6
CONTINUOUS
 62
     6
 10
152.119290
 20
148.377869
 11
151.635696
 21
148.377869
  0
LINE
  8
CSLAYER1
  6
CONTINUOUS
 62
     6
 10
152.476437
 20
147.306446
 11
152.476437
 21
146.822815
  0
LINE
  8
CSLAYER1
  6
CONTINUOUS
 62
     6
 10
152.476437
 20
148.734998
 11
152.476437
 21
149.218628
  0
LINE
  8
CSLAYER1
  6
CONTINUOUS
 62
     6
 10
153.190732
 20
147.306446
 11
153.190732
 21
146.822815
  0
LINE
  8
CSLAYER1
  6
CONTINUOUS
 62
     6
 10
153.190732
 20
148.734998
 11
153.190732
 21
149.218628
  0
ARC
  8
CSLAYER1
  6
CONTINUOUS
 62
     6
 10
153.547879
 20
147.306446
 40
0.357143
 50
90.000001
 51
179.942691
  0
ARC
  8
CSLAYER1
  6
CONTINUOUS
 62
     6
 10
153.547879
 20
148.734998
 40
0.357143
 50
180.000010
 51
270.000016
  0
ARC
  8
CSLAYER1
  6
CONTINUOUS
 62
     6
 10
152.119290
 20
148.734998
 40
0.357143
 50
-89.999984
 51
0.000005
  0
ARC
  8
CSLAYER1
  6
CONTINUOUS
 62
     6
 10
152.119290
 20
147.306446
 40
0.357143
 50
0.000005
 51
89.942654
  0
CIRCLE
  8
CSLAYER1
  6
CONTINUOUS
 62
     6
 10
317.833592
 20
148.020721
 40
2.250000
  0
ARC
  8
CSLAYER1
  6
CONTINUOUS
 62
     6
 10
317.833584
 20
148.020722
 40
1.250000
 50
163.398416
 51
196.601577
  0
ARC
  8
CSLAYER1
  6
CONTINUOUS
 62
     6
 10
317.833584
 20
148.020722
 40
1.250000
 50
253.398422
 51
286.601583
  0
ARC
  8
CSLAYER1
  6
CONTINUOUS
 62
     6
 10
317.833584
 20
148.020722
 40
1.250000
 50
-16.601562
 51
16.601572
  0
ARC
  8
CSLAYER1
  6
CONTINUOUS
 62
     6
 10
317.833584
 20
148.020722
 40
1.250000
 50
73.398406
 51
106.601595
  0
LINE
  8
CSLAYER1
  6
CONTINUOUS
 62
     6
 10
318.547879
 20
147.663575
 11
319.031472
 21
147.663575
  0
LINE
  8
CSLAYER1
  6
CONTINUOUS
 62
     6
 10
317.119290
 20
147.663575
 11
316.635696
 21
147.663575
  0
LINE
  8
CSLAYER1
  6
CONTINUOUS
 62
     6
 10
318.547879
 20
148.377869
 11
319.031472
 21
148.377869
  0
LINE
  8
CSLAYER1
  6
CONTINUOUS
 62
     6
 10
317.119290
 20
148.377869
 11
316.635696
 21
148.377869
  0
LINE
  8
CSLAYER1
  6
CONTINUOUS
 62
     6
 10
317.476437
 20
147.306446
 11
317.476437
 21
146.822815
  0
LINE
  8
CSLAYER1
  6
CONTINUOUS
 62
     6
 10
317.476437
 20
148.734998
 11
317.476437
 21
149.218628
  0
LINE
  8
CSLAYER1
  6
CONTINUOUS
 62
     6
 10
318.190732
 20
147.306446
 11
318.190732
 21
146.822815
  0
LINE
  8
CSLAYER1
  6
CONTINUOUS
 62
     6
 10
318.190732
 20
148.734998
 11
318.190732
 21
149.218628
  0
ARC
  8
CSLAYER1
  6
CONTINUOUS
 62
     6
 10
318.547879
 20
147.306446
 40
0.357143
 50
90.000001
 51
179.942691
  0
ARC
  8
CSLAYER1
  6
CONTINUOUS
 62
     6
 10
318.547879
 20
148.734998
 40
0.357143
 50
180.000010
 51
270.000016
  0
ARC
  8
CSLAYER1
  6
CONTINUOUS
 62
     6
 10
317.119290
 20
148.734998
 40
0.357143
 50
-89.999984
 51
0.000005
  0
ARC
  8
CSLAYER1
  6
CONTINUOUS
 62
     6
 10
317.119290
 20
147.306446
 40
0.357143
 50
0.000005
 51
89.942654
  0
LINE
  8
CSLAYER1
  6
CONTINUOUS
 62
     6
 10
258.337514
 20
207.020712
 11
258.337514
 21
197.020712
  0
LINE
  8
CSLAYER1
  6
CONTINUOUS
 62
     6
 10
204.337514
 20
207.020712
 11
258.337514
 21
207.020712
  0
LINE
  8
CSLAYER1
  6
CONTINUOUS
 62
     6
 10
204.337514
 20
197.020712
 11
258.337514
 21
197.020712
  0
LINE
  8
CSLAYER1
  6
CONTINUOUS
 62
     6
 10
204.337514
 20
207.020712
 11
204.337514
 21
197.020712
  0
LINE
  8
CSLAYER1
  6
CONTINUOUS
 62
     6
 10
316.337514
 20
212.020712
 11
316.337514
 21
167.520712
  0
LINE
  8
CSLAYER1
  6
CONTINUOUS
 62
     6
 10
313.837514
 20
212.020712
 11
313.837514
 21
167.520712
  0
LINE
  8
CSLAYER1
  6
CONTINUOUS
 62
     6
 10
313.837514
 20
212.020712
 11
316.337514
 21
212.020712
  0
LINE
  8
CSLAYER1
  6
CONTINUOUS
 62
     6
 10
313.837514
 20
167.520712
 11
316.337514
 21
167.520712
  0
LINE
  8
CSLAYER1
  6
CONTINUOUS
 62
     6
 10
289.337514
 20
188.770712
 11
289.337514
 21
176.770712
  0
LINE
  8
CSLAYER1
  6
CONTINUOUS
 62
     6
 10
282.837514
 20
188.770712
 11
282.837514
 21
176.770712
  0
LINE
  8
CSLAYER1
  6
CONTINUOUS
 62
     6
 10
282.837514
 20
188.770712
 11
289.337514
 21
188.770712
  0
LINE
  8
CSLAYER1
  6
CONTINUOUS
 62
     6
 10
282.837514
 20
184.770712
 11
289.337514
 21
184.770712
  0
LINE
  8
CSLAYER1
  6
CONTINUOUS
 62
     6
 10
282.837514
 20
180.770712
 11
289.337514
 21
180.770712
  0
LINE
  8
CSLAYER1
  6
CONTINUOUS
 62
     6
 10
282.837514
 20
176.770712
 11
289.337514
 21
176.770712
  0
LINE
  8
CSLAYER1
  6
CONTINUOUS
 62
     6
 10
287.480371
 20
187.437378
 11
284.694657
 21
187.437378
  0
LINE
  8
CSLAYER1
  6
CONTINUOUS
 62
     6
 10
287.480371
 20
186.104045
 11
284.694657
 21
186.104045
  0
LINE
  8
CSLAYER1
  6
CONTINUOUS
 62
     6
 10
284.694657
 20
187.437378
 11
284.694657
 21
186.104045
  0
LINE
  8
CSLAYER1
  6
CONTINUOUS
 62
     6
 10
287.480371
 20
187.437378
 11
287.480371
 21
186.104045
  0
LINE
  8
CSLAYER1
  6
CONTINUOUS
 62
     6
 10
287.480371
 20
183.437378
 11
284.694657
 21
183.437378
  0
LINE
  8
CSLAYER1
  6
CONTINUOUS
 62
     6
 10
287.480371
 20
182.104045
 11
284.694657
 21
182.104045
  0
LINE
  8
CSLAYER1
  6
CONTINUOUS
 62
     6
 10
284.694657
 20
183.437378
 11
284.694657
 21
182.104045
  0
LINE
  8
CSLAYER1
  6
CONTINUOUS
 62
     6
 10
287.480371
 20
183.437378
 11
287.480371
 21
182.104045
  0
LINE
  8
CSLAYER1
  6
CONTINUOUS
 62
     6
 10
287.480371
 20
179.437378
 11
284.694657
 21
179.437378
  0
LINE
  8
CSLAYER1
  6
CONTINUOUS
 62
     6
 10
287.480371
 20
178.104045
 11
284.694657
 21
178.104045
  0
LINE
  8
CSLAYER1
  6
CONTINUOUS
 62
     6
 10
284.694657
 20
179.437378
 11
284.694657
 21
178.104045
  0
LINE
  8
CSLAYER1
  6
CONTINUOUS
 62
     6
 10
287.480371
 20
179.437378
 11
287.480371
 21
178.104045
  0
LINE
  8
CSLAYER1
  6
CONTINUOUS
 62
     6
 10
192.337514
 20
239.020712
 11
162.337514
 21
239.020712
  0
LINE
  8
CSLAYER1
  6
CONTINUOUS
 62
     6
 10
162.337514
 20
239.020712
 11
162.337514
 21
234.020712
  0
LINE
  8
CSLAYER1
  6
CONTINUOUS
 62
     6
 10
192.337514
 20
239.020712
 11
192.337514
 21
234.020712
  0
LINE
  8
CSLAYER1
  6
CONTINUOUS
 62
     6
 10
192.337514
 20
234.020712
 11
162.337514
 21
234.020712
  0
LINE
  8
CSLAYER1
  6
CONTINUOUS
 62
     6
 10
185.837514
 20
239.020712
 11
185.837514
 21
234.020712
  0
LINE
  8
CSLAYER1
  6
CONTINUOUS
 62
     6
 10
168.837514
 20
239.020712
 11
168.837514
 21
234.020712
  0
LINE
  8
CSLAYER1
  6
CONTINUOUS
 62
     6
 10
177.771592
 20
176.020712
 11
275.903436
 21
176.020712
  0
LINE
  8
CSLAYER1
  6
CONTINUOUS
 62
     6
 10
179.837514
 20
170.020712
 11
185.837514
 21
170.020712
  0
ARC
  8
CSLAYER1
  6
CONTINUOUS
 62
     6
 10
226.837514
 20
147.270712
 40
0.750000
 50
180.629485
 51
359.370515
  0
LINE
  8
CSLAYER1
  6
CONTINUOUS
 62
     6
 10
225.837514
 20
170.020712
 11
226.087559
 21
147.262472
  0
LINE
  8
CSLAYER1
  6
CONTINUOUS
 62
     6
 10
227.837514
 20
170.020712
 11
227.587469
 21
147.262472
  0
LINE
  8
CSLAYER1
  6
CONTINUOUS
 62
     6
 10
227.837514
 20
170.020712
 11
233.837514
 21
170.020712
  0
ARC
  8
CSLAYER1
  6
CONTINUOUS
 62
     6
 10
234.837514
 20
147.270712
 40
0.750000
 50
180.629485
 51
359.370515
  0
LINE
  8
CSLAYER1
  6
CONTINUOUS
 62
     6
 10
233.837514
 20
170.020712
 11
234.087559
 21
147.262472
  0
LINE
  8
CSLAYER1
  6
CONTINUOUS
 62
     6
 10
235.837514
 20
170.020712
 11
235.587469
 21
147.262472
  0
ARC
  8
CSLAYER1
  6
CONTINUOUS
 62
     6
 10
242.837514
 20
147.270712
 40
0.750000
 50
180.629485
 51
359.370515
  0
LINE
  8
CSLAYER1
  6
CONTINUOUS
 62
     6
 10
241.837514
 20
170.020712
 11
242.087559
 21
147.262472
  0
LINE
  8
CSLAYER1
  6
CONTINUOUS
 62
     6
 10
243.837514
 20
170.020712
 11
243.587469
 21
147.262472
  0
ARC
  8
CSLAYER1
  6
CONTINUOUS
 62
     6
 10
250.837514
 20
147.270712
 40
0.750000
 50
180.629485
 51
359.370515
  0
LINE
  8
CSLAYER1
  6
CONTINUOUS
 62
     6
 10
249.837514
 20
170.020712
 11
250.087559
 21
147.262472
  0
LINE
  8
CSLAYER1
  6
CONTINUOUS
 62
     6
 10
251.837514
 20
170.020712
 11
251.587469
 21
147.262472
  0
ARC
  8
CSLAYER1
  6
CONTINUOUS
 62
     6
 10
258.837514
 20
147.270712
 40
0.750000
 50
180.629485
 51
359.370515
  0
LINE
  8
CSLAYER1
  6
CONTINUOUS
 62
     6
 10
257.837514
 20
170.020712
 11
258.087559
 21
147.262472
  0
LINE
  8
CSLAYER1
  6
CONTINUOUS
 62
     6
 10
259.837514
 20
170.020712
 11
259.587469
 21
147.262472
  0
ARC
  8
CSLAYER1
  6
CONTINUOUS
 62
     6
 10
266.837514
 20
147.270712
 40
0.750000
 50
180.629485
 51
359.370515
  0
LINE
  8
CSLAYER1
  6
CONTINUOUS
 62
     6
 10
265.837514
 20
170.020712
 11
266.087559
 21
147.262472
  0
LINE
  8
CSLAYER1
  6
CONTINUOUS
 62
     6
 10
267.837514
 20
170.020712
 11
267.587469
 21
147.262472
  0
ARC
  8
CSLAYER1
  6
CONTINUOUS
 62
     6
 10
274.837514
 20
147.270712
 40
0.750000
 50
180.629485
 51
359.370515
  0
LINE
  8
CSLAYER1
  6
CONTINUOUS
 62
     6
 10
273.837514
 20
170.020712
 11
274.087559
 21
147.262472
  0
LINE
  8
CSLAYER1
  6
CONTINUOUS
 62
     6
 10
275.903436
 20
176.020712
 11
275.587469
 21
147.262472
  0
LINE
  8
CSLAYER1
  6
CONTINUOUS
 62
     6
 10
177.771592
 20
176.020712
 11
178.087559
 21
147.262472
  0
ARC
  8
CSLAYER1
  6
CONTINUOUS
 62
     6
 10
218.837514
 20
147.270712
 40
0.750000
 50
180.629485
 51
359.370515
  0
LINE
  8
CSLAYER1
  6
CONTINUOUS
 62
     6
 10
219.837514
 20
170.020712
 11
219.587469
 21
147.262472
  0
LINE
  8
CSLAYER1
  6
CONTINUOUS
 62
     6
 10
217.837514
 20
170.020712
 11
218.087559
 21
147.262472
  0
ARC
  8
CSLAYER1
  6
CONTINUOUS
 62
     6
 10
210.837514
 20
147.270712
 40
0.750000
 50
180.629485
 51
359.370515
  0
LINE
  8
CSLAYER1
  6
CONTINUOUS
 62
     6
 10
211.837514
 20
170.020712
 11
211.587469
 21
147.262472
  0
LINE
  8
CSLAYER1
  6
CONTINUOUS
 62
     6
 10
209.837514
 20
170.020712
 11
210.087559
 21
147.262472
  0
ARC
  8
CSLAYER1
  6
CONTINUOUS
 62
     6
 10
202.837514
 20
147.270712
 40
0.750000
 50
180.629485
 51
359.370515
  0
LINE
  8
CSLAYER1
  6
CONTINUOUS
 62
     6
 10
203.837514
 20
170.020712
 11
203.587469
 21
147.262472
  0
LINE
  8
CSLAYER1
  6
CONTINUOUS
 62
     6
 10
201.837514
 20
170.020712
 11
202.087559
 21
147.262472
  0
ARC
  8
CSLAYER1
  6
CONTINUOUS
 62
     6
 10
194.837514
 20
147.270712
 40
0.750000
 50
180.629485
 51
359.370515
  0
LINE
  8
CSLAYER1
  6
CONTINUOUS
 62
     6
 10
195.837514
 20
170.020712
 11
195.587469
 21
147.262472
  0
LINE
  8
CSLAYER1
  6
CONTINUOUS
 62
     6
 10
193.837514
 20
170.020712
 11
194.087559
 21
147.262472
  0
ARC
  8
CSLAYER1
  6
CONTINUOUS
 62
     6
 10
186.837514
 20
147.270712
 40
0.750000
 50
180.629485
 51
359.370515
  0
LINE
  8
CSLAYER1
  6
CONTINUOUS
 62
     6
 10
187.837514
 20
170.020712
 11
187.587469
 21
147.262472
  0
LINE
  8
CSLAYER1
  6
CONTINUOUS
 62
     6
 10
185.837514
 20
170.020712
 11
186.087559
 21
147.262472
  0
ARC
  8
CSLAYER1
  6
CONTINUOUS
 62
     6
 10
178.837514
 20
147.270712
 40
0.750000
 50
180.629485
 51
359.370515
  0
LINE
  8
CSLAYER1
  6
CONTINUOUS
 62
     6
 10
179.837514
 20
170.020712
 11
179.587469
 21
147.262472
  0
LINE
  8
CSLAYER1
  6
CONTINUOUS
 62
     6
 10
187.837514
 20
170.020712
 11
193.837514
 21
170.020712
  0
LINE
  8
CSLAYER1
  6
CONTINUOUS
 62
     6
 10
195.837514
 20
170.020712
 11
201.837514
 21
170.020712
  0
LINE
  8
CSLAYER1
  6
CONTINUOUS
 62
     6
 10
203.837514
 20
170.020712
 11
209.837514
 21
170.020712
  0
LINE
  8
CSLAYER1
  6
CONTINUOUS
 62
     6
 10
211.837514
 20
170.020712
 11
225.837514
 21
170.020712
  0
LINE
  8
CSLAYER1
  6
CONTINUOUS
 62
     6
 10
235.837514
 20
170.020712
 11
241.837514
 21
170.020712
  0
LINE
  8
CSLAYER1
  6
CONTINUOUS
 62
     6
 10
243.837514
 20
170.020712
 11
249.837514
 21
170.020712
  0
LINE
  8
CSLAYER1
  6
CONTINUOUS
 62
     6
 10
251.837514
 20
170.020712
 11
257.837514
 21
170.020712
  0
LINE
  8
CSLAYER1
  6
CONTINUOUS
 62
     6
 10
259.837514
 20
170.020712
 11
265.837514
 21
170.020712
  0
LINE
  8
CSLAYER1
  6
CONTINUOUS
 62
     6
 10
267.837514
 20
170.020712
 11
273.837514
 21
170.020712
  0
LINE
  8
CSLAYER1
  6
CONTINUOUS
 62
     6
 10
301.337514
 20
200.520712
 11
302.837514
 21
200.520712
  0
LINE
  8
CSLAYER1
  6
CONTINUOUS
 62
     6
 10
302.837514
 20
201.020712
 11
302.837514
 21
200.520712
  0
LINE
  8
CSLAYER1
  6
CONTINUOUS
 62
     6
 10
306.337514
 20
201.020712
 11
306.337514
 21
200.520712
  0
LINE
  8
CSLAYER1
  6
CONTINUOUS
 62
     6
 10
306.337514
 20
200.520712
 11
307.837514
 21
200.520712
  0
LINE
  8
CSLAYER1
  6
CONTINUOUS
 62
     6
 10
307.837514
 20
194.770712
 11
306.337514
 21
194.770712
  0
LINE
  8
CSLAYER1
  6
CONTINUOUS
 62
     6
 10
306.337514
 20
194.270712
 11
306.337514
 21
194.770712
  0
LINE
  8
CSLAYER1
  6
CONTINUOUS
 62
     6
 10
302.837514
 20
194.270712
 11
302.837514
 21
194.770712
  0
LINE
  8
CSLAYER1
  6
CONTINUOUS
 62
     6
 10
302.837514
 20
194.770712
 11
301.337514
 21
194.770712
  0
POINT
  8
CSLAYER1
 62
     3
 10
304.587514
 20
197.645712
  0
ARC
  8
CSLAYER1
  6
CONTINUOUS
 62
     6
 10
304.587514
 20
197.645712
 40
2.000000
 50
-138.590378
 51
138.590378
  0
LINE
  8
CSLAYER1
  6
CONTINUOUS
 62
     6
 10
303.087514
 20
199.468587
 11
303.087514
 21
198.968587
  0
LINE
  8
CSLAYER1
  6
CONTINUOUS
 62
     6
 10
303.087514
 20
196.322836
 11
303.087514
 21
195.822836
  0
LINE
  8
CSLAYER1
  6
CONTINUOUS
 62
     6
 10
306.587514
 20
197.645712
 11
307.087514
 21
197.645712
  0
LINE
  8
CSLAYER1
  6
CONTINUOUS
 62
     6
 10
306.319565
 20
198.645712
 11
306.752577
 21
198.895712
  0
LINE
  8
CSLAYER1
  6
CONTINUOUS
 62
     6
 10
305.587514
 20
199.377763
 11
305.837514
 21
199.810775
  0
LINE
  8
CSLAYER1
  6
CONTINUOUS
 62
     6
 10
304.587514
 20
199.645712
 11
304.587514
 21
200.145712
  0
LINE
  8
CSLAYER1
  6
CONTINUOUS
 62
     6
 10
303.587514
 20
199.377763
 11
303.337514
 21
199.810775
  0
LINE
  8
CSLAYER1
  6
CONTINUOUS
 62
     6
 10
306.319565
 20
196.645712
 11
306.752577
 21
196.395712
  0
LINE
  8
CSLAYER1
  6
CONTINUOUS
 62
     6
 10
305.587514
 20
195.913661
 11
305.837514
 21
195.480648
  0
LINE
  8
CSLAYER1
  6
CONTINUOUS
 62
     6
 10
304.587514
 20
195.645712
 11
304.587514
 21
195.145712
  0
LINE
  8
CSLAYER1
  6
CONTINUOUS
 62
     6
 10
303.587514
 20
195.913661
 11
303.337514
 21
195.480648
  0
LINE
  8
CSLAYER1
  6
CONTINUOUS
 62
     6
 10
301.337514
 20
181.020712
 11
302.837514
 21
181.020712
  0
LINE
  8
CSLAYER1
  6
CONTINUOUS
 62
     6
 10
302.837514
 20
181.520712
 11
302.837514
 21
181.020712
  0
LINE
  8
CSLAYER1
  6
CONTINUOUS
 62
     6
 10
306.337514
 20
181.520712
 11
306.337514
 21
181.020712
  0
LINE
  8
CSLAYER1
  6
CONTINUOUS
 62
     6
 10
306.337514
 20
181.020712
 11
307.837514
 21
181.020712
  0
LINE
  8
CSLAYER1
  6
CONTINUOUS
 62
     6
 10
307.837514
 20
175.270712
 11
306.337514
 21
175.270712
  0
LINE
  8
CSLAYER1
  6
CONTINUOUS
 62
     6
 10
306.337514
 20
174.770712
 11
306.337514
 21
175.270712
  0
LINE
  8
CSLAYER1
  6
CONTINUOUS
 62
     6
 10
302.837514
 20
174.770712
 11
302.837514
 21
175.270712
  0
LINE
  8
CSLAYER1
  6
CONTINUOUS
 62
     6
 10
302.837514
 20
175.270712
 11
301.337514
 21
175.270712
  0
POINT
  8
CSLAYER1
 62
     3
 10
304.587514
 20
178.145712
  0
ARC
  8
CSLAYER1
  6
CONTINUOUS
 62
     6
 10
304.587514
 20
178.145712
 40
2.000000
 50
-138.590378
 51
138.590378
  0
LINE
  8
CSLAYER1
  6
CONTINUOUS
 62
     6
 10
303.087514
 20
179.968587
 11
303.087514
 21
179.468587
  0
LINE
  8
CSLAYER1
  6
CONTINUOUS
 62
     6
 10
303.087514
 20
176.822836
 11
303.087514
 21
176.322836
  0
LINE
  8
CSLAYER1
  6
CONTINUOUS
 62
     6
 10
306.587514
 20
178.145712
 11
307.087514
 21
178.145712
  0
LINE
  8
CSLAYER1
  6
CONTINUOUS
 62
     6
 10
306.319565
 20
179.145712
 11
306.752577
 21
179.395712
  0
LINE
  8
CSLAYER1
  6
CONTINUOUS
 62
     6
 10
305.587514
 20
179.877763
 11
305.837514
 21
180.310775
  0
LINE
  8
CSLAYER1
  6
CONTINUOUS
 62
     6
 10
304.587514
 20
180.145712
 11
304.587514
 21
180.645712
  0
LINE
  8
CSLAYER1
  6
CONTINUOUS
 62
     6
 10
303.587514
 20
179.877763
 11
303.337514
 21
180.310775
  0
LINE
  8
CSLAYER1
  6
CONTINUOUS
 62
     6
 10
306.319565
 20
177.145712
 11
306.752577
 21
176.895712
  0
LINE
  8
CSLAYER1
  6
CONTINUOUS
 62
     6
 10
305.587514
 20
176.413661
 11
305.837514
 21
175.980648
  0
LINE
  8
CSLAYER1
  6
CONTINUOUS
 62
     6
 10
304.587514
 20
176.145712
 11
304.587514
 21
175.645712
  0
LINE
  8
CSLAYER1
  6
CONTINUOUS
 62
     6
 10
303.587514
 20
176.413661
 11
303.337514
 21
175.980648
  0
LINE
  8
CSLAYER1
  6
CONTINUOUS
 62
     6
 10
301.337514
 20
171.270712
 11
302.837514
 21
171.270712
  0
LINE
  8
CSLAYER1
  6
CONTINUOUS
 62
     6
 10
302.837514
 20
171.770712
 11
302.837514
 21
171.270712
  0
LINE
  8
CSLAYER1
  6
CONTINUOUS
 62
     6
 10
306.337514
 20
171.770712
 11
306.337514
 21
171.270712
  0
LINE
  8
CSLAYER1
  6
CONTINUOUS
 62
     6
 10
306.337514
 20
171.270712
 11
307.837514
 21
171.270712
  0
LINE
  8
CSLAYER1
  6
CONTINUOUS
 62
     6
 10
307.837514
 20
165.520712
 11
306.337514
 21
165.520712
  0
LINE
  8
CSLAYER1
  6
CONTINUOUS
 62
     6
 10
306.337514
 20
165.020712
 11
306.337514
 21
165.520712
  0
LINE
  8
CSLAYER1
  6
CONTINUOUS
 62
     6
 10
302.837514
 20
165.020712
 11
302.837514
 21
165.520712
  0
LINE
  8
CSLAYER1
  6
CONTINUOUS
 62
     6
 10
302.837514
 20
165.520712
 11
301.337514
 21
165.520712
  0
POINT
  8
CSLAYER1
 62
     3
 10
304.587514
 20
168.395712
  0
ARC
  8
CSLAYER1
  6
CONTINUOUS
 62
     6
 10
304.587514
 20
168.395712
 40
2.000000
 50
-138.590378
 51
138.590378
  0
LINE
  8
CSLAYER1
  6
CONTINUOUS
 62
     6
 10
303.087514
 20
170.218587
 11
303.087514
 21
169.718587
  0
LINE
  8
CSLAYER1
  6
CONTINUOUS
 62
     6
 10
303.087514
 20
167.072836
 11
303.087514
 21
166.572836
  0
LINE
  8
CSLAYER1
  6
CONTINUOUS
 62
     6
 10
306.587514
 20
168.395712
 11
307.087514
 21
168.395712
  0
LINE
  8
CSLAYER1
  6
CONTINUOUS
 62
     6
 10
306.319565
 20
169.395712
 11
306.752577
 21
169.645712
  0
LINE
  8
CSLAYER1
  6
CONTINUOUS
 62
     6
 10
305.587514
 20
170.127763
 11
305.837514
 21
170.560775
  0
LINE
  8
CSLAYER1
  6
CONTINUOUS
 62
     6
 10
304.587514
 20
170.395712
 11
304.587514
 21
170.895712
  0
LINE
  8
CSLAYER1
  6
CONTINUOUS
 62
     6
 10
303.587514
 20
170.127763
 11
303.337514
 21
170.560775
  0
LINE
  8
CSLAYER1
  6
CONTINUOUS
 62
     6
 10
306.319565
 20
167.395712
 11
306.752577
 21
167.145712
  0
LINE
  8
CSLAYER1
  6
CONTINUOUS
 62
     6
 10
305.587514
 20
166.663661
 11
305.837514
 21
166.230648
  0
LINE
  8
CSLAYER1
  6
CONTINUOUS
 62
     6
 10
304.587514
 20
166.395712
 11
304.587514
 21
165.895712
  0
LINE
  8
CSLAYER1
  6
CONTINUOUS
 62
     6
 10
303.587514
 20
166.663661
 11
303.337514
 21
166.230648
  0
LINE
  8
CSLAYER1
  6
CONTINUOUS
 62
     6
 10
301.337514
 20
190.770712
 11
302.837514
 21
190.770712
  0
LINE
  8
CSLAYER1
  6
CONTINUOUS
 62
     6
 10
302.837514
 20
191.270712
 11
302.837514
 21
190.770712
  0
LINE
  8
CSLAYER1
  6
CONTINUOUS
 62
     6
 10
306.337514
 20
191.270712
 11
306.337514
 21
190.770712
  0
LINE
  8
CSLAYER1
  6
CONTINUOUS
 62
     6
 10
306.337514
 20
190.770712
 11
307.837514
 21
190.770712
  0
LINE
  8
CSLAYER1
  6
CONTINUOUS
 62
     6
 10
307.837514
 20
185.020712
 11
306.337514
 21
185.020712
  0
LINE
  8
CSLAYER1
  6
CONTINUOUS
 62
     6
 10
306.337514
 20
184.520712
 11
306.337514
 21
185.020712
  0
LINE
  8
CSLAYER1
  6
CONTINUOUS
 62
     6
 10
302.837514
 20
184.520712
 11
302.837514
 21
185.020712
  0
LINE
  8
CSLAYER1
  6
CONTINUOUS
 62
     6
 10
302.837514
 20
185.020712
 11
301.337514
 21
185.020712
  0
POINT
  8
CSLAYER1
 62
     3
 10
304.587514
 20
187.895712
  0
ARC
  8
CSLAYER1
  6
CONTINUOUS
 62
     6
 10
304.587514
 20
187.895712
 40
2.000000
 50
-138.590378
 51
138.590378
  0
LINE
  8
CSLAYER1
  6
CONTINUOUS
 62
     6
 10
303.087514
 20
189.718587
 11
303.087514
 21
189.218587
  0
LINE
  8
CSLAYER1
  6
CONTINUOUS
 62
     6
 10
303.087514
 20
186.572836
 11
303.087514
 21
186.072836
  0
LINE
  8
CSLAYER1
  6
CONTINUOUS
 62
     6
 10
306.587514
 20
187.895712
 11
307.087514
 21
187.895712
  0
LINE
  8
CSLAYER1
  6
CONTINUOUS
 62
     6
 10
306.319565
 20
188.895712
 11
306.752577
 21
189.145712
  0
LINE
  8
CSLAYER1
  6
CONTINUOUS
 62
     6
 10
305.587514
 20
189.627763
 11
305.837514
 21
190.060775
  0
LINE
  8
CSLAYER1
  6
CONTINUOUS
 62
     6
 10
304.587514
 20
189.895712
 11
304.587514
 21
190.395712
  0
LINE
  8
CSLAYER1
  6
CONTINUOUS
 62
     6
 10
303.587514
 20
189.627763
 11
303.337514
 21
190.060775
  0
LINE
  8
CSLAYER1
  6
CONTINUOUS
 62
     6
 10
306.319565
 20
186.895712
 11
306.752577
 21
186.645712
  0
LINE
  8
CSLAYER1
  6
CONTINUOUS
 62
     6
 10
305.587514
 20
186.163661
 11
305.837514
 21
185.730648
  0
LINE
  8
CSLAYER1
  6
CONTINUOUS
 62
     6
 10
304.587514
 20
185.895712
 11
304.587514
 21
185.395712
  0
LINE
  8
CSLAYER1
  6
CONTINUOUS
 62
     6
 10
303.587514
 20
186.163661
 11
303.337514
 21
185.730648
  0
LINE
  8
CSLAYER1
  6
CONTINUOUS
 62
     6
 10
267.337514
 20
195.645712
 11
268.837514
 21
195.645712
  0
LINE
  8
CSLAYER1
  6
CONTINUOUS
 62
     6
 10
268.837514
 20
196.145712
 11
268.837514
 21
195.645712
  0
LINE
  8
CSLAYER1
  6
CONTINUOUS
 62
     6
 10
272.337514
 20
196.145712
 11
272.337514
 21
195.645712
  0
LINE
  8
CSLAYER1
  6
CONTINUOUS
 62
     6
 10
272.337514
 20
195.645712
 11
273.837514
 21
195.645712
  0
LINE
  8
CSLAYER1
  6
CONTINUOUS
 62
     6
 10
273.837514
 20
189.895712
 11
272.337514
 21
189.895712
  0
LINE
  8
CSLAYER1
  6
CONTINUOUS
 62
     6
 10
272.337514
 20
189.395712
 11
272.337514
 21
189.895712
  0
LINE
  8
CSLAYER1
  6
CONTINUOUS
 62
     6
 10
268.837514
 20
189.395712
 11
268.837514
 21
189.895712
  0
LINE
  8
CSLAYER1
  6
CONTINUOUS
 62
     6
 10
268.837514
 20
189.895712
 11
267.337514
 21
189.895712
  0
POINT
  8
CSLAYER1
 62
     3
 10
270.587514
 20
192.770712
  0
ARC
  8
CSLAYER1
  6
CONTINUOUS
 62
     6
 10
270.587514
 20
192.770712
 40
2.000000
 50
-138.590378
 51
138.590378
  0
LINE
  8
CSLAYER1
  6
CONTINUOUS
 62
     6
 10
269.087514
 20
194.593587
 11
269.087514
 21
194.093587
  0
LINE
  8
CSLAYER1
  6
CONTINUOUS
 62
     6
 10
269.087514
 20
191.447836
 11
269.087514
 21
190.947836
  0
LINE
  8
CSLAYER1
  6
CONTINUOUS
 62
     6
 10
272.587514
 20
192.770712
 11
273.087514
 21
192.770712
  0
LINE
  8
CSLAYER1
  6
CONTINUOUS
 62
     6
 10
272.319565
 20
193.770712
 11
272.752577
 21
194.020712
  0
LINE
  8
CSLAYER1
  6
CONTINUOUS
 62
     6
 10
271.587514
 20
194.502763
 11
271.837514
 21
194.935775
  0
LINE
  8
CSLAYER1
  6
CONTINUOUS
 62
     6
 10
270.587514
 20
194.770712
 11
270.587514
 21
195.270712
  0
LINE
  8
CSLAYER1
  6
CONTINUOUS
 62
     6
 10
269.587514
 20
194.502763
 11
269.337514
 21
194.935775
  0
LINE
  8
CSLAYER1
  6
CONTINUOUS
 62
     6
 10
272.319565
 20
191.770712
 11
272.752577
 21
191.520712
  0
LINE
  8
CSLAYER1
  6
CONTINUOUS
 62
     6
 10
271.587514
 20
191.038661
 11
271.837514
 21
190.605648
  0
LINE
  8
CSLAYER1
  6
CONTINUOUS
 62
     6
 10
270.587514
 20
190.770712
 11
270.587514
 21
190.270712
  0
LINE
  8
CSLAYER1
  6
CONTINUOUS
 62
     6
 10
269.587514
 20
191.038661
 11
269.337514
 21
190.605648
  0
LINE
  8
CSLAYER1
  6
CONTINUOUS
 62
     6
 10
167.337514
 20
164.270712
 11
167.337514
 21
156.270712
  0
LINE
  8
CSLAYER1
  6
CONTINUOUS
 62
     6
 10
167.337514
 20
164.270712
 11
175.337514
 21
164.270712
  0
LINE
  8
CSLAYER1
  6
CONTINUOUS
 62
     6
 10
167.337514
 20
156.270712
 11
175.337514
 21
156.270712
  0
LINE
  8
CSLAYER1
  6
CONTINUOUS
 62
     6
 10
175.337514
 20
164.270712
 11
175.337514
 21
156.270712
  0
LINE
  8
CSLAYER1
  6
CONTINUOUS
 62
     6
 10
173.337514
 20
161.604045
 11
169.337514
 21
161.604045
  0
LINE
  8
CSLAYER1
  6
CONTINUOUS
 62
     6
 10
173.337514
 20
158.937378
 11
169.337514
 21
158.937378
  0
LINE
  8
CSLAYER1
  6
CONTINUOUS
 62
     6
 10
173.337514
 20
161.604045
 11
173.337514
 21
158.937378
  0
LINE
  8
CSLAYER1
  6
CONTINUOUS
 62
     6
 10
169.337514
 20
161.604045
 11
169.337514
 21
158.937378
  0
LINE
  8
CSLAYER1
  6
CONTINUOUS
 62
     6
 10
171.337514
 20
161.604045
 11
171.337514
 21
158.937378
  0
LINE
  8
CSLAYER1
  6
CONTINUOUS
 62
     6
 10
152.837514
 20
183.520712
 11
152.837514
 21
159.520712
  0
LINE
  8
CSLAYER1
  6
CONTINUOUS
 62
     6
 10
161.837514
 20
183.520712
 11
152.837514
 21
183.520712
  0
LINE
  8
CSLAYER1
  6
CONTINUOUS
 62
     6
 10
161.837514
 20
183.520712
 11
161.837514
 21
159.520712
  0
LINE
  8
CSLAYER1
  6
CONTINUOUS
 62
     6
 10
161.837514
 20
159.520712
 11
152.837514
 21
159.520712
  0
CIRCLE
  8
CSLAYER1
  6
CONTINUOUS
 62
     6
 10
157.337514
 20
181.120712
 40
2.000000
  0
CIRCLE
  8
CSLAYER1
  6
CONTINUOUS
 62
     6
 10
157.337514
 20
176.320712
 40
2.000000
  0
CIRCLE
  8
CSLAYER1
  6
CONTINUOUS
 62
     6
 10
157.337514
 20
171.520712
 40
2.000000
  0
CIRCLE
  8
CSLAYER1
  6
CONTINUOUS
 62
     6
 10
157.337514
 20
166.720712
 40
2.000000
  0
CIRCLE
  8
CSLAYER1
  6
CONTINUOUS
 62
     6
 10
157.337514
 20
161.920712
 40
2.000000
  0
LINE
  8
CSLAYER1
  6
CONTINUOUS
 62
     6
 10
159.217836
 20
180.439252
 11
155.807191
 21
182.408389
  0
LINE
  8
CSLAYER1
  6
CONTINUOUS
 62
     6
 10
158.867836
 20
179.833034
 11
155.457191
 21
181.802171
  0
LINE
  8
CSLAYER1
  6
CONTINUOUS
 62
     6
 10
156.656054
 20
174.440389
 11
158.625191
 21
177.851034
  0
LINE
  8
CSLAYER1
  6
CONTINUOUS
 62
     6
 10
156.049836
 20
174.790389
 11
158.018973
 21
178.201034
  0
LINE
  8
CSLAYER1
  6
CONTINUOUS
 62
     6
 10
158.185238
 20
169.709258
 11
157.165938
 21
173.513339
  0
LINE
  8
CSLAYER1
  6
CONTINUOUS
 62
     6
 10
157.509090
 20
169.528085
 11
156.489790
 21
173.332165
  0
LINE
  8
CSLAYER1
  6
CONTINUOUS
 62
     6
 10
155.526060
 20
167.568436
 11
159.330141
 21
166.549136
  0
LINE
  8
CSLAYER1
  6
CONTINUOUS
 62
     6
 10
155.344887
 20
166.892288
 11
159.148967
 21
165.872988
  0
LINE
  8
CSLAYER1
  6
CONTINUOUS
 62
     6
 10
155.526060
 20
161.072988
 11
159.330141
 21
162.092288
  0
LINE
  8
CSLAYER1
  6
CONTINUOUS
 62
     6
 10
155.344887
 20
161.749136
 11
159.148967
 21
162.768436
  0
LINE
  8
CSLAYER1
  6
CONTINUOUS
 62
     6
 10
152.837514
 20
224.020712
 11
152.837514
 21
192.020712
  0
LINE
  8
CSLAYER1
  6
CONTINUOUS
 62
     6
 10
165.837514
 20
224.020712
 11
165.837514
 21
192.020712
  0
LINE
  8
CSLAYER1
  6
CONTINUOUS
 62
     6
 10
165.837514
 20
224.020712
 11
152.837514
 21
224.020712
  0
LINE
  8
CSLAYER1
  6
CONTINUOUS
 62
     6
 10
165.837514
 20
192.020712
 11
152.837514
 21
192.020712
  0
LINE
  8
CSLAYER1
  6
CONTINUOUS
 62
     6
 10
165.837514
 20
223.020712
 11
152.837514
 21
223.020712
  0
LINE
  8
CSLAYER1
  6
CONTINUOUS
 62
     6
 10
165.837514
 20
193.020712
 11
152.837514
 21
193.020712
  0
POINT
  8
CSLAYER1
 62
     3
 10
159.187514
 20
219.645712
  0
LINE
  8
CSLAYER1
  6
CONTINUOUS
 62
     6
 10
161.937514
 20
222.520712
 11
161.937514
 21
216.770712
  0
LINE
  8
CSLAYER1
  6
CONTINUOUS
 62
     6
 10
156.437514
 20
222.520712
 11
156.437514
 21
216.770712
  0
LINE
  8
CSLAYER1
  6
CONTINUOUS
 62
     6
 10
156.437514
 20
222.520712
 11
161.937514
 21
222.520712
  0
LINE
  8
CSLAYER1
  6
CONTINUOUS
 62
     6
 10
156.437514
 20
216.770712
 11
161.937514
 21
216.770712
  0
LINE
  8
CSLAYER1
  6
CONTINUOUS
 62
     6
 10
162.937514
 20
221.645712
 11
162.937514
 21
217.645712
  0
LINE
  8
CSLAYER1
  6
CONTINUOUS
 62
     6
 10
155.437514
 20
221.645712
 11
155.437514
 21
217.645712
  0
LINE
  8
CSLAYER1
  6
CONTINUOUS
 62
     6
 10
162.937514
 20
221.645712
 11
161.937514
 21
221.645712
  0
LINE
  8
CSLAYER1
  6
CONTINUOUS
 62
     6
 10
162.937514
 20
217.645712
 11
161.937514
 21
217.645712
  0
LINE
  8
CSLAYER1
  6
CONTINUOUS
 62
     6
 10
156.437514
 20
221.645712
 11
155.437514
 21
221.645712
  0
LINE
  8
CSLAYER1
  6
CONTINUOUS
 62
     6
 10
156.437514
 20
217.645712
 11
155.437514
 21
217.645712
  0
LINE
  8
CSLAYER1
  6
CONTINUOUS
 62
     6
 10
165.837514
 20
215.270712
 11
152.837514
 21
215.270712
  0
LINE
  8
CSLAYER1
  6
CONTINUOUS
 62
     6
 10
165.837514
 20
216.270712
 11
152.837514
 21
216.270712
  0
LINE
  8
CSLAYER1
  6
CONTINUOUS
 62
     6
 10
165.837514
 20
207.520712
 11
152.837514
 21
207.520712
  0
LINE
  8
CSLAYER1
  6
CONTINUOUS
 62
     6
 10
165.837514
 20
208.520712
 11
152.837514
 21
208.520712
  0
LINE
  8
CSLAYER1
  6
CONTINUOUS
 62
     6
 10
165.837514
 20
199.770712
 11
152.837514
 21
199.770712
  0
LINE
  8
CSLAYER1
  6
CONTINUOUS
 62
     6
 10
165.837514
 20
200.770712
 11
152.837514
 21
200.770712
  0
POINT
  8
CSLAYER1
 62
     3
 10
159.187514
 20
211.895712
  0
LINE
  8
CSLAYER1
  6
CONTINUOUS
 62
     6
 10
161.937514
 20
214.770712
 11
161.937514
 21
209.020712
  0
LINE
  8
CSLAYER1
  6
CONTINUOUS
 62
     6
 10
156.437514
 20
214.770712
 11
156.437514
 21
209.020712
  0
LINE
  8
CSLAYER1
  6
CONTINUOUS
 62
     6
 10
156.437514
 20
214.770712
 11
161.937514
 21
214.770712
  0
LINE
  8
CSLAYER1
  6
CONTINUOUS
 62
     6
 10
156.437514
 20
209.020712
 11
161.937514
 21
209.020712
  0
LINE
  8
CSLAYER1
  6
CONTINUOUS
 62
     6
 10
162.937514
 20
213.895712
 11
162.937514
 21
209.895712
  0
LINE
  8
CSLAYER1
  6
CONTINUOUS
 62
     6
 10
155.437514
 20
213.895712
 11
155.437514
 21
209.895712
  0
LINE
  8
CSLAYER1
  6
CONTINUOUS
 62
     6
 10
162.937514
 20
213.895712
 11
161.937514
 21
213.895712
  0
LINE
  8
CSLAYER1
  6
CONTINUOUS
 62
     6
 10
162.937514
 20
209.895712
 11
161.937514
 21
209.895712
  0
LINE
  8
CSLAYER1
  6
CONTINUOUS
 62
     6
 10
156.437514
 20
213.895712
 11
155.437514
 21
213.895712
  0
LINE
  8
CSLAYER1
  6
CONTINUOUS
 62
     6
 10
156.437514
 20
209.895712
 11
155.437514
 21
209.895712
  0
POINT
  8
CSLAYER1
 62
     3
 10
159.187514
 20
204.145712
  0
LINE
  8
CSLAYER1
  6
CONTINUOUS
 62
     6
 10
161.937514
 20
207.020712
 11
161.937514
 21
201.270712
  0
LINE
  8
CSLAYER1
  6
CONTINUOUS
 62
     6
 10
156.437514
 20
207.020712
 11
156.437514
 21
201.270712
  0
LINE
  8
CSLAYER1
  6
CONTINUOUS
 62
     6
 10
156.437514
 20
207.020712
 11
161.937514
 21
207.020712
  0
LINE
  8
CSLAYER1
  6
CONTINUOUS
 62
     6
 10
156.437514
 20
201.270712
 11
161.937514
 21
201.270712
  0
LINE
  8
CSLAYER1
  6
CONTINUOUS
 62
     6
 10
162.937514
 20
206.145712
 11
162.937514
 21
202.145712
  0
LINE
  8
CSLAYER1
  6
CONTINUOUS
 62
     6
 10
155.437514
 20
206.145712
 11
155.437514
 21
202.145712
  0
LINE
  8
CSLAYER1
  6
CONTINUOUS
 62
     6
 10
162.937514
 20
206.145712
 11
161.937514
 21
206.145712
  0
LINE
  8
CSLAYER1
  6
CONTINUOUS
 62
     6
 10
162.937514
 20
202.145712
 11
161.937514
 21
202.145712
  0
LINE
  8
CSLAYER1
  6
CONTINUOUS
 62
     6
 10
156.437514
 20
206.145712
 11
155.437514
 21
206.145712
  0
LINE
  8
CSLAYER1
  6
CONTINUOUS
 62
     6
 10
156.437514
 20
202.145712
 11
155.437514
 21
202.145712
  0
POINT
  8
CSLAYER1
 62
     3
 10
159.187514
 20
196.395712
  0
LINE
  8
CSLAYER1
  6
CONTINUOUS
 62
     6
 10
161.937514
 20
199.270712
 11
161.937514
 21
193.520712
  0
LINE
  8
CSLAYER1
  6
CONTINUOUS
 62
     6
 10
156.437514
 20
199.270712
 11
156.437514
 21
193.520712
  0
LINE
  8
CSLAYER1
  6
CONTINUOUS
 62
     6
 10
156.437514
 20
199.270712
 11
161.937514
 21
199.270712
  0
LINE
  8
CSLAYER1
  6
CONTINUOUS
 62
     6
 10
156.437514
 20
193.520712
 11
161.937514
 21
193.520712
  0
LINE
  8
CSLAYER1
  6
CONTINUOUS
 62
     6
 10
162.937514
 20
198.395712
 11
162.937514
 21
194.395712
  0
LINE
  8
CSLAYER1
  6
CONTINUOUS
 62
     6
 10
155.437514
 20
198.395712
 11
155.437514
 21
194.395712
  0
LINE
  8
CSLAYER1
  6
CONTINUOUS
 62
     6
 10
162.937514
 20
198.395712
 11
161.937514
 21
198.395712
  0
LINE
  8
CSLAYER1
  6
CONTINUOUS
 62
     6
 10
162.937514
 20
194.395712
 11
161.937514
 21
194.395712
  0
LINE
  8
CSLAYER1
  6
CONTINUOUS
 62
     6
 10
156.437514
 20
198.395712
 11
155.437514
 21
198.395712
  0
LINE
  8
CSLAYER1
  6
CONTINUOUS
 62
     6
 10
156.437514
 20
194.395712
 11
155.437514
 21
194.395712
  0
LINE
  8
CSLAYER1
  6
CONTINUOUS
 62
     6
 10
167.337514
 20
173.395712
 11
168.837514
 21
173.395712
  0
LINE
  8
CSLAYER1
  6
CONTINUOUS
 62
     6
 10
168.837514
 20
173.895712
 11
168.837514
 21
173.395712
  0
LINE
  8
CSLAYER1
  6
CONTINUOUS
 62
     6
 10
172.337514
 20
173.895712
 11
172.337514
 21
173.395712
  0
LINE
  8
CSLAYER1
  6
CONTINUOUS
 62
     6
 10
172.337514
 20
173.395712
 11
173.837514
 21
173.395712
  0
LINE
  8
CSLAYER1
  6
CONTINUOUS
 62
     6
 10
173.837514
 20
167.645712
 11
172.337514
 21
167.645712
  0
LINE
  8
CSLAYER1
  6
CONTINUOUS
 62
     6
 10
172.337514
 20
167.145712
 11
172.337514
 21
167.645712
  0
LINE
  8
CSLAYER1
  6
CONTINUOUS
 62
     6
 10
168.837514
 20
167.145712
 11
168.837514
 21
167.645712
  0
LINE
  8
CSLAYER1
  6
CONTINUOUS
 62
     6
 10
168.837514
 20
167.645712
 11
167.337514
 21
167.645712
  0
POINT
  8
CSLAYER1
 62
     3
 10
170.587514
 20
170.520712
  0
ARC
  8
CSLAYER1
  6
CONTINUOUS
 62
     6
 10
170.587514
 20
170.520712
 40
2.000000
 50
-138.590378
 51
138.590378
  0
LINE
  8
CSLAYER1
  6
CONTINUOUS
 62
     6
 10
169.087514
 20
172.343587
 11
169.087514
 21
171.843587
  0
LINE
  8
CSLAYER1
  6
CONTINUOUS
 62
     6
 10
169.087514
 20
169.197836
 11
169.087514
 21
168.697836
  0
LINE
  8
CSLAYER1
  6
CONTINUOUS
 62
     6
 10
172.587514
 20
170.520712
 11
173.087514
 21
170.520712
  0
LINE
  8
CSLAYER1
  6
CONTINUOUS
 62
     6
 10
172.319565
 20
171.520712
 11
172.752577
 21
171.770712
  0
LINE
  8
CSLAYER1
  6
CONTINUOUS
 62
     6
 10
171.587514
 20
172.252763
 11
171.837514
 21
172.685775
  0
LINE
  8
CSLAYER1
  6
CONTINUOUS
 62
     6
 10
170.587514
 20
172.520712
 11
170.587514
 21
173.020712
  0
LINE
  8
CSLAYER1
  6
CONTINUOUS
 62
     6
 10
169.587514
 20
172.252763
 11
169.337514
 21
172.685775
  0
LINE
  8
CSLAYER1
  6
CONTINUOUS
 62
     6
 10
172.319565
 20
169.520712
 11
172.752577
 21
169.270712
  0
LINE
  8
CSLAYER1
  6
CONTINUOUS
 62
     6
 10
171.587514
 20
168.788661
 11
171.837514
 21
168.355648
  0
LINE
  8
CSLAYER1
  6
CONTINUOUS
 62
     6
 10
170.587514
 20
168.520712
 11
170.587514
 21
168.020712
  0
LINE
  8
CSLAYER1
  6
CONTINUOUS
 62
     6
 10
169.587514
 20
168.788661
 11
169.337514
 21
168.355648
  0
LINE
  8
CSLAYER1
  6
CONTINUOUS
 62
     6
 10
307.837514
 20
201.020712
 11
307.837514
 21
194.270712
  0
LINE
  8
CSLAYER1
  6
CONTINUOUS
 62
     6
 10
301.337514
 20
201.020712
 11
301.337514
 21
194.270712
  0
LINE
  8
CSLAYER1
  6
CONTINUOUS
 62
     6
 10
301.337514
 20
201.020712
 11
307.837514
 21
201.020712
  0
LINE
  8
CSLAYER1
  6
CONTINUOUS
 62
     6
 10
301.337514
 20
194.270712
 11
307.837514
 21
194.270712
  0
LINE
  8
CSLAYER1
  6
CONTINUOUS
 62
     6
 10
307.837514
 20
181.520712
 11
307.837514
 21
174.770712
  0
LINE
  8
CSLAYER1
  6
CONTINUOUS
 62
     6
 10
301.337514
 20
181.520712
 11
301.337514
 21
174.770712
  0
LINE
  8
CSLAYER1
  6
CONTINUOUS
 62
     6
 10
301.337514
 20
181.520712
 11
307.837514
 21
181.520712
  0
LINE
  8
CSLAYER1
  6
CONTINUOUS
 62
     6
 10
301.337514
 20
174.770712
 11
307.837514
 21
174.770712
  0
LINE
  8
CSLAYER1
  6
CONTINUOUS
 62
     6
 10
307.837514
 20
171.770712
 11
307.837514
 21
165.020712
  0
LINE
  8
CSLAYER1
  6
CONTINUOUS
 62
     6
 10
301.337514
 20
171.770712
 11
301.337514
 21
165.020712
  0
LINE
  8
CSLAYER1
  6
CONTINUOUS
 62
     6
 10
301.337514
 20
171.770712
 11
307.837514
 21
171.770712
  0
LINE
  8
CSLAYER1
  6
CONTINUOUS
 62
     6
 10
301.337514
 20
165.020712
 11
307.837514
 21
165.020712
  0
LINE
  8
CSLAYER1
  6
CONTINUOUS
 62
     6
 10
307.837514
 20
191.270712
 11
307.837514
 21
184.520712
  0
LINE
  8
CSLAYER1
  6
CONTINUOUS
 62
     6
 10
301.337514
 20
191.270712
 11
301.337514
 21
184.520712
  0
LINE
  8
CSLAYER1
  6
CONTINUOUS
 62
     6
 10
301.337514
 20
191.270712
 11
307.837514
 21
191.270712
  0
LINE
  8
CSLAYER1
  6
CONTINUOUS
 62
     6
 10
301.337514
 20
184.520712
 11
307.837514
 21
184.520712
  0
LINE
  8
CSLAYER1
  6
CONTINUOUS
 62
     6
 10
273.837514
 20
196.145712
 11
273.837514
 21
189.395712
  0
LINE
  8
CSLAYER1
  6
CONTINUOUS
 62
     6
 10
267.337514
 20
196.145712
 11
267.337514
 21
189.395712
  0
LINE
  8
CSLAYER1
  6
CONTINUOUS
 62
     6
 10
267.337514
 20
196.145712
 11
273.837514
 21
196.145712
  0
LINE
  8
CSLAYER1
  6
CONTINUOUS
 62
     6
 10
267.337514
 20
189.395712
 11
273.837514
 21
189.395712
  0
CIRCLE
  8
CSLAYER1
  6
CONTINUOUS
 62
     6
 10
159.187519
 20
219.645720
 40
2.250000
  0
ARC
  8
CSLAYER1
  6
CONTINUOUS
 62
     6
 10
159.187510
 20
219.645721
 40
1.250000
 50
163.398416
 51
196.601577
  0
ARC
  8
CSLAYER1
  6
CONTINUOUS
 62
     6
 10
159.187510
 20
219.645721
 40
1.250000
 50
253.398422
 51
286.601583
  0
ARC
  8
CSLAYER1
  6
CONTINUOUS
 62
     6
 10
159.187510
 20
219.645721
 40
1.250000
 50
-16.601562
 51
16.601572
  0
ARC
  8
CSLAYER1
  6
CONTINUOUS
 62
     6
 10
159.187510
 20
219.645721
 40
1.250000
 50
73.398406
 51
106.601595
  0
LINE
  8
CSLAYER1
  6
CONTINUOUS
 62
     6
 10
159.901805
 20
219.288574
 11
160.385398
 21
219.288574
  0
LINE
  8
CSLAYER1
  6
CONTINUOUS
 62
     6
 10
158.473216
 20
219.288574
 11
157.989622
 21
219.288574
  0
LINE
  8
CSLAYER1
  6
CONTINUOUS
 62
     6
 10
159.901805
 20
220.002868
 11
160.385398
 21
220.002868
  0
LINE
  8
CSLAYER1
  6
CONTINUOUS
 62
     6
 10
158.473216
 20
220.002868
 11
157.989622
 21
220.002868
  0
LINE
  8
CSLAYER1
  6
CONTINUOUS
 62
     6
 10
158.830363
 20
218.931445
 11
158.830363
 21
218.447814
  0
LINE
  8
CSLAYER1
  6
CONTINUOUS
 62
     6
 10
158.830363
 20
220.359997
 11
158.830363
 21
220.843627
  0
LINE
  8
CSLAYER1
  6
CONTINUOUS
 62
     6
 10
159.544658
 20
218.931445
 11
159.544658
 21
218.447814
  0
LINE
  8
CSLAYER1
  6
CONTINUOUS
 62
     6
 10
159.544658
 20
220.359997
 11
159.544658
 21
220.843627
  0
ARC
  8
CSLAYER1
  6
CONTINUOUS
 62
     6
 10
159.901805
 20
218.931445
 40
0.357143
 50
90.000001
 51
179.942691
  0
ARC
  8
CSLAYER1
  6
CONTINUOUS
 62
     6
 10
159.901805
 20
220.359997
 40
0.357143
 50
180.000010
 51
270.000016
  0
ARC
  8
CSLAYER1
  6
CONTINUOUS
 62
     6
 10
158.473216
 20
220.359997
 40
0.357143
 50
-89.999984
 51
0.000005
  0
ARC
  8
CSLAYER1
  6
CONTINUOUS
 62
     6
 10
158.473216
 20
218.931445
 40
0.357143
 50
0.000005
 51
89.942654
  0
CIRCLE
  8
CSLAYER1
  6
CONTINUOUS
 62
     6
 10
159.187519
 20
211.895720
 40
2.250000
  0
ARC
  8
CSLAYER1
  6
CONTINUOUS
 62
     6
 10
159.187510
 20
211.895721
 40
1.250000
 50
163.398416
 51
196.601577
  0
ARC
  8
CSLAYER1
  6
CONTINUOUS
 62
     6
 10
159.187510
 20
211.895721
 40
1.250000
 50
253.398422
 51
286.601583
  0
ARC
  8
CSLAYER1
  6
CONTINUOUS
 62
     6
 10
159.187510
 20
211.895721
 40
1.250000
 50
-16.601562
 51
16.601572
  0
ARC
  8
CSLAYER1
  6
CONTINUOUS
 62
     6
 10
159.187510
 20
211.895721
 40
1.250000
 50
73.398406
 51
106.601595
  0
LINE
  8
CSLAYER1
  6
CONTINUOUS
 62
     6
 10
159.901805
 20
211.538574
 11
160.385398
 21
211.538574
  0
LINE
  8
CSLAYER1
  6
CONTINUOUS
 62
     6
 10
158.473216
 20
211.538574
 11
157.989622
 21
211.538574
  0
LINE
  8
CSLAYER1
  6
CONTINUOUS
 62
     6
 10
159.901805
 20
212.252868
 11
160.385398
 21
212.252868
  0
LINE
  8
CSLAYER1
  6
CONTINUOUS
 62
     6
 10
158.473216
 20
212.252868
 11
157.989622
 21
212.252868
  0
LINE
  8
CSLAYER1
  6
CONTINUOUS
 62
     6
 10
158.830363
 20
211.181445
 11
158.830363
 21
210.697814
  0
LINE
  8
CSLAYER1
  6
CONTINUOUS
 62
     6
 10
158.830363
 20
212.609997
 11
158.830363
 21
213.093627
  0
LINE
  8
CSLAYER1
  6
CONTINUOUS
 62
     6
 10
159.544658
 20
211.181445
 11
159.544658
 21
210.697814
  0
LINE
  8
CSLAYER1
  6
CONTINUOUS
 62
     6
 10
159.544658
 20
212.609997
 11
159.544658
 21
213.093627
  0
ARC
  8
CSLAYER1
  6
CONTINUOUS
 62
     6
 10
159.901805
 20
211.181445
 40
0.357143
 50
90.000001
 51
179.942691
  0
ARC
  8
CSLAYER1
  6
CONTINUOUS
 62
     6
 10
159.901805
 20
212.609997
 40
0.357143
 50
180.000010
 51
270.000016
  0
ARC
  8
CSLAYER1
  6
CONTINUOUS
 62
     6
 10
158.473216
 20
212.609997
 40
0.357143
 50
-89.999984
 51
0.000005
  0
ARC
  8
CSLAYER1
  6
CONTINUOUS
 62
     6
 10
158.473216
 20
211.181445
 40
0.357143
 50
0.000005
 51
89.942654
  0
CIRCLE
  8
CSLAYER1
  6
CONTINUOUS
 62
     6
 10
159.187519
 20
204.145720
 40
2.250000
  0
ARC
  8
CSLAYER1
  6
CONTINUOUS
 62
     6
 10
159.187510
 20
204.145721
 40
1.250000
 50
163.398416
 51
196.601577
  0
ARC
  8
CSLAYER1
  6
CONTINUOUS
 62
     6
 10
159.187510
 20
204.145721
 40
1.250000
 50
253.398422
 51
286.601583
  0
ARC
  8
CSLAYER1
  6
CONTINUOUS
 62
     6
 10
159.187510
 20
204.145721
 40
1.250000
 50
-16.601562
 51
16.601572
  0
ARC
  8
CSLAYER1
  6
CONTINUOUS
 62
     6
 10
159.187510
 20
204.145721
 40
1.250000
 50
73.398406
 51
106.601595
  0
LINE
  8
CSLAYER1
  6
CONTINUOUS
 62
     6
 10
159.901805
 20
203.788574
 11
160.385398
 21
203.788574
  0
LINE
  8
CSLAYER1
  6
CONTINUOUS
 62
     6
 10
158.473216
 20
203.788574
 11
157.989622
 21
203.788574
  0
LINE
  8
CSLAYER1
  6
CONTINUOUS
 62
     6
 10
159.901805
 20
204.502868
 11
160.385398
 21
204.502868
  0
LINE
  8
CSLAYER1
  6
CONTINUOUS
 62
     6
 10
158.473216
 20
204.502868
 11
157.989622
 21
204.502868
  0
LINE
  8
CSLAYER1
  6
CONTINUOUS
 62
     6
 10
158.830363
 20
203.431445
 11
158.830363
 21
202.947814
  0
LINE
  8
CSLAYER1
  6
CONTINUOUS
 62
     6
 10
158.830363
 20
204.859997
 11
158.830363
 21
205.343627
  0
LINE
  8
CSLAYER1
  6
CONTINUOUS
 62
     6
 10
159.544658
 20
203.431445
 11
159.544658
 21
202.947814
  0
LINE
  8
CSLAYER1
  6
CONTINUOUS
 62
     6
 10
159.544658
 20
204.859997
 11
159.544658
 21
205.343627
  0
ARC
  8
CSLAYER1
  6
CONTINUOUS
 62
     6
 10
159.901805
 20
203.431445
 40
0.357143
 50
90.000001
 51
179.942691
  0
ARC
  8
CSLAYER1
  6
CONTINUOUS
 62
     6
 10
159.901805
 20
204.859997
 40
0.357143
 50
180.000010
 51
270.000016
  0
ARC
  8
CSLAYER1
  6
CONTINUOUS
 62
     6
 10
158.473216
 20
204.859997
 40
0.357143
 50
-89.999984
 51
0.000005
  0
ARC
  8
CSLAYER1
  6
CONTINUOUS
 62
     6
 10
158.473216
 20
203.431445
 40
0.357143
 50
0.000005
 51
89.942654
  0
CIRCLE
  8
CSLAYER1
  6
CONTINUOUS
 62
     6
 10
159.187519
 20
196.395720
 40
2.250000
  0
ARC
  8
CSLAYER1
  6
CONTINUOUS
 62
     6
 10
159.187510
 20
196.395721
 40
1.250000
 50
163.398416
 51
196.601577
  0
ARC
  8
CSLAYER1
  6
CONTINUOUS
 62
     6
 10
159.187510
 20
196.395721
 40
1.250000
 50
253.398422
 51
286.601583
  0
ARC
  8
CSLAYER1
  6
CONTINUOUS
 62
     6
 10
159.187510
 20
196.395721
 40
1.250000
 50
-16.601562
 51
16.601572
  0
ARC
  8
CSLAYER1
  6
CONTINUOUS
 62
     6
 10
159.187510
 20
196.395721
 40
1.250000
 50
73.398406
 51
106.601595
  0
LINE
  8
CSLAYER1
  6
CONTINUOUS
 62
     6
 10
159.901805
 20
196.038574
 11
160.385398
 21
196.038574
  0
LINE
  8
CSLAYER1
  6
CONTINUOUS
 62
     6
 10
158.473216
 20
196.038574
 11
157.989622
 21
196.038574
  0
LINE
  8
CSLAYER1
  6
CONTINUOUS
 62
     6
 10
159.901805
 20
196.752868
 11
160.385398
 21
196.752868
  0
LINE
  8
CSLAYER1
  6
CONTINUOUS
 62
     6
 10
158.473216
 20
196.752868
 11
157.989622
 21
196.752868
  0
LINE
  8
CSLAYER1
  6
CONTINUOUS
 62
     6
 10
158.830363
 20
195.681445
 11
158.830363
 21
195.197814
  0
LINE
  8
CSLAYER1
  6
CONTINUOUS
 62
     6
 10
158.830363
 20
197.109997
 11
158.830363
 21
197.593627
  0
LINE
  8
CSLAYER1
  6
CONTINUOUS
 62
     6
 10
159.544658
 20
195.681445
 11
159.544658
 21
195.197814
  0
LINE
  8
CSLAYER1
  6
CONTINUOUS
 62
     6
 10
159.544658
 20
197.109997
 11
159.544658
 21
197.593627
  0
ARC
  8
CSLAYER1
  6
CONTINUOUS
 62
     6
 10
159.901805
 20
195.681445
 40
0.357143
 50
90.000001
 51
179.942691
  0
ARC
  8
CSLAYER1
  6
CONTINUOUS
 62
     6
 10
159.901805
 20
197.109997
 40
0.357143
 50
180.000010
 51
270.000016
  0
ARC
  8
CSLAYER1
  6
CONTINUOUS
 62
     6
 10
158.473216
 20
197.109997
 40
0.357143
 50
-89.999984
 51
0.000005
  0
ARC
  8
CSLAYER1
  6
CONTINUOUS
 62
     6
 10
158.473216
 20
195.681445
 40
0.357143
 50
0.000005
 51
89.942654
  0
LINE
  8
CSLAYER1
  6
CONTINUOUS
 62
     6
 10
173.837514
 20
173.895712
 11
173.837514
 21
167.145712
  0
LINE
  8
CSLAYER1
  6
CONTINUOUS
 62
     6
 10
167.337514
 20
173.895712
 11
167.337514
 21
167.145712
  0
LINE
  8
CSLAYER1
  6
CONTINUOUS
 62
     6
 10
167.337514
 20
173.895712
 11
173.837514
 21
173.895712
  0
LINE
  8
CSLAYER1
  6
CONTINUOUS
 62
     6
 10
167.337514
 20
167.145712
 11
173.837514
 21
167.145712
  0
LINE
  8
CSLAYER1
  6
CONTINUOUS
 62
     6
 10
204.337514
 20
195.020712
 11
258.337514
 21
195.020712
  0
LINE
  8
CSLAYER1
  6
CONTINUOUS
 62
     6
 10
204.337514
 20
185.020712
 11
258.337514
 21
185.020712
  0
LINE
  8
CSLAYER1
  6
CONTINUOUS
 62
     6
 10
258.337514
 20
195.020712
 11
258.337514
 21
185.020712
  0
LINE
  8
CSLAYER1
  6
CONTINUOUS
 62
     6
 10
204.337514
 20
195.020712
 11
204.337514
 21
185.020712
  0
LINE
  8
CSLAYER1
  6
DOT
 62
     3
 10
258.337514
 20
195.020712
 11
258.337514
 21
185.020712
  0
LINE
  8
CSLAYER1
  6
DOT
 62
     3
 10
204.337514
 20
195.020712
 11
204.337514
 21
185.020712
  0
ENDBLK
  8
0
  0
ENDSEC
  0
SECTION
  2
ENTITIES
  0
TEXT
  8
CSLAYER1
 62
     3
 10
298.487488
 20
180.845718
 40
2.200000
 41
0.920455
  1
VR5
 50
-90.000000
 51
0.000000
  7
FX_FONT
 72
     5
 11
298.487488
 21
175.445719
  0
TEXT
  8
CSLAYER1
 62
     3
 10
298.487488
 20
171.095718
 40
2.200000
 41
0.920455
  1
VR3
 50
-90.000000
 51
0.000000
  7
FX_FONT
 72
     5
 11
298.487488
 21
165.695719
  0
TEXT
  8
CSLAYER1
 62
     3
 10
298.487488
 20
190.595718
 40
2.200000
 41
0.920455
  1
VR2
 50
-90.000000
 51
0.000000
  7
FX_FONT
 72
     5
 11
298.487488
 21
185.195719
  0
TEXT
  8
CSLAYER1
 62
     3
 10
298.487488
 20
200.345718
 40
2.200000
 41
0.920455
  1
VR4
 50
-90.000000
 51
0.000000
  7
FX_FONT
 72
     5
 11
298.487488
 21
194.945719
  0
TEXT
  8
CSLAYER1
 62
     3
 10
263.987488
 20
197.955704
 40
2.200000
 41
0.920455
  1
VR6
 50
-90.000000
 51
0.000000
  7
FX_FONT
 72
     5
 11
263.987488
 21
192.555704
  0
TEXT
  8
CSLAYER1
 62
     3
 10
163.987503
 20
175.705704
 40
2.200000
 41
0.920455
  1
VR1
 50
-90.000000
 51
0.000000
  7
FX_FONT
 72
     5
 11
163.987503
 21
170.305704
  0
LINE
  8
CSLAYER1
  6
CENTER
 62
     3
 10
81.928400
 20
148.020712
 11
59.833587
 21
148.020712
  0
LINE
  8
CSLAYER1
  6
CENTER
 62
     3
 10
81.928400
 20
238.020712
 11
59.833587
 21
238.020712
  0
TEXT
  8
CSLAYER1
 62
     3
 10
354.089539
 20
35.476463
 40
4.000000
 41
0.768293
  1
MS-400□**04,08
 50
0.000000
 51
10.000000
  7
FX_FONT
 72
     5
 11
396.089539
 21
35.476463
  0
TEXT
  8
CSLAYER1
 62
     4
 10
354.089539
 20
29.476463
 40
3.500000
 41
1.071429
  1
尺度1：1
 50
0.000000
 51
10.000000
  7
FX_FONT
 72
     5
 11
371.589539
 21
29.476463
  0
TEXT
  8
CSLAYER1
 62
     3
 10
354.089539
 20
41.476463
 40
4.000000
 41
1.038462
  1
DCモータドライバ
 50
0.000000
 51
10.000000
  7
FX_FONT
 72
     5
 11
390.089539
 21
41.476463
  0
LINE
  8
CSLAYER1
  6
CENTER
 62
     3
 10
327.833587
 20
242.270712
 11
327.833587
 21
233.770712
  0
LINE
  8
CSLAYER1
  6
CENTER
 62
     3
 10
142.833587
 20
242.270712
 11
142.833587
 21
233.770712
  0
LINE
  8
CSLAYER1
  6
CENTER
 62
     3
 10
327.833587
 20
152.270712
 11
327.833587
 21
143.770712
  0
LINE
  8
CSLAYER1
  6
CENTER
 62
     3
 10
142.833587
 20
152.270712
 11
142.833587
 21
143.770712
  0
LINE
  8
CSLAYER1
  6
CENTER
 62
     3
 10
323.583587
 20
238.020712
 11
332.083587
 21
238.020712
  0
LINE
  8
CSLAYER1
  6
CENTER
 62
     3
 10
323.583587
 20
148.020712
 11
332.083587
 21
148.020712
  0
LINE
  8
CSLAYER1
  6
CENTER
 62
     3
 10
138.583587
 20
148.020712
 11
147.083587
 21
148.020712
  0
LINE
  8
CSLAYER1
  6
CENTER
 62
     3
 10
138.583587
 20
238.020712
 11
147.083587
 21
238.020712
  0
LINE
  8
CSLAYER1
  6
CENTER
 62
     3
 10
317.833587
 20
242.770717
 11
317.833587
 21
233.270706
  0
LINE
  8
CSLAYER1
  6
CENTER
 62
     3
 10
313.083582
 20
238.020712
 11
322.583592
 21
238.020712
  0
LINE
  8
CSLAYER1
  6
CENTER
 62
     3
 10
152.833587
 20
242.770717
 11
152.833587
 21
233.270706
  0
LINE
  8
CSLAYER1
  6
CENTER
 62
     3
 10
148.083582
 20
238.020712
 11
157.583592
 21
238.020712
  0
LINE
  8
CSLAYER1
  6
CENTER
 62
     3
 10
152.833587
 20
152.770717
 11
152.833587
 21
143.270706
  0
LINE
  8
CSLAYER1
  6
CENTER
 62
     3
 10
148.083582
 20
148.020712
 11
157.583592
 21
148.020712
  0
LINE
  8
CSLAYER1
  6
CENTER
 62
     3
 10
317.833587
 20
152.770717
 11
317.833587
 21
143.270706
  0
LINE
  8
CSLAYER1
  6
CENTER
 62
     3
 10
313.083582
 20
148.020712
 11
322.583592
 21
148.020712
  0
LINE
  8
CSLAYER1
  6
CONTINUOUS
 62
     6
 10
218.337514
 20
239.020712
 11
246.837514
 21
239.020712
  0
LINE
  8
CSLAYER1
  6
CONTINUOUS
 62
     6
 10
218.337514
 20
219.020712
 11
246.837514
 21
219.020712
  0
LINE
  8
CSLAYER1
  6
CONTINUOUS
 62
     6
 10
246.837514
 20
239.020712
 11
246.837514
 21
219.020712
  0
LINE
  8
CSLAYER1
  6
CONTINUOUS
 62
     6
 10
218.337514
 20
239.020712
 11
218.337514
 21
219.020712
  0
LINE
  8
CSLAYER1
  6
CONTINUOUS
 62
     6
 10
304.337514
 20
239.020712
 11
304.337514
 21
219.020712
  0
LINE
  8
CSLAYER1
  6
CONTINUOUS
 62
     6
 10
266.837514
 20
239.020712
 11
266.837514
 21
219.020712
  0
LINE
  8
CSLAYER1
  6
CONTINUOUS
 62
     6
 10
266.837514
 20
219.020712
 11
304.337514
 21
219.020712
  0
LINE
  8
CSLAYER1
  6
CONTINUOUS
 62
     6
 10
266.837514
 20
239.020712
 11
304.337514
 21
239.020712
  0
TEXT
  8
CSLAYER1
 62
     3
 10
295.487488
 20
170.195709
 40
2.200000
 41
0.981818
  1
GA
 50
-90.000000
 51
0.000000
  7
FX_FONT
 72
     5
 11
295.487488
 21
166.595709
  0
LINE
  8
CSLAYER1
  6
CONTINUOUS
 62
     3
 10
295.337514
 20
170.520712
 11
295.337514
 21
166.270712
  0
LINE
  8
CSLAYER1
  6
CONTINUOUS
 62
     3
 10
297.837514
 20
170.520712
 11
297.837514
 21
166.270712
  0
LINE
  8
CSLAYER1
  6
CONTINUOUS
 62
     3
 10
297.837514
 20
170.520712
 11
295.337514
 21
170.520712
  0
LINE
  8
CSLAYER1
  6
CONTINUOUS
 62
     3
 10
297.837514
 20
166.270712
 11
295.337514
 21
166.270712
  0
TEXT
  8
CSLAYER1
 62
     3
 10
295.487488
 20
180.845718
 40
2.200000
 41
0.920455
  1
OFS
 50
-90.000000
 51
0.000000
  7
FX_FONT
 72
     5
 11
295.487488
 21
175.445719
  0
LINE
  8
CSLAYER1
  6
CONTINUOUS
 62
     3
 10
295.337514
 20
181.020712
 11
295.337514
 21
175.270712
  0
LINE
  8
CSLAYER1
  6
CONTINUOUS
 62
     3
 10
297.837514
 20
181.020712
 11
297.837514
 21
175.270712
  0
LINE
  8
CSLAYER1
  6
CONTINUOUS
 62
     3
 10
297.837514
 20
181.020712
 11
295.337514
 21
181.020712
  0
LINE
  8
CSLAYER1
  6
CONTINUOUS
 62
     3
 10
297.837514
 20
175.270712
 11
295.337514
 21
175.270712
  0
TEXT
  8
CSLAYER1
 62
     3
 10
295.487488
 20
190.595718
 40
2.200000
 41
0.920455
  1
SPD
 50
-90.000000
 51
0.000000
  7
FX_FONT
 72
     5
 11
295.487488
 21
185.195719
  0
LINE
  8
CSLAYER1
  6
CONTINUOUS
 62
     3
 10
295.337514
 20
190.770712
 11
295.337514
 21
185.020712
  0
LINE
  8
CSLAYER1
  6
CONTINUOUS
 62
     3
 10
297.837514
 20
190.770712
 11
297.837514
 21
185.020712
  0
LINE
  8
CSLAYER1
  6
CONTINUOUS
 62
     3
 10
297.837514
 20
190.770712
 11
295.337514
 21
190.770712
  0
LINE
  8
CSLAYER1
  6
CONTINUOUS
 62
     3
 10
297.837514
 20
185.020712
 11
295.337514
 21
185.020712
  0
TEXT
  8
CSLAYER1
 62
     3
 10
295.487488
 20
199.445709
 40
2.200000
 41
0.981818
  1
PH
 50
-90.000000
 51
0.000000
  7
FX_FONT
 72
     5
 11
295.487488
 21
195.845709
  0
LINE
  8
CSLAYER1
  6
CONTINUOUS
 62
     3
 10
295.337514
 20
199.770712
 11
295.337514
 21
195.520712
  0
LINE
  8
CSLAYER1
  6
CONTINUOUS
 62
     3
 10
297.837514
 20
199.770712
 11
297.837514
 21
195.520712
  0
LINE
  8
CSLAYER1
  6
CONTINUOUS
 62
     3
 10
297.837514
 20
199.770712
 11
295.337514
 21
199.770712
  0
LINE
  8
CSLAYER1
  6
CONTINUOUS
 62
     3
 10
297.837514
 20
195.520712
 11
295.337514
 21
195.520712
  0
TEXT
  8
CSLAYER1
 62
     3
 10
278.987488
 20
185.470718
 40
2.200000
 41
0.920455
  1
SW2
 50
-90.000000
 51
0.000000
  7
FX_FONT
 72
     5
 11
278.987488
 21
180.070719
  0
LINE
  8
CSLAYER1
  6
CONTINUOUS
 62
     3
 10
278.837514
 20
185.645712
 11
278.837514
 21
179.895712
  0
LINE
  8
CSLAYER1
  6
CONTINUOUS
 62
     3
 10
281.337514
 20
185.645712
 11
281.337514
 21
179.895712
  0
LINE
  8
CSLAYER1
  6
CONTINUOUS
 62
     3
 10
281.337514
 20
185.645712
 11
278.837514
 21
185.645712
  0
LINE
  8
CSLAYER1
  6
CONTINUOUS
 62
     3
 10
281.337514
 20
179.895712
 11
278.837514
 21
179.895712
  0
TEXT
  8
CSLAYER1
 62
     3
 10
263.987488
 20
191.945709
 40
2.200000
 41
0.981818
  1
CL
 50
-90.000000
 51
0.000000
  7
FX_FONT
 72
     5
 11
263.987488
 21
188.345709
  0
LINE
  8
CSLAYER1
  6
CONTINUOUS
 62
     3
 10
263.837514
 20
192.270712
 11
263.837514
 21
188.020712
  0
LINE
  8
CSLAYER1
  6
CONTINUOUS
 62
     3
 10
266.337514
 20
192.270712
 11
266.337514
 21
188.020712
  0
LINE
  8
CSLAYER1
  6
CONTINUOUS
 62
     3
 10
266.337514
 20
192.270712
 11
263.837514
 21
192.270712
  0
LINE
  8
CSLAYER1
  6
CONTINUOUS
 62
     3
 10
266.337514
 20
188.020712
 11
263.837514
 21
188.020712
  0
TEXT
  8
CSLAYER1
 62
     3
 10
163.987503
 20
169.695709
 40
2.200000
 41
0.920455
  1
ACC
 50
-90.000000
 51
0.000000
  7
FX_FONT
 72
     5
 11
163.987503
 21
164.295709
  0
LINE
  8
CSLAYER1
  6
CONTINUOUS
 62
     3
 10
163.837514
 20
170.020712
 11
163.837514
 21
164.270712
  0
LINE
  8
CSLAYER1
  6
CONTINUOUS
 62
     3
 10
166.337514
 20
170.020712
 11
166.337514
 21
164.270712
  0
LINE
  8
CSLAYER1
  6
CONTINUOUS
 62
     3
 10
166.337514
 20
170.020712
 11
163.837514
 21
170.020712
  0
LINE
  8
CSLAYER1
  6
CONTINUOUS
 62
     3
 10
166.337514
 20
164.270712
 11
163.837514
 21
164.270712
  0
TEXT
  8
CSLAYER1
 62
     3
 10
163.987503
 20
162.820709
 40
2.200000
 41
0.920455
  1
SW1
 50
-90.000000
 51
0.000000
  7
FX_FONT
 72
     5
 11
163.987503
 21
157.420709
  0
LINE
  8
CSLAYER1
  6
CONTINUOUS
 62
     3
 10
163.837514
 20
163.145712
 11
163.837514
 21
157.395712
  0
LINE
  8
CSLAYER1
  6
CONTINUOUS
 62
     3
 10
166.337514
 20
163.145712
 11
166.337514
 21
157.395712
  0
LINE
  8
CSLAYER1
  6
CONTINUOUS
 62
     3
 10
166.337514
 20
163.145712
 11
163.837514
 21
163.145712
  0
LINE
  8
CSLAYER1
  6
CONTINUOUS
 62
     3
 10
166.337514
 20
157.395712
 11
163.837514
 21
157.395712
  0
CIRCLE
  8
CSLAYER1
  6
CONTINUOUS
 62
     3
 10
304.587514
 20
197.645712
 40
1.650000
  0
LINE
  8
CSLAYER1
  6
CONTINUOUS
 62
     3
 10
304.917514
 20
198.965712
 11
304.917514
 21
197.975712
  0
LINE
  8
CSLAYER1
  6
CONTINUOUS
 62
     3
 10
304.257514
 20
198.965712
 11
304.257514
 21
197.975712
  0
LINE
  8
CSLAYER1
  6
CONTINUOUS
 62
     3
 10
303.267514
 20
197.975712
 11
304.257514
 21
197.975712
  0
LINE
  8
CSLAYER1
  6
CONTINUOUS
 62
     3
 10
303.267514
 20
197.315712
 11
304.257514
 21
197.315712
  0
LINE
  8
CSLAYER1
  6
CONTINUOUS
 62
     3
 10
303.267514
 20
197.975712
 11
303.267514
 21
197.315712
  0
LINE
  8
CSLAYER1
  6
CONTINUOUS
 62
     3
 10
304.917514
 20
198.965712
 11
304.257514
 21
198.965712
  0
LINE
  8
CSLAYER1
  6
CONTINUOUS
 62
     3
 10
304.257514
 20
196.325712
 11
304.917514
 21
196.325712
  0
LINE
  8
CSLAYER1
  6
CONTINUOUS
 62
     3
 10
305.511514
 20
198.331604
 11
305.511514
 21
197.975712
  0
LINE
  8
CSLAYER1
  6
CONTINUOUS
 62
     3
 10
305.511514
 20
198.331604
 11
305.907514
 21
197.645712
  0
LINE
  8
CSLAYER1
  6
CONTINUOUS
 62
     3
 10
305.511514
 20
196.959820
 11
305.907514
 21
197.645712
  0
LINE
  8
CSLAYER1
  6
CONTINUOUS
 62
     3
 10
305.511514
 20
197.315712
 11
305.511514
 21
196.959820
  0
LINE
  8
CSLAYER1
  6
CONTINUOUS
 62
     3
 10
304.917514
 20
197.315712
 11
304.917514
 21
196.325712
  0
LINE
  8
CSLAYER1
  6
CONTINUOUS
 62
     3
 10
304.257514
 20
197.315712
 11
304.257514
 21
196.325712
  0
LINE
  8
CSLAYER1
  6
CONTINUOUS
 62
     3
 10
304.917514
 20
197.975712
 11
305.511514
 21
197.975712
  0
LINE
  8
CSLAYER1
  6
CONTINUOUS
 62
     3
 10
304.917514
 20
197.315712
 11
305.511514
 21
197.315712
  0
CIRCLE
  8
CSLAYER1
  6
CONTINUOUS
 62
     3
 10
304.587514
 20
178.145712
 40
1.650000
  0
LINE
  8
CSLAYER1
  6
CONTINUOUS
 62
     3
 10
304.917514
 20
179.465712
 11
304.917514
 21
178.475712
  0
LINE
  8
CSLAYER1
  6
CONTINUOUS
 62
     3
 10
304.257514
 20
179.465712
 11
304.257514
 21
178.475712
  0
LINE
  8
CSLAYER1
  6
CONTINUOUS
 62
     3
 10
303.267514
 20
178.475712
 11
304.257514
 21
178.475712
  0
LINE
  8
CSLAYER1
  6
CONTINUOUS
 62
     3
 10
303.267514
 20
177.815712
 11
304.257514
 21
177.815712
  0
LINE
  8
CSLAYER1
  6
CONTINUOUS
 62
     3
 10
303.267514
 20
178.475712
 11
303.267514
 21
177.815712
  0
LINE
  8
CSLAYER1
  6
CONTINUOUS
 62
     3
 10
304.917514
 20
179.465712
 11
304.257514
 21
179.465712
  0
LINE
  8
CSLAYER1
  6
CONTINUOUS
 62
     3
 10
304.257514
 20
176.825712
 11
304.917514
 21
176.825712
  0
LINE
  8
CSLAYER1
  6
CONTINUOUS
 62
     3
 10
305.511514
 20
178.831604
 11
305.511514
 21
178.475712
  0
LINE
  8
CSLAYER1
  6
CONTINUOUS
 62
     3
 10
305.511514
 20
178.831604
 11
305.907514
 21
178.145712
  0
LINE
  8
CSLAYER1
  6
CONTINUOUS
 62
     3
 10
305.511514
 20
177.459820
 11
305.907514
 21
178.145712
  0
LINE
  8
CSLAYER1
  6
CONTINUOUS
 62
     3
 10
305.511514
 20
177.815712
 11
305.511514
 21
177.459820
  0
LINE
  8
CSLAYER1
  6
CONTINUOUS
 62
     3
 10
304.917514
 20
177.815712
 11
304.917514
 21
176.825712
  0
LINE
  8
CSLAYER1
  6
CONTINUOUS
 62
     3
 10
304.257514
 20
177.815712
 11
304.257514
 21
176.825712
  0
LINE
  8
CSLAYER1
  6
CONTINUOUS
 62
     3
 10
304.917514
 20
178.475712
 11
305.511514
 21
178.475712
  0
LINE
  8
CSLAYER1
  6
CONTINUOUS
 62
     3
 10
304.917514
 20
177.815712
 11
305.511514
 21
177.815712
  0
CIRCLE
  8
CSLAYER1
  6
CONTINUOUS
 62
     3
 10
304.587514
 20
168.395712
 40
1.650000
  0
LINE
  8
CSLAYER1
  6
CONTINUOUS
 62
     3
 10
304.917514
 20
169.715712
 11
304.917514
 21
168.725712
  0
LINE
  8
CSLAYER1
  6
CONTINUOUS
 62
     3
 10
304.257514
 20
169.715712
 11
304.257514
 21
168.725712
  0
LINE
  8
CSLAYER1
  6
CONTINUOUS
 62
     3
 10
303.267514
 20
168.725712
 11
304.257514
 21
168.725712
  0
LINE
  8
CSLAYER1
  6
CONTINUOUS
 62
     3
 10
303.267514
 20
168.065712
 11
304.257514
 21
168.065712
  0
LINE
  8
CSLAYER1
  6
CONTINUOUS
 62
     3
 10
303.267514
 20
168.725712
 11
303.267514
 21
168.065712
  0
LINE
  8
CSLAYER1
  6
CONTINUOUS
 62
     3
 10
304.917514
 20
169.715712
 11
304.257514
 21
169.715712
  0
LINE
  8
CSLAYER1
  6
CONTINUOUS
 62
     3
 10
304.257514
 20
167.075712
 11
304.917514
 21
167.075712
  0
LINE
  8
CSLAYER1
  6
CONTINUOUS
 62
     3
 10
305.511514
 20
169.081604
 11
305.511514
 21
168.725712
  0
LINE
  8
CSLAYER1
  6
CONTINUOUS
 62
     3
 10
305.511514
 20
169.081604
 11
305.907514
 21
168.395712
  0
LINE
  8
CSLAYER1
  6
CONTINUOUS
 62
     3
 10
305.511514
 20
167.709820
 11
305.907514
 21
168.395712
  0
LINE
  8
CSLAYER1
  6
CONTINUOUS
 62
     3
 10
305.511514
 20
168.065712
 11
305.511514
 21
167.709820
  0
LINE
  8
CSLAYER1
  6
CONTINUOUS
 62
     3
 10
304.917514
 20
168.065712
 11
304.917514
 21
167.075712
  0
LINE
  8
CSLAYER1
  6
CONTINUOUS
 62
     3
 10
304.257514
 20
168.065712
 11
304.257514
 21
167.075712
  0
LINE
  8
CSLAYER1
  6
CONTINUOUS
 62
     3
 10
304.917514
 20
168.725712
 11
305.511514
 21
168.725712
  0
LINE
  8
CSLAYER1
  6
CONTINUOUS
 62
     3
 10
304.917514
 20
168.065712
 11
305.511514
 21
168.065712
  0
CIRCLE
  8
CSLAYER1
  6
CONTINUOUS
 62
     3
 10
304.587514
 20
187.895712
 40
1.650000
  0
LINE
  8
CSLAYER1
  6
CONTINUOUS
 62
     3
 10
303.267514
 20
188.225712
 11
304.257514
 21
188.225712
  0
LINE
  8
CSLAYER1
  6
CONTINUOUS
 62
     3
 10
303.267514
 20
187.565712
 11
304.257514
 21
187.565712
  0
LINE
  8
CSLAYER1
  6
CONTINUOUS
 62
     3
 10
304.257514
 20
186.575712
 11
304.257514
 21
187.565712
  0
LINE
  8
CSLAYER1
  6
CONTINUOUS
 62
     3
 10
304.917514
 20
186.575712
 11
304.917514
 21
187.565712
  0
LINE
  8
CSLAYER1
  6
CONTINUOUS
 62
     3
 10
304.257514
 20
186.575712
 11
304.917514
 21
186.575712
  0
LINE
  8
CSLAYER1
  6
CONTINUOUS
 62
     3
 10
303.267514
 20
188.225712
 11
303.267514
 21
187.565712
  0
LINE
  8
CSLAYER1
  6
CONTINUOUS
 62
     3
 10
305.907514
 20
187.565712
 11
305.907514
 21
188.225712
  0
LINE
  8
CSLAYER1
  6
CONTINUOUS
 62
     3
 10
303.901622
 20
188.819712
 11
304.257514
 21
188.819712
  0
LINE
  8
CSLAYER1
  6
CONTINUOUS
 62
     3
 10
303.901622
 20
188.819712
 11
304.587514
 21
189.215712
  0
LINE
  8
CSLAYER1
  6
CONTINUOUS
 62
     3
 10
305.273406
 20
188.819712
 11
304.587514
 21
189.215712
  0
LINE
  8
CSLAYER1
  6
CONTINUOUS
 62
     3
 10
304.917514
 20
188.819712
 11
305.273406
 21
188.819712
  0
LINE
  8
CSLAYER1
  6
CONTINUOUS
 62
     3
 10
304.917514
 20
188.225712
 11
305.907514
 21
188.225712
  0
LINE
  8
CSLAYER1
  6
CONTINUOUS
 62
     3
 10
304.917514
 20
187.565712
 11
305.907514
 21
187.565712
  0
LINE
  8
CSLAYER1
  6
CONTINUOUS
 62
     3
 10
304.257514
 20
188.225712
 11
304.257514
 21
188.819712
  0
LINE
  8
CSLAYER1
  6
CONTINUOUS
 62
     3
 10
304.917514
 20
188.225712
 11
304.917514
 21
188.819712
  0
CIRCLE
  8
CSLAYER1
  6
CONTINUOUS
 62
     3
 10
270.587514
 20
192.770712
 40
1.650000
  0
LINE
  8
CSLAYER1
  6
CONTINUOUS
 62
     3
 10
269.887478
 20
193.937438
 11
270.587514
 21
193.237402
  0
LINE
  8
CSLAYER1
  6
CONTINUOUS
 62
     3
 10
269.420788
 20
193.470747
 11
270.120823
 21
192.770712
  0
LINE
  8
CSLAYER1
  6
CONTINUOUS
 62
     3
 10
269.420788
 20
192.070676
 11
270.120823
 21
192.770712
  0
LINE
  8
CSLAYER1
  6
CONTINUOUS
 62
     3
 10
269.887478
 20
191.603986
 11
270.587514
 21
192.304021
  0
LINE
  8
CSLAYER1
  6
CONTINUOUS
 62
     3
 10
269.420788
 20
192.070676
 11
269.887478
 21
191.603986
  0
LINE
  8
CSLAYER1
  6
CONTINUOUS
 62
     3
 10
269.887478
 20
193.937438
 11
269.420788
 21
193.470747
  0
LINE
  8
CSLAYER1
  6
CONTINUOUS
 62
     3
 10
271.287550
 20
191.603986
 11
271.754240
 21
192.070676
  0
LINE
  8
CSLAYER1
  6
CONTINUOUS
 62
     3
 10
270.755882
 20
193.909077
 11
271.007535
 21
193.657424
  0
LINE
  8
CSLAYER1
  6
CONTINUOUS
 62
     3
 10
270.755882
 20
193.909077
 11
271.520895
 21
193.704093
  0
LINE
  8
CSLAYER1
  6
CONTINUOUS
 62
     3
 10
271.725879
 20
192.939079
 11
271.520895
 21
193.704093
  0
LINE
  8
CSLAYER1
  6
CONTINUOUS
 62
     3
 10
271.474226
 20
193.190733
 11
271.725879
 21
192.939079
  0
LINE
  8
CSLAYER1
  6
CONTINUOUS
 62
     3
 10
271.054204
 20
192.770712
 11
271.754240
 21
192.070676
  0
LINE
  8
CSLAYER1
  6
CONTINUOUS
 62
     3
 10
270.587514
 20
192.304021
 11
271.287550
 21
191.603986
  0
LINE
  8
CSLAYER1
  6
CONTINUOUS
 62
     3
 10
270.587514
 20
193.237402
 11
271.007535
 21
193.657424
  0
LINE
  8
CSLAYER1
  6
CONTINUOUS
 62
     3
 10
271.054204
 20
192.770712
 11
271.474226
 21
193.190733
  0
LINE
  8
CSLAYER1
  6
CONTINUOUS
 62
     3
 10
169.670847
 20
161.604045
 11
169.670847
 21
158.937378
  0
LINE
  8
CSLAYER1
  6
CONTINUOUS
 62
     3
 10
170.004180
 20
161.604045
 11
170.004180
 21
158.937378
  0
LINE
  8
CSLAYER1
  6
CONTINUOUS
 62
     3
 10
170.337514
 20
161.604045
 11
170.337514
 21
158.937378
  0
LINE
  8
CSLAYER1
  6
CONTINUOUS
 62
     3
 10
170.670847
 20
161.604045
 11
170.670847
 21
158.937378
  0
LINE
  8
CSLAYER1
  6
CONTINUOUS
 62
     3
 10
171.004180
 20
161.604045
 11
171.004180
 21
158.937378
  0
TEXT
  8
CSLAYER1
 62
     3
 10
149.487503
 20
222.195709
 40
2.200000
 41
0.920455
  1
PS+
 50
-90.000000
 51
0.000000
  7
FX_FONT
 72
     5
 11
149.487503
 21
216.795709
  0
LINE
  8
CSLAYER1
  6
CONTINUOUS
 62
     3
 10
149.337514
 20
222.520712
 11
149.337514
 21
216.770712
  0
LINE
  8
CSLAYER1
  6
CONTINUOUS
 62
     3
 10
151.837514
 20
222.520712
 11
151.837514
 21
216.770712
  0
LINE
  8
CSLAYER1
  6
CONTINUOUS
 62
     3
 10
151.837514
 20
222.520712
 11
149.337514
 21
222.520712
  0
LINE
  8
CSLAYER1
  6
CONTINUOUS
 62
     3
 10
151.837514
 20
216.770712
 11
149.337514
 21
216.770712
  0
TEXT
  8
CSLAYER1
 62
     3
 10
149.487503
 20
214.445709
 40
2.200000
 41
0.920455
  1
PS-
 50
-90.000000
 51
0.000000
  7
FX_FONT
 72
     5
 11
149.487503
 21
209.045709
  0
LINE
  8
CSLAYER1
  6
CONTINUOUS
 62
     3
 10
149.337514
 20
214.770712
 11
149.337514
 21
209.020712
  0
LINE
  8
CSLAYER1
  6
CONTINUOUS
 62
     3
 10
151.837514
 20
214.770712
 11
151.837514
 21
209.020712
  0
LINE
  8
CSLAYER1
  6
CONTINUOUS
 62
     3
 10
151.837514
 20
214.770712
 11
149.337514
 21
214.770712
  0
LINE
  8
CSLAYER1
  6
CONTINUOUS
 62
     3
 10
151.837514
 20
209.020712
 11
149.337514
 21
209.020712
  0
TEXT
  8
CSLAYER1
 62
     3
 10
149.487503
 20
205.945709
 40
2.200000
 41
0.981818
  1
M+
 50
-90.000000
 51
0.000000
  7
FX_FONT
 72
     5
 11
149.487503
 21
202.345709
  0
LINE
  8
CSLAYER1
  6
CONTINUOUS
 62
     3
 10
149.337514
 20
206.270712
 11
149.337514
 21
202.020712
  0
LINE
  8
CSLAYER1
  6
CONTINUOUS
 62
     3
 10
151.837514
 20
206.270712
 11
151.837514
 21
202.020712
  0
LINE
  8
CSLAYER1
  6
CONTINUOUS
 62
     3
 10
151.837514
 20
206.270712
 11
149.337514
 21
206.270712
  0
LINE
  8
CSLAYER1
  6
CONTINUOUS
 62
     3
 10
151.837514
 20
202.020712
 11
149.337514
 21
202.020712
  0
TEXT
  8
CSLAYER1
 62
     3
 10
149.487503
 20
198.195709
 40
2.200000
 41
0.981818
  1
M-
 50
-90.000000
 51
0.000000
  7
FX_FONT
 72
     5
 11
149.487503
 21
194.595709
  0
LINE
  8
CSLAYER1
  6
CONTINUOUS
 62
     3
 10
149.337514
 20
198.520712
 11
149.337514
 21
194.270712
  0
LINE
  8
CSLAYER1
  6
CONTINUOUS
 62
     3
 10
151.837514
 20
198.520712
 11
151.837514
 21
194.270712
  0
LINE
  8
CSLAYER1
  6
CONTINUOUS
 62
     3
 10
151.837514
 20
198.520712
 11
149.337514
 21
198.520712
  0
LINE
  8
CSLAYER1
  6
CONTINUOUS
 62
     3
 10
151.837514
 20
194.270712
 11
149.337514
 21
194.270712
  0
TEXT
  8
CSLAYER1
 62
     3
 10
149.487503
 20
187.570709
 40
2.200000
 41
0.920455
  1
TG+
 50
-90.000000
 51
0.000000
  7
FX_FONT
 72
     5
 11
149.487503
 21
182.170709
  0
LINE
  8
CSLAYER1
  6
CONTINUOUS
 62
     3
 10
149.337514
 20
187.895712
 11
149.337514
 21
182.145712
  0
LINE
  8
CSLAYER1
  6
CONTINUOUS
 62
     3
 10
151.837514
 20
187.895712
 11
151.837514
 21
182.145712
  0
LINE
  8
CSLAYER1
  6
CONTINUOUS
 62
     3
 10
151.837514
 20
187.895712
 11
149.337514
 21
187.895712
  0
LINE
  8
CSLAYER1
  6
CONTINUOUS
 62
     3
 10
151.837514
 20
182.145712
 11
149.337514
 21
182.145712
  0
TEXT
  8
CSLAYER1
 62
     3
 10
149.487503
 20
180.820709
 40
2.200000
 41
0.920455
  1
TG-
 50
-90.000000
 51
0.000000
  7
FX_FONT
 72
     5
 11
149.487503
 21
175.420709
  0
LINE
  8
CSLAYER1
  6
CONTINUOUS
 62
     3
 10
149.337514
 20
181.145712
 11
149.337514
 21
175.395712
  0
LINE
  8
CSLAYER1
  6
CONTINUOUS
 62
     3
 10
151.837514
 20
181.145712
 11
151.837514
 21
175.395712
  0
LINE
  8
CSLAYER1
  6
CONTINUOUS
 62
     3
 10
151.837514
 20
181.145712
 11
149.337514
 21
181.145712
  0
LINE
  8
CSLAYER1
  6
CONTINUOUS
 62
     3
 10
151.837514
 20
175.395712
 11
149.337514
 21
175.395712
  0
TEXT
  8
CSLAYER1
 62
     3
 10
149.487503
 20
174.070709
 40
2.200000
 41
0.920455
  1
VR1
 50
-90.000000
 51
0.000000
  7
FX_FONT
 72
     5
 11
149.487503
 21
168.670709
  0
LINE
  8
CSLAYER1
  6
CONTINUOUS
 62
     3
 10
149.337514
 20
174.395712
 11
149.337514
 21
168.645712
  0
LINE
  8
CSLAYER1
  6
CONTINUOUS
 62
     3
 10
151.837514
 20
174.395712
 11
151.837514
 21
168.645712
  0
LINE
  8
CSLAYER1
  6
CONTINUOUS
 62
     3
 10
151.837514
 20
174.395712
 11
149.337514
 21
174.395712
  0
LINE
  8
CSLAYER1
  6
CONTINUOUS
 62
     3
 10
151.837514
 20
168.645712
 11
149.337514
 21
168.645712
  0
TEXT
  8
CSLAYER1
 62
     3
 10
149.487503
 20
167.320709
 40
2.200000
 41
0.920455
  1
VR2
 50
-90.000000
 51
0.000000
  7
FX_FONT
 72
     5
 11
149.487503
 21
161.920709
  0
LINE
  8
CSLAYER1
  6
CONTINUOUS
 62
     3
 10
149.337514
 20
167.645712
 11
149.337514
 21
161.895712
  0
LINE
  8
CSLAYER1
  6
CONTINUOUS
 62
     3
 10
151.837514
 20
167.645712
 11
151.837514
 21
161.895712
  0
LINE
  8
CSLAYER1
  6
CONTINUOUS
 62
     3
 10
151.837514
 20
167.645712
 11
149.337514
 21
167.645712
  0
LINE
  8
CSLAYER1
  6
CONTINUOUS
 62
     3
 10
151.837514
 20
161.895712
 11
149.337514
 21
161.895712
  0
TEXT
  8
CSLAYER1
 62
     3
 10
149.487503
 20
160.570709
 40
2.200000
 41
0.920455
  1
VR3
 50
-90.000000
 51
0.000000
  7
FX_FONT
 72
     5
 11
149.487503
 21
155.170709
  0
LINE
  8
CSLAYER1
  6
CONTINUOUS
 62
     3
 10
149.337514
 20
160.895712
 11
149.337514
 21
155.145712
  0
LINE
  8
CSLAYER1
  6
CONTINUOUS
 62
     3
 10
151.837514
 20
160.895712
 11
151.837514
 21
155.145712
  0
LINE
  8
CSLAYER1
  6
CONTINUOUS
 62
     3
 10
151.837514
 20
160.895712
 11
149.337514
 21
160.895712
  0
LINE
  8
CSLAYER1
  6
CONTINUOUS
 62
     3
 10
151.837514
 20
155.145712
 11
149.337514
 21
155.145712
  0
LINE
  8
CSLAYER1
  6
CONTINUOUS
 62
     6
 10
77.376673
 20
150.193109
 11
77.376673
 21
145.848291
  0
ARC
  8
CSLAYER1
  6
CONTINUOUS
 62
     6
 10
73.497354
 20
148.020700
 40
5.431046
 50
-16.257006
 51
16.257016
  0
LINE
  8
CSLAYER1
  6
CONTINUOUS
 62
     6
 10
77.545398
 20
145.901838
 11
78.034054
 21
145.944587
  0
ARC
  8
CSLAYER1
  6
CONTINUOUS
 62
     6
 10
77.966431
 20
146.717503
 40
0.775864
 50
275.000111
 51
343.742611
  0
ARC
  8
CSLAYER1
  6
CONTINUOUS
 62
     6
 10
77.531855
 20
146.056416
 40
0.155173
 50
180.000000
 51
275.000152
  0
LINE
  8
CSLAYER1
  6
CONTINUOUS
 62
     6
 10
77.299105
 20
145.770700
 11
76.911173
 21
145.770700
  0
ARC
  8
CSLAYER1
  6
CONTINUOUS
 62
     6
 10
77.299105
 20
145.848291
 40
0.077586
 50
-89.999997
 51
0.000005
  0
ARC
  8
CSLAYER1
  6
CONTINUOUS
 62
     6
 10
76.911173
 20
145.848291
 40
0.077586
 50
180.000000
 51
270.000003
  0
LINE
  8
CSLAYER1
  6
CONTINUOUS
 62
     6
 10
77.545398
 20
150.139562
 11
78.034054
 21
150.096813
  0
ARC
  8
CSLAYER1
  6
CONTINUOUS
 62
     6
 10
77.966431
 20
149.323897
 40
0.775864
 50
16.257399
 51
84.999892
  0
ARC
  8
CSLAYER1
  6
CONTINUOUS
 62
     6
 10
77.531855
 20
149.984984
 40
0.155173
 50
84.999865
 51
179.942691
  0
ARC
  8
CSLAYER1
  6
CONTINUOUS
 62
     6
 10
77.299105
 20
150.193109
 40
0.077586
 50
0.000005
 51
90.000001
  0
LINE
  8
CSLAYER1
  6
CONTINUOUS
 62
     6
 10
77.299105
 20
150.270700
 11
76.911173
 21
150.270700
  0
ARC
  8
CSLAYER1
  6
CONTINUOUS
 62
     6
 10
76.911173
 20
150.193109
 40
0.077586
 50
90.000001
 51
179.942691
  0
LINE
  8
CSLAYER1
  6
CONTINUOUS
 62
     6
 10
77.376673
 20
148.483062
 11
76.833582
 21
148.138685
  0
LINE
  8
CSLAYER1
  6
CONTINUOUS
 62
     6
 10
77.376673
 20
148.095130
 11
76.833582
 21
147.750753
  0
LINE
  8
CSLAYER1
  6
CONTINUOUS
 62
     6
 10
77.376673
 20
240.193109
 11
77.376673
 21
235.848291
  0
ARC
  8
CSLAYER1
  6
CONTINUOUS
 62
     6
 10
73.497354
 20
238.020700
 40
5.431046
 50
-16.257006
 51
16.257016
  0
LINE
  8
CSLAYER1
  6
CONTINUOUS
 62
     6
 10
77.545398
 20
235.901838
 11
78.034054
 21
235.944587
  0
ARC
  8
CSLAYER1
  6
CONTINUOUS
 62
     6
 10
77.966431
 20
236.717503
 40
0.775864
 50
275.000111
 51
343.742611
  0
ARC
  8
CSLAYER1
  6
CONTINUOUS
 62
     6
 10
77.531855
 20
236.056416
 40
0.155173
 50
180.000000
 51
275.000152
  0
LINE
  8
CSLAYER1
  6
CONTINUOUS
 62
     6
 10
77.299105
 20
235.770700
 11
76.911173
 21
235.770700
  0
ARC
  8
CSLAYER1
  6
CONTINUOUS
 62
     6
 10
77.299105
 20
235.848291
 40
0.077586
 50
-89.999997
 51
0.000005
  0
ARC
  8
CSLAYER1
  6
CONTINUOUS
 62
     6
 10
76.911173
 20
235.848291
 40
0.077586
 50
180.000000
 51
270.000003
  0
LINE
  8
CSLAYER1
  6
CONTINUOUS
 62
     6
 10
77.545398
 20
240.139562
 11
78.034054
 21
240.096813
  0
ARC
  8
CSLAYER1
  6
CONTINUOUS
 62
     6
 10
77.966431
 20
239.323897
 40
0.775864
 50
16.257399
 51
84.999892
  0
ARC
  8
CSLAYER1
  6
CONTINUOUS
 62
     6
 10
77.531855
 20
239.984984
 40
0.155173
 50
84.999865
 51
179.942691
  0
ARC
  8
CSLAYER1
  6
CONTINUOUS
 62
     6
 10
77.299105
 20
240.193109
 40
0.077586
 50
0.000005
 51
90.000001
  0
LINE
  8
CSLAYER1
  6
CONTINUOUS
 62
     6
 10
77.299105
 20
240.270700
 11
76.911173
 21
240.270700
  0
ARC
  8
CSLAYER1
  6
CONTINUOUS
 62
     6
 10
76.911173
 20
240.193109
 40
0.077586
 50
90.000001
 51
179.942691
  0
LINE
  8
CSLAYER1
  6
CONTINUOUS
 62
     6
 10
77.376673
 20
238.483062
 11
76.833582
 21
238.138685
  0
LINE
  8
CSLAYER1
  6
CONTINUOUS
 62
     6
 10
77.376673
 20
238.095130
 11
76.833582
 21
237.750753
  0
LINE
  8
CSLAYER1
  6
CONTINUOUS
 62
     6
 10
85.833587
 20
159.920712
 11
85.833587
 21
183.520712
  0
LINE
  8
CSLAYER1
  6
CONTINUOUS
 62
     3
 10
82.833587
 20
159.920712
 11
82.833587
 21
183.520712
  0
LINE
  8
CSLAYER1
  6
CONTINUOUS
 62
     6
 10
85.833587
 20
183.520712
 11
76.833587
 21
183.520712
  0
LINE
  8
CSLAYER1
  6
CONTINUOUS
 62
     6
 10
85.833587
 20
159.920712
 11
76.833587
 21
159.920712
  0
LINE
  8
CSLAYER1
  6
CONTINUOUS
 62
     6
 10
81.833587
 20
177.970712
 11
77.833587
 21
177.970712
  0
LINE
  8
CSLAYER1
  6
CONTINUOUS
 62
     6
 10
80.833587
 20
182.170712
 11
78.833587
 21
182.170712
  0
LINE
  8
CSLAYER1
  6
CONTINUOUS
 62
     6
 10
80.833587
 20
179.270712
 11
78.833587
 21
179.270712
  0
LINE
  8
CSLAYER1
  6
CONTINUOUS
 62
     6
 10
81.833587
 20
182.470712
 11
77.833587
 21
182.470712
  0
LINE
  8
CSLAYER1
  6
CONTINUOUS
 62
     6
 10
81.833587
 20
178.970712
 11
77.833587
 21
178.970712
  0
LINE
  8
CSLAYER1
  6
CONTINUOUS
 62
     6
 10
81.833587
 20
178.970712
 11
81.833587
 21
182.470712
  0
LINE
  8
CSLAYER1
  6
CONTINUOUS
 62
     6
 10
80.833587
 20
179.270712
 11
80.833587
 21
182.170712
  0
LINE
  8
CSLAYER1
  6
CONTINUOUS
 62
     6
 10
78.833587
 20
179.270712
 11
78.833587
 21
182.170712
  0
LINE
  8
CSLAYER1
  6
CONTINUOUS
 62
     6
 10
77.833587
 20
178.970712
 11
77.833587
 21
182.470712
  0
LINE
  8
CSLAYER1
  6
CONTINUOUS
 62
     6
 10
81.833587
 20
177.970712
 11
77.833587
 21
177.970712
  0
LINE
  8
CSLAYER1
  6
CONTINUOUS
 62
     6
 10
81.833587
 20
174.470712
 11
77.833587
 21
174.470712
  0
LINE
  8
CSLAYER1
  6
CONTINUOUS
 62
     6
 10
81.833587
 20
174.470712
 11
81.833587
 21
177.970712
  0
LINE
  8
CSLAYER1
  6
CONTINUOUS
 62
     6
 10
77.833587
 20
174.470712
 11
77.833587
 21
177.970712
  0
LINE
  8
CSLAYER1
  6
CONTINUOUS
 62
     6
 10
81.833587
 20
173.470712
 11
77.833587
 21
173.470712
  0
LINE
  8
CSLAYER1
  6
CONTINUOUS
 62
     6
 10
81.833587
 20
169.970712
 11
77.833587
 21
169.970712
  0
LINE
  8
CSLAYER1
  6
CONTINUOUS
 62
     6
 10
81.833587
 20
169.970712
 11
81.833587
 21
173.470712
  0
LINE
  8
CSLAYER1
  6
CONTINUOUS
 62
     6
 10
77.833587
 20
169.970712
 11
77.833587
 21
173.470712
  0
LINE
  8
CSLAYER1
  6
CONTINUOUS
 62
     6
 10
81.833587
 20
168.970712
 11
77.833587
 21
168.970712
  0
LINE
  8
CSLAYER1
  6
CONTINUOUS
 62
     6
 10
81.833587
 20
165.470712
 11
77.833587
 21
165.470712
  0
LINE
  8
CSLAYER1
  6
CONTINUOUS
 62
     6
 10
81.833587
 20
165.470712
 11
81.833587
 21
168.970712
  0
LINE
  8
CSLAYER1
  6
CONTINUOUS
 62
     6
 10
77.833587
 20
165.470712
 11
77.833587
 21
168.970712
  0
LINE
  8
CSLAYER1
  6
CONTINUOUS
 62
     6
 10
81.833587
 20
164.470712
 11
77.833587
 21
164.470712
  0
LINE
  8
CSLAYER1
  6
CONTINUOUS
 62
     6
 10
81.833587
 20
160.970712
 11
77.833587
 21
160.970712
  0
LINE
  8
CSLAYER1
  6
CONTINUOUS
 62
     6
 10
81.833587
 20
160.970712
 11
81.833587
 21
164.470712
  0
LINE
  8
CSLAYER1
  6
CONTINUOUS
 62
     6
 10
77.833587
 20
160.970712
 11
77.833587
 21
164.470712
  0
LINE
  8
CSLAYER1
  6
CONTINUOUS
 62
     6
 10
80.833587
 20
177.670712
 11
78.833587
 21
177.670712
  0
LINE
  8
CSLAYER1
  6
CONTINUOUS
 62
     6
 10
80.833587
 20
174.770712
 11
78.833587
 21
174.770712
  0
LINE
  8
CSLAYER1
  6
CONTINUOUS
 62
     6
 10
80.833587
 20
174.770712
 11
80.833587
 21
177.670712
  0
LINE
  8
CSLAYER1
  6
CONTINUOUS
 62
     6
 10
78.833587
 20
174.770712
 11
78.833587
 21
177.670712
  0
LINE
  8
CSLAYER1
  6
CONTINUOUS
 62
     6
 10
80.833587
 20
173.170712
 11
78.833587
 21
173.170712
  0
LINE
  8
CSLAYER1
  6
CONTINUOUS
 62
     6
 10
80.833587
 20
170.270712
 11
78.833587
 21
170.270712
  0
LINE
  8
CSLAYER1
  6
CONTINUOUS
 62
     6
 10
80.833587
 20
170.270712
 11
80.833587
 21
173.170712
  0
LINE
  8
CSLAYER1
  6
CONTINUOUS
 62
     6
 10
78.833587
 20
170.270712
 11
78.833587
 21
173.170712
  0
LINE
  8
CSLAYER1
  6
CONTINUOUS
 62
     6
 10
80.833587
 20
168.670712
 11
78.833587
 21
168.670712
  0
LINE
  8
CSLAYER1
  6
CONTINUOUS
 62
     6
 10
80.833587
 20
165.770712
 11
78.833587
 21
165.770712
  0
LINE
  8
CSLAYER1
  6
CONTINUOUS
 62
     6
 10
80.833587
 20
165.770712
 11
80.833587
 21
168.670712
  0
LINE
  8
CSLAYER1
  6
CONTINUOUS
 62
     6
 10
78.833587
 20
165.770712
 11
78.833587
 21
168.670712
  0
LINE
  8
CSLAYER1
  6
CONTINUOUS
 62
     6
 10
80.833587
 20
164.170712
 11
78.833587
 21
164.170712
  0
LINE
  8
CSLAYER1
  6
CONTINUOUS
 62
     6
 10
80.833587
 20
161.270712
 11
78.833587
 21
161.270712
  0
LINE
  8
CSLAYER1
  6
CONTINUOUS
 62
     6
 10
80.833587
 20
161.270712
 11
80.833587
 21
164.170712
  0
LINE
  8
CSLAYER1
  6
CONTINUOUS
 62
     6
 10
78.833587
 20
161.270712
 11
78.833587
 21
164.170712
  0
LINE
  8
CSLAYER1
  6
CONTINUOUS
 62
     6
 10
84.833587
 20
156.270712
 11
76.833587
 21
156.270712
  0
LINE
  8
CSLAYER1
  6
CONTINUOUS
 62
     6
 10
84.833587
 20
156.270712
 11
84.833587
 21
159.920712
  0
CIRCLE
  8
CSLAYER1
  6
CONTINUOUS
 62
     6
 10
86.833587
 20
236.520712
 40
2.500000
  0
LINE
  8
CSLAYER1
  6
CONTINUOUS
 62
     6
 10
78.853617
 20
238.918869
 11
83.929846
 21
238.474756
  0
LINE
  8
CSLAYER1
  6
CONTINUOUS
 62
     6
 10
83.929846
 20
234.566667
 11
76.833587
 21
233.945825
  0
LINE
  8
CSLAYER1
  6
CONTINUOUS
 62
     3
 10
93.380994
 20
192.020712
 11
93.380994
 21
224.020712
  0
LINE
  8
CSLAYER1
  6
CONTINUOUS
 62
     3
 10
90.880994
 20
192.020712
 11
90.880994
 21
224.020712
  0
LINE
  8
CSLAYER1
  6
CONTINUOUS
 62
     3
 10
90.880994
 20
224.020712
 11
93.380994
 21
224.020712
  0
LINE
  8
CSLAYER1
  6
CONTINUOUS
 62
     3
 10
90.880994
 20
192.020712
 11
93.380994
 21
192.020712
  0
LINE
  8
CSLAYER1
  6
CONTINUOUS
 62
     6
 10
107.833587
 20
138.020712
 11
65.833587
 21
138.020712
  0
LINE
  8
CSLAYER1
  6
CONTINUOUS
 62
     6
 10
62.833587
 20
141.020712
 11
62.833587
 21
248.020712
  0
LINE
  8
CSLAYER1
  6
CONTINUOUS
 62
     6
 10
64.833587
 20
141.020712
 11
64.833587
 21
248.020712
  0
LINE
  8
CSLAYER1
  6
CONTINUOUS
 62
     6
 10
107.833587
 20
140.020712
 11
65.833587
 21
140.020712
  0
ARC
  8
CSLAYER1
  6
CONTINUOUS
 62
     6
 10
65.833587
 20
141.020712
 40
3.000000
 50
180.000000
 51
270.000000
  0
ARC
  8
CSLAYER1
  6
CONTINUOUS
 62
     6
 10
65.833587
 20
141.020712
 40
1.000000
 50
180.000000
 51
270.000000
  0
LINE
  8
CSLAYER1
  6
CONTINUOUS
 62
     6
 10
62.833587
 20
248.020712
 11
64.833587
 21
248.020712
  0
LINE
  8
CSLAYER1
  6
CONTINUOUS
 62
     6
 10
107.833587
 20
140.020712
 11
107.833587
 21
138.020712
  0
LINE
  8
CSLAYER1
  6
CENTER
 62
     3
 10
72.833587
 20
135.020712
 11
72.833587
 21
143.020712
  0
LINE
  8
CSLAYER1
  6
CENTER
 62
     3
 10
102.833587
 20
135.020712
 11
102.833587
 21
143.020712
  0
LINE
  8
CSLAYER1
  6
CONTINUOUS
 62
     6
 10
74.833587
 20
143.020712
 11
74.833587
 21
243.020712
  0
LINE
  8
CSLAYER1
  6
CONTINUOUS
 62
     6
 10
76.833587
 20
143.020712
 11
76.833587
 21
243.020712
  0
LINE
  8
CSLAYER1
  6
CONTINUOUS
 62
     6
 10
76.833587
 20
243.020712
 11
74.833587
 21
243.020712
  0
LINE
  8
CSLAYER1
  6
CONTINUOUS
 62
     6
 10
76.833587
 20
143.020712
 11
74.833587
 21
143.020712
  0
LINE
  8
CSLAYER1
  6
CONTINUOUS
 62
     6
 10
74.833587
 20
151.020712
 11
64.833587
 21
151.020712
  0
LINE
  8
CSLAYER1
  6
CONTINUOUS
 62
     6
 10
74.833587
 20
145.020712
 11
64.833587
 21
145.020712
  0
LINE
  8
CSLAYER1
  6
CONTINUOUS
 62
     6
 10
74.833587
 20
241.020712
 11
64.833587
 21
241.020712
  0
LINE
  8
CSLAYER1
  6
CONTINUOUS
 62
     6
 10
74.833587
 20
235.020712
 11
64.833587
 21
235.020712
  0
LINE
  8
CSLAYER1
  6
CONTINUOUS
 62
     6
 10
106.833587
 20
230.020712
 11
76.833587
 21
230.020712
  0
LINE
  8
CSLAYER1
  6
CONTINUOUS
 62
     6
 10
106.833587
 20
200.020712
 11
92.380994
 21
200.020712
  0
LINE
  8
CSLAYER1
  6
CONTINUOUS
 62
     6
 10
106.833587
 20
200.020712
 11
106.833587
 21
230.020712
  0
LINE
  8
CSLAYER1
  6
DASHED
 62
     6
 10
103.833587
 20
227.916429
 11
93.833587
 21
227.916429
  0
LINE
  8
CSLAYER1
  6
DASHED
 62
     6
 10
103.833587
 20
211.982789
 11
93.833587
 21
211.982789
  0
LINE
  8
CSLAYER1
  6
DASHED
 62
     6
 10
103.833587
 20
211.982789
 11
103.833587
 21
227.916429
  0
LINE
  8
CSLAYER1
  6
DASHED
 62
     6
 10
93.833587
 20
211.982789
 11
93.833587
 21
227.916429
  0
LINE
  8
CSLAYER1
  6
CONTINUOUS
 62
     6
 10
106.833587
 20
176.020712
 11
85.833587
 21
176.020712
  0
LINE
  8
CSLAYER1
  6
CONTINUOUS
 62
     6
 10
106.833587
 20
146.520712
 11
78.717153
 21
146.520712
  0
LINE
  8
CSLAYER1
  6
CONTINUOUS
 62
     6
 10
106.833587
 20
146.520712
 11
106.833587
 21
176.020712
  0
LINE
  8
CSLAYER1
  6
CONTINUOUS
 62
     6
 10
92.380994
 20
192.020712
 11
92.380994
 21
193.020712
  0
LINE
  8
CSLAYER1
  6
CONTINUOUS
 62
     6
 10
92.380994
 20
224.020712
 11
76.833587
 21
224.020712
  0
LINE
  8
CSLAYER1
  6
CONTINUOUS
 62
     6
 10
92.380994
 20
223.020712
 11
80.833587
 21
223.020712
  0
LINE
  8
CSLAYER1
  6
CONTINUOUS
 62
     6
 10
92.380994
 20
216.270712
 11
80.833587
 21
216.270712
  0
LINE
  8
CSLAYER1
  6
CONTINUOUS
 62
     6
 10
92.380994
 20
215.270712
 11
80.833587
 21
215.270712
  0
LINE
  8
CSLAYER1
  6
CONTINUOUS
 62
     6
 10
92.380994
 20
208.520712
 11
80.833587
 21
208.520712
  0
LINE
  8
CSLAYER1
  6
CONTINUOUS
 62
     6
 10
92.380994
 20
207.520712
 11
80.833587
 21
207.520712
  0
LINE
  8
CSLAYER1
  6
CONTINUOUS
 62
     6
 10
92.380994
 20
200.770712
 11
80.833587
 21
200.770712
  0
LINE
  8
CSLAYER1
  6
CONTINUOUS
 62
     6
 10
92.380994
 20
199.770712
 11
80.833587
 21
199.770712
  0
LINE
  8
CSLAYER1
  6
CONTINUOUS
 62
     6
 10
92.380994
 20
192.020712
 11
76.833587
 21
192.020712
  0
LINE
  8
CSLAYER1
  6
CONTINUOUS
 62
     6
 10
92.380994
 20
193.020712
 11
80.833587
 21
193.020712
  0
LINE
  8
CSLAYER1
  6
CONTINUOUS
 62
     6
 10
85.833587
 20
193.020712
 11
85.833587
 21
199.770712
  0
LINE
  8
CSLAYER1
  6
CONTINUOUS
 62
     6
 10
80.833587
 20
193.020712
 11
80.833587
 21
199.770712
  0
LINE
  8
CSLAYER1
  6
CONTINUOUS
 62
     6
 10
85.833587
 20
200.770712
 11
85.833587
 21
207.520712
  0
LINE
  8
CSLAYER1
  6
CONTINUOUS
 62
     6
 10
85.833587
 20
208.520712
 11
85.833587
 21
215.270712
  0
LINE
  8
CSLAYER1
  6
CONTINUOUS
 62
     6
 10
85.833587
 20
216.270712
 11
85.833587
 21
223.020712
  0
LINE
  8
CSLAYER1
  6
CONTINUOUS
 62
     6
 10
92.380994
 20
223.020712
 11
92.380994
 21
224.020712
  0
LINE
  8
CSLAYER1
  6
CONTINUOUS
 62
     6
 10
92.380994
 20
215.270712
 11
92.380994
 21
216.270712
  0
LINE
  8
CSLAYER1
  6
CONTINUOUS
 62
     6
 10
92.380994
 20
207.520712
 11
92.380994
 21
208.520712
  0
LINE
  8
CSLAYER1
  6
CONTINUOUS
 62
     6
 10
92.380994
 20
199.770712
 11
92.380994
 21
200.770712
  0
LINE
  8
CSLAYER1
  6
CONTINUOUS
 62
     6
 10
86.833587
 20
216.270712
 11
86.833587
 21
223.020712
  0
LINE
  8
CSLAYER1
  6
CONTINUOUS
 62
     6
 10
86.833587
 20
208.520712
 11
86.833587
 21
215.270712
  0
LINE
  8
CSLAYER1
  6
CONTINUOUS
 62
     6
 10
86.833587
 20
200.770712
 11
86.833587
 21
207.520712
  0
LINE
  8
CSLAYER1
  6
CONTINUOUS
 62
     6
 10
86.833587
 20
193.020712
 11
86.833587
 21
199.770712
  0
LINE
  8
CSLAYER1
  6
CONTINUOUS
 62
     6
 10
86.833587
 20
221.645712
 11
85.833587
 21
221.645712
  0
LINE
  8
CSLAYER1
  6
CONTINUOUS
 62
     6
 10
86.833587
 20
217.645712
 11
85.833587
 21
217.645712
  0
LINE
  8
CSLAYER1
  6
CONTINUOUS
 62
     6
 10
86.833587
 20
213.895712
 11
85.833587
 21
213.895712
  0
LINE
  8
CSLAYER1
  6
CONTINUOUS
 62
     6
 10
86.833587
 20
209.895712
 11
85.833587
 21
209.895712
  0
LINE
  8
CSLAYER1
  6
CONTINUOUS
 62
     6
 10
86.833587
 20
206.145712
 11
85.833587
 21
206.145712
  0
LINE
  8
CSLAYER1
  6
CONTINUOUS
 62
     6
 10
86.833587
 20
202.145712
 11
85.833587
 21
202.145712
  0
LINE
  8
CSLAYER1
  6
CONTINUOUS
 62
     6
 10
86.833587
 20
198.395712
 11
85.833587
 21
198.395712
  0
LINE
  8
CSLAYER1
  6
CONTINUOUS
 62
     6
 10
86.833587
 20
194.395712
 11
85.833587
 21
194.395712
  0
LINE
  8
CSLAYER1
  6
CONTINUOUS
 62
     6
 10
80.833587
 20
216.270712
 11
80.833587
 21
223.020712
  0
LINE
  8
CSLAYER1
  6
CONTINUOUS
 62
     6
 10
80.833587
 20
208.520712
 11
80.833587
 21
215.270712
  0
LINE
  8
CSLAYER1
  6
CONTINUOUS
 62
     6
 10
80.833587
 20
200.770712
 11
80.833587
 21
207.520712
  0
LINE
  8
CSLAYER1
  6
CONTINUOUS
 62
     3
 10
159.837514
 20
183.520712
 11
159.837514
 21
159.520712
  0
LINE
  8
CSLAYER1
  6
CONTINUOUS
 62
     3
 10
154.837514
 20
183.520712
 11
154.837514
 21
159.520712
  0
LINE
  8
CSLAYER1
  6
CONTINUOUS
 62
     3
 10
154.337514
 20
223.020712
 11
154.337514
 21
216.270712
  0
LINE
  8
CSLAYER1
  6
CONTINUOUS
 62
     3
 10
164.037514
 20
223.020712
 11
164.037514
 21
216.270712
  0
LINE
  8
CSLAYER1
  6
CONTINUOUS
 62
     3
 10
164.037514
 20
199.770712
 11
164.037514
 21
193.020712
  0
LINE
  8
CSLAYER1
  6
CONTINUOUS
 62
     3
 10
154.337514
 20
199.770712
 11
154.337514
 21
193.020712
  0
LINE
  8
CSLAYER1
  6
CONTINUOUS
 62
     3
 10
154.337514
 20
207.520712
 11
154.337514
 21
200.770712
  0
LINE
  8
CSLAYER1
  6
CONTINUOUS
 62
     3
 10
164.037514
 20
207.520712
 11
164.037514
 21
200.770712
  0
LINE
  8
CSLAYER1
  6
CONTINUOUS
 62
     3
 10
154.337514
 20
215.270712
 11
154.337514
 21
208.520712
  0
LINE
  8
CSLAYER1
  6
CONTINUOUS
 62
     3
 10
164.037514
 20
215.270712
 11
164.037514
 21
208.520712
  0
LINE
  8
CSLAYER1
  6
CONTINUOUS
 62
     6
 10
332.833587
 20
105.020712
 11
332.833587
 21
63.020712
  0
LINE
  8
CSLAYER1
  6
CONTINUOUS
 62
     6
 10
137.833587
 20
105.020712
 11
137.833587
 21
63.020712
  0
LINE
  8
CSLAYER1
  6
CONTINUOUS
 62
     6
 10
140.833587
 20
108.020712
 11
329.833587
 21
108.020712
  0
LINE
  8
CSLAYER1
  6
CONTINUOUS
 62
     6
 10
137.833587
 20
63.020712
 11
332.833587
 21
63.020712
  0
ARC
  8
CSLAYER1
  6
CONTINUOUS
 62
     6
 10
329.833587
 20
105.020712
 40
3.000000
 50
0.000000
 51
90.000000
  0
ARC
  8
CSLAYER1
  6
CONTINUOUS
 62
     6
 10
140.833587
 20
105.020712
 40
3.000000
 50
90.000000
 51
180.000000
  0
CIRCLE
  8
CSLAYER1
  6
CONTINUOUS
 62
     3
 10
170.587514
 20
170.520712
 40
1.650000
  0
LINE
  8
CSLAYER1
  6
CONTINUOUS
 62
     3
 10
170.917514
 20
171.840712
 11
170.917514
 21
170.850712
  0
LINE
  8
CSLAYER1
  6
CONTINUOUS
 62
     3
 10
170.257514
 20
171.840712
 11
170.257514
 21
170.850712
  0
LINE
  8
CSLAYER1
  6
CONTINUOUS
 62
     3
 10
169.267514
 20
170.850712
 11
170.257514
 21
170.850712
  0
LINE
  8
CSLAYER1
  6
CONTINUOUS
 62
     3
 10
169.267514
 20
170.190712
 11
170.257514
 21
170.190712
  0
LINE
  8
CSLAYER1
  6
CONTINUOUS
 62
     3
 10
169.267514
 20
170.850712
 11
169.267514
 21
170.190712
  0
LINE
  8
CSLAYER1
  6
CONTINUOUS
 62
     3
 10
170.917514
 20
171.840712
 11
170.257514
 21
171.840712
  0
LINE
  8
CSLAYER1
  6
CONTINUOUS
 62
     3
 10
170.257514
 20
169.200712
 11
170.917514
 21
169.200712
  0
LINE
  8
CSLAYER1
  6
CONTINUOUS
 62
     3
 10
171.511514
 20
171.206604
 11
171.511514
 21
170.850712
  0
LINE
  8
CSLAYER1
  6
CONTINUOUS
 62
     3
 10
171.511514
 20
171.206604
 11
171.907514
 21
170.520712
  0
LINE
  8
CSLAYER1
  6
CONTINUOUS
 62
     3
 10
171.511514
 20
169.834820
 11
171.907514
 21
170.520712
  0
LINE
  8
CSLAYER1
  6
CONTINUOUS
 62
     3
 10
171.511514
 20
170.190712
 11
171.511514
 21
169.834820
  0
LINE
  8
CSLAYER1
  6
CONTINUOUS
 62
     3
 10
170.917514
 20
170.190712
 11
170.917514
 21
169.200712
  0
LINE
  8
CSLAYER1
  6
CONTINUOUS
 62
     3
 10
170.257514
 20
170.190712
 11
170.257514
 21
169.200712
  0
LINE
  8
CSLAYER1
  6
CONTINUOUS
 62
     3
 10
170.917514
 20
170.850712
 11
171.511514
 21
170.850712
  0
LINE
  8
CSLAYER1
  6
CONTINUOUS
 62
     3
 10
170.917514
 20
170.190712
 11
171.511514
 21
170.190712
  0
LINE
  8
CSLAYER1
  6
CONTINUOUS
 62
     3
 10
185.837514
 20
236.667813
 11
188.190413
 21
239.020712
  0
LINE
  8
CSLAYER1
  6
CONTINUOUS
 62
     3
 10
185.837514
 20
238.082026
 11
186.776199
 21
239.020712
  0
LINE
  8
CSLAYER1
  6
CONTINUOUS
 62
     3
 10
167.634064
 20
234.020712
 11
168.837514
 21
235.224162
  0
LINE
  8
CSLAYER1
  6
CONTINUOUS
 62
     3
 10
166.219850
 20
234.020712
 11
168.837514
 21
236.638376
  0
LINE
  8
CSLAYER1
  6
CONTINUOUS
 62
     3
 10
164.805636
 20
234.020712
 11
168.837514
 21
238.052589
  0
LINE
  8
CSLAYER1
  6
CONTINUOUS
 62
     3
 10
163.391423
 20
234.020712
 11
168.391423
 21
239.020712
  0
LINE
  8
CSLAYER1
  6
CONTINUOUS
 62
     3
 10
162.337514
 20
234.381016
 11
166.977209
 21
239.020712
  0
LINE
  8
CSLAYER1
  6
CONTINUOUS
 62
     3
 10
162.337514
 20
235.795230
 11
165.562996
 21
239.020712
  0
LINE
  8
CSLAYER1
  6
CONTINUOUS
 62
     3
 10
162.337514
 20
237.209443
 11
164.148782
 21
239.020712
  0
LINE
  8
CSLAYER1
  6
CONTINUOUS
 62
     3
 10
162.337514
 20
238.623657
 11
162.734569
 21
239.020712
  0
LINE
  8
CSLAYER1
  6
CONTINUOUS
 62
     3
 10
185.837514
 20
235.253599
 11
189.604626
 21
239.020712
  0
LINE
  8
CSLAYER1
  6
CONTINUOUS
 62
     3
 10
186.018840
 20
234.020712
 11
191.018840
 21
239.020712
  0
LINE
  8
CSLAYER1
  6
CONTINUOUS
 62
     3
 10
187.433053
 20
234.020712
 11
192.337514
 21
238.925172
  0
LINE
  8
CSLAYER1
  6
CONTINUOUS
 62
     3
 10
188.847267
 20
234.020712
 11
192.337514
 21
237.510959
  0
LINE
  8
CSLAYER1
  6
CONTINUOUS
 62
     3
 10
190.261481
 20
234.020712
 11
192.337514
 21
236.096745
  0
LINE
  8
CSLAYER1
  6
CONTINUOUS
 62
     3
 10
191.675694
 20
234.020712
 11
192.337514
 21
234.682531
  0
ARC
  8
CSLAYER1
  6
CONTINUOUS
 62
     6
 10
86.833587
 20
236.520712
 40
3.500000
 50
45.000000
 51
146.061798
  0
LINE
  8
CSLAYER1
  6
CONTINUOUS
 62
     6
 10
89.308461
 20
238.995586
 11
90.015568
 21
239.702692
  0
LINE
  8
CSLAYER1
  6
CONTINUOUS
 62
     6
 10
89.308461
 20
234.045838
 11
90.015568
 21
233.338731
  0
ARC
  8
CSLAYER1
  6
CONTINUOUS
 62
     6
 10
86.833587
 20
236.520712
 40
3.500000
 50
213.938202
 51
315.000000
  0
LINE
  8
CSLAYER1
  6
CONTINUOUS
 62
     6
 10
87.876673
 20
221.818109
 11
87.876673
 21
217.473291
  0
ARC
  8
CSLAYER1
  6
CONTINUOUS
 62
     6
 10
83.997354
 20
219.645700
 40
5.431046
 50
-16.257006
 51
16.257016
  0
LINE
  8
CSLAYER1
  6
CONTINUOUS
 62
     6
 10
88.045398
 20
217.526838
 11
88.534054
 21
217.569587
  0
ARC
  8
CSLAYER1
  6
CONTINUOUS
 62
     6
 10
88.466431
 20
218.342503
 40
0.775864
 50
275.000111
 51
343.742611
  0
ARC
  8
CSLAYER1
  6
CONTINUOUS
 62
     6
 10
88.031855
 20
217.681416
 40
0.155173
 50
180.000000
 51
275.000152
  0
LINE
  8
CSLAYER1
  6
CONTINUOUS
 62
     6
 10
87.799105
 20
217.395700
 11
87.411173
 21
217.395700
  0
ARC
  8
CSLAYER1
  6
CONTINUOUS
 62
     6
 10
87.799105
 20
217.473291
 40
0.077586
 50
-89.999997
 51
0.000005
  0
ARC
  8
CSLAYER1
  6
CONTINUOUS
 62
     6
 10
87.411173
 20
217.473291
 40
0.077586
 50
180.000000
 51
270.000003
  0
LINE
  8
CSLAYER1
  6
CONTINUOUS
 62
     6
 10
88.045398
 20
221.764562
 11
88.534054
 21
221.721813
  0
ARC
  8
CSLAYER1
  6
CONTINUOUS
 62
     6
 10
88.466431
 20
220.948897
 40
0.775864
 50
16.257399
 51
84.999892
  0
ARC
  8
CSLAYER1
  6
CONTINUOUS
 62
     6
 10
88.031855
 20
221.609984
 40
0.155173
 50
84.999865
 51
179.942691
  0
ARC
  8
CSLAYER1
  6
CONTINUOUS
 62
     6
 10
87.799105
 20
221.818109
 40
0.077586
 50
0.000005
 51
90.000001
  0
LINE
  8
CSLAYER1
  6
CONTINUOUS
 62
     6
 10
87.799105
 20
221.895700
 11
87.411173
 21
221.895700
  0
ARC
  8
CSLAYER1
  6
CONTINUOUS
 62
     6
 10
87.411173
 20
221.818109
 40
0.077586
 50
90.000001
 51
179.942691
  0
LINE
  8
CSLAYER1
  6
CONTINUOUS
 62
     6
 10
87.876673
 20
220.108062
 11
87.333582
 21
219.763685
  0
LINE
  8
CSLAYER1
  6
CONTINUOUS
 62
     6
 10
87.876673
 20
219.720130
 11
87.333582
 21
219.375753
  0
LINE
  8
CSLAYER1
  6
CONTINUOUS
 62
     6
 10
87.333587
 20
217.145712
 11
87.333587
 21
222.145712
  0
LINE
  8
CSLAYER1
  6
CONTINUOUS
 62
     6
 10
87.333587
 20
222.145712
 11
86.833587
 21
222.145712
  0
LINE
  8
CSLAYER1
  6
CONTINUOUS
 62
     6
 10
87.333587
 20
217.145712
 11
86.833587
 21
217.145712
  0
LINE
  8
CSLAYER1
  6
CONTINUOUS
 62
     6
 10
86.833587
 20
222.145712
 11
86.833587
 21
217.145712
  0
LINE
  8
CSLAYER1
  6
CONTINUOUS
 62
     6
 10
87.876673
 20
214.068109
 11
87.876673
 21
209.723291
  0
ARC
  8
CSLAYER1
  6
CONTINUOUS
 62
     6
 10
83.997354
 20
211.895700
 40
5.431046
 50
-16.257006
 51
16.257016
  0
LINE
  8
CSLAYER1
  6
CONTINUOUS
 62
     6
 10
88.045398
 20
209.776838
 11
88.534054
 21
209.819587
  0
ARC
  8
CSLAYER1
  6
CONTINUOUS
 62
     6
 10
88.466431
 20
210.592503
 40
0.775864
 50
275.000111
 51
343.742611
  0
ARC
  8
CSLAYER1
  6
CONTINUOUS
 62
     6
 10
88.031855
 20
209.931416
 40
0.155173
 50
180.000000
 51
275.000152
  0
LINE
  8
CSLAYER1
  6
CONTINUOUS
 62
     6
 10
87.799105
 20
209.645700
 11
87.411173
 21
209.645700
  0
ARC
  8
CSLAYER1
  6
CONTINUOUS
 62
     6
 10
87.799105
 20
209.723291
 40
0.077586
 50
-89.999997
 51
0.000005
  0
ARC
  8
CSLAYER1
  6
CONTINUOUS
 62
     6
 10
87.411173
 20
209.723291
 40
0.077586
 50
180.000000
 51
270.000003
  0
LINE
  8
CSLAYER1
  6
CONTINUOUS
 62
     6
 10
88.045398
 20
214.014562
 11
88.534054
 21
213.971813
  0
ARC
  8
CSLAYER1
  6
CONTINUOUS
 62
     6
 10
88.466431
 20
213.198897
 40
0.775864
 50
16.257399
 51
84.999892
  0
ARC
  8
CSLAYER1
  6
CONTINUOUS
 62
     6
 10
88.031855
 20
213.859984
 40
0.155173
 50
84.999865
 51
179.942691
  0
ARC
  8
CSLAYER1
  6
CONTINUOUS
 62
     6
 10
87.799105
 20
214.068109
 40
0.077586
 50
0.000005
 51
90.000001
  0
LINE
  8
CSLAYER1
  6
CONTINUOUS
 62
     6
 10
87.799105
 20
214.145700
 11
87.411173
 21
214.145700
  0
ARC
  8
CSLAYER1
  6
CONTINUOUS
 62
     6
 10
87.411173
 20
214.068109
 40
0.077586
 50
90.000001
 51
179.942691
  0
LINE
  8
CSLAYER1
  6
CONTINUOUS
 62
     6
 10
87.876673
 20
212.358062
 11
87.333582
 21
212.013685
  0
LINE
  8
CSLAYER1
  6
CONTINUOUS
 62
     6
 10
87.876673
 20
211.970130
 11
87.333582
 21
211.625753
  0
LINE
  8
CSLAYER1
  6
CONTINUOUS
 62
     6
 10
87.333587
 20
209.395712
 11
87.333587
 21
214.395712
  0
LINE
  8
CSLAYER1
  6
CONTINUOUS
 62
     6
 10
87.333587
 20
214.395712
 11
86.833587
 21
214.395712
  0
LINE
  8
CSLAYER1
  6
CONTINUOUS
 62
     6
 10
87.333587
 20
209.395712
 11
86.833587
 21
209.395712
  0
LINE
  8
CSLAYER1
  6
CONTINUOUS
 62
     6
 10
86.833587
 20
214.395712
 11
86.833587
 21
209.395712
  0
LINE
  8
CSLAYER1
  6
CONTINUOUS
 62
     6
 10
87.876673
 20
206.318109
 11
87.876673
 21
201.973291
  0
ARC
  8
CSLAYER1
  6
CONTINUOUS
 62
     6
 10
83.997354
 20
204.145700
 40
5.431046
 50
-16.257006
 51
16.257016
  0
LINE
  8
CSLAYER1
  6
CONTINUOUS
 62
     6
 10
88.045398
 20
202.026838
 11
88.534054
 21
202.069587
  0
ARC
  8
CSLAYER1
  6
CONTINUOUS
 62
     6
 10
88.466431
 20
202.842503
 40
0.775864
 50
275.000111
 51
343.742611
  0
ARC
  8
CSLAYER1
  6
CONTINUOUS
 62
     6
 10
88.031855
 20
202.181416
 40
0.155173
 50
180.000000
 51
275.000152
  0
LINE
  8
CSLAYER1
  6
CONTINUOUS
 62
     6
 10
87.799105
 20
201.895700
 11
87.411173
 21
201.895700
  0
ARC
  8
CSLAYER1
  6
CONTINUOUS
 62
     6
 10
87.799105
 20
201.973291
 40
0.077586
 50
-89.999997
 51
0.000005
  0
ARC
  8
CSLAYER1
  6
CONTINUOUS
 62
     6
 10
87.411173
 20
201.973291
 40
0.077586
 50
180.000000
 51
270.000003
  0
LINE
  8
CSLAYER1
  6
CONTINUOUS
 62
     6
 10
88.045398
 20
206.264562
 11
88.534054
 21
206.221813
  0
ARC
  8
CSLAYER1
  6
CONTINUOUS
 62
     6
 10
88.466431
 20
205.448897
 40
0.775864
 50
16.257399
 51
84.999892
  0
ARC
  8
CSLAYER1
  6
CONTINUOUS
 62
     6
 10
88.031855
 20
206.109984
 40
0.155173
 50
84.999865
 51
179.942691
  0
ARC
  8
CSLAYER1
  6
CONTINUOUS
 62
     6
 10
87.799105
 20
206.318109
 40
0.077586
 50
0.000005
 51
90.000001
  0
LINE
  8
CSLAYER1
  6
CONTINUOUS
 62
     6
 10
87.799105
 20
206.395700
 11
87.411173
 21
206.395700
  0
ARC
  8
CSLAYER1
  6
CONTINUOUS
 62
     6
 10
87.411173
 20
206.318109
 40
0.077586
 50
90.000001
 51
179.942691
  0
LINE
  8
CSLAYER1
  6
CONTINUOUS
 62
     6
 10
87.876673
 20
204.608062
 11
87.333582
 21
204.263685
  0
LINE
  8
CSLAYER1
  6
CONTINUOUS
 62
     6
 10
87.876673
 20
204.220130
 11
87.333582
 21
203.875753
  0
LINE
  8
CSLAYER1
  6
CONTINUOUS
 62
     6
 10
87.333587
 20
201.645712
 11
87.333587
 21
206.645712
  0
LINE
  8
CSLAYER1
  6
CONTINUOUS
 62
     6
 10
87.333587
 20
206.645712
 11
86.833587
 21
206.645712
  0
LINE
  8
CSLAYER1
  6
CONTINUOUS
 62
     6
 10
87.333587
 20
201.645712
 11
86.833587
 21
201.645712
  0
LINE
  8
CSLAYER1
  6
CONTINUOUS
 62
     6
 10
86.833587
 20
206.645712
 11
86.833587
 21
201.645712
  0
LINE
  8
CSLAYER1
  6
CONTINUOUS
 62
     6
 10
87.876673
 20
198.568109
 11
87.876673
 21
194.223291
  0
ARC
  8
CSLAYER1
  6
CONTINUOUS
 62
     6
 10
83.997354
 20
196.395700
 40
5.431046
 50
-16.257006
 51
16.257016
  0
LINE
  8
CSLAYER1
  6
CONTINUOUS
 62
     6
 10
88.045398
 20
194.276838
 11
88.534054
 21
194.319587
  0
ARC
  8
CSLAYER1
  6
CONTINUOUS
 62
     6
 10
88.466431
 20
195.092503
 40
0.775864
 50
275.000111
 51
343.742611
  0
ARC
  8
CSLAYER1
  6
CONTINUOUS
 62
     6
 10
88.031855
 20
194.431416
 40
0.155173
 50
180.000000
 51
275.000152
  0
LINE
  8
CSLAYER1
  6
CONTINUOUS
 62
     6
 10
87.799105
 20
194.145700
 11
87.411173
 21
194.145700
  0
ARC
  8
CSLAYER1
  6
CONTINUOUS
 62
     6
 10
87.799105
 20
194.223291
 40
0.077586
 50
-89.999997
 51
0.000005
  0
ARC
  8
CSLAYER1
  6
CONTINUOUS
 62
     6
 10
87.411173
 20
194.223291
 40
0.077586
 50
180.000000
 51
270.000003
  0
LINE
  8
CSLAYER1
  6
CONTINUOUS
 62
     6
 10
88.045398
 20
198.514562
 11
88.534054
 21
198.471813
  0
ARC
  8
CSLAYER1
  6
CONTINUOUS
 62
     6
 10
88.466431
 20
197.698897
 40
0.775864
 50
16.257399
 51
84.999892
  0
ARC
  8
CSLAYER1
  6
CONTINUOUS
 62
     6
 10
88.031855
 20
198.359984
 40
0.155173
 50
84.999865
 51
179.942691
  0
ARC
  8
CSLAYER1
  6
CONTINUOUS
 62
     6
 10
87.799105
 20
198.568109
 40
0.077586
 50
0.000005
 51
90.000001
  0
LINE
  8
CSLAYER1
  6
CONTINUOUS
 62
     6
 10
87.799105
 20
198.645700
 11
87.411173
 21
198.645700
  0
ARC
  8
CSLAYER1
  6
CONTINUOUS
 62
     6
 10
87.411173
 20
198.568109
 40
0.077586
 50
90.000001
 51
179.942691
  0
LINE
  8
CSLAYER1
  6
CONTINUOUS
 62
     6
 10
87.876673
 20
196.858062
 11
87.333582
 21
196.513685
  0
LINE
  8
CSLAYER1
  6
CONTINUOUS
 62
     6
 10
87.876673
 20
196.470130
 11
87.333582
 21
196.125753
  0
LINE
  8
CSLAYER1
  6
CONTINUOUS
 62
     6
 10
87.333587
 20
193.895712
 11
87.333587
 21
198.895712
  0
LINE
  8
CSLAYER1
  6
CONTINUOUS
 62
     6
 10
87.333587
 20
198.895712
 11
86.833587
 21
198.895712
  0
LINE
  8
CSLAYER1
  6
CONTINUOUS
 62
     6
 10
87.333587
 20
193.895712
 11
86.833587
 21
193.895712
  0
LINE
  8
CSLAYER1
  6
CONTINUOUS
 62
     6
 10
86.833587
 20
198.895712
 11
86.833587
 21
193.895712
  0
CIRCLE
  8
CSLAYER1
  6
CONTINUOUS
 62
     6
 10
327.833587
 20
103.020712
 40
1.750000
  0
LINE
  8
CSLAYER1
  6
CENTER
 62
     3
 10
327.833587
 20
107.270712
 11
327.833587
 21
98.770712
  0
LINE
  8
CSLAYER1
  6
CENTER
 62
     3
 10
323.583587
 20
103.020712
 11
332.083587
 21
103.020712
  0
CIRCLE
  8
CSLAYER1
  6
CONTINUOUS
 62
     6
 10
327.833587
 20
73.020712
 40
1.750000
  0
LINE
  8
CSLAYER1
  6
CENTER
 62
     3
 10
327.833587
 20
77.270712
 11
327.833587
 21
68.770712
  0
LINE
  8
CSLAYER1
  6
CENTER
 62
     3
 10
323.583587
 20
73.020712
 11
332.083587
 21
73.020712
  0
CIRCLE
  8
CSLAYER1
  6
CONTINUOUS
 62
     6
 10
142.833587
 20
73.020712
 40
1.750000
  0
LINE
  8
CSLAYER1
  6
CENTER
 62
     3
 10
142.833587
 20
77.270712
 11
142.833587
 21
68.770712
  0
LINE
  8
CSLAYER1
  6
CENTER
 62
     3
 10
138.583587
 20
73.020712
 11
147.083587
 21
73.020712
  0
CIRCLE
  8
CSLAYER1
  6
CONTINUOUS
 62
     6
 10
142.833587
 20
103.020712
 40
1.750000
  0
LINE
  8
CSLAYER1
  6
CENTER
 62
     3
 10
142.833587
 20
107.270712
 11
142.833587
 21
98.770712
  0
LINE
  8
CSLAYER1
  6
CENTER
 62
     3
 10
138.583587
 20
103.020712
 11
147.083587
 21
103.020712
  0
LINE
  8
CSLAYER1
  6
CONTINUOUS
 62
     3
 10
171.337514
 20
236.520712
 11
171.487514
 21
236.595649
  0
LINE
  8
CSLAYER1
  6
CONTINUOUS
 62
     3
 10
171.487514
 20
236.595649
 11
171.637514
 21
236.670212
  0
LINE
  8
CSLAYER1
  6
CONTINUOUS
 62
     3
 10
171.637514
 20
236.670212
 11
171.787514
 21
236.744024
  0
LINE
  8
CSLAYER1
  6
CONTINUOUS
 62
     3
 10
171.787514
 20
236.744024
 11
171.937514
 21
236.816712
  0
LINE
  8
CSLAYER1
  6
CONTINUOUS
 62
     3
 10
171.937514
 20
236.816712
 11
172.087514
 21
236.887899
  0
LINE
  8
CSLAYER1
  6
CONTINUOUS
 62
     3
 10
172.087514
 20
236.887899
 11
172.237514
 21
236.957212
  0
LINE
  8
CSLAYER1
  6
CONTINUOUS
 62
     3
 10
172.237514
 20
236.957212
 11
172.387514
 21
237.024274
  0
LINE
  8
CSLAYER1
  6
CONTINUOUS
 62
     3
 10
172.387514
 20
237.024274
 11
172.537514
 21
237.088712
  0
LINE
  8
CSLAYER1
  6
CONTINUOUS
 62
     3
 10
172.537514
 20
237.088712
 11
172.687514
 21
237.150149
  0
LINE
  8
CSLAYER1
  6
CONTINUOUS
 62
     3
 10
172.687514
 20
237.150149
 11
172.837514
 21
237.208212
  0
LINE
  8
CSLAYER1
  6
CONTINUOUS
 62
     3
 10
172.837514
 20
237.208212
 11
172.987514
 21
237.262524
  0
LINE
  8
CSLAYER1
  6
CONTINUOUS
 62
     3
 10
172.987514
 20
237.262524
 11
173.137514
 21
237.312712
  0
LINE
  8
CSLAYER1
  6
CONTINUOUS
 62
     3
 10
173.137514
 20
237.312712
 11
173.287514
 21
237.358399
  0
LINE
  8
CSLAYER1
  6
CONTINUOUS
 62
     3
 10
173.287514
 20
237.358399
 11
173.437514
 21
237.399212
  0
LINE
  8
CSLAYER1
  6
CONTINUOUS
 62
     3
 10
173.437514
 20
237.399212
 11
173.587514
 21
237.434774
  0
LINE
  8
CSLAYER1
  6
CONTINUOUS
 62
     3
 10
173.587514
 20
237.434774
 11
173.737514
 21
237.464712
  0
LINE
  8
CSLAYER1
  6
CONTINUOUS
 62
     3
 10
173.737514
 20
237.464712
 11
173.887514
 21
237.488649
  0
LINE
  8
CSLAYER1
  6
CONTINUOUS
 62
     3
 10
173.887514
 20
237.488649
 11
174.037514
 21
237.506212
  0
LINE
  8
CSLAYER1
  6
CONTINUOUS
 62
     3
 10
174.037514
 20
237.506212
 11
174.187514
 21
237.517024
  0
LINE
  8
CSLAYER1
  6
CONTINUOUS
 62
     3
 10
174.187514
 20
237.517024
 11
174.337514
 21
237.520712
  0
LINE
  8
CSLAYER1
  6
CONTINUOUS
 62
     3
 10
174.337514
 20
237.520712
 11
174.487514
 21
237.517024
  0
LINE
  8
CSLAYER1
  6
CONTINUOUS
 62
     3
 10
174.487514
 20
237.517024
 11
174.637514
 21
237.506212
  0
LINE
  8
CSLAYER1
  6
CONTINUOUS
 62
     3
 10
174.637514
 20
237.506212
 11
174.787514
 21
237.488649
  0
LINE
  8
CSLAYER1
  6
CONTINUOUS
 62
     3
 10
174.787514
 20
237.488649
 11
174.937514
 21
237.464712
  0
LINE
  8
CSLAYER1
  6
CONTINUOUS
 62
     3
 10
174.937514
 20
237.464712
 11
175.087514
 21
237.434774
  0
LINE
  8
CSLAYER1
  6
CONTINUOUS
 62
     3
 10
175.087514
 20
237.434774
 11
175.237514
 21
237.399212
  0
LINE
  8
CSLAYER1
  6
CONTINUOUS
 62
     3
 10
175.237514
 20
237.399212
 11
175.387514
 21
237.358399
  0
LINE
  8
CSLAYER1
  6
CONTINUOUS
 62
     3
 10
175.387514
 20
237.358399
 11
175.537514
 21
237.312712
  0
LINE
  8
CSLAYER1
  6
CONTINUOUS
 62
     3
 10
175.537514
 20
237.312712
 11
175.687514
 21
237.262524
  0
LINE
  8
CSLAYER1
  6
CONTINUOUS
 62
     3
 10
175.687514
 20
237.262524
 11
175.837514
 21
237.208212
  0
LINE
  8
CSLAYER1
  6
CONTINUOUS
 62
     3
 10
175.837514
 20
237.208212
 11
175.987514
 21
237.150149
  0
LINE
  8
CSLAYER1
  6
CONTINUOUS
 62
     3
 10
175.987514
 20
237.150149
 11
176.137514
 21
237.088712
  0
LINE
  8
CSLAYER1
  6
CONTINUOUS
 62
     3
 10
176.137514
 20
237.088712
 11
176.287514
 21
237.024274
  0
LINE
  8
CSLAYER1
  6
CONTINUOUS
 62
     3
 10
176.287514
 20
237.024274
 11
176.437514
 21
236.957212
  0
LINE
  8
CSLAYER1
  6
CONTINUOUS
 62
     3
 10
176.437514
 20
236.957212
 11
176.587514
 21
236.887899
  0
LINE
  8
CSLAYER1
  6
CONTINUOUS
 62
     3
 10
176.587514
 20
236.887899
 11
176.737514
 21
236.816712
  0
LINE
  8
CSLAYER1
  6
CONTINUOUS
 62
     3
 10
176.737514
 20
236.816712
 11
176.887514
 21
236.744024
  0
LINE
  8
CSLAYER1
  6
CONTINUOUS
 62
     3
 10
176.887514
 20
236.744024
 11
177.037514
 21
236.670212
  0
LINE
  8
CSLAYER1
  6
CONTINUOUS
 62
     3
 10
177.037514
 20
236.670212
 11
177.187514
 21
236.595649
  0
LINE
  8
CSLAYER1
  6
CONTINUOUS
 62
     3
 10
177.187514
 20
236.595649
 11
177.337514
 21
236.520712
  0
LINE
  8
CSLAYER1
  6
CONTINUOUS
 62
     3
 10
183.337514
 20
236.520712
 11
183.187514
 21
236.445774
  0
LINE
  8
CSLAYER1
  6
CONTINUOUS
 62
     3
 10
183.187514
 20
236.445774
 11
183.037514
 21
236.371212
  0
LINE
  8
CSLAYER1
  6
CONTINUOUS
 62
     3
 10
183.037514
 20
236.371212
 11
182.887514
 21
236.297399
  0
LINE
  8
CSLAYER1
  6
CONTINUOUS
 62
     3
 10
182.887514
 20
236.297399
 11
182.737514
 21
236.224712
  0
LINE
  8
CSLAYER1
  6
CONTINUOUS
 62
     3
 10
182.737514
 20
236.224712
 11
182.587514
 21
236.153524
  0
LINE
  8
CSLAYER1
  6
CONTINUOUS
 62
     3
 10
182.587514
 20
236.153524
 11
182.437514
 21
236.084212
  0
LINE
  8
CSLAYER1
  6
CONTINUOUS
 62
     3
 10
182.437514
 20
236.084212
 11
182.287514
 21
236.017149
  0
LINE
  8
CSLAYER1
  6
CONTINUOUS
 62
     3
 10
182.287514
 20
236.017149
 11
182.137514
 21
235.952712
  0
LINE
  8
CSLAYER1
  6
CONTINUOUS
 62
     3
 10
182.137514
 20
235.952712
 11
181.987514
 21
235.891274
  0
LINE
  8
CSLAYER1
  6
CONTINUOUS
 62
     3
 10
181.987514
 20
235.891274
 11
181.837514
 21
235.833212
  0
LINE
  8
CSLAYER1
  6
CONTINUOUS
 62
     3
 10
181.837514
 20
235.833212
 11
181.687514
 21
235.778899
  0
LINE
  8
CSLAYER1
  6
CONTINUOUS
 62
     3
 10
181.687514
 20
235.778899
 11
181.537514
 21
235.728712
  0
LINE
  8
CSLAYER1
  6
CONTINUOUS
 62
     3
 10
181.537514
 20
235.728712
 11
181.387514
 21
235.683024
  0
LINE
  8
CSLAYER1
  6
CONTINUOUS
 62
     3
 10
181.387514
 20
235.683024
 11
181.237514
 21
235.642212
  0
LINE
  8
CSLAYER1
  6
CONTINUOUS
 62
     3
 10
181.237514
 20
235.642212
 11
181.087514
 21
235.606649
  0
LINE
  8
CSLAYER1
  6
CONTINUOUS
 62
     3
 10
181.087514
 20
235.606649
 11
180.937514
 21
235.576712
  0
LINE
  8
CSLAYER1
  6
CONTINUOUS
 62
     3
 10
180.937514
 20
235.576712
 11
180.787514
 21
235.552774
  0
LINE
  8
CSLAYER1
  6
CONTINUOUS
 62
     3
 10
180.787514
 20
235.552774
 11
180.637514
 21
235.535212
  0
LINE
  8
CSLAYER1
  6
CONTINUOUS
 62
     3
 10
180.637514
 20
235.535212
 11
180.487514
 21
235.524399
  0
LINE
  8
CSLAYER1
  6
CONTINUOUS
 62
     3
 10
180.487514
 20
235.524399
 11
180.337514
 21
235.520712
  0
LINE
  8
CSLAYER1
  6
CONTINUOUS
 62
     3
 10
180.337514
 20
235.520712
 11
180.187514
 21
235.524399
  0
LINE
  8
CSLAYER1
  6
CONTINUOUS
 62
     3
 10
180.187514
 20
235.524399
 11
180.037514
 21
235.535212
  0
LINE
  8
CSLAYER1
  6
CONTINUOUS
 62
     3
 10
180.037514
 20
235.535212
 11
179.887514
 21
235.552774
  0
LINE
  8
CSLAYER1
  6
CONTINUOUS
 62
     3
 10
179.887514
 20
235.552774
 11
179.737514
 21
235.576712
  0
LINE
  8
CSLAYER1
  6
CONTINUOUS
 62
     3
 10
179.737514
 20
235.576712
 11
179.587514
 21
235.606649
  0
LINE
  8
CSLAYER1
  6
CONTINUOUS
 62
     3
 10
179.587514
 20
235.606649
 11
179.437514
 21
235.642212
  0
LINE
  8
CSLAYER1
  6
CONTINUOUS
 62
     3
 10
179.437514
 20
235.642212
 11
179.287514
 21
235.683024
  0
LINE
  8
CSLAYER1
  6
CONTINUOUS
 62
     3
 10
179.287514
 20
235.683024
 11
179.137514
 21
235.728712
  0
LINE
  8
CSLAYER1
  6
CONTINUOUS
 62
     3
 10
179.137514
 20
235.728712
 11
178.987514
 21
235.778899
  0
LINE
  8
CSLAYER1
  6
CONTINUOUS
 62
     3
 10
178.987514
 20
235.778899
 11
178.837514
 21
235.833212
  0
LINE
  8
CSLAYER1
  6
CONTINUOUS
 62
     3
 10
178.837514
 20
235.833212
 11
178.687514
 21
235.891274
  0
LINE
  8
CSLAYER1
  6
CONTINUOUS
 62
     3
 10
178.687514
 20
235.891274
 11
178.537514
 21
235.952712
  0
LINE
  8
CSLAYER1
  6
CONTINUOUS
 62
     3
 10
178.537514
 20
235.952712
 11
178.387514
 21
236.017149
  0
LINE
  8
CSLAYER1
  6
CONTINUOUS
 62
     3
 10
178.387514
 20
236.017149
 11
178.237514
 21
236.084212
  0
LINE
  8
CSLAYER1
  6
CONTINUOUS
 62
     3
 10
178.237514
 20
236.084212
 11
178.087514
 21
236.153524
  0
LINE
  8
CSLAYER1
  6
CONTINUOUS
 62
     3
 10
178.087514
 20
236.153524
 11
177.937514
 21
236.224712
  0
LINE
  8
CSLAYER1
  6
CONTINUOUS
 62
     3
 10
177.937514
 20
236.224712
 11
177.787514
 21
236.297399
  0
LINE
  8
CSLAYER1
  6
CONTINUOUS
 62
     3
 10
177.787514
 20
236.297399
 11
177.637514
 21
236.371212
  0
LINE
  8
CSLAYER1
  6
CONTINUOUS
 62
     3
 10
177.637514
 20
236.371212
 11
177.487514
 21
236.445774
  0
LINE
  8
CSLAYER1
  6
CONTINUOUS
 62
     3
 10
177.487514
 20
236.445774
 11
177.337514
 21
236.520712
  0
LINE
  8
CSLAYER1
  6
DASHED
 62
     6
 10
137.833587
 20
65.020712
 11
332.833587
 21
65.020712
  0
INSERT
  8
CSLAYER1
  2
BLKF0000
 10
0.0
 20
0.0
 30
0.0
  0
ENDSEC
  0
EOF
