  0
SECTION
  2
HEADER
  9
$ACADVER
  1
AC1006
  9
$INSBASE
 10
0.000000
 20
0.000000
 30
0.0
  9
$EXTMIN
 10
0.000000
 20
0.000000
  9
$EXTMAX
 10
420.000000
 20
297.000000
  9
$LIMMIN
 10
0.000000
 20
0.000000
  9
$LIMMAX
 10
420.000000
 20
297.000000
  9
$VIEWCTR
 10
210.000000
 20
148.500000
  9
$VIEWSIZE
 40
297.000000
  9
$SNAPMODE
 70
     0
  9
$SNAPUNIT
 10
1.0
 20
1.0
  9
$SNAPBASE
 10
0.0
 20
0.0
  9
$SNAPANG
 50
0.0
  9
$SNAPSTYLE
 70
     0
  9
$SNAPISOPAIR
 70
     0
  9
$GRIDMODE
 70
     0
  9
$GRIDUNIT
 10
0.0
 20
0.0
  9
$ORTHOMODE
 70
     0
  9
$REGENMODE
 70
     1
  9
$FILLMODE
 70
     1
  9
$QTEXTMODE
 70
     0
  9
$DRAGMODE
 70
     2
  9
$LTSCALE
 40
15.000000
  9
$OSMODE
 70
     0
  9
$ATTMODE
 70
     1
  9
$TEXTSIZE
 40
0.2
  9
$TRACEWID
 40
0.05
  9
$TEXTSTYLE
  7
STANDARD
  9
$CLAYER
  8
CSLAYER1
  9
$CELTYPE
  6
BYLAYER
  9
$CECOLOR
 62
   256
  9
$DIMSCALE
 40
1.0
  9
$DIMASZ
 40
0.18
  9
$DIMEXO
 40
0.0625
  9
$DIMDLI
 40
0.38
  9
$DIMRND
 40
0.0
  9
$DIMDLE
 40
0.0
  9
$DIMEXE
 40
0.18
  9
$DIMTP
 40
0.0
  9
$DIMTM
 40
0.0
  9
$DIMTXT
 40
0.18
  9
$DIMCEN
 40
0.09
  9
$DIMTSZ
 40
0.0
  9
$DIMTOL
 70
     0
  9
$DIMLIM
 70
     0
  9
$DIMTIH
 70
     1
  9
$DIMTOH
 70
     1
  9
$DIMSE1
 70
     0
  9
$DIMSE2
 70
     0
  9
$DIMTAD
 70
     0
  9
$DIMZIN
 70
     0
  9
$DIMBLK
  1

  9
$LUNITS
 70
     2
  9
$LUPREC
 70
     4
  9
$AXISMODE
 70
     0
  9
$AXISUNIT
 10
0.0
 20
0.0
  9
$SKETCHINC
 40
0.1
  9
$FILLETRAD
 40
0.0
  9
$AUNITS
 70
     0
  9
$AUPREC
 70
     0
  9
$MENU
  1
ACAD
  9
$ELEVATION
 40
0.0
  9
$THICKNESS
 40
0.0
  9
$VIEWDIR
 10
0.0
 20
0.0
 30
1.0
  9
$LIMCHECK
 70
     0
  9
$BLIPMODE
 70
     1
  9
$CHAMFERA
 40
0.0
  9
$CHAMFERB
 40
0.0
  9
$FASTZOOM
 70
     1
  9
$SKPOLY
 70
     0
  9
$TDCREATE
 40
2454222.000000
  9
$TDUPDATE
 40
2454223.000000
  9
$TDINDWG
 40
0.0
  9
$TDUSRTIMER
 40
0.0
  9
$USRTIMER
 70
     1
  9
$ANGBASE
 50
0.0
  9
$ANGDIR
 70
     0
  9
$PDMODE
 70
     0
  9
$PDSIZE
 40
0.0
  9
$PLINEWID
 40
0.0
  9
$COORDS
 70
     0
  9
$USERI1
 70
     0
  9
$USERI2
 70
     0
  9
$USERI3
 70
     0
  9
$USERI4
 70
     0
  9
$USERI5
 70
     0
  9
$USERR1
 40
0.0
  9
$USERR2
 40
0.0
  9
$USERR3
 40
0.0
  9
$USERR4
 40
0.0
  9
$USERR5
 40
0.0
  0
ENDSEC
  0
SECTION
  2
TABLES
  0
TABLE
  2
LTYPE
 70
     9
  0
LTYPE
  2
CONTINUOUS
 70
    64
  3
Solid line
 72
    65
 73
     0
 40
0.0
  0
LTYPE
  2
DASHED
 70
    64
  3
__ __ __ __ __ __ __ __ __ __ __ __ __ __ __
 72
    65
 73
     2
 40
0.75
 49
0.5
 49
-0.25
  0
LTYPE
  2
HIDDEN
 70
    64
  3
_ _ _ _ _ _ _ _ _ _ _ _ _ _ _ _ _ _ _ _ _ _ _
 72
    65
 73
     2
 40
0.375
 49
0.25
 49
-0.125
  0
LTYPE
  2
DOT
 70
    64
  3
...............................................
 72
    65
 73
     2
 40
0.25
 49
0.0
 49
-0.25
  0
LTYPE
  2
DASHDOT
 70
    64
  3
__ . __ . __ . __ . __ . __ . __ . __ . __ . __
 72
    65
 73
     4
 40
1.0
 49
0.5
 49
-0.25
 49
0.0
 49
-0.25
  0
LTYPE
  2
DIVIDE
 70
    64
  3
__ . . __ . . __ . . __ . . __ . . __ . . __
 72
    65
 73
     6
 40
1.25
 49
0.5
 49
-0.25
 49
0.0
 49
-0.25
 49
0.0
 49
-0.25
  0
LTYPE
  2
CENTER
 70
    64
  3
____ _ ____ _ ____ _ ____ _ ____ _ ____ _ ____ 
 72
    65
 73
     4
 40
2.0
 49
1.25
 49
-0.25
 49
0.25
 49
-0.25
  0
LTYPE
  2
PHANTOM
 70
    64
  3
______  __  __  ______  __  __  ______  __  __ 
 72
    65
 73
     6
 40
2.5
 49
1.25
 49
-0.25
 49
0.25
 49
-0.25
 49
0.25
 49
-0.25
  0
LTYPE
  2
BORDER
 70
    64
  3
__ __ . __ __ . __ __ . __ __ . __ __ . __ __ .
 72
    65
 73
     6
 40
1.75
 49
0.5
 49
-0.25
 49
0.5
 49
-0.25
 49
0.0
 49
-0.25
  0
ENDTAB
  0
TABLE
  2
LAYER
 70
    16
  0
LAYER
  2
CSLAYER1
 70
    64
 62
     7
  6
CONTINUOUS
  0
LAYER
  2
CSLAYER2
 70
    64
 62
     7
  6
CONTINUOUS
  0
LAYER
  2
CSLAYER3
 70
    64
 62
     7
  6
CONTINUOUS
  0
LAYER
  2
CSLAYER4
 70
    64
 62
     7
  6
CONTINUOUS
  0
LAYER
  2
CSLAYER5
 70
    64
 62
     7
  6
CONTINUOUS
  0
LAYER
  2
CSLAYER6
 70
    64
 62
     7
  6
CONTINUOUS
  0
LAYER
  2
CSLAYER7
 70
    64
 62
     7
  6
CONTINUOUS
  0
LAYER
  2
CSLAYER8
 70
    64
 62
     7
  6
CONTINUOUS
  0
LAYER
  2
CSLAYER9
 70
    64
 62
     7
  6
CONTINUOUS
  0
LAYER
  2
CSLAYER10
 70
    64
 62
     7
  6
CONTINUOUS
  0
LAYER
  2
CSLAYER11
 70
    64
 62
     7
  6
CONTINUOUS
  0
LAYER
  2
CSLAYER12
 70
    64
 62
     7
  6
CONTINUOUS
  0
LAYER
  2
CSLAYER13
 70
    64
 62
     7
  6
CONTINUOUS
  0
LAYER
  2
CSLAYER14
 70
    64
 62
     7
  6
CONTINUOUS
  0
LAYER
  2
CSLAYER15
 70
    64
 62
     7
  6
CONTINUOUS
  0
LAYER
  2
CSLAYER16
 70
    64
 62
     7
  6
CONTINUOUS
  0
ENDTAB
  0
TABLE
  2
STYLE
 70
     1
  0
STYLE
  2
FX_FONT
 70
     0
 40
1.0
 41
1.0
 50
0.0
 71
     0
 42
1.0
  3
monotxt
  4
bigfont
  0
ENDTAB
  0
TABLE
  2
VIEW
 70
     0
  0
ENDTAB
  0
ENDSEC
  0
SECTION
  2
BLOCKS
  0
ENDSEC
  0
SECTION
  2
ENTITIES
  0
TEXT
  8
CSLAYER1
 62
     3
 10
354.089539
 20
35.476463
 40
4.000000
 41
0.902344
  1
ＭＳ-300□1005
 50
0.000000
 51
10.000000
  7
FX_FONT
 72
     5
 11
392.589539
 21
35.476463
  0
TEXT
  8
CSLAYER1
 62
     4
 10
354.089539
 20
29.476463
 40
3.500000
 41
1.071429
  1
尺度1：1
 50
0.000000
 51
10.000000
  7
FX_FONT
 72
     5
 11
371.589539
 21
29.476463
  0
TEXT
  8
CSLAYER1
 62
     3
 10
354.089539
 20
41.476463
 40
4.000000
 41
1.038462
  1
ＤＣモータドライバ
 50
0.000000
 51
10.000000
  7
FX_FONT
 72
     5
 11
390.089539
 21
41.476463
  0
LINE
  8
CSLAYER1
  6
CONTINUOUS
 62
     6
 10
69.203035
 20
251.828302
 11
69.203035
 21
151.828302
  0
LINE
  8
CSLAYER1
  6
CONTINUOUS
 62
     6
 10
70.703035
 20
251.828302
 11
70.703035
 21
151.828302
  0
LINE
  8
CSLAYER1
  6
CONTINUOUS
 62
     6
 10
69.203035
 20
251.828302
 11
70.703035
 21
251.828302
  0
LINE
  8
CSLAYER1
  6
CONTINUOUS
 62
     6
 10
69.203035
 20
151.828302
 11
105.703035
 21
151.828302
  0
LINE
  8
CSLAYER1
  6
CONTINUOUS
 62
     6
 10
79.703035
 20
189.278295
 11
104.703035
 21
189.278295
  0
LINE
  8
CSLAYER1
  6
CONTINUOUS
 62
     6
 10
79.703035
 20
191.278295
 11
104.703035
 21
191.278295
  0
LINE
  8
CSLAYER1
  6
CONTINUOUS
 62
     6
 10
70.703035
 20
177.778295
 11
104.703035
 21
177.778295
  0
LINE
  8
CSLAYER1
  6
CONTINUOUS
 62
     6
 10
70.703035
 20
202.778295
 11
104.703035
 21
202.778295
  0
LINE
  8
CSLAYER1
  6
CONTINUOUS
 62
     6
 10
105.703035
 20
191.828302
 11
105.703035
 21
151.828302
  0
LINE
  8
CSLAYER1
  6
CONTINUOUS
 62
     6
 10
104.703035
 20
202.778295
 11
104.703035
 21
191.278295
  0
LINE
  8
CSLAYER1
  6
CONTINUOUS
 62
     6
 10
104.703035
 20
189.278295
 11
104.703035
 21
177.778295
  0
LINE
  8
CSLAYER1
  6
CONTINUOUS
 62
     6
 10
104.703035
 20
191.828302
 11
105.703035
 21
191.828302
  0
LINE
  8
CSLAYER1
  6
CONTINUOUS
 62
     6
 10
101.203035
 20
237.718868
 11
101.203035
 21
203.718868
  0
LINE
  8
CSLAYER1
  6
CONTINUOUS
 62
     6
 10
98.203035
 20
228.718868
 11
100.203035
 21
228.718868
  0
LINE
  8
CSLAYER1
  6
CENTER
 62
     3
 10
67.203035
 20
146.828302
 11
67.203035
 21
138.828302
  0
TEXT
  8
CSLAYER1
 62
     3
 10
168.103043
 20
168.403305
 40
2.200000
 41
0.920455
  1
VR1
 50
270.000000
 51
0.000000
  7
FX_FONT
 72
     5
 11
168.103043
 21
163.003305
  0
LINE
  8
CSLAYER1
  6
CONTINUOUS
 62
     6
 10
167.203035
 20
177.778295
 11
183.203035
 21
177.778295
  0
LINE
  8
CSLAYER1
  6
CONTINUOUS
 62
     6
 10
167.203035
 20
189.278295
 11
183.203035
 21
189.278295
  0
LINE
  8
CSLAYER1
  6
CONTINUOUS
 62
     6
 10
167.203035
 20
191.278295
 11
183.203035
 21
191.278295
  0
LINE
  8
CSLAYER1
  6
CONTINUOUS
 62
     6
 10
167.203035
 20
202.778295
 11
183.203035
 21
202.778295
  0
LINE
  8
CSLAYER1
  6
CONTINUOUS
 62
     6
 10
167.203035
 20
202.778295
 11
167.203035
 21
191.278295
  0
LINE
  8
CSLAYER1
  6
CONTINUOUS
 62
     6
 10
167.203035
 20
189.278295
 11
167.203035
 21
177.778295
  0
LINE
  8
CSLAYER1
  6
CONTINUOUS
 62
     6
 10
183.203035
 20
202.778295
 11
183.203035
 21
191.278295
  0
LINE
  8
CSLAYER1
  6
CONTINUOUS
 62
     6
 10
183.203035
 20
189.278295
 11
183.203035
 21
177.778295
  0
TEXT
  8
CSLAYER1
 62
     3
 10
317.353027
 20
196.601013
 40
2.200000
 41
0.920455
  1
VR5
 50
270.000000
 51
0.000000
  7
FX_FONT
 72
     5
 11
317.353027
 21
191.201013
  0
TEXT
  8
CSLAYER1
 62
     3
 10
317.353027
 20
204.601013
 40
2.200000
 41
0.920455
  1
VR2
 50
270.000000
 51
0.000000
  7
FX_FONT
 72
     5
 11
317.353027
 21
199.201013
  0
TEXT
  8
CSLAYER1
 62
     3
 10
317.353027
 20
189.101013
 40
2.200000
 41
0.920455
  1
VR3
 50
270.000000
 51
0.000000
  7
FX_FONT
 72
     5
 11
317.353027
 21
183.701013
  0
TEXT
  8
CSLAYER1
 62
     3
 10
314.353027
 20
196.601013
 40
2.200000
 41
0.920455
  1
OFS
 50
270.000000
 51
0.000000
  7
FX_FONT
 72
     5
 11
314.353027
 21
191.201013
  0
LINE
  8
CSLAYER1
  6
CONTINUOUS
 62
     3
 10
314.203035
 20
196.775977
 11
314.203035
 21
191.025977
  0
LINE
  8
CSLAYER1
  6
CONTINUOUS
 62
     3
 10
316.703035
 20
196.775977
 11
316.703035
 21
191.025977
  0
LINE
  8
CSLAYER1
  6
CONTINUOUS
 62
     3
 10
316.703035
 20
196.775977
 11
314.203035
 21
196.775977
  0
LINE
  8
CSLAYER1
  6
CONTINUOUS
 62
     3
 10
316.703035
 20
191.025977
 11
314.203035
 21
191.025977
  0
TEXT
  8
CSLAYER1
 62
     3
 10
314.353027
 20
204.601013
 40
2.200000
 41
0.920455
  1
SPD
 50
270.000000
 51
0.000000
  7
FX_FONT
 72
     5
 11
314.353027
 21
199.201013
  0
LINE
  8
CSLAYER1
  6
CONTINUOUS
 62
     3
 10
314.203035
 20
204.775977
 11
314.203035
 21
199.025977
  0
LINE
  8
CSLAYER1
  6
CONTINUOUS
 62
     3
 10
316.703035
 20
204.775977
 11
316.703035
 21
199.025977
  0
LINE
  8
CSLAYER1
  6
CONTINUOUS
 62
     3
 10
316.703035
 20
204.775977
 11
314.203035
 21
204.775977
  0
LINE
  8
CSLAYER1
  6
CONTINUOUS
 62
     3
 10
316.703035
 20
199.025977
 11
314.203035
 21
199.025977
  0
TEXT
  8
CSLAYER1
 62
     3
 10
314.353027
 20
188.200989
 40
2.200000
 41
0.981818
  1
GA
 50
270.000000
 51
0.000000
  7
FX_FONT
 72
     5
 11
314.353027
 21
184.600989
  0
LINE
  8
CSLAYER1
  6
CONTINUOUS
 62
     3
 10
314.203035
 20
188.525977
 11
314.203035
 21
184.275977
  0
LINE
  8
CSLAYER1
  6
CONTINUOUS
 62
     3
 10
316.703035
 20
188.525977
 11
316.703035
 21
184.275977
  0
LINE
  8
CSLAYER1
  6
CONTINUOUS
 62
     3
 10
316.703035
 20
188.525977
 11
314.203035
 21
188.525977
  0
LINE
  8
CSLAYER1
  6
CONTINUOUS
 62
     3
 10
316.703035
 20
184.275977
 11
314.203035
 21
184.275977
  0
LINE
  8
CSLAYER1
  6
CONTINUOUS
 62
     6
 10
313.203035
 20
183.525977
 11
311.703035
 21
183.525977
  0
LINE
  8
CSLAYER1
  6
CONTINUOUS
 62
     6
 10
311.703035
 20
183.025977
 11
311.703035
 21
183.525977
  0
LINE
  8
CSLAYER1
  6
CONTINUOUS
 62
     6
 10
308.203035
 20
183.025977
 11
308.203035
 21
183.525977
  0
LINE
  8
CSLAYER1
  6
CONTINUOUS
 62
     6
 10
308.203035
 20
183.525977
 11
306.703035
 21
183.525977
  0
LINE
  8
CSLAYER1
  6
CONTINUOUS
 62
     6
 10
306.703035
 20
189.275977
 11
308.203035
 21
189.275977
  0
LINE
  8
CSLAYER1
  6
CONTINUOUS
 62
     6
 10
308.203035
 20
189.775977
 11
308.203035
 21
189.275977
  0
LINE
  8
CSLAYER1
  6
CONTINUOUS
 62
     6
 10
311.703035
 20
189.775977
 11
311.703035
 21
189.275977
  0
LINE
  8
CSLAYER1
  6
CONTINUOUS
 62
     6
 10
311.703035
 20
189.275977
 11
313.203035
 21
189.275977
  0
POINT
  8
CSLAYER1
 62
     3
 10
309.953035
 20
186.400977
  0
ARC
  8
CSLAYER1
  6
CONTINUOUS
 62
     6
 10
309.953035
 20
186.400977
 40
2.000000
 50
41.409622
 51
318.590378
  0
CIRCLE
  8
CSLAYER1
  6
CONTINUOUS
 62
     3
 10
309.953035
 20
186.400977
 40
1.650000
  0
LINE
  8
CSLAYER1
  6
CONTINUOUS
 62
     6
 10
311.453035
 20
184.578101
 11
311.453035
 21
185.078101
  0
LINE
  8
CSLAYER1
  6
CONTINUOUS
 62
     6
 10
311.453035
 20
187.723853
 11
311.453035
 21
188.223853
  0
LINE
  8
CSLAYER1
  6
CONTINUOUS
 62
     6
 10
307.953035
 20
186.400977
 11
307.453035
 21
186.400977
  0
LINE
  8
CSLAYER1
  6
CONTINUOUS
 62
     6
 10
308.220984
 20
185.400977
 11
307.787972
 21
185.150977
  0
LINE
  8
CSLAYER1
  6
CONTINUOUS
 62
     6
 10
308.953035
 20
184.668926
 11
308.703035
 21
184.235914
  0
LINE
  8
CSLAYER1
  6
CONTINUOUS
 62
     6
 10
309.953035
 20
184.400977
 11
309.953035
 21
183.900977
  0
LINE
  8
CSLAYER1
  6
CONTINUOUS
 62
     6
 10
310.953035
 20
184.668926
 11
311.203035
 21
184.235914
  0
LINE
  8
CSLAYER1
  6
CONTINUOUS
 62
     6
 10
308.220984
 20
187.400977
 11
307.787972
 21
187.650977
  0
LINE
  8
CSLAYER1
  6
CONTINUOUS
 62
     6
 10
308.953035
 20
188.133028
 11
308.703035
 21
188.566041
  0
LINE
  8
CSLAYER1
  6
CONTINUOUS
 62
     6
 10
309.953035
 20
188.400977
 11
309.953035
 21
188.900977
  0
LINE
  8
CSLAYER1
  6
CONTINUOUS
 62
     6
 10
310.953035
 20
188.133028
 11
311.203035
 21
188.566041
  0
LINE
  8
CSLAYER1
  6
CONTINUOUS
 62
     3
 10
309.623035
 20
185.080977
 11
309.623035
 21
186.070977
  0
LINE
  8
CSLAYER1
  6
CONTINUOUS
 62
     3
 10
310.283035
 20
185.080977
 11
310.283035
 21
186.070977
  0
LINE
  8
CSLAYER1
  6
CONTINUOUS
 62
     3
 10
311.273035
 20
186.070977
 11
310.283035
 21
186.070977
  0
LINE
  8
CSLAYER1
  6
CONTINUOUS
 62
     3
 10
311.273035
 20
186.730977
 11
310.283035
 21
186.730977
  0
LINE
  8
CSLAYER1
  6
CONTINUOUS
 62
     3
 10
311.273035
 20
186.070977
 11
311.273035
 21
186.730977
  0
LINE
  8
CSLAYER1
  6
CONTINUOUS
 62
     3
 10
309.623035
 20
185.080977
 11
310.283035
 21
185.080977
  0
LINE
  8
CSLAYER1
  6
CONTINUOUS
 62
     3
 10
310.283035
 20
187.720977
 11
309.623035
 21
187.720977
  0
LINE
  8
CSLAYER1
  6
CONTINUOUS
 62
     3
 10
309.029035
 20
185.715085
 11
309.029035
 21
186.070977
  0
LINE
  8
CSLAYER1
  6
CONTINUOUS
 62
     3
 10
309.029035
 20
185.715085
 11
308.633035
 21
186.400977
  0
LINE
  8
CSLAYER1
  6
CONTINUOUS
 62
     3
 10
309.029035
 20
187.086869
 11
308.633035
 21
186.400977
  0
LINE
  8
CSLAYER1
  6
CONTINUOUS
 62
     3
 10
309.029035
 20
186.730977
 11
309.029035
 21
187.086869
  0
LINE
  8
CSLAYER1
  6
CONTINUOUS
 62
     3
 10
309.623035
 20
186.730977
 11
309.623035
 21
187.720977
  0
LINE
  8
CSLAYER1
  6
CONTINUOUS
 62
     3
 10
310.283035
 20
186.730977
 11
310.283035
 21
187.720977
  0
LINE
  8
CSLAYER1
  6
CONTINUOUS
 62
     3
 10
309.623035
 20
186.070977
 11
309.029035
 21
186.070977
  0
LINE
  8
CSLAYER1
  6
CONTINUOUS
 62
     3
 10
309.623035
 20
186.730977
 11
309.029035
 21
186.730977
  0
LINE
  8
CSLAYER1
  6
CONTINUOUS
 62
     6
 10
313.203035
 20
191.025977
 11
311.703035
 21
191.025977
  0
LINE
  8
CSLAYER1
  6
CONTINUOUS
 62
     6
 10
311.703035
 20
190.525977
 11
311.703035
 21
191.025977
  0
LINE
  8
CSLAYER1
  6
CONTINUOUS
 62
     6
 10
308.203035
 20
190.525977
 11
308.203035
 21
191.025977
  0
LINE
  8
CSLAYER1
  6
CONTINUOUS
 62
     6
 10
308.203035
 20
191.025977
 11
306.703035
 21
191.025977
  0
LINE
  8
CSLAYER1
  6
CONTINUOUS
 62
     6
 10
306.703035
 20
196.775977
 11
308.203035
 21
196.775977
  0
LINE
  8
CSLAYER1
  6
CONTINUOUS
 62
     6
 10
308.203035
 20
197.275977
 11
308.203035
 21
196.775977
  0
LINE
  8
CSLAYER1
  6
CONTINUOUS
 62
     6
 10
311.703035
 20
197.275977
 11
311.703035
 21
196.775977
  0
LINE
  8
CSLAYER1
  6
CONTINUOUS
 62
     6
 10
311.703035
 20
196.775977
 11
313.203035
 21
196.775977
  0
POINT
  8
CSLAYER1
 62
     3
 10
309.953035
 20
193.900977
  0
ARC
  8
CSLAYER1
  6
CONTINUOUS
 62
     6
 10
309.953035
 20
193.900977
 40
2.000000
 50
41.409622
 51
318.590378
  0
CIRCLE
  8
CSLAYER1
  6
CONTINUOUS
 62
     3
 10
309.953035
 20
193.900977
 40
1.650000
  0
LINE
  8
CSLAYER1
  6
CONTINUOUS
 62
     6
 10
311.453035
 20
192.078101
 11
311.453035
 21
192.578101
  0
LINE
  8
CSLAYER1
  6
CONTINUOUS
 62
     6
 10
311.453035
 20
195.223853
 11
311.453035
 21
195.723853
  0
LINE
  8
CSLAYER1
  6
CONTINUOUS
 62
     6
 10
307.953035
 20
193.900977
 11
307.453035
 21
193.900977
  0
LINE
  8
CSLAYER1
  6
CONTINUOUS
 62
     6
 10
308.220984
 20
192.900977
 11
307.787972
 21
192.650977
  0
LINE
  8
CSLAYER1
  6
CONTINUOUS
 62
     6
 10
308.953035
 20
192.168926
 11
308.703035
 21
191.735914
  0
LINE
  8
CSLAYER1
  6
CONTINUOUS
 62
     6
 10
309.953035
 20
191.900977
 11
309.953035
 21
191.400977
  0
LINE
  8
CSLAYER1
  6
CONTINUOUS
 62
     6
 10
310.953035
 20
192.168926
 11
311.203035
 21
191.735914
  0
LINE
  8
CSLAYER1
  6
CONTINUOUS
 62
     6
 10
308.220984
 20
194.900977
 11
307.787972
 21
195.150977
  0
LINE
  8
CSLAYER1
  6
CONTINUOUS
 62
     6
 10
308.953035
 20
195.633028
 11
308.703035
 21
196.066041
  0
LINE
  8
CSLAYER1
  6
CONTINUOUS
 62
     6
 10
309.953035
 20
195.900977
 11
309.953035
 21
196.400977
  0
LINE
  8
CSLAYER1
  6
CONTINUOUS
 62
     6
 10
310.953035
 20
195.633028
 11
311.203035
 21
196.066041
  0
LINE
  8
CSLAYER1
  6
CONTINUOUS
 62
     3
 10
309.623035
 20
192.580977
 11
309.623035
 21
193.570977
  0
LINE
  8
CSLAYER1
  6
CONTINUOUS
 62
     3
 10
310.283035
 20
192.580977
 11
310.283035
 21
193.570977
  0
LINE
  8
CSLAYER1
  6
CONTINUOUS
 62
     3
 10
311.273035
 20
193.570977
 11
310.283035
 21
193.570977
  0
LINE
  8
CSLAYER1
  6
CONTINUOUS
 62
     3
 10
311.273035
 20
194.230977
 11
310.283035
 21
194.230977
  0
LINE
  8
CSLAYER1
  6
CONTINUOUS
 62
     3
 10
311.273035
 20
193.570977
 11
311.273035
 21
194.230977
  0
LINE
  8
CSLAYER1
  6
CONTINUOUS
 62
     3
 10
309.623035
 20
192.580977
 11
310.283035
 21
192.580977
  0
LINE
  8
CSLAYER1
  6
CONTINUOUS
 62
     3
 10
310.283035
 20
195.220977
 11
309.623035
 21
195.220977
  0
LINE
  8
CSLAYER1
  6
CONTINUOUS
 62
     3
 10
309.029035
 20
193.215085
 11
309.029035
 21
193.570977
  0
LINE
  8
CSLAYER1
  6
CONTINUOUS
 62
     3
 10
309.029035
 20
193.215085
 11
308.633035
 21
193.900977
  0
LINE
  8
CSLAYER1
  6
CONTINUOUS
 62
     3
 10
309.029035
 20
194.586869
 11
308.633035
 21
193.900977
  0
LINE
  8
CSLAYER1
  6
CONTINUOUS
 62
     3
 10
309.029035
 20
194.230977
 11
309.029035
 21
194.586869
  0
LINE
  8
CSLAYER1
  6
CONTINUOUS
 62
     3
 10
309.623035
 20
194.230977
 11
309.623035
 21
195.220977
  0
LINE
  8
CSLAYER1
  6
CONTINUOUS
 62
     3
 10
310.283035
 20
194.230977
 11
310.283035
 21
195.220977
  0
LINE
  8
CSLAYER1
  6
CONTINUOUS
 62
     3
 10
309.623035
 20
193.570977
 11
309.029035
 21
193.570977
  0
LINE
  8
CSLAYER1
  6
CONTINUOUS
 62
     3
 10
309.623035
 20
194.230977
 11
309.029035
 21
194.230977
  0
LINE
  8
CSLAYER1
  6
CONTINUOUS
 62
     6
 10
313.203035
 20
199.025977
 11
311.703035
 21
199.025977
  0
LINE
  8
CSLAYER1
  6
CONTINUOUS
 62
     6
 10
311.703035
 20
198.525977
 11
311.703035
 21
199.025977
  0
LINE
  8
CSLAYER1
  6
CONTINUOUS
 62
     6
 10
308.203035
 20
198.525977
 11
308.203035
 21
199.025977
  0
LINE
  8
CSLAYER1
  6
CONTINUOUS
 62
     6
 10
308.203035
 20
199.025977
 11
306.703035
 21
199.025977
  0
LINE
  8
CSLAYER1
  6
CONTINUOUS
 62
     6
 10
306.703035
 20
204.775977
 11
308.203035
 21
204.775977
  0
LINE
  8
CSLAYER1
  6
CONTINUOUS
 62
     6
 10
308.203035
 20
205.275977
 11
308.203035
 21
204.775977
  0
LINE
  8
CSLAYER1
  6
CONTINUOUS
 62
     6
 10
311.703035
 20
205.275977
 11
311.703035
 21
204.775977
  0
LINE
  8
CSLAYER1
  6
CONTINUOUS
 62
     6
 10
311.703035
 20
204.775977
 11
313.203035
 21
204.775977
  0
POINT
  8
CSLAYER1
 62
     3
 10
309.953035
 20
201.900977
  0
ARC
  8
CSLAYER1
  6
CONTINUOUS
 62
     6
 10
309.953035
 20
201.900977
 40
2.000000
 50
41.409622
 51
318.590378
  0
CIRCLE
  8
CSLAYER1
  6
CONTINUOUS
 62
     3
 10
309.953035
 20
201.900977
 40
1.650000
  0
LINE
  8
CSLAYER1
  6
CONTINUOUS
 62
     6
 10
311.453035
 20
200.078101
 11
311.453035
 21
200.578101
  0
LINE
  8
CSLAYER1
  6
CONTINUOUS
 62
     6
 10
311.453035
 20
203.223853
 11
311.453035
 21
203.723853
  0
LINE
  8
CSLAYER1
  6
CONTINUOUS
 62
     6
 10
307.953035
 20
201.900977
 11
307.453035
 21
201.900977
  0
LINE
  8
CSLAYER1
  6
CONTINUOUS
 62
     6
 10
308.220984
 20
200.900977
 11
307.787972
 21
200.650977
  0
LINE
  8
CSLAYER1
  6
CONTINUOUS
 62
     6
 10
308.953035
 20
200.168926
 11
308.703035
 21
199.735914
  0
LINE
  8
CSLAYER1
  6
CONTINUOUS
 62
     6
 10
309.953035
 20
199.900977
 11
309.953035
 21
199.400977
  0
LINE
  8
CSLAYER1
  6
CONTINUOUS
 62
     6
 10
310.953035
 20
200.168926
 11
311.203035
 21
199.735914
  0
LINE
  8
CSLAYER1
  6
CONTINUOUS
 62
     6
 10
308.220984
 20
202.900977
 11
307.787972
 21
203.150977
  0
LINE
  8
CSLAYER1
  6
CONTINUOUS
 62
     6
 10
308.953035
 20
203.633028
 11
308.703035
 21
204.066041
  0
LINE
  8
CSLAYER1
  6
CONTINUOUS
 62
     6
 10
309.953035
 20
203.900977
 11
309.953035
 21
204.400977
  0
LINE
  8
CSLAYER1
  6
CONTINUOUS
 62
     6
 10
310.953035
 20
203.633028
 11
311.203035
 21
204.066041
  0
LINE
  8
CSLAYER1
  6
CONTINUOUS
 62
     3
 10
311.273035
 20
201.570977
 11
310.283035
 21
201.570977
  0
LINE
  8
CSLAYER1
  6
CONTINUOUS
 62
     3
 10
311.273035
 20
202.230977
 11
310.283035
 21
202.230977
  0
LINE
  8
CSLAYER1
  6
CONTINUOUS
 62
     3
 10
310.283035
 20
203.220977
 11
310.283035
 21
202.230977
  0
LINE
  8
CSLAYER1
  6
CONTINUOUS
 62
     3
 10
309.623035
 20
203.220977
 11
309.623035
 21
202.230977
  0
LINE
  8
CSLAYER1
  6
CONTINUOUS
 62
     3
 10
310.283035
 20
203.220977
 11
309.623035
 21
203.220977
  0
LINE
  8
CSLAYER1
  6
CONTINUOUS
 62
     3
 10
311.273035
 20
201.570977
 11
311.273035
 21
202.230977
  0
LINE
  8
CSLAYER1
  6
CONTINUOUS
 62
     3
 10
308.633035
 20
202.230977
 11
308.633035
 21
201.570977
  0
LINE
  8
CSLAYER1
  6
CONTINUOUS
 62
     3
 10
310.638927
 20
200.976977
 11
310.283035
 21
200.976977
  0
LINE
  8
CSLAYER1
  6
CONTINUOUS
 62
     3
 10
310.638927
 20
200.976977
 11
309.953035
 21
200.580977
  0
LINE
  8
CSLAYER1
  6
CONTINUOUS
 62
     3
 10
309.267143
 20
200.976977
 11
309.953035
 21
200.580977
  0
LINE
  8
CSLAYER1
  6
CONTINUOUS
 62
     3
 10
309.623035
 20
200.976977
 11
309.267143
 21
200.976977
  0
LINE
  8
CSLAYER1
  6
CONTINUOUS
 62
     3
 10
309.623035
 20
201.570977
 11
308.633035
 21
201.570977
  0
LINE
  8
CSLAYER1
  6
CONTINUOUS
 62
     3
 10
309.623035
 20
202.230977
 11
308.633035
 21
202.230977
  0
LINE
  8
CSLAYER1
  6
CONTINUOUS
 62
     3
 10
310.283035
 20
201.570977
 11
310.283035
 21
200.976977
  0
LINE
  8
CSLAYER1
  6
CONTINUOUS
 62
     3
 10
309.623035
 20
201.570977
 11
309.623035
 21
200.976977
  0
LINE
  8
CSLAYER1
  6
CONTINUOUS
 62
     6
 10
306.703035
 20
183.025977
 11
306.703035
 21
189.775977
  0
LINE
  8
CSLAYER1
  6
CONTINUOUS
 62
     6
 10
313.203035
 20
183.025977
 11
313.203035
 21
189.775977
  0
LINE
  8
CSLAYER1
  6
CONTINUOUS
 62
     6
 10
313.203035
 20
183.025977
 11
306.703035
 21
183.025977
  0
LINE
  8
CSLAYER1
  6
CONTINUOUS
 62
     6
 10
313.203035
 20
189.775977
 11
306.703035
 21
189.775977
  0
LINE
  8
CSLAYER1
  6
CONTINUOUS
 62
     6
 10
306.703035
 20
190.525977
 11
306.703035
 21
197.275977
  0
LINE
  8
CSLAYER1
  6
CONTINUOUS
 62
     6
 10
313.203035
 20
190.525977
 11
313.203035
 21
197.275977
  0
LINE
  8
CSLAYER1
  6
CONTINUOUS
 62
     6
 10
313.203035
 20
190.525977
 11
306.703035
 21
190.525977
  0
LINE
  8
CSLAYER1
  6
CONTINUOUS
 62
     6
 10
313.203035
 20
197.275977
 11
306.703035
 21
197.275977
  0
LINE
  8
CSLAYER1
  6
CONTINUOUS
 62
     6
 10
306.703035
 20
198.525977
 11
306.703035
 21
205.275977
  0
LINE
  8
CSLAYER1
  6
CONTINUOUS
 62
     6
 10
313.203035
 20
198.525977
 11
313.203035
 21
205.275977
  0
LINE
  8
CSLAYER1
  6
CONTINUOUS
 62
     6
 10
313.203035
 20
198.525977
 11
306.703035
 21
198.525977
  0
LINE
  8
CSLAYER1
  6
CONTINUOUS
 62
     6
 10
313.203035
 20
205.275977
 11
306.703035
 21
205.275977
  0
LINE
  8
CSLAYER1
  6
CONTINUOUS
 62
     6
 10
250.203035
 20
229.328302
 11
250.203035
 21
239.328302
  0
LINE
  8
CSLAYER1
  6
CONTINUOUS
 62
     6
 10
249.203035
 20
240.328302
 11
222.203035
 21
240.328302
  0
LINE
  8
CSLAYER1
  6
CONTINUOUS
 62
     6
 10
221.203035
 20
239.328302
 11
221.203035
 21
229.328302
  0
LINE
  8
CSLAYER1
  6
CONTINUOUS
 62
     6
 10
222.203035
 20
228.328302
 11
249.203035
 21
228.328302
  0
LINE
  8
CSLAYER1
  6
CONTINUOUS
 62
     6
 10
244.703035
 20
223.828302
 11
244.703035
 21
228.328302
  0
LINE
  8
CSLAYER1
  6
CONTINUOUS
 62
     6
 10
242.703035
 20
246.828302
 11
228.703035
 21
246.828302
  0
LINE
  8
CSLAYER1
  6
CONTINUOUS
 62
     6
 10
226.703035
 20
244.828302
 11
226.703035
 21
240.328302
  0
LINE
  8
CSLAYER1
  6
CONTINUOUS
 62
     6
 10
228.703035
 20
221.828302
 11
242.703035
 21
221.828302
  0
LINE
  8
CSLAYER1
  6
CONTINUOUS
 62
     6
 10
244.703035
 20
240.328302
 11
244.703035
 21
244.828302
  0
LINE
  8
CSLAYER1
  6
CONTINUOUS
 62
     6
 10
226.703035
 20
228.328302
 11
226.703035
 21
223.828302
  0
ARC
  8
CSLAYER1
  6
CONTINUOUS
 62
     6
 10
242.703035
 20
244.828302
 40
2.000000
 50
0.000000
 51
90.000000
  0
ARC
  8
CSLAYER1
  6
CONTINUOUS
 62
     6
 10
228.703035
 20
244.828302
 40
2.000000
 50
90.000000
 51
180.000000
  0
ARC
  8
CSLAYER1
  6
CONTINUOUS
 62
     6
 10
228.703035
 20
223.828302
 40
2.000000
 50
180.000000
 51
270.000000
  0
ARC
  8
CSLAYER1
  6
CONTINUOUS
 62
     6
 10
242.703035
 20
223.828302
 40
2.000000
 50
270.000000
 51
360.000000
  0
ARC
  8
CSLAYER1
  6
CONTINUOUS
 62
     6
 10
249.203035
 20
239.328302
 40
1.000000
 50
0.000000
 51
90.000000
  0
ARC
  8
CSLAYER1
  6
CONTINUOUS
 62
     6
 10
222.203035
 20
239.328302
 40
1.000000
 50
90.000000
 51
180.000000
  0
ARC
  8
CSLAYER1
  6
CONTINUOUS
 62
     6
 10
222.203035
 20
229.328302
 40
1.000000
 50
180.000000
 51
270.000000
  0
ARC
  8
CSLAYER1
  6
CONTINUOUS
 62
     6
 10
249.203035
 20
229.328302
 40
1.000000
 50
270.000000
 51
360.000000
  0
CIRCLE
  8
CSLAYER1
  6
CONTINUOUS
 62
     6
 10
271.203035
 20
215.718868
 40
13.000000
  0
LINE
  8
CSLAYER1
  6
CONTINUOUS
 62
     6
 10
201.703035
 20
240.328302
 11
191.703035
 21
240.328302
  0
LINE
  8
CSLAYER1
  6
CONTINUOUS
 62
     6
 10
190.703035
 20
239.328302
 11
190.703035
 21
212.328302
  0
LINE
  8
CSLAYER1
  6
CONTINUOUS
 62
     6
 10
191.703035
 20
211.328302
 11
201.703035
 21
211.328302
  0
LINE
  8
CSLAYER1
  6
CONTINUOUS
 62
     6
 10
202.703035
 20
212.328302
 11
202.703035
 21
239.328302
  0
LINE
  8
CSLAYER1
  6
CONTINUOUS
 62
     6
 10
207.203035
 20
234.828302
 11
202.703035
 21
234.828302
  0
LINE
  8
CSLAYER1
  6
CONTINUOUS
 62
     6
 10
184.203035
 20
232.828302
 11
184.203035
 21
218.828302
  0
LINE
  8
CSLAYER1
  6
CONTINUOUS
 62
     6
 10
186.203035
 20
216.828302
 11
190.703035
 21
216.828302
  0
LINE
  8
CSLAYER1
  6
CONTINUOUS
 62
     6
 10
209.203035
 20
218.828302
 11
209.203035
 21
232.828302
  0
LINE
  8
CSLAYER1
  6
CONTINUOUS
 62
     6
 10
190.703035
 20
234.828302
 11
186.203035
 21
234.828302
  0
LINE
  8
CSLAYER1
  6
CONTINUOUS
 62
     6
 10
202.703035
 20
216.828302
 11
207.203035
 21
216.828302
  0
ARC
  8
CSLAYER1
  6
CONTINUOUS
 62
     6
 10
186.203035
 20
232.828302
 40
2.000000
 50
90.000000
 51
180.000000
  0
ARC
  8
CSLAYER1
  6
CONTINUOUS
 62
     6
 10
186.203035
 20
218.828302
 40
2.000000
 50
180.000000
 51
270.000000
  0
ARC
  8
CSLAYER1
  6
CONTINUOUS
 62
     6
 10
207.203035
 20
218.828302
 40
2.000000
 50
270.000000
 51
360.000000
  0
ARC
  8
CSLAYER1
  6
CONTINUOUS
 62
     6
 10
207.203035
 20
232.828302
 40
2.000000
 50
0.000000
 51
90.000000
  0
ARC
  8
CSLAYER1
  6
CONTINUOUS
 62
     6
 10
191.703035
 20
239.328302
 40
1.000000
 50
90.000000
 51
180.000000
  0
ARC
  8
CSLAYER1
  6
CONTINUOUS
 62
     6
 10
191.703035
 20
212.328302
 40
1.000000
 50
180.000000
 51
270.000000
  0
ARC
  8
CSLAYER1
  6
CONTINUOUS
 62
     6
 10
201.703035
 20
212.328302
 40
1.000000
 50
270.000000
 51
360.000000
  0
ARC
  8
CSLAYER1
  6
CONTINUOUS
 62
     6
 10
201.703035
 20
239.328302
 40
1.000000
 50
0.000000
 51
90.000000
  0
CIRCLE
  8
CSLAYER1
  6
CONTINUOUS
 62
     6
 10
302.203035
 20
225.718868
 40
13.000000
  0
TEXT
  8
CSLAYER1
 62
     3
 10
317.353027
 20
181.601013
 40
2.200000
 41
0.920455
  1
VR4
 50
270.000000
 51
0.000000
  7
FX_FONT
 72
     5
 11
317.353027
 21
176.201013
  0
TEXT
  8
CSLAYER1
 62
     3
 10
314.353027
 20
180.700989
 40
2.200000
 41
0.981818
  1
PH
 50
270.000000
 51
0.000000
  7
FX_FONT
 72
     5
 11
314.353027
 21
177.100989
  0
LINE
  8
CSLAYER1
  6
CONTINUOUS
 62
     3
 10
314.203035
 20
181.025977
 11
314.203035
 21
176.775977
  0
LINE
  8
CSLAYER1
  6
CONTINUOUS
 62
     3
 10
316.703035
 20
181.025977
 11
316.703035
 21
176.775977
  0
LINE
  8
CSLAYER1
  6
CONTINUOUS
 62
     3
 10
316.703035
 20
181.025977
 11
314.203035
 21
181.025977
  0
LINE
  8
CSLAYER1
  6
CONTINUOUS
 62
     3
 10
316.703035
 20
176.775977
 11
314.203035
 21
176.775977
  0
LINE
  8
CSLAYER1
  6
CONTINUOUS
 62
     6
 10
313.203035
 20
176.025977
 11
311.703035
 21
176.025977
  0
LINE
  8
CSLAYER1
  6
CONTINUOUS
 62
     6
 10
311.703035
 20
175.525977
 11
311.703035
 21
176.025977
  0
LINE
  8
CSLAYER1
  6
CONTINUOUS
 62
     6
 10
308.203035
 20
175.525977
 11
308.203035
 21
176.025977
  0
LINE
  8
CSLAYER1
  6
CONTINUOUS
 62
     6
 10
308.203035
 20
176.025977
 11
306.703035
 21
176.025977
  0
LINE
  8
CSLAYER1
  6
CONTINUOUS
 62
     6
 10
306.703035
 20
181.775977
 11
308.203035
 21
181.775977
  0
LINE
  8
CSLAYER1
  6
CONTINUOUS
 62
     6
 10
308.203035
 20
182.275977
 11
308.203035
 21
181.775977
  0
LINE
  8
CSLAYER1
  6
CONTINUOUS
 62
     6
 10
311.703035
 20
182.275977
 11
311.703035
 21
181.775977
  0
LINE
  8
CSLAYER1
  6
CONTINUOUS
 62
     6
 10
311.703035
 20
181.775977
 11
313.203035
 21
181.775977
  0
POINT
  8
CSLAYER1
 62
     3
 10
309.953035
 20
178.900977
  0
ARC
  8
CSLAYER1
  6
CONTINUOUS
 62
     6
 10
309.953035
 20
178.900977
 40
2.000000
 50
41.409622
 51
318.590378
  0
CIRCLE
  8
CSLAYER1
  6
CONTINUOUS
 62
     3
 10
309.953035
 20
178.900977
 40
1.650000
  0
LINE
  8
CSLAYER1
  6
CONTINUOUS
 62
     6
 10
311.453035
 20
177.078101
 11
311.453035
 21
177.578101
  0
LINE
  8
CSLAYER1
  6
CONTINUOUS
 62
     6
 10
311.453035
 20
180.223853
 11
311.453035
 21
180.723853
  0
LINE
  8
CSLAYER1
  6
CONTINUOUS
 62
     6
 10
307.953035
 20
178.900977
 11
307.453035
 21
178.900977
  0
LINE
  8
CSLAYER1
  6
CONTINUOUS
 62
     6
 10
308.220984
 20
177.900977
 11
307.787972
 21
177.650977
  0
LINE
  8
CSLAYER1
  6
CONTINUOUS
 62
     6
 10
308.953035
 20
177.168926
 11
308.703035
 21
176.735914
  0
LINE
  8
CSLAYER1
  6
CONTINUOUS
 62
     6
 10
309.953035
 20
176.900977
 11
309.953035
 21
176.400977
  0
LINE
  8
CSLAYER1
  6
CONTINUOUS
 62
     6
 10
310.953035
 20
177.168926
 11
311.203035
 21
176.735914
  0
LINE
  8
CSLAYER1
  6
CONTINUOUS
 62
     6
 10
308.220984
 20
179.900977
 11
307.787972
 21
180.150977
  0
LINE
  8
CSLAYER1
  6
CONTINUOUS
 62
     6
 10
308.953035
 20
180.633028
 11
308.703035
 21
181.066041
  0
LINE
  8
CSLAYER1
  6
CONTINUOUS
 62
     6
 10
309.953035
 20
180.900977
 11
309.953035
 21
181.400977
  0
LINE
  8
CSLAYER1
  6
CONTINUOUS
 62
     6
 10
310.953035
 20
180.633028
 11
311.203035
 21
181.066041
  0
LINE
  8
CSLAYER1
  6
CONTINUOUS
 62
     3
 10
309.623035
 20
177.580977
 11
309.623035
 21
178.570977
  0
LINE
  8
CSLAYER1
  6
CONTINUOUS
 62
     3
 10
310.283035
 20
177.580977
 11
310.283035
 21
178.570977
  0
LINE
  8
CSLAYER1
  6
CONTINUOUS
 62
     3
 10
311.273035
 20
178.570977
 11
310.283035
 21
178.570977
  0
LINE
  8
CSLAYER1
  6
CONTINUOUS
 62
     3
 10
311.273035
 20
179.230977
 11
310.283035
 21
179.230977
  0
LINE
  8
CSLAYER1
  6
CONTINUOUS
 62
     3
 10
311.273035
 20
178.570977
 11
311.273035
 21
179.230977
  0
LINE
  8
CSLAYER1
  6
CONTINUOUS
 62
     3
 10
309.623035
 20
177.580977
 11
310.283035
 21
177.580977
  0
LINE
  8
CSLAYER1
  6
CONTINUOUS
 62
     3
 10
310.283035
 20
180.220977
 11
309.623035
 21
180.220977
  0
LINE
  8
CSLAYER1
  6
CONTINUOUS
 62
     3
 10
309.029035
 20
178.215085
 11
309.029035
 21
178.570977
  0
LINE
  8
CSLAYER1
  6
CONTINUOUS
 62
     3
 10
309.029035
 20
178.215085
 11
308.633035
 21
178.900977
  0
LINE
  8
CSLAYER1
  6
CONTINUOUS
 62
     3
 10
309.029035
 20
179.586869
 11
308.633035
 21
178.900977
  0
LINE
  8
CSLAYER1
  6
CONTINUOUS
 62
     3
 10
309.029035
 20
179.230977
 11
309.029035
 21
179.586869
  0
LINE
  8
CSLAYER1
  6
CONTINUOUS
 62
     3
 10
309.623035
 20
179.230977
 11
309.623035
 21
180.220977
  0
LINE
  8
CSLAYER1
  6
CONTINUOUS
 62
     3
 10
310.283035
 20
179.230977
 11
310.283035
 21
180.220977
  0
LINE
  8
CSLAYER1
  6
CONTINUOUS
 62
     3
 10
309.623035
 20
178.570977
 11
309.029035
 21
178.570977
  0
LINE
  8
CSLAYER1
  6
CONTINUOUS
 62
     3
 10
309.623035
 20
179.230977
 11
309.029035
 21
179.230977
  0
LINE
  8
CSLAYER1
  6
CONTINUOUS
 62
     6
 10
306.703035
 20
175.525977
 11
306.703035
 21
182.275977
  0
LINE
  8
CSLAYER1
  6
CONTINUOUS
 62
     6
 10
313.203035
 20
175.525977
 11
313.203035
 21
182.275977
  0
LINE
  8
CSLAYER1
  6
CONTINUOUS
 62
     6
 10
313.203035
 20
175.525977
 11
306.703035
 21
175.525977
  0
LINE
  8
CSLAYER1
  6
CONTINUOUS
 62
     6
 10
313.203035
 20
182.275977
 11
306.703035
 21
182.275977
  0
LINE
  8
CSLAYER1
  6
CENTER
 62
     3
 10
102.203035
 20
146.828302
 11
102.203035
 21
138.828302
  0
ARC
  8
CSLAYER1
  6
CONTINUOUS
 62
     6
 10
100.203035
 20
227.718868
 40
1.000000
 50
0.000000
 51
90.000000
  0
ARC
  8
CSLAYER1
  6
CONTINUOUS
 62
     6
 10
100.203035
 20
203.718868
 40
1.000000
 50
289.852058
 51
360.000000
  0
LINE
  8
CSLAYER1
  6
CONTINUOUS
 62
     3
 10
98.203035
 20
211.328302
 11
82.860269
 21
211.328302
  0
LINE
  8
CSLAYER1
  6
CONTINUOUS
 62
     6
 10
98.203035
 20
240.328302
 11
70.703035
 21
240.328302
  0
LINE
  8
CSLAYER1
  6
CONTINUOUS
 62
     6
 10
92.703035
 20
216.828302
 11
83.284888
 21
216.828302
  0
LINE
  8
CSLAYER1
  6
CONTINUOUS
 62
     6
 10
92.703035
 20
234.828302
 11
81.746121
 21
234.828302
  0
LINE
  8
CSLAYER1
  6
CONTINUOUS
 62
     6
 10
98.203035
 20
240.328302
 11
98.203035
 21
211.328302
  0
LINE
  8
CSLAYER1
  6
CONTINUOUS
 62
     6
 10
92.703035
 20
234.828302
 11
92.703035
 21
216.828302
  0
LINE
  8
CSLAYER1
  6
CONTINUOUS
 62
     3
 10
98.203035
 20
240.328302
 11
92.703035
 21
234.828302
  0
LINE
  8
CSLAYER1
  6
CONTINUOUS
 62
     3
 10
98.203035
 20
211.328302
 11
92.703035
 21
216.828302
  0
LINE
  8
CSLAYER1
  6
CONTINUOUS
 62
     6
 10
98.203035
 20
238.718868
 11
100.203035
 21
238.718868
  0
ARC
  8
CSLAYER1
  6
CONTINUOUS
 62
     6
 10
100.203035
 20
237.718868
 40
1.000000
 50
0.000000
 51
90.000000
  0
LINE
  8
CSLAYER1
  6
CONTINUOUS
 62
     6
 10
92.703035
 20
240.328302
 11
92.703035
 21
246.828302
  0
LINE
  8
CSLAYER1
  6
CONTINUOUS
 62
     6
 10
92.703035
 20
246.828302
 11
72.797848
 21
246.828302
  0
LINE
  8
CSLAYER1
  6
CENTER
 62
     3
 10
301.803035
 20
106.328302
 11
301.803035
 21
97.328302
  0
LINE
  8
CSLAYER1
  6
CENTER
 62
     3
 10
306.303035
 20
101.828302
 11
297.303035
 21
101.828302
  0
LINE
  8
CSLAYER1
  6
CENTER
 62
     3
 10
186.803035
 20
106.328302
 11
186.803035
 21
97.328302
  0
LINE
  8
CSLAYER1
  6
CENTER
 62
     3
 10
191.303035
 20
101.828302
 11
182.303035
 21
101.828302
  0
CIRCLE
  8
CSLAYER1
  6
CONTINUOUS
 62
     6
 10
301.803035
 20
101.828302
 40
1.750000
  0
CIRCLE
  8
CSLAYER1
  6
CONTINUOUS
 62
     6
 10
186.803035
 20
101.828302
 40
1.750000
  0
LINE
  8
CSLAYER1
  6
CONTINUOUS
 62
     6
 10
330.203035
 20
253.828302
 11
330.203035
 21
141.828302
  0
LINE
  8
CSLAYER1
  6
CONTINUOUS
 62
     6
 10
140.203035
 20
253.828302
 11
140.203035
 21
141.828302
  0
LINE
  8
CSLAYER1
  6
CONTINUOUS
 62
     6
 10
330.203035
 20
141.828302
 11
140.203035
 21
141.828302
  0
LINE
  8
CSLAYER1
  6
CONTINUOUS
 62
     6
 10
143.203035
 20
256.828302
 11
327.203035
 21
256.828302
  0
LINE
  8
CSLAYER1
  6
CONTINUOUS
 62
     6
 10
330.203035
 20
143.828302
 11
140.203035
 21
143.828302
  0
ARC
  8
CSLAYER1
  6
CONTINUOUS
 62
     6
 10
327.203035
 20
253.828302
 40
3.000000
 50
0.000000
 51
90.000000
  0
ARC
  8
CSLAYER1
  6
CONTINUOUS
 62
     6
 10
143.203035
 20
253.828302
 40
3.000000
 50
90.000000
 51
180.000000
  0
LINE
  8
CSLAYER1
  6
CENTER
 62
     3
 10
139.953035
 20
246.828302
 11
161.203035
 21
246.828302
  0
LINE
  8
CSLAYER1
  6
CENTER
 62
     3
 10
139.953035
 20
156.828302
 11
161.203035
 21
156.828302
  0
CIRCLE
  8
CSLAYER1
  6
CONTINUOUS
 62
     6
 10
325.203035
 20
246.828302
 40
2.250000
  0
CIRCLE
  8
CSLAYER1
  6
CONTINUOUS
 62
     6
 10
325.203035
 20
156.828302
 40
2.250000
  0
CIRCLE
  8
CSLAYER1
  6
CONTINUOUS
 62
     6
 10
145.203035
 20
156.828302
 40
2.250000
  0
CIRCLE
  8
CSLAYER1
  6
CONTINUOUS
 62
     6
 10
145.203035
 20
246.828302
 40
2.250000
  0
LINE
  8
CSLAYER1
  6
CENTER
 62
     3
 10
155.203035
 20
162.078302
 11
155.203035
 21
151.578302
  0
LINE
  8
CSLAYER1
  6
CENTER
 62
     3
 10
325.203035
 20
162.078302
 11
325.203035
 21
151.578302
  0
LINE
  8
CSLAYER1
  6
CENTER
 62
     3
 10
145.203035
 20
162.078302
 11
145.203035
 21
151.578302
  0
LINE
  8
CSLAYER1
  6
CENTER
 62
     3
 10
307.746811
 20
246.828302
 11
330.453035
 21
246.828302
  0
LINE
  8
CSLAYER1
  6
CENTER
 62
     3
 10
308.440379
 20
156.828302
 11
330.453035
 21
156.828302
  0
LINE
  8
CSLAYER1
  6
CENTER
 62
     3
 10
155.203035
 20
252.078302
 11
155.203035
 21
241.578302
  0
LINE
  8
CSLAYER1
  6
CENTER
 62
     3
 10
145.203035
 20
252.078302
 11
145.203035
 21
241.578302
  0
LINE
  8
CSLAYER1
  6
CENTER
 62
     3
 10
325.203035
 20
252.078302
 11
325.203035
 21
241.578302
  0
LINE
  8
CSLAYER1
  6
CENTER
 62
     3
 10
315.203035
 20
162.078302
 11
315.203035
 21
151.578302
  0
LINE
  8
CSLAYER1
  6
CENTER
 62
     3
 10
315.203035
 20
252.078302
 11
315.203035
 21
241.578302
  0
LINE
  8
CSLAYER1
  6
CONTINUOUS
 62
     6
 10
150.203035
 20
251.828302
 11
150.203035
 21
151.828302
  0
LINE
  8
CSLAYER1
  6
CONTINUOUS
 62
     6
 10
320.203035
 20
151.828302
 11
320.203035
 21
251.828302
  0
LINE
  8
CSLAYER1
  6
CONTINUOUS
 62
     6
 10
320.203035
 20
251.828302
 11
150.203035
 21
251.828302
  0
LINE
  8
CSLAYER1
  6
CONTINUOUS
 62
     6
 10
150.203035
 20
151.828302
 11
320.203035
 21
151.828302
  0
CIRCLE
  8
CSLAYER1
  6
CONTINUOUS
 62
     6
 10
315.203035
 20
246.828302
 40
2.750000
  0
ARC
  8
CSLAYER1
  6
CONTINUOUS
 62
     6
 10
315.203036
 20
246.828312
 40
1.527778
 50
73.398416
 51
106.601577
  0
ARC
  8
CSLAYER1
  6
CONTINUOUS
 62
     6
 10
315.203036
 20
246.828312
 40
1.527778
 50
163.398422
 51
196.601583
  0
ARC
  8
CSLAYER1
  6
CONTINUOUS
 62
     6
 10
315.203036
 20
246.828312
 40
1.527778
 50
253.398438
 51
286.601572
  0
ARC
  8
CSLAYER1
  6
CONTINUOUS
 62
     6
 10
315.203036
 20
246.828312
 40
1.527778
 50
-16.601594
 51
16.601595
  0
LINE
  8
CSLAYER1
  6
CONTINUOUS
 62
     6
 10
314.766522
 20
245.955285
 11
314.766522
 21
245.364227
  0
LINE
  8
CSLAYER1
  6
CONTINUOUS
 62
     6
 10
314.766522
 20
247.701339
 11
314.766522
 21
248.292397
  0
LINE
  8
CSLAYER1
  6
CONTINUOUS
 62
     6
 10
315.639549
 20
245.955285
 11
315.639549
 21
245.364227
  0
LINE
  8
CSLAYER1
  6
CONTINUOUS
 62
     6
 10
315.639549
 20
247.701339
 11
315.639549
 21
248.292397
  0
LINE
  8
CSLAYER1
  6
CONTINUOUS
 62
     6
 10
314.330032
 20
247.264825
 11
313.738928
 21
247.264825
  0
LINE
  8
CSLAYER1
  6
CONTINUOUS
 62
     6
 10
316.076040
 20
247.264825
 11
316.667144
 21
247.264825
  0
LINE
  8
CSLAYER1
  6
CONTINUOUS
 62
     6
 10
314.330032
 20
246.391799
 11
313.738928
 21
246.391799
  0
LINE
  8
CSLAYER1
  6
CONTINUOUS
 62
     6
 10
316.076040
 20
246.391799
 11
316.667144
 21
246.391799
  0
ARC
  8
CSLAYER1
  6
CONTINUOUS
 62
     6
 10
314.330032
 20
245.955285
 40
0.436508
 50
0.000001
 51
89.942691
  0
ARC
  8
CSLAYER1
  6
CONTINUOUS
 62
     6
 10
316.076040
 20
245.955285
 40
0.436508
 50
90.000010
 51
180.000016
  0
ARC
  8
CSLAYER1
  6
CONTINUOUS
 62
     6
 10
316.076040
 20
247.701339
 40
0.436508
 50
180.000016
 51
270.000005
  0
ARC
  8
CSLAYER1
  6
CONTINUOUS
 62
     6
 10
314.330032
 20
247.701339
 40
0.436508
 50
270.000005
 51
359.942654
  0
CIRCLE
  8
CSLAYER1
  6
CONTINUOUS
 62
     6
 10
315.203035
 20
156.828302
 40
2.750000
  0
ARC
  8
CSLAYER1
  6
CONTINUOUS
 62
     6
 10
315.203036
 20
156.828312
 40
1.527778
 50
73.398416
 51
106.601577
  0
ARC
  8
CSLAYER1
  6
CONTINUOUS
 62
     6
 10
315.203036
 20
156.828312
 40
1.527778
 50
163.398422
 51
196.601583
  0
ARC
  8
CSLAYER1
  6
CONTINUOUS
 62
     6
 10
315.203036
 20
156.828312
 40
1.527778
 50
253.398438
 51
286.601572
  0
ARC
  8
CSLAYER1
  6
CONTINUOUS
 62
     6
 10
315.203036
 20
156.828312
 40
1.527778
 50
-16.601594
 51
16.601595
  0
LINE
  8
CSLAYER1
  6
CONTINUOUS
 62
     6
 10
314.766522
 20
155.955285
 11
314.766522
 21
155.364227
  0
LINE
  8
CSLAYER1
  6
CONTINUOUS
 62
     6
 10
314.766522
 20
157.701339
 11
314.766522
 21
158.292397
  0
LINE
  8
CSLAYER1
  6
CONTINUOUS
 62
     6
 10
315.639549
 20
155.955285
 11
315.639549
 21
155.364227
  0
LINE
  8
CSLAYER1
  6
CONTINUOUS
 62
     6
 10
315.639549
 20
157.701339
 11
315.639549
 21
158.292397
  0
LINE
  8
CSLAYER1
  6
CONTINUOUS
 62
     6
 10
314.330032
 20
157.264825
 11
313.738928
 21
157.264825
  0
LINE
  8
CSLAYER1
  6
CONTINUOUS
 62
     6
 10
316.076040
 20
157.264825
 11
316.667144
 21
157.264825
  0
LINE
  8
CSLAYER1
  6
CONTINUOUS
 62
     6
 10
314.330032
 20
156.391799
 11
313.738928
 21
156.391799
  0
LINE
  8
CSLAYER1
  6
CONTINUOUS
 62
     6
 10
316.076040
 20
156.391799
 11
316.667144
 21
156.391799
  0
ARC
  8
CSLAYER1
  6
CONTINUOUS
 62
     6
 10
314.330032
 20
155.955285
 40
0.436508
 50
0.000001
 51
89.942691
  0
ARC
  8
CSLAYER1
  6
CONTINUOUS
 62
     6
 10
316.076040
 20
155.955285
 40
0.436508
 50
90.000010
 51
180.000016
  0
ARC
  8
CSLAYER1
  6
CONTINUOUS
 62
     6
 10
316.076040
 20
157.701339
 40
0.436508
 50
180.000016
 51
270.000005
  0
ARC
  8
CSLAYER1
  6
CONTINUOUS
 62
     6
 10
314.330032
 20
157.701339
 40
0.436508
 50
270.000005
 51
359.942654
  0
CIRCLE
  8
CSLAYER1
  6
CONTINUOUS
 62
     6
 10
155.203035
 20
156.828302
 40
2.750000
  0
ARC
  8
CSLAYER1
  6
CONTINUOUS
 62
     6
 10
155.203036
 20
156.828312
 40
1.527778
 50
73.398416
 51
106.601577
  0
ARC
  8
CSLAYER1
  6
CONTINUOUS
 62
     6
 10
155.203036
 20
156.828312
 40
1.527778
 50
163.398422
 51
196.601583
  0
ARC
  8
CSLAYER1
  6
CONTINUOUS
 62
     6
 10
155.203036
 20
156.828312
 40
1.527778
 50
253.398438
 51
286.601572
  0
ARC
  8
CSLAYER1
  6
CONTINUOUS
 62
     6
 10
155.203036
 20
156.828312
 40
1.527778
 50
-16.601594
 51
16.601595
  0
LINE
  8
CSLAYER1
  6
CONTINUOUS
 62
     6
 10
154.766522
 20
155.955285
 11
154.766522
 21
155.364227
  0
LINE
  8
CSLAYER1
  6
CONTINUOUS
 62
     6
 10
154.766522
 20
157.701339
 11
154.766522
 21
158.292397
  0
LINE
  8
CSLAYER1
  6
CONTINUOUS
 62
     6
 10
155.639549
 20
155.955285
 11
155.639549
 21
155.364227
  0
LINE
  8
CSLAYER1
  6
CONTINUOUS
 62
     6
 10
155.639549
 20
157.701339
 11
155.639549
 21
158.292397
  0
LINE
  8
CSLAYER1
  6
CONTINUOUS
 62
     6
 10
154.330032
 20
157.264825
 11
153.738928
 21
157.264825
  0
LINE
  8
CSLAYER1
  6
CONTINUOUS
 62
     6
 10
156.076040
 20
157.264825
 11
156.667144
 21
157.264825
  0
LINE
  8
CSLAYER1
  6
CONTINUOUS
 62
     6
 10
154.330032
 20
156.391799
 11
153.738928
 21
156.391799
  0
LINE
  8
CSLAYER1
  6
CONTINUOUS
 62
     6
 10
156.076040
 20
156.391799
 11
156.667144
 21
156.391799
  0
ARC
  8
CSLAYER1
  6
CONTINUOUS
 62
     6
 10
154.330032
 20
155.955285
 40
0.436508
 50
0.000001
 51
89.942691
  0
ARC
  8
CSLAYER1
  6
CONTINUOUS
 62
     6
 10
156.076040
 20
155.955285
 40
0.436508
 50
90.000010
 51
180.000016
  0
ARC
  8
CSLAYER1
  6
CONTINUOUS
 62
     6
 10
156.076040
 20
157.701339
 40
0.436508
 50
180.000016
 51
270.000005
  0
ARC
  8
CSLAYER1
  6
CONTINUOUS
 62
     6
 10
154.330032
 20
157.701339
 40
0.436508
 50
270.000005
 51
359.942654
  0
CIRCLE
  8
CSLAYER1
  6
CONTINUOUS
 62
     6
 10
155.203035
 20
246.828302
 40
2.750000
  0
ARC
  8
CSLAYER1
  6
CONTINUOUS
 62
     6
 10
155.203036
 20
246.828312
 40
1.527778
 50
73.398416
 51
106.601577
  0
ARC
  8
CSLAYER1
  6
CONTINUOUS
 62
     6
 10
155.203036
 20
246.828312
 40
1.527778
 50
163.398422
 51
196.601583
  0
ARC
  8
CSLAYER1
  6
CONTINUOUS
 62
     6
 10
155.203036
 20
246.828312
 40
1.527778
 50
253.398438
 51
286.601572
  0
ARC
  8
CSLAYER1
  6
CONTINUOUS
 62
     6
 10
155.203036
 20
246.828312
 40
1.527778
 50
-16.601594
 51
16.601595
  0
LINE
  8
CSLAYER1
  6
CONTINUOUS
 62
     6
 10
154.766522
 20
245.955285
 11
154.766522
 21
245.364227
  0
LINE
  8
CSLAYER1
  6
CONTINUOUS
 62
     6
 10
154.766522
 20
247.701339
 11
154.766522
 21
248.292397
  0
LINE
  8
CSLAYER1
  6
CONTINUOUS
 62
     6
 10
155.639549
 20
245.955285
 11
155.639549
 21
245.364227
  0
LINE
  8
CSLAYER1
  6
CONTINUOUS
 62
     6
 10
155.639549
 20
247.701339
 11
155.639549
 21
248.292397
  0
LINE
  8
CSLAYER1
  6
CONTINUOUS
 62
     6
 10
154.330032
 20
247.264825
 11
153.738928
 21
247.264825
  0
LINE
  8
CSLAYER1
  6
CONTINUOUS
 62
     6
 10
156.076040
 20
247.264825
 11
156.667144
 21
247.264825
  0
LINE
  8
CSLAYER1
  6
CONTINUOUS
 62
     6
 10
154.330032
 20
246.391799
 11
153.738928
 21
246.391799
  0
LINE
  8
CSLAYER1
  6
CONTINUOUS
 62
     6
 10
156.076040
 20
246.391799
 11
156.667144
 21
246.391799
  0
ARC
  8
CSLAYER1
  6
CONTINUOUS
 62
     6
 10
154.330032
 20
245.955285
 40
0.436508
 50
0.000001
 51
89.942691
  0
ARC
  8
CSLAYER1
  6
CONTINUOUS
 62
     6
 10
156.076040
 20
245.955285
 40
0.436508
 50
90.000010
 51
180.000016
  0
ARC
  8
CSLAYER1
  6
CONTINUOUS
 62
     6
 10
156.076040
 20
247.701339
 40
0.436508
 50
180.000016
 51
270.000005
  0
ARC
  8
CSLAYER1
  6
CONTINUOUS
 62
     6
 10
154.330032
 20
247.701339
 40
0.436508
 50
270.000005
 51
359.942654
  0
LINE
  8
CSLAYER1
  6
CONTINUOUS
 62
     6
 10
110.203035
 20
141.828302
 11
60.203035
 21
141.828302
  0
LINE
  8
CSLAYER1
  6
CONTINUOUS
 62
     6
 10
59.203035
 20
256.828302
 11
57.203035
 21
256.828302
  0
LINE
  8
CSLAYER1
  6
CONTINUOUS
 62
     6
 10
110.203035
 20
143.828302
 11
110.203035
 21
141.828302
  0
LINE
  8
CSLAYER1
  6
CONTINUOUS
 62
     6
 10
57.203035
 20
256.828302
 11
57.203035
 21
144.828302
  0
LINE
  8
CSLAYER1
  6
CONTINUOUS
 62
     6
 10
110.203035
 20
143.828302
 11
60.703035
 21
143.828302
  0
LINE
  8
CSLAYER1
  6
CONTINUOUS
 62
     6
 10
59.203035
 20
256.828302
 11
59.203035
 21
145.328302
  0
ARC
  8
CSLAYER1
  6
CONTINUOUS
 62
     6
 10
60.203035
 20
144.828302
 40
3.000000
 50
180.000000
 51
270.000000
  0
ARC
  8
CSLAYER1
  6
CONTINUOUS
 62
     6
 10
60.703035
 20
145.328302
 40
1.500000
 50
180.000000
 51
270.000000
  0
LINE
  8
CSLAYER1
  6
CENTER
 62
     3
 10
74.797848
 20
156.828302
 11
54.203035
 21
156.828302
  0
LINE
  8
CSLAYER1
  6
CENTER
 62
     3
 10
75.797848
 20
246.828302
 11
54.203035
 21
246.828302
  0
LINE
  8
CSLAYER1
  6
CONTINUOUS
 62
     6
 10
71.246121
 20
249.000699
 11
71.246121
 21
244.655881
  0
ARC
  8
CSLAYER1
  6
CONTINUOUS
 62
     6
 10
67.366802
 20
246.828290
 40
5.431046
 50
-16.257006
 51
16.257016
  0
LINE
  8
CSLAYER1
  6
CONTINUOUS
 62
     6
 10
71.414847
 20
244.709428
 11
71.903502
 21
244.752177
  0
ARC
  8
CSLAYER1
  6
CONTINUOUS
 62
     6
 10
71.835880
 20
245.525093
 40
0.775864
 50
275.000111
 51
343.742611
  0
ARC
  8
CSLAYER1
  6
CONTINUOUS
 62
     6
 10
71.401303
 20
244.864006
 40
0.155173
 50
180.000000
 51
275.000152
  0
LINE
  8
CSLAYER1
  6
CONTINUOUS
 62
     6
 10
71.168553
 20
244.578290
 11
70.780622
 21
244.578290
  0
ARC
  8
CSLAYER1
  6
CONTINUOUS
 62
     6
 10
71.168553
 20
244.655881
 40
0.077586
 50
-89.999997
 51
0.000005
  0
ARC
  8
CSLAYER1
  6
CONTINUOUS
 62
     6
 10
70.780622
 20
244.655881
 40
0.077586
 50
180.000000
 51
270.000003
  0
LINE
  8
CSLAYER1
  6
CONTINUOUS
 62
     6
 10
71.414847
 20
248.947152
 11
71.903502
 21
248.904403
  0
ARC
  8
CSLAYER1
  6
CONTINUOUS
 62
     6
 10
71.835880
 20
248.131487
 40
0.775864
 50
16.257399
 51
84.999892
  0
ARC
  8
CSLAYER1
  6
CONTINUOUS
 62
     6
 10
71.401303
 20
248.792574
 40
0.155173
 50
84.999865
 51
179.942691
  0
ARC
  8
CSLAYER1
  6
CONTINUOUS
 62
     6
 10
71.168553
 20
249.000699
 40
0.077586
 50
0.000005
 51
90.000001
  0
LINE
  8
CSLAYER1
  6
CONTINUOUS
 62
     6
 10
71.168553
 20
249.078290
 11
70.780622
 21
249.078290
  0
ARC
  8
CSLAYER1
  6
CONTINUOUS
 62
     6
 10
70.780622
 20
249.000699
 40
0.077586
 50
90.000001
 51
179.942691
  0
LINE
  8
CSLAYER1
  6
CONTINUOUS
 62
     6
 10
71.246121
 20
247.290652
 11
70.703031
 21
246.946275
  0
LINE
  8
CSLAYER1
  6
CONTINUOUS
 62
     6
 10
71.246121
 20
246.902720
 11
70.703031
 21
246.558343
  0
LINE
  8
CSLAYER1
  6
CONTINUOUS
 62
     6
 10
71.246121
 20
159.000699
 11
71.246121
 21
154.655881
  0
ARC
  8
CSLAYER1
  6
CONTINUOUS
 62
     6
 10
67.366802
 20
156.828290
 40
5.431046
 50
-16.257006
 51
16.257016
  0
LINE
  8
CSLAYER1
  6
CONTINUOUS
 62
     6
 10
71.414847
 20
154.709428
 11
71.903502
 21
154.752177
  0
ARC
  8
CSLAYER1
  6
CONTINUOUS
 62
     6
 10
71.835880
 20
155.525093
 40
0.775864
 50
275.000111
 51
343.742611
  0
ARC
  8
CSLAYER1
  6
CONTINUOUS
 62
     6
 10
71.401303
 20
154.864006
 40
0.155173
 50
180.000000
 51
275.000152
  0
LINE
  8
CSLAYER1
  6
CONTINUOUS
 62
     6
 10
71.168553
 20
154.578290
 11
70.780622
 21
154.578290
  0
ARC
  8
CSLAYER1
  6
CONTINUOUS
 62
     6
 10
71.168553
 20
154.655881
 40
0.077586
 50
-89.999997
 51
0.000005
  0
ARC
  8
CSLAYER1
  6
CONTINUOUS
 62
     6
 10
70.780622
 20
154.655881
 40
0.077586
 50
180.000000
 51
270.000003
  0
LINE
  8
CSLAYER1
  6
CONTINUOUS
 62
     6
 10
71.414847
 20
158.947152
 11
71.903502
 21
158.904403
  0
ARC
  8
CSLAYER1
  6
CONTINUOUS
 62
     6
 10
71.835880
 20
158.131487
 40
0.775864
 50
16.257399
 51
84.999892
  0
ARC
  8
CSLAYER1
  6
CONTINUOUS
 62
     6
 10
71.401303
 20
158.792574
 40
0.155173
 50
84.999865
 51
179.942691
  0
ARC
  8
CSLAYER1
  6
CONTINUOUS
 62
     6
 10
71.168553
 20
159.000699
 40
0.077586
 50
0.000005
 51
90.000001
  0
LINE
  8
CSLAYER1
  6
CONTINUOUS
 62
     6
 10
71.168553
 20
159.078290
 11
70.780622
 21
159.078290
  0
ARC
  8
CSLAYER1
  6
CONTINUOUS
 62
     6
 10
70.780622
 20
159.000699
 40
0.077586
 50
90.000001
 51
179.942691
  0
LINE
  8
CSLAYER1
  6
CONTINUOUS
 62
     6
 10
71.246121
 20
157.290652
 11
70.703031
 21
156.946275
  0
LINE
  8
CSLAYER1
  6
CONTINUOUS
 62
     6
 10
71.246121
 20
156.902720
 11
70.703031
 21
156.558343
  0
LINE
  8
CSLAYER1
  6
CONTINUOUS
 62
     6
 10
68.957415
 20
250.003728
 11
69.203035
 21
249.578302
  0
LINE
  8
CSLAYER1
  6
CONTINUOUS
 62
     6
 10
69.203035
 20
249.578302
 11
69.203035
 21
244.078302
  0
LINE
  8
CSLAYER1
  6
CONTINUOUS
 62
     6
 10
69.203035
 20
244.078302
 11
68.957415
 21
243.652875
  0
ARC
  8
CSLAYER1
  6
CONTINUOUS
 62
     6
 10
67.797333
 20
249.209872
 40
1.405703
 50
-34.384247
 51
34.384247
  0
ARC
  8
CSLAYER1
  6
CONTINUOUS
 62
     6
 10
63.948655
 20
246.828302
 40
5.254380
 50
-17.587954
 51
17.587954
  0
ARC
  8
CSLAYER1
  6
CONTINUOUS
 62
     6
 10
67.797333
 20
244.446732
 40
1.405703
 50
-34.384247
 51
34.384247
  0
LINE
  8
CSLAYER1
  6
CONTINUOUS
 62
     6
 10
68.957415
 20
243.652875
 11
59.448655
 21
243.652875
  0
LINE
  8
CSLAYER1
  6
CONTINUOUS
 62
     6
 10
59.448655
 20
243.652875
 11
59.203035
 21
244.078302
  0
LINE
  8
CSLAYER1
  6
CONTINUOUS
 62
     6
 10
59.203035
 20
244.078302
 11
59.203035
 21
249.578302
  0
LINE
  8
CSLAYER1
  6
CONTINUOUS
 62
     6
 10
59.203035
 20
249.578302
 11
59.448655
 21
250.003728
  0
LINE
  8
CSLAYER1
  6
CONTINUOUS
 62
     6
 10
59.448655
 20
250.003728
 11
68.957415
 21
250.003728
  0
ARC
  8
CSLAYER1
  6
CONTINUOUS
 62
     6
 10
60.608738
 20
249.209872
 40
1.405703
 50
145.615753
 51
214.384247
  0
ARC
  8
CSLAYER1
  6
CONTINUOUS
 62
     6
 10
64.457415
 20
246.828302
 40
5.254380
 50
162.412046
 51
197.587954
  0
ARC
  8
CSLAYER1
  6
CONTINUOUS
 62
     6
 10
60.608738
 20
244.446732
 40
1.405703
 50
145.615753
 51
214.384247
  0
LINE
  8
CSLAYER1
  6
CONTINUOUS
 62
     6
 10
68.957415
 20
248.416015
 11
59.448655
 21
248.416015
  0
LINE
  8
CSLAYER1
  6
CONTINUOUS
 62
     6
 10
68.957415
 20
245.240589
 11
59.448655
 21
245.240589
  0
LINE
  8
CSLAYER1
  6
CONTINUOUS
 62
     6
 10
68.957415
 20
160.003728
 11
69.203035
 21
159.578302
  0
LINE
  8
CSLAYER1
  6
CONTINUOUS
 62
     6
 10
69.203035
 20
159.578302
 11
69.203035
 21
154.078302
  0
LINE
  8
CSLAYER1
  6
CONTINUOUS
 62
     6
 10
69.203035
 20
154.078302
 11
68.957415
 21
153.652875
  0
ARC
  8
CSLAYER1
  6
CONTINUOUS
 62
     6
 10
67.797333
 20
159.209872
 40
1.405703
 50
-34.384247
 51
34.384247
  0
ARC
  8
CSLAYER1
  6
CONTINUOUS
 62
     6
 10
63.948655
 20
156.828302
 40
5.254380
 50
-17.587954
 51
17.587954
  0
ARC
  8
CSLAYER1
  6
CONTINUOUS
 62
     6
 10
67.797333
 20
154.446732
 40
1.405703
 50
-34.384247
 51
34.384247
  0
LINE
  8
CSLAYER1
  6
CONTINUOUS
 62
     6
 10
68.957415
 20
153.652875
 11
59.448655
 21
153.652875
  0
LINE
  8
CSLAYER1
  6
CONTINUOUS
 62
     6
 10
59.448655
 20
153.652875
 11
59.203035
 21
154.078302
  0
LINE
  8
CSLAYER1
  6
CONTINUOUS
 62
     6
 10
59.203035
 20
154.078302
 11
59.203035
 21
159.578302
  0
LINE
  8
CSLAYER1
  6
CONTINUOUS
 62
     6
 10
59.203035
 20
159.578302
 11
59.448655
 21
160.003728
  0
LINE
  8
CSLAYER1
  6
CONTINUOUS
 62
     6
 10
59.448655
 20
160.003728
 11
68.957415
 21
160.003728
  0
ARC
  8
CSLAYER1
  6
CONTINUOUS
 62
     6
 10
60.608738
 20
159.209872
 40
1.405703
 50
145.615753
 51
214.384247
  0
ARC
  8
CSLAYER1
  6
CONTINUOUS
 62
     6
 10
64.457415
 20
156.828302
 40
5.254380
 50
162.412046
 51
197.587954
  0
ARC
  8
CSLAYER1
  6
CONTINUOUS
 62
     6
 10
60.608738
 20
154.446732
 40
1.405703
 50
145.615753
 51
214.384247
  0
LINE
  8
CSLAYER1
  6
CONTINUOUS
 62
     6
 10
68.957415
 20
158.416015
 11
59.448655
 21
158.416015
  0
LINE
  8
CSLAYER1
  6
CONTINUOUS
 62
     6
 10
68.957415
 20
155.240589
 11
59.448655
 21
155.240589
  0
LINE
  8
CSLAYER1
  6
CONTINUOUS
 62
     6
 10
79.703035
 20
178.478295
 11
79.703035
 21
202.078295
  0
LINE
  8
CSLAYER1
  6
CONTINUOUS
 62
     3
 10
76.703035
 20
178.478295
 11
76.703035
 21
202.078295
  0
LINE
  8
CSLAYER1
  6
CONTINUOUS
 62
     6
 10
79.703035
 20
202.078295
 11
70.703035
 21
202.078295
  0
LINE
  8
CSLAYER1
  6
CONTINUOUS
 62
     6
 10
79.703035
 20
178.478295
 11
70.703035
 21
178.478295
  0
LINE
  8
CSLAYER1
  6
CONTINUOUS
 62
     6
 10
75.703035
 20
196.528295
 11
71.703035
 21
196.528295
  0
LINE
  8
CSLAYER1
  6
CONTINUOUS
 62
     6
 10
74.703035
 20
200.728295
 11
72.703035
 21
200.728295
  0
LINE
  8
CSLAYER1
  6
CONTINUOUS
 62
     6
 10
74.703035
 20
197.828295
 11
72.703035
 21
197.828295
  0
LINE
  8
CSLAYER1
  6
CONTINUOUS
 62
     6
 10
75.703035
 20
201.028295
 11
71.703035
 21
201.028295
  0
LINE
  8
CSLAYER1
  6
CONTINUOUS
 62
     6
 10
75.703035
 20
197.528295
 11
71.703035
 21
197.528295
  0
LINE
  8
CSLAYER1
  6
CONTINUOUS
 62
     6
 10
75.703035
 20
197.528295
 11
75.703035
 21
201.028295
  0
LINE
  8
CSLAYER1
  6
CONTINUOUS
 62
     6
 10
74.703035
 20
197.828295
 11
74.703035
 21
200.728295
  0
LINE
  8
CSLAYER1
  6
CONTINUOUS
 62
     6
 10
72.703035
 20
197.828295
 11
72.703035
 21
200.728295
  0
LINE
  8
CSLAYER1
  6
CONTINUOUS
 62
     6
 10
71.703035
 20
197.528295
 11
71.703035
 21
201.028295
  0
LINE
  8
CSLAYER1
  6
CONTINUOUS
 62
     6
 10
75.703035
 20
196.528295
 11
71.703035
 21
196.528295
  0
LINE
  8
CSLAYER1
  6
CONTINUOUS
 62
     6
 10
75.703035
 20
193.028295
 11
71.703035
 21
193.028295
  0
LINE
  8
CSLAYER1
  6
CONTINUOUS
 62
     6
 10
75.703035
 20
193.028295
 11
75.703035
 21
196.528295
  0
LINE
  8
CSLAYER1
  6
CONTINUOUS
 62
     6
 10
71.703035
 20
193.028295
 11
71.703035
 21
196.528295
  0
LINE
  8
CSLAYER1
  6
CONTINUOUS
 62
     6
 10
75.703035
 20
192.028295
 11
71.703035
 21
192.028295
  0
LINE
  8
CSLAYER1
  6
CONTINUOUS
 62
     6
 10
75.703035
 20
188.528295
 11
71.703035
 21
188.528295
  0
LINE
  8
CSLAYER1
  6
CONTINUOUS
 62
     6
 10
75.703035
 20
188.528295
 11
75.703035
 21
192.028295
  0
LINE
  8
CSLAYER1
  6
CONTINUOUS
 62
     6
 10
71.703035
 20
188.528295
 11
71.703035
 21
192.028295
  0
LINE
  8
CSLAYER1
  6
CONTINUOUS
 62
     6
 10
75.703035
 20
187.528295
 11
71.703035
 21
187.528295
  0
LINE
  8
CSLAYER1
  6
CONTINUOUS
 62
     6
 10
75.703035
 20
184.028295
 11
71.703035
 21
184.028295
  0
LINE
  8
CSLAYER1
  6
CONTINUOUS
 62
     6
 10
75.703035
 20
184.028295
 11
75.703035
 21
187.528295
  0
LINE
  8
CSLAYER1
  6
CONTINUOUS
 62
     6
 10
71.703035
 20
184.028295
 11
71.703035
 21
187.528295
  0
LINE
  8
CSLAYER1
  6
CONTINUOUS
 62
     6
 10
75.703035
 20
183.028295
 11
71.703035
 21
183.028295
  0
LINE
  8
CSLAYER1
  6
CONTINUOUS
 62
     6
 10
75.703035
 20
179.528295
 11
71.703035
 21
179.528295
  0
LINE
  8
CSLAYER1
  6
CONTINUOUS
 62
     6
 10
75.703035
 20
179.528295
 11
75.703035
 21
183.028295
  0
LINE
  8
CSLAYER1
  6
CONTINUOUS
 62
     6
 10
71.703035
 20
179.528295
 11
71.703035
 21
183.028295
  0
LINE
  8
CSLAYER1
  6
CONTINUOUS
 62
     6
 10
74.703035
 20
196.228295
 11
72.703035
 21
196.228295
  0
LINE
  8
CSLAYER1
  6
CONTINUOUS
 62
     6
 10
74.703035
 20
193.328295
 11
72.703035
 21
193.328295
  0
LINE
  8
CSLAYER1
  6
CONTINUOUS
 62
     6
 10
74.703035
 20
193.328295
 11
74.703035
 21
196.228295
  0
LINE
  8
CSLAYER1
  6
CONTINUOUS
 62
     6
 10
72.703035
 20
193.328295
 11
72.703035
 21
196.228295
  0
LINE
  8
CSLAYER1
  6
CONTINUOUS
 62
     6
 10
74.703035
 20
191.728295
 11
72.703035
 21
191.728295
  0
LINE
  8
CSLAYER1
  6
CONTINUOUS
 62
     6
 10
74.703035
 20
188.828295
 11
72.703035
 21
188.828295
  0
LINE
  8
CSLAYER1
  6
CONTINUOUS
 62
     6
 10
74.703035
 20
188.828295
 11
74.703035
 21
191.728295
  0
LINE
  8
CSLAYER1
  6
CONTINUOUS
 62
     6
 10
72.703035
 20
188.828295
 11
72.703035
 21
191.728295
  0
LINE
  8
CSLAYER1
  6
CONTINUOUS
 62
     6
 10
74.703035
 20
187.228295
 11
72.703035
 21
187.228295
  0
LINE
  8
CSLAYER1
  6
CONTINUOUS
 62
     6
 10
74.703035
 20
184.328295
 11
72.703035
 21
184.328295
  0
LINE
  8
CSLAYER1
  6
CONTINUOUS
 62
     6
 10
74.703035
 20
184.328295
 11
74.703035
 21
187.228295
  0
LINE
  8
CSLAYER1
  6
CONTINUOUS
 62
     6
 10
72.703035
 20
184.328295
 11
72.703035
 21
187.228295
  0
LINE
  8
CSLAYER1
  6
CONTINUOUS
 62
     6
 10
74.703035
 20
182.728295
 11
72.703035
 21
182.728295
  0
LINE
  8
CSLAYER1
  6
CONTINUOUS
 62
     6
 10
74.703035
 20
179.828295
 11
72.703035
 21
179.828295
  0
LINE
  8
CSLAYER1
  6
CONTINUOUS
 62
     6
 10
74.703035
 20
179.828295
 11
74.703035
 21
182.728295
  0
LINE
  8
CSLAYER1
  6
CONTINUOUS
 62
     6
 10
72.703035
 20
179.828295
 11
72.703035
 21
182.728295
  0
LINE
  8
CSLAYER1
  6
CONTINUOUS
 62
     6
 10
86.250442
 20
205.078295
 11
86.250442
 21
206.078295
  0
LINE
  8
CSLAYER1
  6
CONTINUOUS
 62
     6
 10
86.250442
 20
237.078295
 11
70.703035
 21
237.078295
  0
LINE
  8
CSLAYER1
  6
CONTINUOUS
 62
     6
 10
86.250442
 20
236.078295
 11
74.703035
 21
236.078295
  0
LINE
  8
CSLAYER1
  6
CONTINUOUS
 62
     6
 10
86.250442
 20
229.328295
 11
74.703035
 21
229.328295
  0
LINE
  8
CSLAYER1
  6
CONTINUOUS
 62
     6
 10
86.250442
 20
228.328295
 11
74.703035
 21
228.328295
  0
LINE
  8
CSLAYER1
  6
CONTINUOUS
 62
     6
 10
86.250442
 20
221.578295
 11
74.703035
 21
221.578295
  0
LINE
  8
CSLAYER1
  6
CONTINUOUS
 62
     6
 10
86.250442
 20
220.578295
 11
74.703035
 21
220.578295
  0
LINE
  8
CSLAYER1
  6
CONTINUOUS
 62
     6
 10
86.250442
 20
213.828295
 11
74.703035
 21
213.828295
  0
LINE
  8
CSLAYER1
  6
CONTINUOUS
 62
     6
 10
86.250442
 20
212.828295
 11
74.703035
 21
212.828295
  0
LINE
  8
CSLAYER1
  6
CONTINUOUS
 62
     6
 10
86.250442
 20
205.078295
 11
70.703035
 21
205.078295
  0
LINE
  8
CSLAYER1
  6
CONTINUOUS
 62
     6
 10
86.250442
 20
206.078295
 11
74.703035
 21
206.078295
  0
LINE
  8
CSLAYER1
  6
CONTINUOUS
 62
     6
 10
79.703035
 20
206.078295
 11
79.703035
 21
212.828295
  0
LINE
  8
CSLAYER1
  6
CONTINUOUS
 62
     6
 10
74.703035
 20
206.078295
 11
74.703035
 21
212.828295
  0
LINE
  8
CSLAYER1
  6
CONTINUOUS
 62
     6
 10
79.703035
 20
213.828295
 11
79.703035
 21
220.578295
  0
LINE
  8
CSLAYER1
  6
CONTINUOUS
 62
     6
 10
79.703035
 20
221.578295
 11
79.703035
 21
228.328295
  0
LINE
  8
CSLAYER1
  6
CONTINUOUS
 62
     6
 10
79.703035
 20
229.328295
 11
79.703035
 21
236.078295
  0
LINE
  8
CSLAYER1
  6
CONTINUOUS
 62
     6
 10
86.250442
 20
236.078295
 11
86.250442
 21
237.078295
  0
LINE
  8
CSLAYER1
  6
CONTINUOUS
 62
     6
 10
86.250442
 20
228.328295
 11
86.250442
 21
229.328295
  0
LINE
  8
CSLAYER1
  6
CONTINUOUS
 62
     6
 10
86.250442
 20
220.578295
 11
86.250442
 21
221.578295
  0
LINE
  8
CSLAYER1
  6
CONTINUOUS
 62
     6
 10
86.250442
 20
212.828295
 11
86.250442
 21
213.828295
  0
LINE
  8
CSLAYER1
  6
CONTINUOUS
 62
     6
 10
80.703035
 20
229.328295
 11
80.703035
 21
236.078295
  0
LINE
  8
CSLAYER1
  6
CONTINUOUS
 62
     6
 10
80.703035
 20
221.578295
 11
80.703035
 21
228.328295
  0
LINE
  8
CSLAYER1
  6
CONTINUOUS
 62
     6
 10
80.703035
 20
213.828295
 11
80.703035
 21
220.578295
  0
LINE
  8
CSLAYER1
  6
CONTINUOUS
 62
     6
 10
80.703035
 20
206.078295
 11
80.703035
 21
212.828295
  0
LINE
  8
CSLAYER1
  6
CONTINUOUS
 62
     6
 10
80.703035
 20
234.703295
 11
79.703035
 21
234.703295
  0
LINE
  8
CSLAYER1
  6
CONTINUOUS
 62
     6
 10
80.703035
 20
230.703295
 11
79.703035
 21
230.703295
  0
LINE
  8
CSLAYER1
  6
CONTINUOUS
 62
     6
 10
80.703035
 20
226.953295
 11
79.703035
 21
226.953295
  0
LINE
  8
CSLAYER1
  6
CONTINUOUS
 62
     6
 10
80.703035
 20
222.953295
 11
79.703035
 21
222.953295
  0
LINE
  8
CSLAYER1
  6
CONTINUOUS
 62
     6
 10
80.703035
 20
219.203295
 11
79.703035
 21
219.203295
  0
LINE
  8
CSLAYER1
  6
CONTINUOUS
 62
     6
 10
80.703035
 20
215.203295
 11
79.703035
 21
215.203295
  0
LINE
  8
CSLAYER1
  6
CONTINUOUS
 62
     6
 10
80.703035
 20
211.453295
 11
79.703035
 21
211.453295
  0
LINE
  8
CSLAYER1
  6
CONTINUOUS
 62
     6
 10
80.703035
 20
207.453295
 11
79.703035
 21
207.453295
  0
LINE
  8
CSLAYER1
  6
CONTINUOUS
 62
     6
 10
74.703035
 20
229.328295
 11
74.703035
 21
236.078295
  0
LINE
  8
CSLAYER1
  6
CONTINUOUS
 62
     6
 10
74.703035
 20
221.578295
 11
74.703035
 21
228.328295
  0
LINE
  8
CSLAYER1
  6
CONTINUOUS
 62
     6
 10
74.703035
 20
213.828295
 11
74.703035
 21
220.578295
  0
LINE
  8
CSLAYER1
  6
CONTINUOUS
 62
     6
 10
70.703035
 20
176.078295
 11
75.703035
 21
176.078295
  0
LINE
  8
CSLAYER1
  6
CONTINUOUS
 62
     6
 10
75.703035
 20
176.078295
 11
75.703035
 21
172.078295
  0
LINE
  8
CSLAYER1
  6
CONTINUOUS
 62
     6
 10
75.703035
 20
172.078295
 11
70.703035
 21
172.078295
  0
LINE
  8
CSLAYER1
  6
CONTINUOUS
 62
     6
 10
70.703035
 20
169.078295
 11
75.703035
 21
169.078295
  0
LINE
  8
CSLAYER1
  6
CONTINUOUS
 62
     6
 10
75.703035
 20
169.078295
 11
75.703035
 21
162.328295
  0
LINE
  8
CSLAYER1
  6
CONTINUOUS
 62
     6
 10
75.703035
 20
162.328295
 11
70.703035
 21
162.328295
  0
LINE
  8
CSLAYER1
  6
CONTINUOUS
 62
     6
 10
70.703035
 20
159.328295
 11
75.703035
 21
159.328295
  0
LINE
  8
CSLAYER1
  6
CONTINUOUS
 62
     6
 10
75.703035
 20
159.328295
 11
75.703035
 21
155.328295
  0
LINE
  8
CSLAYER1
  6
CONTINUOUS
 62
     6
 10
75.703035
 20
155.328295
 11
72.586599
 21
155.328295
  0
LINE
  8
CSLAYER1
  6
CONTINUOUS
 62
     3
 10
78.703035
 20
174.578295
 11
75.703035
 21
174.578295
  0
LINE
  8
CSLAYER1
  6
CONTINUOUS
 62
     3
 10
78.703035
 20
173.578295
 11
75.703035
 21
173.578295
  0
ARC
  8
CSLAYER1
  6
CONTINUOUS
 62
     3
 10
78.703035
 20
174.078295
 40
0.500000
 50
-90.000000
 51
90.000000
  0
LINE
  8
CSLAYER1
  6
CONTINUOUS
 62
     3
 10
78.703035
 20
157.828295
 11
75.703035
 21
157.828295
  0
LINE
  8
CSLAYER1
  6
CONTINUOUS
 62
     3
 10
78.703035
 20
156.828295
 11
75.703035
 21
156.828295
  0
ARC
  8
CSLAYER1
  6
CONTINUOUS
 62
     3
 10
78.703035
 20
157.328295
 40
0.500000
 50
-90.000000
 51
90.000000
  0
LINE
  8
CSLAYER1
  6
CONTINUOUS
 62
     6
 10
175.203035
 20
213.578295
 11
175.203035
 21
243.578295
  0
LINE
  8
CSLAYER1
  6
CONTINUOUS
 62
     6
 10
175.203035
 20
243.578295
 11
170.203035
 21
243.578295
  0
LINE
  8
CSLAYER1
  6
CONTINUOUS
 62
     6
 10
175.203035
 20
213.578295
 11
170.203035
 21
213.578295
  0
LINE
  8
CSLAYER1
  6
CONTINUOUS
 62
     6
 10
170.203035
 20
213.578295
 11
170.203035
 21
243.578295
  0
LINE
  8
CSLAYER1
  6
CONTINUOUS
 62
     6
 10
175.203035
 20
220.078295
 11
170.203035
 21
220.078295
  0
LINE
  8
CSLAYER1
  6
CONTINUOUS
 62
     6
 10
175.203035
 20
237.078295
 11
170.203035
 21
237.078295
  0
TEXT
  8
CSLAYER1
 62
     3
 10
151.103043
 20
201.578293
 40
2.200000
 41
0.511364
  1
TG+
 50
270.000000
 51
0.000000
  7
FX_FONT
 72
     5
 11
151.103043
 21
198.578293
  0
LINE
  8
CSLAYER1
  6
CONTINUOUS
 62
     3
 10
150.953035
 20
202.078295
 11
150.953035
 21
198.078295
  0
LINE
  8
CSLAYER1
  6
CONTINUOUS
 62
     3
 10
153.453035
 20
202.078295
 11
153.453035
 21
198.078295
  0
LINE
  8
CSLAYER1
  6
CONTINUOUS
 62
     3
 10
153.453035
 20
202.078295
 11
150.953035
 21
202.078295
  0
LINE
  8
CSLAYER1
  6
CONTINUOUS
 62
     3
 10
153.453035
 20
198.078295
 11
150.953035
 21
198.078295
  0
TEXT
  8
CSLAYER1
 62
     3
 10
151.103043
 20
196.578293
 40
2.200000
 41
0.511364
  1
TG-
 50
270.000000
 51
0.000000
  7
FX_FONT
 72
     5
 11
151.103043
 21
193.578293
  0
LINE
  8
CSLAYER1
  6
CONTINUOUS
 62
     3
 10
150.953035
 20
197.078295
 11
150.953035
 21
193.078295
  0
LINE
  8
CSLAYER1
  6
CONTINUOUS
 62
     3
 10
153.453035
 20
197.078295
 11
153.453035
 21
193.078295
  0
LINE
  8
CSLAYER1
  6
CONTINUOUS
 62
     3
 10
153.453035
 20
197.078295
 11
150.953035
 21
197.078295
  0
LINE
  8
CSLAYER1
  6
CONTINUOUS
 62
     3
 10
153.453035
 20
193.078295
 11
150.953035
 21
193.078295
  0
TEXT
  8
CSLAYER1
 62
     3
 10
151.103043
 20
191.578293
 40
2.200000
 41
0.511364
  1
VR1
 50
270.000000
 51
0.000000
  7
FX_FONT
 72
     5
 11
151.103043
 21
188.578293
  0
LINE
  8
CSLAYER1
  6
CONTINUOUS
 62
     3
 10
150.953035
 20
192.078295
 11
150.953035
 21
188.078295
  0
LINE
  8
CSLAYER1
  6
CONTINUOUS
 62
     3
 10
153.453035
 20
192.078295
 11
153.453035
 21
188.078295
  0
LINE
  8
CSLAYER1
  6
CONTINUOUS
 62
     3
 10
153.453035
 20
192.078295
 11
150.953035
 21
192.078295
  0
LINE
  8
CSLAYER1
  6
CONTINUOUS
 62
     3
 10
153.453035
 20
188.078295
 11
150.953035
 21
188.078295
  0
TEXT
  8
CSLAYER1
 62
     3
 10
151.103043
 20
186.578293
 40
2.200000
 41
0.511364
  1
VR2
 50
270.000000
 51
0.000000
  7
FX_FONT
 72
     5
 11
151.103043
 21
183.578293
  0
LINE
  8
CSLAYER1
  6
CONTINUOUS
 62
     3
 10
150.953035
 20
187.078295
 11
150.953035
 21
183.078295
  0
LINE
  8
CSLAYER1
  6
CONTINUOUS
 62
     3
 10
153.453035
 20
187.078295
 11
153.453035
 21
183.078295
  0
LINE
  8
CSLAYER1
  6
CONTINUOUS
 62
     3
 10
153.453035
 20
187.078295
 11
150.953035
 21
187.078295
  0
LINE
  8
CSLAYER1
  6
CONTINUOUS
 62
     3
 10
153.453035
 20
183.078295
 11
150.953035
 21
183.078295
  0
TEXT
  8
CSLAYER1
 62
     3
 10
151.103043
 20
181.578293
 40
2.200000
 41
0.511364
  1
VR3
 50
270.000000
 51
0.000000
  7
FX_FONT
 72
     5
 11
151.103043
 21
178.578293
  0
LINE
  8
CSLAYER1
  6
CONTINUOUS
 62
     3
 10
150.953035
 20
182.078295
 11
150.953035
 21
178.078295
  0
LINE
  8
CSLAYER1
  6
CONTINUOUS
 62
     3
 10
153.453035
 20
182.078295
 11
153.453035
 21
178.078295
  0
LINE
  8
CSLAYER1
  6
CONTINUOUS
 62
     3
 10
153.453035
 20
182.078295
 11
150.953035
 21
182.078295
  0
LINE
  8
CSLAYER1
  6
CONTINUOUS
 62
     3
 10
153.453035
 20
178.078295
 11
150.953035
 21
178.078295
  0
LINE
  8
CSLAYER1
  6
CONTINUOUS
 62
     6
 10
154.203035
 20
202.078295
 11
154.203035
 21
178.078295
  0
LINE
  8
CSLAYER1
  6
CONTINUOUS
 62
     6
 10
163.203035
 20
202.078295
 11
154.203035
 21
202.078295
  0
LINE
  8
CSLAYER1
  6
CONTINUOUS
 62
     6
 10
163.203035
 20
202.078295
 11
163.203035
 21
178.078295
  0
LINE
  8
CSLAYER1
  6
CONTINUOUS
 62
     6
 10
163.203035
 20
178.078295
 11
154.203035
 21
178.078295
  0
LINE
  8
CSLAYER1
  6
CONTINUOUS
 62
     3
 10
161.203035
 20
202.078295
 11
161.203035
 21
178.078295
  0
LINE
  8
CSLAYER1
  6
CONTINUOUS
 62
     3
 10
156.203035
 20
202.078295
 11
156.203035
 21
178.078295
  0
CIRCLE
  8
CSLAYER1
  6
CONTINUOUS
 62
     6
 10
158.703035
 20
199.678295
 40
2.000000
  0
CIRCLE
  8
CSLAYER1
  6
CONTINUOUS
 62
     6
 10
158.703035
 20
194.878295
 40
2.000000
  0
CIRCLE
  8
CSLAYER1
  6
CONTINUOUS
 62
     6
 10
158.703035
 20
190.078295
 40
2.000000
  0
CIRCLE
  8
CSLAYER1
  6
CONTINUOUS
 62
     6
 10
158.703035
 20
185.278295
 40
2.000000
  0
CIRCLE
  8
CSLAYER1
  6
CONTINUOUS
 62
     6
 10
158.703035
 20
180.478295
 40
2.000000
  0
LINE
  8
CSLAYER1
  6
CONTINUOUS
 62
     6
 10
160.583358
 20
198.996836
 11
157.172713
 21
200.965973
  0
LINE
  8
CSLAYER1
  6
CONTINUOUS
 62
     6
 10
160.233358
 20
198.390618
 11
156.822713
 21
200.359755
  0
LINE
  8
CSLAYER1
  6
CONTINUOUS
 62
     6
 10
158.021576
 20
192.997973
 11
159.990713
 21
196.408618
  0
LINE
  8
CSLAYER1
  6
CONTINUOUS
 62
     6
 10
157.415358
 20
193.347973
 11
159.384495
 21
196.758618
  0
LINE
  8
CSLAYER1
  6
CONTINUOUS
 62
     6
 10
159.550759
 20
188.266842
 11
158.531459
 21
192.070922
  0
LINE
  8
CSLAYER1
  6
CONTINUOUS
 62
     6
 10
158.874611
 20
188.085668
 11
157.855311
 21
191.889749
  0
LINE
  8
CSLAYER1
  6
CONTINUOUS
 62
     6
 10
156.891582
 20
186.126019
 11
160.695662
 21
185.106719
  0
LINE
  8
CSLAYER1
  6
CONTINUOUS
 62
     6
 10
156.710408
 20
185.449871
 11
160.514489
 21
184.430571
  0
LINE
  8
CSLAYER1
  6
CONTINUOUS
 62
     6
 10
156.891582
 20
179.630571
 11
160.695662
 21
180.649871
  0
LINE
  8
CSLAYER1
  6
CONTINUOUS
 62
     6
 10
156.710408
 20
180.306719
 11
160.514489
 21
181.326019
  0
TEXT
  8
CSLAYER1
 62
     3
 10
151.103043
 20
219.003265
 40
2.200000
 41
0.981818
  1
M+
 50
270.000000
 51
0.000000
  7
FX_FONT
 72
     5
 11
151.103043
 21
215.403265
  0
LINE
  8
CSLAYER1
  6
CONTINUOUS
 62
     3
 10
150.953035
 20
219.328295
 11
150.953035
 21
215.078295
  0
LINE
  8
CSLAYER1
  6
CONTINUOUS
 62
     3
 10
153.453035
 20
219.328295
 11
153.453035
 21
215.078295
  0
LINE
  8
CSLAYER1
  6
CONTINUOUS
 62
     3
 10
153.453035
 20
219.328295
 11
150.953035
 21
219.328295
  0
LINE
  8
CSLAYER1
  6
CONTINUOUS
 62
     3
 10
153.453035
 20
215.078295
 11
150.953035
 21
215.078295
  0
TEXT
  8
CSLAYER1
 62
     3
 10
151.103043
 20
211.253281
 40
2.200000
 41
0.981818
  1
M-
 50
270.000000
 51
0.000000
  7
FX_FONT
 72
     5
 11
151.103043
 21
207.653281
  0
LINE
  8
CSLAYER1
  6
CONTINUOUS
 62
     3
 10
150.953035
 20
211.578295
 11
150.953035
 21
207.328295
  0
LINE
  8
CSLAYER1
  6
CONTINUOUS
 62
     3
 10
153.453035
 20
211.578295
 11
153.453035
 21
207.328295
  0
LINE
  8
CSLAYER1
  6
CONTINUOUS
 62
     3
 10
153.453035
 20
211.578295
 11
150.953035
 21
211.578295
  0
LINE
  8
CSLAYER1
  6
CONTINUOUS
 62
     3
 10
153.453035
 20
207.328295
 11
150.953035
 21
207.328295
  0
TEXT
  8
CSLAYER1
 62
     3
 10
151.103043
 20
226.753265
 40
2.200000
 41
0.981818
  1
AC
 50
270.000000
 51
0.000000
  7
FX_FONT
 72
     5
 11
151.103043
 21
223.153265
  0
LINE
  8
CSLAYER1
  6
CONTINUOUS
 62
     3
 10
150.953035
 20
227.078295
 11
150.953035
 21
222.828295
  0
LINE
  8
CSLAYER1
  6
CONTINUOUS
 62
     3
 10
153.453035
 20
227.078295
 11
153.453035
 21
222.828295
  0
LINE
  8
CSLAYER1
  6
CONTINUOUS
 62
     3
 10
153.453035
 20
227.078295
 11
150.953035
 21
227.078295
  0
LINE
  8
CSLAYER1
  6
CONTINUOUS
 62
     3
 10
153.453035
 20
222.828295
 11
150.953035
 21
222.828295
  0
TEXT
  8
CSLAYER1
 62
     3
 10
151.103043
 20
234.503265
 40
2.200000
 41
0.981818
  1
AC
 50
270.000000
 51
0.000000
  7
FX_FONT
 72
     5
 11
151.103043
 21
230.903265
  0
LINE
  8
CSLAYER1
  6
CONTINUOUS
 62
     3
 10
150.953035
 20
234.828295
 11
150.953035
 21
230.578295
  0
LINE
  8
CSLAYER1
  6
CONTINUOUS
 62
     3
 10
153.453035
 20
234.828295
 11
153.453035
 21
230.578295
  0
LINE
  8
CSLAYER1
  6
CONTINUOUS
 62
     3
 10
153.453035
 20
234.828295
 11
150.953035
 21
234.828295
  0
LINE
  8
CSLAYER1
  6
CONTINUOUS
 62
     3
 10
153.453035
 20
230.578295
 11
150.953035
 21
230.578295
  0
LINE
  8
CSLAYER1
  6
CONTINUOUS
 62
     6
 10
154.203035
 20
237.078295
 11
154.203035
 21
205.078295
  0
LINE
  8
CSLAYER1
  6
CONTINUOUS
 62
     6
 10
167.203035
 20
237.078295
 11
167.203035
 21
205.078295
  0
LINE
  8
CSLAYER1
  6
CONTINUOUS
 62
     6
 10
167.203035
 20
237.078295
 11
154.203035
 21
237.078295
  0
LINE
  8
CSLAYER1
  6
CONTINUOUS
 62
     6
 10
167.203035
 20
205.078295
 11
154.203035
 21
205.078295
  0
LINE
  8
CSLAYER1
  6
CONTINUOUS
 62
     6
 10
167.203035
 20
236.078295
 11
154.203035
 21
236.078295
  0
LINE
  8
CSLAYER1
  6
CONTINUOUS
 62
     6
 10
167.203035
 20
206.078295
 11
154.203035
 21
206.078295
  0
LINE
  8
CSLAYER1
  6
CONTINUOUS
 62
     3
 10
155.703035
 20
236.078295
 11
155.703035
 21
229.328295
  0
LINE
  8
CSLAYER1
  6
CONTINUOUS
 62
     3
 10
165.403035
 20
236.078295
 11
165.403035
 21
229.328295
  0
LINE
  8
CSLAYER1
  6
CONTINUOUS
 62
     3
 10
165.403035
 20
212.828295
 11
165.403035
 21
206.078295
  0
LINE
  8
CSLAYER1
  6
CONTINUOUS
 62
     3
 10
155.703035
 20
212.828295
 11
155.703035
 21
206.078295
  0
LINE
  8
CSLAYER1
  6
CONTINUOUS
 62
     3
 10
155.703035
 20
220.578295
 11
155.703035
 21
213.828295
  0
LINE
  8
CSLAYER1
  6
CONTINUOUS
 62
     3
 10
165.403035
 20
220.578295
 11
165.403035
 21
213.828295
  0
LINE
  8
CSLAYER1
  6
CONTINUOUS
 62
     3
 10
155.703035
 20
228.328295
 11
155.703035
 21
221.578295
  0
LINE
  8
CSLAYER1
  6
CONTINUOUS
 62
     3
 10
165.403035
 20
228.328295
 11
165.403035
 21
221.578295
  0
POINT
  8
CSLAYER1
 62
     3
 10
160.553035
 20
232.703295
  0
LINE
  8
CSLAYER1
  6
CONTINUOUS
 62
     6
 10
163.303035
 20
235.578295
 11
163.303035
 21
229.828295
  0
LINE
  8
CSLAYER1
  6
CONTINUOUS
 62
     6
 10
157.803035
 20
235.578295
 11
157.803035
 21
229.828295
  0
LINE
  8
CSLAYER1
  6
CONTINUOUS
 62
     6
 10
157.803035
 20
235.578295
 11
163.303035
 21
235.578295
  0
LINE
  8
CSLAYER1
  6
CONTINUOUS
 62
     6
 10
157.803035
 20
229.828295
 11
163.303035
 21
229.828295
  0
LINE
  8
CSLAYER1
  6
CONTINUOUS
 62
     6
 10
164.303035
 20
234.703295
 11
164.303035
 21
230.703295
  0
LINE
  8
CSLAYER1
  6
CONTINUOUS
 62
     6
 10
156.803035
 20
234.703295
 11
156.803035
 21
230.703295
  0
LINE
  8
CSLAYER1
  6
CONTINUOUS
 62
     6
 10
164.303035
 20
234.703295
 11
163.303035
 21
234.703295
  0
LINE
  8
CSLAYER1
  6
CONTINUOUS
 62
     6
 10
164.303035
 20
230.703295
 11
163.303035
 21
230.703295
  0
LINE
  8
CSLAYER1
  6
CONTINUOUS
 62
     6
 10
157.803035
 20
234.703295
 11
156.803035
 21
234.703295
  0
LINE
  8
CSLAYER1
  6
CONTINUOUS
 62
     6
 10
157.803035
 20
230.703295
 11
156.803035
 21
230.703295
  0
LINE
  8
CSLAYER1
  6
CONTINUOUS
 62
     6
 10
167.203035
 20
228.328295
 11
154.203035
 21
228.328295
  0
LINE
  8
CSLAYER1
  6
CONTINUOUS
 62
     6
 10
167.203035
 20
229.328295
 11
154.203035
 21
229.328295
  0
LINE
  8
CSLAYER1
  6
CONTINUOUS
 62
     6
 10
167.203035
 20
220.578295
 11
154.203035
 21
220.578295
  0
LINE
  8
CSLAYER1
  6
CONTINUOUS
 62
     6
 10
167.203035
 20
221.578295
 11
154.203035
 21
221.578295
  0
LINE
  8
CSLAYER1
  6
CONTINUOUS
 62
     6
 10
167.203035
 20
212.828295
 11
154.203035
 21
212.828295
  0
LINE
  8
CSLAYER1
  6
CONTINUOUS
 62
     6
 10
167.203035
 20
213.828295
 11
154.203035
 21
213.828295
  0
POINT
  8
CSLAYER1
 62
     3
 10
160.553035
 20
224.953295
  0
LINE
  8
CSLAYER1
  6
CONTINUOUS
 62
     6
 10
163.303035
 20
227.828295
 11
163.303035
 21
222.078295
  0
LINE
  8
CSLAYER1
  6
CONTINUOUS
 62
     6
 10
157.803035
 20
227.828295
 11
157.803035
 21
222.078295
  0
LINE
  8
CSLAYER1
  6
CONTINUOUS
 62
     6
 10
157.803035
 20
227.828295
 11
163.303035
 21
227.828295
  0
LINE
  8
CSLAYER1
  6
CONTINUOUS
 62
     6
 10
157.803035
 20
222.078295
 11
163.303035
 21
222.078295
  0
LINE
  8
CSLAYER1
  6
CONTINUOUS
 62
     6
 10
164.303035
 20
226.953295
 11
164.303035
 21
222.953295
  0
LINE
  8
CSLAYER1
  6
CONTINUOUS
 62
     6
 10
156.803035
 20
226.953295
 11
156.803035
 21
222.953295
  0
LINE
  8
CSLAYER1
  6
CONTINUOUS
 62
     6
 10
164.303035
 20
226.953295
 11
163.303035
 21
226.953295
  0
LINE
  8
CSLAYER1
  6
CONTINUOUS
 62
     6
 10
164.303035
 20
222.953295
 11
163.303035
 21
222.953295
  0
LINE
  8
CSLAYER1
  6
CONTINUOUS
 62
     6
 10
157.803035
 20
226.953295
 11
156.803035
 21
226.953295
  0
LINE
  8
CSLAYER1
  6
CONTINUOUS
 62
     6
 10
157.803035
 20
222.953295
 11
156.803035
 21
222.953295
  0
POINT
  8
CSLAYER1
 62
     3
 10
160.553035
 20
217.203295
  0
LINE
  8
CSLAYER1
  6
CONTINUOUS
 62
     6
 10
163.303035
 20
220.078295
 11
163.303035
 21
214.328295
  0
LINE
  8
CSLAYER1
  6
CONTINUOUS
 62
     6
 10
157.803035
 20
220.078295
 11
157.803035
 21
214.328295
  0
LINE
  8
CSLAYER1
  6
CONTINUOUS
 62
     6
 10
157.803035
 20
220.078295
 11
163.303035
 21
220.078295
  0
LINE
  8
CSLAYER1
  6
CONTINUOUS
 62
     6
 10
157.803035
 20
214.328295
 11
163.303035
 21
214.328295
  0
LINE
  8
CSLAYER1
  6
CONTINUOUS
 62
     6
 10
164.303035
 20
219.203295
 11
164.303035
 21
215.203295
  0
LINE
  8
CSLAYER1
  6
CONTINUOUS
 62
     6
 10
156.803035
 20
219.203295
 11
156.803035
 21
215.203295
  0
LINE
  8
CSLAYER1
  6
CONTINUOUS
 62
     6
 10
164.303035
 20
219.203295
 11
163.303035
 21
219.203295
  0
LINE
  8
CSLAYER1
  6
CONTINUOUS
 62
     6
 10
164.303035
 20
215.203295
 11
163.303035
 21
215.203295
  0
LINE
  8
CSLAYER1
  6
CONTINUOUS
 62
     6
 10
157.803035
 20
219.203295
 11
156.803035
 21
219.203295
  0
LINE
  8
CSLAYER1
  6
CONTINUOUS
 62
     6
 10
157.803035
 20
215.203295
 11
156.803035
 21
215.203295
  0
POINT
  8
CSLAYER1
 62
     3
 10
160.553035
 20
209.453295
  0
LINE
  8
CSLAYER1
  6
CONTINUOUS
 62
     6
 10
163.303035
 20
212.328295
 11
163.303035
 21
206.578295
  0
LINE
  8
CSLAYER1
  6
CONTINUOUS
 62
     6
 10
157.803035
 20
212.328295
 11
157.803035
 21
206.578295
  0
LINE
  8
CSLAYER1
  6
CONTINUOUS
 62
     6
 10
157.803035
 20
212.328295
 11
163.303035
 21
212.328295
  0
LINE
  8
CSLAYER1
  6
CONTINUOUS
 62
     6
 10
157.803035
 20
206.578295
 11
163.303035
 21
206.578295
  0
LINE
  8
CSLAYER1
  6
CONTINUOUS
 62
     6
 10
164.303035
 20
211.453295
 11
164.303035
 21
207.453295
  0
LINE
  8
CSLAYER1
  6
CONTINUOUS
 62
     6
 10
156.803035
 20
211.453295
 11
156.803035
 21
207.453295
  0
LINE
  8
CSLAYER1
  6
CONTINUOUS
 62
     6
 10
164.303035
 20
211.453295
 11
163.303035
 21
211.453295
  0
LINE
  8
CSLAYER1
  6
CONTINUOUS
 62
     6
 10
164.303035
 20
207.453295
 11
163.303035
 21
207.453295
  0
LINE
  8
CSLAYER1
  6
CONTINUOUS
 62
     6
 10
157.803035
 20
211.453295
 11
156.803035
 21
211.453295
  0
LINE
  8
CSLAYER1
  6
CONTINUOUS
 62
     6
 10
157.803035
 20
207.453295
 11
156.803035
 21
207.453295
  0
TEXT
  8
CSLAYER1
 62
     3
 10
171.103043
 20
168.253311
 40
2.200000
 41
0.920455
  1
ACC
 50
270.000000
 51
0.000000
  7
FX_FONT
 72
     5
 11
171.103043
 21
162.853311
  0
LINE
  8
CSLAYER1
  6
CONTINUOUS
 62
     3
 10
170.953035
 20
168.578295
 11
170.953035
 21
162.828295
  0
LINE
  8
CSLAYER1
  6
CONTINUOUS
 62
     3
 10
173.453035
 20
168.578295
 11
173.453035
 21
162.828295
  0
LINE
  8
CSLAYER1
  6
CONTINUOUS
 62
     3
 10
173.453035
 20
168.578295
 11
170.953035
 21
168.578295
  0
LINE
  8
CSLAYER1
  6
CONTINUOUS
 62
     3
 10
173.453035
 20
162.828295
 11
170.953035
 21
162.828295
  0
TEXT
  8
CSLAYER1
 62
     3
 10
168.103043
 20
159.878311
 40
2.200000
 41
0.920455
  1
SW1
 50
270.000000
 51
0.000000
  7
FX_FONT
 72
     5
 11
168.103043
 21
154.478311
  0
LINE
  8
CSLAYER1
  6
CONTINUOUS
 62
     3
 10
167.953035
 20
160.203295
 11
167.953035
 21
154.453295
  0
LINE
  8
CSLAYER1
  6
CONTINUOUS
 62
     3
 10
170.453035
 20
160.203295
 11
170.453035
 21
154.453295
  0
LINE
  8
CSLAYER1
  6
CONTINUOUS
 62
     3
 10
170.453035
 20
160.203295
 11
167.953035
 21
160.203295
  0
LINE
  8
CSLAYER1
  6
CONTINUOUS
 62
     3
 10
170.453035
 20
154.453295
 11
167.953035
 21
154.453295
  0
LINE
  8
CSLAYER1
  6
CONTINUOUS
 62
     6
 10
160.953035
 20
168.578295
 11
162.453035
 21
168.578295
  0
LINE
  8
CSLAYER1
  6
CONTINUOUS
 62
     6
 10
162.453035
 20
169.078295
 11
162.453035
 21
168.578295
  0
LINE
  8
CSLAYER1
  6
CONTINUOUS
 62
     6
 10
165.953035
 20
169.078295
 11
165.953035
 21
168.578295
  0
LINE
  8
CSLAYER1
  6
CONTINUOUS
 62
     6
 10
165.953035
 20
168.578295
 11
167.453035
 21
168.578295
  0
LINE
  8
CSLAYER1
  6
CONTINUOUS
 62
     6
 10
167.453035
 20
162.828295
 11
165.953035
 21
162.828295
  0
LINE
  8
CSLAYER1
  6
CONTINUOUS
 62
     6
 10
165.953035
 20
162.328295
 11
165.953035
 21
162.828295
  0
LINE
  8
CSLAYER1
  6
CONTINUOUS
 62
     6
 10
162.453035
 20
162.328295
 11
162.453035
 21
162.828295
  0
LINE
  8
CSLAYER1
  6
CONTINUOUS
 62
     6
 10
162.453035
 20
162.828295
 11
160.953035
 21
162.828295
  0
POINT
  8
CSLAYER1
 62
     3
 10
164.203035
 20
165.703295
  0
ARC
  8
CSLAYER1
  6
CONTINUOUS
 62
     6
 10
164.203035
 20
165.703295
 40
2.000000
 50
-138.590378
 51
138.590378
  0
CIRCLE
  8
CSLAYER1
  6
CONTINUOUS
 62
     3
 10
164.203035
 20
165.703295
 40
1.650000
  0
LINE
  8
CSLAYER1
  6
CONTINUOUS
 62
     6
 10
162.703035
 20
167.526171
 11
162.703035
 21
167.026171
  0
LINE
  8
CSLAYER1
  6
CONTINUOUS
 62
     6
 10
162.703035
 20
164.380420
 11
162.703035
 21
163.880420
  0
LINE
  8
CSLAYER1
  6
CONTINUOUS
 62
     6
 10
166.203035
 20
165.703295
 11
166.703035
 21
165.703295
  0
LINE
  8
CSLAYER1
  6
CONTINUOUS
 62
     6
 10
165.935086
 20
166.703295
 11
166.368099
 21
166.953295
  0
LINE
  8
CSLAYER1
  6
CONTINUOUS
 62
     6
 10
165.203035
 20
167.435346
 11
165.453035
 21
167.868359
  0
LINE
  8
CSLAYER1
  6
CONTINUOUS
 62
     6
 10
164.203035
 20
167.703295
 11
164.203035
 21
168.203295
  0
LINE
  8
CSLAYER1
  6
CONTINUOUS
 62
     6
 10
163.203035
 20
167.435346
 11
162.953035
 21
167.868359
  0
LINE
  8
CSLAYER1
  6
CONTINUOUS
 62
     6
 10
165.935086
 20
164.703295
 11
166.368099
 21
164.453295
  0
LINE
  8
CSLAYER1
  6
CONTINUOUS
 62
     6
 10
165.203035
 20
163.971245
 11
165.453035
 21
163.538232
  0
LINE
  8
CSLAYER1
  6
CONTINUOUS
 62
     6
 10
164.203035
 20
163.703295
 11
164.203035
 21
163.203295
  0
LINE
  8
CSLAYER1
  6
CONTINUOUS
 62
     6
 10
163.203035
 20
163.971245
 11
162.953035
 21
163.538232
  0
LINE
  8
CSLAYER1
  6
CONTINUOUS
 62
     3
 10
164.533035
 20
167.023295
 11
164.533035
 21
166.033295
  0
LINE
  8
CSLAYER1
  6
CONTINUOUS
 62
     3
 10
163.873035
 20
167.023295
 11
163.873035
 21
166.033295
  0
LINE
  8
CSLAYER1
  6
CONTINUOUS
 62
     3
 10
162.883035
 20
166.033295
 11
163.873035
 21
166.033295
  0
LINE
  8
CSLAYER1
  6
CONTINUOUS
 62
     3
 10
162.883035
 20
165.373295
 11
163.873035
 21
165.373295
  0
LINE
  8
CSLAYER1
  6
CONTINUOUS
 62
     3
 10
162.883035
 20
166.033295
 11
162.883035
 21
165.373295
  0
LINE
  8
CSLAYER1
  6
CONTINUOUS
 62
     3
 10
164.533035
 20
167.023295
 11
163.873035
 21
167.023295
  0
LINE
  8
CSLAYER1
  6
CONTINUOUS
 62
     3
 10
163.873035
 20
164.383295
 11
164.533035
 21
164.383295
  0
LINE
  8
CSLAYER1
  6
CONTINUOUS
 62
     3
 10
165.127035
 20
166.389187
 11
165.127035
 21
166.033295
  0
LINE
  8
CSLAYER1
  6
CONTINUOUS
 62
     3
 10
165.127035
 20
166.389187
 11
165.523035
 21
165.703295
  0
LINE
  8
CSLAYER1
  6
CONTINUOUS
 62
     3
 10
165.127035
 20
165.017403
 11
165.523035
 21
165.703295
  0
LINE
  8
CSLAYER1
  6
CONTINUOUS
 62
     3
 10
165.127035
 20
165.373295
 11
165.127035
 21
165.017403
  0
LINE
  8
CSLAYER1
  6
CONTINUOUS
 62
     3
 10
164.533035
 20
165.373295
 11
164.533035
 21
164.383295
  0
LINE
  8
CSLAYER1
  6
CONTINUOUS
 62
     3
 10
163.873035
 20
165.373295
 11
163.873035
 21
164.383295
  0
LINE
  8
CSLAYER1
  6
CONTINUOUS
 62
     3
 10
164.533035
 20
166.033295
 11
165.127035
 21
166.033295
  0
LINE
  8
CSLAYER1
  6
CONTINUOUS
 62
     3
 10
164.533035
 20
165.373295
 11
165.127035
 21
165.373295
  0
TEXT
  8
CSLAYER1
 62
     3
 10
174.103043
 20
167.503311
 40
2.200000
 41
0.981818
  1
CL
 50
270.000000
 51
0.000000
  7
FX_FONT
 72
     5
 11
174.103043
 21
163.903311
  0
LINE
  8
CSLAYER1
  6
CONTINUOUS
 62
     3
 10
173.953035
 20
167.778295
 11
173.953035
 21
163.628295
  0
LINE
  8
CSLAYER1
  6
CONTINUOUS
 62
     3
 10
176.453035
 20
167.778295
 11
176.453035
 21
163.628295
  0
LINE
  8
CSLAYER1
  6
CONTINUOUS
 62
     3
 10
176.453035
 20
167.778295
 11
173.953035
 21
167.778295
  0
LINE
  8
CSLAYER1
  6
CONTINUOUS
 62
     3
 10
176.453035
 20
163.628295
 11
173.953035
 21
163.628295
  0
LINE
  8
CSLAYER1
  6
CONTINUOUS
 62
     6
 10
167.453035
 20
172.078295
 11
167.453035
 21
176.078295
  0
LINE
  8
CSLAYER1
  6
CONTINUOUS
 62
     6
 10
167.453035
 20
172.078295
 11
160.953035
 21
172.078295
  0
LINE
  8
CSLAYER1
  6
CONTINUOUS
 62
     6
 10
167.453035
 20
176.078295
 11
160.953035
 21
176.078295
  0
LINE
  8
CSLAYER1
  6
CONTINUOUS
 62
     6
 10
160.953035
 20
172.078295
 11
160.953035
 21
176.078295
  0
POINT
  8
CSLAYER1
 62
     3
 10
164.203035
 20
174.078295
  0
ARC
  8
CSLAYER1
  6
CONTINUOUS
 62
     3
 10
164.203035
 20
174.078295
 40
1.500000
 50
-160.528779
 51
160.528779
  0
ARC
  8
CSLAYER1
  6
CONTINUOUS
 62
     3
 10
164.203035
 20
174.078295
 40
1.000000
 50
-150.000000
 51
150.000000
  0
LINE
  8
CSLAYER1
  6
CONTINUOUS
 62
     3
 10
162.203035
 20
174.578295
 11
163.703035
 21
174.578295
  0
LINE
  8
CSLAYER1
  6
CONTINUOUS
 62
     3
 10
162.203035
 20
173.578295
 11
163.703035
 21
173.578295
  0
ARC
  8
CSLAYER1
  6
CONTINUOUS
 62
     3
 10
163.703035
 20
174.078295
 40
0.500000
 50
-90.000000
 51
90.000000
  0
ARC
  8
CSLAYER1
  6
CONTINUOUS
 62
     3
 10
162.203035
 20
174.078295
 40
0.500000
 50
90.000000
 51
270.000000
  0
LINE
  8
CSLAYER1
  6
CONTINUOUS
 62
     6
 10
160.953035
 20
159.328295
 11
160.953035
 21
155.328295
  0
LINE
  8
CSLAYER1
  6
CONTINUOUS
 62
     6
 10
160.953035
 20
159.328295
 11
167.453035
 21
159.328295
  0
LINE
  8
CSLAYER1
  6
CONTINUOUS
 62
     6
 10
160.953035
 20
155.328295
 11
167.453035
 21
155.328295
  0
LINE
  8
CSLAYER1
  6
CONTINUOUS
 62
     6
 10
167.453035
 20
159.328295
 11
167.453035
 21
155.328295
  0
POINT
  8
CSLAYER1
 62
     3
 10
164.203035
 20
157.328295
  0
ARC
  8
CSLAYER1
  6
CONTINUOUS
 62
     3
 10
164.203035
 20
157.328295
 40
1.500000
 50
19.471221
 51
340.528779
  0
ARC
  8
CSLAYER1
  6
CONTINUOUS
 62
     3
 10
164.203035
 20
157.328295
 40
1.000000
 50
30.000000
 51
330.000000
  0
LINE
  8
CSLAYER1
  6
CONTINUOUS
 62
     3
 10
166.203035
 20
156.828295
 11
164.703035
 21
156.828295
  0
LINE
  8
CSLAYER1
  6
CONTINUOUS
 62
     3
 10
166.203035
 20
157.828295
 11
164.703035
 21
157.828295
  0
ARC
  8
CSLAYER1
  6
CONTINUOUS
 62
     3
 10
164.703035
 20
157.328295
 40
0.500000
 50
90.000000
 51
270.000000
  0
ARC
  8
CSLAYER1
  6
CONTINUOUS
 62
     3
 10
166.203035
 20
157.328295
 40
0.500000
 50
-90.000000
 51
90.000000
  0
TEXT
  8
CSLAYER1
 62
     3
 10
168.103043
 20
176.628311
 40
2.200000
 41
0.920455
  1
SW2
 50
270.000000
 51
0.000000
  7
FX_FONT
 72
     5
 11
168.103043
 21
171.228311
  0
LINE
  8
CSLAYER1
  6
CONTINUOUS
 62
     3
 10
167.953035
 20
176.953295
 11
167.953035
 21
171.203295
  0
LINE
  8
CSLAYER1
  6
CONTINUOUS
 62
     3
 10
170.453035
 20
176.953295
 11
170.453035
 21
171.203295
  0
LINE
  8
CSLAYER1
  6
CONTINUOUS
 62
     3
 10
170.453035
 20
176.953295
 11
167.953035
 21
176.953295
  0
LINE
  8
CSLAYER1
  6
CONTINUOUS
 62
     3
 10
170.453035
 20
171.203295
 11
167.953035
 21
171.203295
  0
TEXT
  8
CSLAYER1
 62
     3
 10
177.103043
 20
168.403305
 40
2.200000
 41
0.920455
  1
VR6
 50
270.000000
 51
0.000000
  7
FX_FONT
 72
     5
 11
177.103043
 21
163.003305
  0
LINE
  8
CSLAYER1
  6
CONTINUOUS
 62
     6
 10
172.453035
 20
175.828295
 11
173.953035
 21
175.828295
  0
LINE
  8
CSLAYER1
  6
CONTINUOUS
 62
     6
 10
173.953035
 20
176.328295
 11
173.953035
 21
175.828295
  0
LINE
  8
CSLAYER1
  6
CONTINUOUS
 62
     6
 10
177.453035
 20
176.328295
 11
177.453035
 21
175.828295
  0
LINE
  8
CSLAYER1
  6
CONTINUOUS
 62
     6
 10
177.453035
 20
175.828295
 11
178.953035
 21
175.828295
  0
LINE
  8
CSLAYER1
  6
CONTINUOUS
 62
     6
 10
178.953035
 20
170.078295
 11
177.453035
 21
170.078295
  0
LINE
  8
CSLAYER1
  6
CONTINUOUS
 62
     6
 10
177.453035
 20
169.578295
 11
177.453035
 21
170.078295
  0
LINE
  8
CSLAYER1
  6
CONTINUOUS
 62
     6
 10
173.953035
 20
169.578295
 11
173.953035
 21
170.078295
  0
LINE
  8
CSLAYER1
  6
CONTINUOUS
 62
     6
 10
173.953035
 20
170.078295
 11
172.453035
 21
170.078295
  0
POINT
  8
CSLAYER1
 62
     3
 10
175.703035
 20
172.953295
  0
ARC
  8
CSLAYER1
  6
CONTINUOUS
 62
     6
 10
175.703035
 20
172.953295
 40
2.000000
 50
-138.590378
 51
138.590378
  0
CIRCLE
  8
CSLAYER1
  6
CONTINUOUS
 62
     3
 10
175.703035
 20
172.953295
 40
1.650000
  0
LINE
  8
CSLAYER1
  6
CONTINUOUS
 62
     6
 10
174.203035
 20
174.776171
 11
174.203035
 21
174.276171
  0
LINE
  8
CSLAYER1
  6
CONTINUOUS
 62
     6
 10
174.203035
 20
171.630420
 11
174.203035
 21
171.130420
  0
LINE
  8
CSLAYER1
  6
CONTINUOUS
 62
     6
 10
177.703035
 20
172.953295
 11
178.203035
 21
172.953295
  0
LINE
  8
CSLAYER1
  6
CONTINUOUS
 62
     6
 10
177.435086
 20
173.953295
 11
177.868099
 21
174.203295
  0
LINE
  8
CSLAYER1
  6
CONTINUOUS
 62
     6
 10
176.703035
 20
174.685346
 11
176.953035
 21
175.118359
  0
LINE
  8
CSLAYER1
  6
CONTINUOUS
 62
     6
 10
175.703035
 20
174.953295
 11
175.703035
 21
175.453295
  0
LINE
  8
CSLAYER1
  6
CONTINUOUS
 62
     6
 10
174.703035
 20
174.685346
 11
174.453035
 21
175.118359
  0
LINE
  8
CSLAYER1
  6
CONTINUOUS
 62
     6
 10
177.435086
 20
171.953295
 11
177.868099
 21
171.703295
  0
LINE
  8
CSLAYER1
  6
CONTINUOUS
 62
     6
 10
176.703035
 20
171.221245
 11
176.953035
 21
170.788232
  0
LINE
  8
CSLAYER1
  6
CONTINUOUS
 62
     6
 10
175.703035
 20
170.953295
 11
175.703035
 21
170.453295
  0
LINE
  8
CSLAYER1
  6
CONTINUOUS
 62
     6
 10
174.703035
 20
171.221245
 11
174.453035
 21
170.788232
  0
LINE
  8
CSLAYER1
  6
CONTINUOUS
 62
     3
 10
176.033035
 20
174.273295
 11
176.033035
 21
173.283295
  0
LINE
  8
CSLAYER1
  6
CONTINUOUS
 62
     3
 10
175.373035
 20
174.273295
 11
175.373035
 21
173.283295
  0
LINE
  8
CSLAYER1
  6
CONTINUOUS
 62
     3
 10
174.383035
 20
173.283295
 11
175.373035
 21
173.283295
  0
LINE
  8
CSLAYER1
  6
CONTINUOUS
 62
     3
 10
174.383035
 20
172.623295
 11
175.373035
 21
172.623295
  0
LINE
  8
CSLAYER1
  6
CONTINUOUS
 62
     3
 10
174.383035
 20
173.283295
 11
174.383035
 21
172.623295
  0
LINE
  8
CSLAYER1
  6
CONTINUOUS
 62
     3
 10
176.033035
 20
174.273295
 11
175.373035
 21
174.273295
  0
LINE
  8
CSLAYER1
  6
CONTINUOUS
 62
     3
 10
175.373035
 20
171.633295
 11
176.033035
 21
171.633295
  0
LINE
  8
CSLAYER1
  6
CONTINUOUS
 62
     3
 10
176.627035
 20
173.639187
 11
176.627035
 21
173.283295
  0
LINE
  8
CSLAYER1
  6
CONTINUOUS
 62
     3
 10
176.627035
 20
173.639187
 11
177.023035
 21
172.953295
  0
LINE
  8
CSLAYER1
  6
CONTINUOUS
 62
     3
 10
176.627035
 20
172.267403
 11
177.023035
 21
172.953295
  0
LINE
  8
CSLAYER1
  6
CONTINUOUS
 62
     3
 10
176.627035
 20
172.623295
 11
176.627035
 21
172.267403
  0
LINE
  8
CSLAYER1
  6
CONTINUOUS
 62
     3
 10
176.033035
 20
172.623295
 11
176.033035
 21
171.633295
  0
LINE
  8
CSLAYER1
  6
CONTINUOUS
 62
     3
 10
175.373035
 20
172.623295
 11
175.373035
 21
171.633295
  0
LINE
  8
CSLAYER1
  6
CONTINUOUS
 62
     3
 10
176.033035
 20
173.283295
 11
176.627035
 21
173.283295
  0
LINE
  8
CSLAYER1
  6
CONTINUOUS
 62
     3
 10
176.033035
 20
172.623295
 11
176.627035
 21
172.623295
  0
LINE
  8
CSLAYER1
  6
CONTINUOUS
 62
     6
 10
302.844406
 20
180.828302
 11
302.844406
 21
191.828302
  0
LINE
  8
CSLAYER1
  6
CONTINUOUS
 62
     6
 10
302.844406
 20
191.828302
 11
187.844406
 21
191.828302
  0
LINE
  8
CSLAYER1
  6
CONTINUOUS
 62
     6
 10
187.844406
 20
191.828302
 11
187.844406
 21
180.828302
  0
LINE
  8
CSLAYER1
  6
CONTINUOUS
 62
     6
 10
298.857475
 20
180.828302
 11
289.831337
 21
180.828302
  0
ARC
  8
CSLAYER1
  6
CONTINUOUS
 62
     6
 10
301.344406
 20
152.828302
 40
1.000000
 50
180.753718
 51
359.246282
  0
LINE
  8
CSLAYER1
  6
CONTINUOUS
 62
     6
 10
302.844406
 20
180.828302
 11
302.344320
 21
152.815147
  0
LINE
  8
CSLAYER1
  6
CONTINUOUS
 62
     6
 10
300.344493
 20
152.815147
 11
299.857389
 21
179.841456
  0
ARC
  8
CSLAYER1
  6
CONTINUOUS
 62
     6
 10
189.344406
 20
152.828302
 40
1.000000
 50
180.753718
 51
359.246282
  0
LINE
  8
CSLAYER1
  6
CONTINUOUS
 62
     6
 10
187.844406
 20
180.828302
 11
188.344493
 21
152.815147
  0
LINE
  8
CSLAYER1
  6
CONTINUOUS
 62
     6
 10
190.344320
 20
152.815147
 11
190.831424
 21
179.841456
  0
ARC
  8
CSLAYER1
  6
CONTINUOUS
 62
     6
 10
287.344406
 20
152.828302
 40
1.000000
 50
180.753718
 51
359.246282
  0
LINE
  8
CSLAYER1
  6
CONTINUOUS
 62
     6
 10
288.831424
 20
179.841456
 11
288.344320
 21
152.815147
  0
LINE
  8
CSLAYER1
  6
CONTINUOUS
 62
     6
 10
286.344493
 20
152.815147
 11
285.857389
 21
179.841456
  0
ARC
  8
CSLAYER1
  6
CONTINUOUS
 62
     6
 10
273.344406
 20
152.828302
 40
1.000000
 50
180.753718
 51
359.246282
  0
LINE
  8
CSLAYER1
  6
CONTINUOUS
 62
     6
 10
274.831424
 20
179.841456
 11
274.344320
 21
152.815147
  0
LINE
  8
CSLAYER1
  6
CONTINUOUS
 62
     6
 10
272.344493
 20
152.815147
 11
271.857389
 21
179.841456
  0
ARC
  8
CSLAYER1
  6
CONTINUOUS
 62
     6
 10
259.344406
 20
152.828302
 40
1.000000
 50
180.753718
 51
359.246282
  0
LINE
  8
CSLAYER1
  6
CONTINUOUS
 62
     6
 10
260.831424
 20
179.841456
 11
260.344320
 21
152.815147
  0
LINE
  8
CSLAYER1
  6
CONTINUOUS
 62
     6
 10
258.344493
 20
152.815147
 11
257.857389
 21
179.841456
  0
ARC
  8
CSLAYER1
  6
CONTINUOUS
 62
     6
 10
245.344406
 20
152.828302
 40
1.000000
 50
180.753718
 51
359.246282
  0
LINE
  8
CSLAYER1
  6
CONTINUOUS
 62
     6
 10
246.831424
 20
179.841456
 11
246.344320
 21
152.815147
  0
LINE
  8
CSLAYER1
  6
CONTINUOUS
 62
     6
 10
244.344493
 20
152.815147
 11
243.857389
 21
179.841456
  0
ARC
  8
CSLAYER1
  6
CONTINUOUS
 62
     6
 10
231.344406
 20
152.828302
 40
1.000000
 50
180.753718
 51
359.246282
  0
LINE
  8
CSLAYER1
  6
CONTINUOUS
 62
     6
 10
232.831424
 20
179.841456
 11
232.344320
 21
152.815147
  0
LINE
  8
CSLAYER1
  6
CONTINUOUS
 62
     6
 10
230.344493
 20
152.815147
 11
229.857389
 21
179.841456
  0
ARC
  8
CSLAYER1
  6
CONTINUOUS
 62
     6
 10
217.344406
 20
152.828302
 40
1.000000
 50
180.753718
 51
359.246282
  0
LINE
  8
CSLAYER1
  6
CONTINUOUS
 62
     6
 10
218.831424
 20
179.841456
 11
218.344320
 21
152.815147
  0
LINE
  8
CSLAYER1
  6
CONTINUOUS
 62
     6
 10
216.344493
 20
152.815147
 11
215.857389
 21
179.841456
  0
ARC
  8
CSLAYER1
  6
CONTINUOUS
 62
     6
 10
203.344406
 20
152.828302
 40
1.000000
 50
180.753718
 51
359.246282
  0
LINE
  8
CSLAYER1
  6
CONTINUOUS
 62
     6
 10
204.831424
 20
179.841456
 11
204.344320
 21
152.815147
  0
LINE
  8
CSLAYER1
  6
CONTINUOUS
 62
     6
 10
202.344493
 20
152.815147
 11
201.857389
 21
179.841456
  0
ARC
  8
CSLAYER1
  6
CONTINUOUS
 62
     6
 10
289.831337
 20
179.828302
 40
1.000000
 50
90.000000
 51
179.246282
  0
ARC
  8
CSLAYER1
  6
CONTINUOUS
 62
     6
 10
298.857475
 20
179.828302
 40
1.000000
 50
0.753718
 51
90.000000
  0
LINE
  8
CSLAYER1
  6
CONTINUOUS
 62
     6
 10
284.857475
 20
180.828302
 11
275.831337
 21
180.828302
  0
LINE
  8
CSLAYER1
  6
CONTINUOUS
 62
     6
 10
270.857475
 20
180.828302
 11
261.831337
 21
180.828302
  0
LINE
  8
CSLAYER1
  6
CONTINUOUS
 62
     6
 10
256.857475
 20
180.828302
 11
247.831337
 21
180.828302
  0
LINE
  8
CSLAYER1
  6
CONTINUOUS
 62
     6
 10
242.857475
 20
180.828302
 11
233.831337
 21
180.828302
  0
LINE
  8
CSLAYER1
  6
CONTINUOUS
 62
     6
 10
228.857475
 20
180.828302
 11
219.831337
 21
180.828302
  0
LINE
  8
CSLAYER1
  6
CONTINUOUS
 62
     6
 10
214.857475
 20
180.828302
 11
205.831337
 21
180.828302
  0
LINE
  8
CSLAYER1
  6
CONTINUOUS
 62
     6
 10
200.857475
 20
180.828302
 11
191.831337
 21
180.828302
  0
ARC
  8
CSLAYER1
  6
CONTINUOUS
 62
     6
 10
284.857475
 20
179.828302
 40
1.000000
 50
0.753718
 51
90.000000
  0
ARC
  8
CSLAYER1
  6
CONTINUOUS
 62
     6
 10
275.831337
 20
179.828302
 40
1.000000
 50
90.000000
 51
179.246282
  0
ARC
  8
CSLAYER1
  6
CONTINUOUS
 62
     6
 10
270.857475
 20
179.828302
 40
1.000000
 50
0.753718
 51
90.000000
  0
ARC
  8
CSLAYER1
  6
CONTINUOUS
 62
     6
 10
261.831337
 20
179.828302
 40
1.000000
 50
90.000000
 51
179.246282
  0
ARC
  8
CSLAYER1
  6
CONTINUOUS
 62
     6
 10
256.857475
 20
179.828302
 40
1.000000
 50
0.753718
 51
90.000000
  0
ARC
  8
CSLAYER1
  6
CONTINUOUS
 62
     6
 10
247.831337
 20
179.828302
 40
1.000000
 50
90.000000
 51
179.246282
  0
ARC
  8
CSLAYER1
  6
CONTINUOUS
 62
     6
 10
242.857475
 20
179.828302
 40
1.000000
 50
0.753718
 51
90.000000
  0
ARC
  8
CSLAYER1
  6
CONTINUOUS
 62
     6
 10
233.831337
 20
179.828302
 40
1.000000
 50
90.000000
 51
179.246282
  0
ARC
  8
CSLAYER1
  6
CONTINUOUS
 62
     6
 10
228.857475
 20
179.828302
 40
1.000000
 50
0.753718
 51
90.000000
  0
ARC
  8
CSLAYER1
  6
CONTINUOUS
 62
     6
 10
219.831337
 20
179.828302
 40
1.000000
 50
90.000000
 51
179.246282
  0
ARC
  8
CSLAYER1
  6
CONTINUOUS
 62
     6
 10
214.857475
 20
179.828302
 40
1.000000
 50
0.753718
 51
90.000000
  0
ARC
  8
CSLAYER1
  6
CONTINUOUS
 62
     6
 10
205.831337
 20
179.828302
 40
1.000000
 50
90.000000
 51
179.246282
  0
ARC
  8
CSLAYER1
  6
CONTINUOUS
 62
     6
 10
200.857475
 20
179.828302
 40
1.000000
 50
0.753718
 51
90.000000
  0
ARC
  8
CSLAYER1
  6
CONTINUOUS
 62
     6
 10
191.831337
 20
179.828302
 40
1.000000
 50
90.000000
 51
179.246282
  0
LINE
  8
CSLAYER1
  6
CONTINUOUS
 62
     6
 10
140.203035
 20
108.828302
 11
140.203035
 21
58.828302
  0
LINE
  8
CSLAYER1
  6
CONTINUOUS
 62
     6
 10
330.203035
 20
108.828302
 11
330.203035
 21
58.828302
  0
LINE
  8
CSLAYER1
  6
CONTINUOUS
 62
     6
 10
327.203035
 20
111.828302
 11
143.203035
 21
111.828302
  0
LINE
  8
CSLAYER1
  6
CONTINUOUS
 62
     6
 10
330.203035
 20
58.828302
 11
140.203035
 21
58.828302
  0
LINE
  8
CSLAYER1
  6
CENTER
 62
     3
 10
330.453035
 20
68.828302
 11
319.953035
 21
68.828302
  0
LINE
  8
CSLAYER1
  6
CENTER
 62
     3
 10
330.453035
 20
103.828302
 11
319.953035
 21
103.828302
  0
LINE
  8
CSLAYER1
  6
CENTER
 62
     3
 10
325.203035
 20
109.078302
 11
325.203035
 21
98.578302
  0
LINE
  8
CSLAYER1
  6
CENTER
 62
     3
 10
145.203035
 20
109.078302
 11
145.203035
 21
98.578302
  0
ARC
  8
CSLAYER1
  6
CONTINUOUS
 62
     6
 10
327.203035
 20
108.828302
 40
3.000000
 50
0.000000
 51
90.000000
  0
ARC
  8
CSLAYER1
  6
CONTINUOUS
 62
     6
 10
143.203035
 20
108.828302
 40
3.000000
 50
90.000000
 51
180.000000
  0
LINE
  8
CSLAYER1
  6
DASHED
 62
     6
 10
330.203035
 20
60.828302
 11
140.203035
 21
60.828302
  0
CIRCLE
  8
CSLAYER1
  6
CONTINUOUS
 62
     6
 10
325.203035
 20
68.828302
 40
2.250000
  0
CIRCLE
  8
CSLAYER1
  6
CONTINUOUS
 62
     6
 10
325.203035
 20
103.828302
 40
2.250000
  0
CIRCLE
  8
CSLAYER1
  6
CONTINUOUS
 62
     6
 10
145.203035
 20
68.828302
 40
2.250000
  0
CIRCLE
  8
CSLAYER1
  6
CONTINUOUS
 62
     6
 10
145.203035
 20
103.828302
 40
2.250000
  0
LINE
  8
CSLAYER1
  6
CENTER
 62
     3
 10
325.203035
 20
74.078302
 11
325.203035
 21
63.578302
  0
LINE
  8
CSLAYER1
  6
CENTER
 62
     3
 10
145.203035
 20
74.078302
 11
145.203035
 21
63.578302
  0
LINE
  8
CSLAYER1
  6
CENTER
 62
     3
 10
150.453035
 20
68.828302
 11
139.953035
 21
68.828302
  0
LINE
  8
CSLAYER1
  6
CENTER
 62
     3
 10
150.453035
 20
103.828302
 11
139.953035
 21
103.828302
  0
LINE
  8
CSLAYER1
  6
CONTINUOUS
 62
     6
 10
81.746121
 20
234.875692
 11
81.746121
 21
230.530875
  0
ARC
  8
CSLAYER1
  6
CONTINUOUS
 62
     6
 10
77.866802
 20
232.703283
 40
5.431046
 50
-16.257006
 51
16.257016
  0
LINE
  8
CSLAYER1
  6
CONTINUOUS
 62
     6
 10
81.914847
 20
230.584421
 11
82.403502
 21
230.627171
  0
ARC
  8
CSLAYER1
  6
CONTINUOUS
 62
     6
 10
82.335880
 20
231.400087
 40
0.775864
 50
275.000111
 51
343.742611
  0
ARC
  8
CSLAYER1
  6
CONTINUOUS
 62
     6
 10
81.901303
 20
230.739000
 40
0.155173
 50
180.000000
 51
275.000152
  0
LINE
  8
CSLAYER1
  6
CONTINUOUS
 62
     6
 10
81.668553
 20
230.453283
 11
81.280622
 21
230.453283
  0
ARC
  8
CSLAYER1
  6
CONTINUOUS
 62
     6
 10
81.668553
 20
230.530875
 40
0.077586
 50
-89.999997
 51
0.000005
  0
ARC
  8
CSLAYER1
  6
CONTINUOUS
 62
     6
 10
81.280622
 20
230.530875
 40
0.077586
 50
180.000000
 51
270.000003
  0
LINE
  8
CSLAYER1
  6
CONTINUOUS
 62
     6
 10
81.914847
 20
234.822146
 11
82.403502
 21
234.779396
  0
ARC
  8
CSLAYER1
  6
CONTINUOUS
 62
     6
 10
82.335880
 20
234.006480
 40
0.775864
 50
16.257399
 51
84.999892
  0
ARC
  8
CSLAYER1
  6
CONTINUOUS
 62
     6
 10
81.901303
 20
234.667567
 40
0.155173
 50
84.999865
 51
179.942691
  0
ARC
  8
CSLAYER1
  6
CONTINUOUS
 62
     6
 10
81.668553
 20
234.875692
 40
0.077586
 50
0.000005
 51
90.000001
  0
LINE
  8
CSLAYER1
  6
CONTINUOUS
 62
     6
 10
81.668553
 20
234.953283
 11
81.280622
 21
234.953283
  0
ARC
  8
CSLAYER1
  6
CONTINUOUS
 62
     6
 10
81.280622
 20
234.875692
 40
0.077586
 50
90.000001
 51
179.942691
  0
LINE
  8
CSLAYER1
  6
CONTINUOUS
 62
     6
 10
81.746121
 20
233.165645
 11
81.203031
 21
232.821268
  0
LINE
  8
CSLAYER1
  6
CONTINUOUS
 62
     6
 10
81.746121
 20
232.777714
 11
81.203031
 21
232.433337
  0
LINE
  8
CSLAYER1
  6
CONTINUOUS
 62
     6
 10
81.203035
 20
230.203295
 11
81.203035
 21
235.203295
  0
LINE
  8
CSLAYER1
  6
CONTINUOUS
 62
     6
 10
81.203035
 20
235.203295
 11
80.703035
 21
235.203295
  0
LINE
  8
CSLAYER1
  6
CONTINUOUS
 62
     6
 10
81.203035
 20
230.203295
 11
80.703035
 21
230.203295
  0
LINE
  8
CSLAYER1
  6
CONTINUOUS
 62
     6
 10
80.703035
 20
235.203295
 11
80.703035
 21
230.203295
  0
LINE
  8
CSLAYER1
  6
CONTINUOUS
 62
     6
 10
81.746121
 20
227.125692
 11
81.746121
 21
222.780875
  0
ARC
  8
CSLAYER1
  6
CONTINUOUS
 62
     6
 10
77.866802
 20
224.953283
 40
5.431046
 50
-16.257006
 51
16.257016
  0
LINE
  8
CSLAYER1
  6
CONTINUOUS
 62
     6
 10
81.914847
 20
222.834421
 11
82.403502
 21
222.877171
  0
ARC
  8
CSLAYER1
  6
CONTINUOUS
 62
     6
 10
82.335880
 20
223.650087
 40
0.775864
 50
275.000111
 51
343.742611
  0
ARC
  8
CSLAYER1
  6
CONTINUOUS
 62
     6
 10
81.901303
 20
222.989000
 40
0.155173
 50
180.000000
 51
275.000152
  0
LINE
  8
CSLAYER1
  6
CONTINUOUS
 62
     6
 10
81.668553
 20
222.703283
 11
81.280622
 21
222.703283
  0
ARC
  8
CSLAYER1
  6
CONTINUOUS
 62
     6
 10
81.668553
 20
222.780875
 40
0.077586
 50
-89.999997
 51
0.000005
  0
ARC
  8
CSLAYER1
  6
CONTINUOUS
 62
     6
 10
81.280622
 20
222.780875
 40
0.077586
 50
180.000000
 51
270.000003
  0
LINE
  8
CSLAYER1
  6
CONTINUOUS
 62
     6
 10
81.914847
 20
227.072146
 11
82.403502
 21
227.029396
  0
ARC
  8
CSLAYER1
  6
CONTINUOUS
 62
     6
 10
82.335880
 20
226.256480
 40
0.775864
 50
16.257399
 51
84.999892
  0
ARC
  8
CSLAYER1
  6
CONTINUOUS
 62
     6
 10
81.901303
 20
226.917567
 40
0.155173
 50
84.999865
 51
179.942691
  0
ARC
  8
CSLAYER1
  6
CONTINUOUS
 62
     6
 10
81.668553
 20
227.125692
 40
0.077586
 50
0.000005
 51
90.000001
  0
LINE
  8
CSLAYER1
  6
CONTINUOUS
 62
     6
 10
81.668553
 20
227.203283
 11
81.280622
 21
227.203283
  0
ARC
  8
CSLAYER1
  6
CONTINUOUS
 62
     6
 10
81.280622
 20
227.125692
 40
0.077586
 50
90.000001
 51
179.942691
  0
LINE
  8
CSLAYER1
  6
CONTINUOUS
 62
     6
 10
81.746121
 20
225.415645
 11
81.203031
 21
225.071268
  0
LINE
  8
CSLAYER1
  6
CONTINUOUS
 62
     6
 10
81.746121
 20
225.027714
 11
81.203031
 21
224.683337
  0
LINE
  8
CSLAYER1
  6
CONTINUOUS
 62
     6
 10
81.203035
 20
222.453295
 11
81.203035
 21
227.453295
  0
LINE
  8
CSLAYER1
  6
CONTINUOUS
 62
     6
 10
81.203035
 20
227.453295
 11
80.703035
 21
227.453295
  0
LINE
  8
CSLAYER1
  6
CONTINUOUS
 62
     6
 10
81.203035
 20
222.453295
 11
80.703035
 21
222.453295
  0
LINE
  8
CSLAYER1
  6
CONTINUOUS
 62
     6
 10
80.703035
 20
227.453295
 11
80.703035
 21
222.453295
  0
LINE
  8
CSLAYER1
  6
CONTINUOUS
 62
     6
 10
81.746121
 20
219.375692
 11
81.746121
 21
215.030875
  0
ARC
  8
CSLAYER1
  6
CONTINUOUS
 62
     6
 10
77.866802
 20
217.203283
 40
5.431046
 50
-16.257006
 51
16.257016
  0
LINE
  8
CSLAYER1
  6
CONTINUOUS
 62
     6
 10
81.914847
 20
215.084421
 11
82.403502
 21
215.127171
  0
ARC
  8
CSLAYER1
  6
CONTINUOUS
 62
     6
 10
82.335880
 20
215.900087
 40
0.775864
 50
275.000111
 51
343.742611
  0
ARC
  8
CSLAYER1
  6
CONTINUOUS
 62
     6
 10
81.901303
 20
215.239000
 40
0.155173
 50
180.000000
 51
275.000152
  0
LINE
  8
CSLAYER1
  6
CONTINUOUS
 62
     6
 10
81.668553
 20
214.953283
 11
81.280622
 21
214.953283
  0
ARC
  8
CSLAYER1
  6
CONTINUOUS
 62
     6
 10
81.668553
 20
215.030875
 40
0.077586
 50
-89.999997
 51
0.000005
  0
ARC
  8
CSLAYER1
  6
CONTINUOUS
 62
     6
 10
81.280622
 20
215.030875
 40
0.077586
 50
180.000000
 51
270.000003
  0
LINE
  8
CSLAYER1
  6
CONTINUOUS
 62
     6
 10
81.914847
 20
219.322146
 11
82.403502
 21
219.279396
  0
ARC
  8
CSLAYER1
  6
CONTINUOUS
 62
     6
 10
82.335880
 20
218.506480
 40
0.775864
 50
16.257399
 51
84.999892
  0
ARC
  8
CSLAYER1
  6
CONTINUOUS
 62
     6
 10
81.901303
 20
219.167567
 40
0.155173
 50
84.999865
 51
179.942691
  0
ARC
  8
CSLAYER1
  6
CONTINUOUS
 62
     6
 10
81.668553
 20
219.375692
 40
0.077586
 50
0.000005
 51
90.000001
  0
LINE
  8
CSLAYER1
  6
CONTINUOUS
 62
     6
 10
81.668553
 20
219.453283
 11
81.280622
 21
219.453283
  0
ARC
  8
CSLAYER1
  6
CONTINUOUS
 62
     6
 10
81.280622
 20
219.375692
 40
0.077586
 50
90.000001
 51
179.942691
  0
LINE
  8
CSLAYER1
  6
CONTINUOUS
 62
     6
 10
81.746121
 20
217.665645
 11
81.203031
 21
217.321268
  0
LINE
  8
CSLAYER1
  6
CONTINUOUS
 62
     6
 10
81.746121
 20
217.277714
 11
81.203031
 21
216.933337
  0
LINE
  8
CSLAYER1
  6
CONTINUOUS
 62
     6
 10
81.203035
 20
214.703295
 11
81.203035
 21
219.703295
  0
LINE
  8
CSLAYER1
  6
CONTINUOUS
 62
     6
 10
81.203035
 20
219.703295
 11
80.703035
 21
219.703295
  0
LINE
  8
CSLAYER1
  6
CONTINUOUS
 62
     6
 10
81.203035
 20
214.703295
 11
80.703035
 21
214.703295
  0
LINE
  8
CSLAYER1
  6
CONTINUOUS
 62
     6
 10
80.703035
 20
219.703295
 11
80.703035
 21
214.703295
  0
LINE
  8
CSLAYER1
  6
CONTINUOUS
 62
     6
 10
81.746121
 20
211.625692
 11
81.746121
 21
207.280875
  0
ARC
  8
CSLAYER1
  6
CONTINUOUS
 62
     6
 10
77.866802
 20
209.453283
 40
5.431046
 50
-16.257006
 51
16.257016
  0
LINE
  8
CSLAYER1
  6
CONTINUOUS
 62
     6
 10
81.914847
 20
207.334421
 11
82.403502
 21
207.377171
  0
ARC
  8
CSLAYER1
  6
CONTINUOUS
 62
     6
 10
82.335880
 20
208.150087
 40
0.775864
 50
275.000111
 51
343.742611
  0
ARC
  8
CSLAYER1
  6
CONTINUOUS
 62
     6
 10
81.901303
 20
207.489000
 40
0.155173
 50
180.000000
 51
275.000152
  0
LINE
  8
CSLAYER1
  6
CONTINUOUS
 62
     6
 10
81.668553
 20
207.203283
 11
81.280622
 21
207.203283
  0
ARC
  8
CSLAYER1
  6
CONTINUOUS
 62
     6
 10
81.668553
 20
207.280875
 40
0.077586
 50
-89.999997
 51
0.000005
  0
ARC
  8
CSLAYER1
  6
CONTINUOUS
 62
     6
 10
81.280622
 20
207.280875
 40
0.077586
 50
180.000000
 51
270.000003
  0
LINE
  8
CSLAYER1
  6
CONTINUOUS
 62
     6
 10
81.914847
 20
211.572146
 11
82.403502
 21
211.529396
  0
ARC
  8
CSLAYER1
  6
CONTINUOUS
 62
     6
 10
82.335880
 20
210.756480
 40
0.775864
 50
16.257399
 51
84.999892
  0
ARC
  8
CSLAYER1
  6
CONTINUOUS
 62
     6
 10
81.901303
 20
211.417567
 40
0.155173
 50
84.999865
 51
179.942691
  0
ARC
  8
CSLAYER1
  6
CONTINUOUS
 62
     6
 10
81.668553
 20
211.625692
 40
0.077586
 50
0.000005
 51
90.000001
  0
LINE
  8
CSLAYER1
  6
CONTINUOUS
 62
     6
 10
81.668553
 20
211.703283
 11
81.280622
 21
211.703283
  0
ARC
  8
CSLAYER1
  6
CONTINUOUS
 62
     6
 10
81.280622
 20
211.625692
 40
0.077586
 50
90.000001
 51
179.942691
  0
LINE
  8
CSLAYER1
  6
CONTINUOUS
 62
     6
 10
81.746121
 20
209.915645
 11
81.203031
 21
209.571268
  0
LINE
  8
CSLAYER1
  6
CONTINUOUS
 62
     6
 10
81.746121
 20
209.527714
 11
81.203031
 21
209.183337
  0
LINE
  8
CSLAYER1
  6
CONTINUOUS
 62
     6
 10
81.203035
 20
206.953295
 11
81.203035
 21
211.953295
  0
LINE
  8
CSLAYER1
  6
CONTINUOUS
 62
     6
 10
81.203035
 20
211.953295
 11
80.703035
 21
211.953295
  0
LINE
  8
CSLAYER1
  6
CONTINUOUS
 62
     6
 10
81.203035
 20
206.953295
 11
80.703035
 21
206.953295
  0
LINE
  8
CSLAYER1
  6
CONTINUOUS
 62
     6
 10
80.703035
 20
211.953295
 11
80.703035
 21
206.953295
  0
LINE
  8
CSLAYER1
  6
CONTINUOUS
 62
     3
 10
172.850136
 20
220.078295
 11
175.203035
 21
217.725396
  0
LINE
  8
CSLAYER1
  6
CONTINUOUS
 62
     3
 10
174.264350
 20
220.078295
 11
175.203035
 21
219.139610
  0
LINE
  8
CSLAYER1
  6
CONTINUOUS
 62
     3
 10
170.203035
 20
238.281746
 11
171.406485
 21
237.078295
  0
LINE
  8
CSLAYER1
  6
CONTINUOUS
 62
     3
 10
170.203035
 20
239.695959
 11
172.820699
 21
237.078295
  0
LINE
  8
CSLAYER1
  6
CONTINUOUS
 62
     3
 10
170.203035
 20
241.110173
 11
174.234913
 21
237.078295
  0
LINE
  8
CSLAYER1
  6
CONTINUOUS
 62
     3
 10
170.203035
 20
242.524386
 11
175.203035
 21
237.524386
  0
LINE
  8
CSLAYER1
  6
CONTINUOUS
 62
     3
 10
170.563340
 20
243.578295
 11
175.203035
 21
238.938600
  0
LINE
  8
CSLAYER1
  6
CONTINUOUS
 62
     3
 10
171.977553
 20
243.578295
 11
175.203035
 21
240.352813
  0
LINE
  8
CSLAYER1
  6
CONTINUOUS
 62
     3
 10
173.391767
 20
243.578295
 11
175.203035
 21
241.767027
  0
LINE
  8
CSLAYER1
  6
CONTINUOUS
 62
     3
 10
174.805980
 20
243.578295
 11
175.203035
 21
243.181240
  0
LINE
  8
CSLAYER1
  6
CONTINUOUS
 62
     3
 10
171.435923
 20
220.078295
 11
175.203035
 21
216.311183
  0
LINE
  8
CSLAYER1
  6
CONTINUOUS
 62
     3
 10
170.203035
 20
219.896969
 11
175.203035
 21
214.896969
  0
LINE
  8
CSLAYER1
  6
CONTINUOUS
 62
     3
 10
170.203035
 20
218.482756
 11
175.107496
 21
213.578295
  0
LINE
  8
CSLAYER1
  6
CONTINUOUS
 62
     3
 10
170.203035
 20
217.068542
 11
173.693282
 21
213.578295
  0
LINE
  8
CSLAYER1
  6
CONTINUOUS
 62
     3
 10
170.203035
 20
215.654329
 11
172.279068
 21
213.578295
  0
LINE
  8
CSLAYER1
  6
CONTINUOUS
 62
     3
 10
170.203035
 20
214.240115
 11
170.864855
 21
213.578295
  0
CIRCLE
  8
CSLAYER1
  6
CONTINUOUS
 62
     6
 10
160.553040
 20
232.703304
 40
2.250000
  0
ARC
  8
CSLAYER1
  6
CONTINUOUS
 62
     6
 10
160.553032
 20
232.703304
 40
1.250000
 50
163.398416
 51
196.601577
  0
ARC
  8
CSLAYER1
  6
CONTINUOUS
 62
     6
 10
160.553032
 20
232.703304
 40
1.250000
 50
253.398422
 51
286.601583
  0
ARC
  8
CSLAYER1
  6
CONTINUOUS
 62
     6
 10
160.553032
 20
232.703304
 40
1.250000
 50
-16.601562
 51
16.601572
  0
ARC
  8
CSLAYER1
  6
CONTINUOUS
 62
     6
 10
160.553032
 20
232.703304
 40
1.250000
 50
73.398406
 51
106.601595
  0
LINE
  8
CSLAYER1
  6
CONTINUOUS
 62
     6
 10
161.267326
 20
232.346157
 11
161.750920
 21
232.346157
  0
LINE
  8
CSLAYER1
  6
CONTINUOUS
 62
     6
 10
159.838737
 20
232.346157
 11
159.355144
 21
232.346157
  0
LINE
  8
CSLAYER1
  6
CONTINUOUS
 62
     6
 10
161.267326
 20
233.060452
 11
161.750920
 21
233.060452
  0
LINE
  8
CSLAYER1
  6
CONTINUOUS
 62
     6
 10
159.838737
 20
233.060452
 11
159.355144
 21
233.060452
  0
LINE
  8
CSLAYER1
  6
CONTINUOUS
 62
     6
 10
160.195885
 20
231.989028
 11
160.195885
 21
231.505398
  0
LINE
  8
CSLAYER1
  6
CONTINUOUS
 62
     6
 10
160.195885
 20
233.417580
 11
160.195885
 21
233.901211
  0
LINE
  8
CSLAYER1
  6
CONTINUOUS
 62
     6
 10
160.910179
 20
231.989028
 11
160.910179
 21
231.505398
  0
LINE
  8
CSLAYER1
  6
CONTINUOUS
 62
     6
 10
160.910179
 20
233.417580
 11
160.910179
 21
233.901211
  0
ARC
  8
CSLAYER1
  6
CONTINUOUS
 62
     6
 10
161.267326
 20
231.989028
 40
0.357143
 50
90.000001
 51
179.942691
  0
ARC
  8
CSLAYER1
  6
CONTINUOUS
 62
     6
 10
161.267326
 20
233.417580
 40
0.357143
 50
180.000010
 51
270.000016
  0
ARC
  8
CSLAYER1
  6
CONTINUOUS
 62
     6
 10
159.838737
 20
233.417580
 40
0.357143
 50
-89.999984
 51
0.000005
  0
ARC
  8
CSLAYER1
  6
CONTINUOUS
 62
     6
 10
159.838737
 20
231.989028
 40
0.357143
 50
0.000005
 51
89.942654
  0
CIRCLE
  8
CSLAYER1
  6
CONTINUOUS
 62
     6
 10
160.553040
 20
224.953304
 40
2.250000
  0
ARC
  8
CSLAYER1
  6
CONTINUOUS
 62
     6
 10
160.553032
 20
224.953304
 40
1.250000
 50
163.398416
 51
196.601577
  0
ARC
  8
CSLAYER1
  6
CONTINUOUS
 62
     6
 10
160.553032
 20
224.953304
 40
1.250000
 50
253.398422
 51
286.601583
  0
ARC
  8
CSLAYER1
  6
CONTINUOUS
 62
     6
 10
160.553032
 20
224.953304
 40
1.250000
 50
-16.601562
 51
16.601572
  0
ARC
  8
CSLAYER1
  6
CONTINUOUS
 62
     6
 10
160.553032
 20
224.953304
 40
1.250000
 50
73.398406
 51
106.601595
  0
LINE
  8
CSLAYER1
  6
CONTINUOUS
 62
     6
 10
161.267326
 20
224.596157
 11
161.750920
 21
224.596157
  0
LINE
  8
CSLAYER1
  6
CONTINUOUS
 62
     6
 10
159.838737
 20
224.596157
 11
159.355144
 21
224.596157
  0
LINE
  8
CSLAYER1
  6
CONTINUOUS
 62
     6
 10
161.267326
 20
225.310452
 11
161.750920
 21
225.310452
  0
LINE
  8
CSLAYER1
  6
CONTINUOUS
 62
     6
 10
159.838737
 20
225.310452
 11
159.355144
 21
225.310452
  0
LINE
  8
CSLAYER1
  6
CONTINUOUS
 62
     6
 10
160.195885
 20
224.239028
 11
160.195885
 21
223.755398
  0
LINE
  8
CSLAYER1
  6
CONTINUOUS
 62
     6
 10
160.195885
 20
225.667580
 11
160.195885
 21
226.151211
  0
LINE
  8
CSLAYER1
  6
CONTINUOUS
 62
     6
 10
160.910179
 20
224.239028
 11
160.910179
 21
223.755398
  0
LINE
  8
CSLAYER1
  6
CONTINUOUS
 62
     6
 10
160.910179
 20
225.667580
 11
160.910179
 21
226.151211
  0
ARC
  8
CSLAYER1
  6
CONTINUOUS
 62
     6
 10
161.267326
 20
224.239028
 40
0.357143
 50
90.000001
 51
179.942691
  0
ARC
  8
CSLAYER1
  6
CONTINUOUS
 62
     6
 10
161.267326
 20
225.667580
 40
0.357143
 50
180.000010
 51
270.000016
  0
ARC
  8
CSLAYER1
  6
CONTINUOUS
 62
     6
 10
159.838737
 20
225.667580
 40
0.357143
 50
-89.999984
 51
0.000005
  0
ARC
  8
CSLAYER1
  6
CONTINUOUS
 62
     6
 10
159.838737
 20
224.239028
 40
0.357143
 50
0.000005
 51
89.942654
  0
CIRCLE
  8
CSLAYER1
  6
CONTINUOUS
 62
     6
 10
160.553040
 20
217.203304
 40
2.250000
  0
ARC
  8
CSLAYER1
  6
CONTINUOUS
 62
     6
 10
160.553032
 20
217.203304
 40
1.250000
 50
163.398416
 51
196.601577
  0
ARC
  8
CSLAYER1
  6
CONTINUOUS
 62
     6
 10
160.553032
 20
217.203304
 40
1.250000
 50
253.398422
 51
286.601583
  0
ARC
  8
CSLAYER1
  6
CONTINUOUS
 62
     6
 10
160.553032
 20
217.203304
 40
1.250000
 50
-16.601562
 51
16.601572
  0
ARC
  8
CSLAYER1
  6
CONTINUOUS
 62
     6
 10
160.553032
 20
217.203304
 40
1.250000
 50
73.398406
 51
106.601595
  0
LINE
  8
CSLAYER1
  6
CONTINUOUS
 62
     6
 10
161.267326
 20
216.846157
 11
161.750920
 21
216.846157
  0
LINE
  8
CSLAYER1
  6
CONTINUOUS
 62
     6
 10
159.838737
 20
216.846157
 11
159.355144
 21
216.846157
  0
LINE
  8
CSLAYER1
  6
CONTINUOUS
 62
     6
 10
161.267326
 20
217.560452
 11
161.750920
 21
217.560452
  0
LINE
  8
CSLAYER1
  6
CONTINUOUS
 62
     6
 10
159.838737
 20
217.560452
 11
159.355144
 21
217.560452
  0
LINE
  8
CSLAYER1
  6
CONTINUOUS
 62
     6
 10
160.195885
 20
216.489028
 11
160.195885
 21
216.005398
  0
LINE
  8
CSLAYER1
  6
CONTINUOUS
 62
     6
 10
160.195885
 20
217.917580
 11
160.195885
 21
218.401211
  0
LINE
  8
CSLAYER1
  6
CONTINUOUS
 62
     6
 10
160.910179
 20
216.489028
 11
160.910179
 21
216.005398
  0
LINE
  8
CSLAYER1
  6
CONTINUOUS
 62
     6
 10
160.910179
 20
217.917580
 11
160.910179
 21
218.401211
  0
ARC
  8
CSLAYER1
  6
CONTINUOUS
 62
     6
 10
161.267326
 20
216.489028
 40
0.357143
 50
90.000001
 51
179.942691
  0
ARC
  8
CSLAYER1
  6
CONTINUOUS
 62
     6
 10
161.267326
 20
217.917580
 40
0.357143
 50
180.000010
 51
270.000016
  0
ARC
  8
CSLAYER1
  6
CONTINUOUS
 62
     6
 10
159.838737
 20
217.917580
 40
0.357143
 50
-89.999984
 51
0.000005
  0
ARC
  8
CSLAYER1
  6
CONTINUOUS
 62
     6
 10
159.838737
 20
216.489028
 40
0.357143
 50
0.000005
 51
89.942654
  0
CIRCLE
  8
CSLAYER1
  6
CONTINUOUS
 62
     6
 10
160.553040
 20
209.453304
 40
2.250000
  0
ARC
  8
CSLAYER1
  6
CONTINUOUS
 62
     6
 10
160.553032
 20
209.453304
 40
1.250000
 50
163.398416
 51
196.601577
  0
ARC
  8
CSLAYER1
  6
CONTINUOUS
 62
     6
 10
160.553032
 20
209.453304
 40
1.250000
 50
253.398422
 51
286.601583
  0
ARC
  8
CSLAYER1
  6
CONTINUOUS
 62
     6
 10
160.553032
 20
209.453304
 40
1.250000
 50
-16.601562
 51
16.601572
  0
ARC
  8
CSLAYER1
  6
CONTINUOUS
 62
     6
 10
160.553032
 20
209.453304
 40
1.250000
 50
73.398406
 51
106.601595
  0
LINE
  8
CSLAYER1
  6
CONTINUOUS
 62
     6
 10
161.267326
 20
209.096157
 11
161.750920
 21
209.096157
  0
LINE
  8
CSLAYER1
  6
CONTINUOUS
 62
     6
 10
159.838737
 20
209.096157
 11
159.355144
 21
209.096157
  0
LINE
  8
CSLAYER1
  6
CONTINUOUS
 62
     6
 10
161.267326
 20
209.810452
 11
161.750920
 21
209.810452
  0
LINE
  8
CSLAYER1
  6
CONTINUOUS
 62
     6
 10
159.838737
 20
209.810452
 11
159.355144
 21
209.810452
  0
LINE
  8
CSLAYER1
  6
CONTINUOUS
 62
     6
 10
160.195885
 20
208.739028
 11
160.195885
 21
208.255398
  0
LINE
  8
CSLAYER1
  6
CONTINUOUS
 62
     6
 10
160.195885
 20
210.167580
 11
160.195885
 21
210.651211
  0
LINE
  8
CSLAYER1
  6
CONTINUOUS
 62
     6
 10
160.910179
 20
208.739028
 11
160.910179
 21
208.255398
  0
LINE
  8
CSLAYER1
  6
CONTINUOUS
 62
     6
 10
160.910179
 20
210.167580
 11
160.910179
 21
210.651211
  0
ARC
  8
CSLAYER1
  6
CONTINUOUS
 62
     6
 10
161.267326
 20
208.739028
 40
0.357143
 50
90.000001
 51
179.942691
  0
ARC
  8
CSLAYER1
  6
CONTINUOUS
 62
     6
 10
161.267326
 20
210.167580
 40
0.357143
 50
180.000010
 51
270.000016
  0
ARC
  8
CSLAYER1
  6
CONTINUOUS
 62
     6
 10
159.838737
 20
210.167580
 40
0.357143
 50
-89.999984
 51
0.000005
  0
ARC
  8
CSLAYER1
  6
CONTINUOUS
 62
     6
 10
159.838737
 20
208.739028
 40
0.357143
 50
0.000005
 51
89.942654
  0
LINE
  8
CSLAYER1
  6
CONTINUOUS
 62
     6
 10
167.453035
 20
169.078295
 11
167.453035
 21
162.328295
  0
LINE
  8
CSLAYER1
  6
CONTINUOUS
 62
     6
 10
160.953035
 20
169.078295
 11
160.953035
 21
162.328295
  0
LINE
  8
CSLAYER1
  6
CONTINUOUS
 62
     6
 10
160.953035
 20
169.078295
 11
167.453035
 21
169.078295
  0
LINE
  8
CSLAYER1
  6
CONTINUOUS
 62
     6
 10
160.953035
 20
162.328295
 11
167.453035
 21
162.328295
  0
LINE
  8
CSLAYER1
  6
CONTINUOUS
 62
     6
 10
178.953035
 20
176.328295
 11
178.953035
 21
169.578295
  0
LINE
  8
CSLAYER1
  6
CONTINUOUS
 62
     6
 10
172.453035
 20
176.328295
 11
172.453035
 21
169.578295
  0
LINE
  8
CSLAYER1
  6
CONTINUOUS
 62
     6
 10
172.453035
 20
176.328295
 11
178.953035
 21
176.328295
  0
LINE
  8
CSLAYER1
  6
CONTINUOUS
 62
     6
 10
172.453035
 20
169.578295
 11
178.953035
 21
169.578295
  0
LINE
  8
CSLAYER1
  6
CONTINUOUS
 62
     3
 10
172.703035
 20
234.578295
 11
172.777973
 21
234.428295
  0
LINE
  8
CSLAYER1
  6
CONTINUOUS
 62
     3
 10
172.777973
 20
234.428295
 11
172.852535
 21
234.278295
  0
LINE
  8
CSLAYER1
  6
CONTINUOUS
 62
     3
 10
172.852535
 20
234.278295
 11
172.926348
 21
234.128295
  0
LINE
  8
CSLAYER1
  6
CONTINUOUS
 62
     3
 10
172.926348
 20
234.128295
 11
172.999035
 21
233.978295
  0
LINE
  8
CSLAYER1
  6
CONTINUOUS
 62
     3
 10
172.999035
 20
233.978295
 11
173.070223
 21
233.828295
  0
LINE
  8
CSLAYER1
  6
CONTINUOUS
 62
     3
 10
173.070223
 20
233.828295
 11
173.139535
 21
233.678295
  0
LINE
  8
CSLAYER1
  6
CONTINUOUS
 62
     3
 10
173.139535
 20
233.678295
 11
173.206598
 21
233.528295
  0
LINE
  8
CSLAYER1
  6
CONTINUOUS
 62
     3
 10
173.206598
 20
233.528295
 11
173.271035
 21
233.378295
  0
LINE
  8
CSLAYER1
  6
CONTINUOUS
 62
     3
 10
173.271035
 20
233.378295
 11
173.332473
 21
233.228295
  0
LINE
  8
CSLAYER1
  6
CONTINUOUS
 62
     3
 10
173.332473
 20
233.228295
 11
173.390535
 21
233.078295
  0
LINE
  8
CSLAYER1
  6
CONTINUOUS
 62
     3
 10
173.390535
 20
233.078295
 11
173.444848
 21
232.928295
  0
LINE
  8
CSLAYER1
  6
CONTINUOUS
 62
     3
 10
173.444848
 20
232.928295
 11
173.495035
 21
232.778295
  0
LINE
  8
CSLAYER1
  6
CONTINUOUS
 62
     3
 10
173.495035
 20
232.778295
 11
173.540723
 21
232.628295
  0
LINE
  8
CSLAYER1
  6
CONTINUOUS
 62
     3
 10
173.540723
 20
232.628295
 11
173.581535
 21
232.478295
  0
LINE
  8
CSLAYER1
  6
CONTINUOUS
 62
     3
 10
173.581535
 20
232.478295
 11
173.617098
 21
232.328295
  0
LINE
  8
CSLAYER1
  6
CONTINUOUS
 62
     3
 10
173.617098
 20
232.328295
 11
173.647035
 21
232.178295
  0
LINE
  8
CSLAYER1
  6
CONTINUOUS
 62
     3
 10
173.647035
 20
232.178295
 11
173.670973
 21
232.028295
  0
LINE
  8
CSLAYER1
  6
CONTINUOUS
 62
     3
 10
173.670973
 20
232.028295
 11
173.688535
 21
231.878295
  0
LINE
  8
CSLAYER1
  6
CONTINUOUS
 62
     3
 10
173.688535
 20
231.878295
 11
173.699348
 21
231.728295
  0
LINE
  8
CSLAYER1
  6
CONTINUOUS
 62
     3
 10
173.699348
 20
231.728295
 11
173.703035
 21
231.578295
  0
LINE
  8
CSLAYER1
  6
CONTINUOUS
 62
     3
 10
173.703035
 20
231.578295
 11
173.699348
 21
231.428295
  0
LINE
  8
CSLAYER1
  6
CONTINUOUS
 62
     3
 10
173.699348
 20
231.428295
 11
173.688535
 21
231.278295
  0
LINE
  8
CSLAYER1
  6
CONTINUOUS
 62
     3
 10
173.688535
 20
231.278295
 11
173.670973
 21
231.128295
  0
LINE
  8
CSLAYER1
  6
CONTINUOUS
 62
     3
 10
173.670973
 20
231.128295
 11
173.647035
 21
230.978295
  0
LINE
  8
CSLAYER1
  6
CONTINUOUS
 62
     3
 10
173.647035
 20
230.978295
 11
173.617098
 21
230.828295
  0
LINE
  8
CSLAYER1
  6
CONTINUOUS
 62
     3
 10
173.617098
 20
230.828295
 11
173.581535
 21
230.678295
  0
LINE
  8
CSLAYER1
  6
CONTINUOUS
 62
     3
 10
173.581535
 20
230.678295
 11
173.540723
 21
230.528295
  0
LINE
  8
CSLAYER1
  6
CONTINUOUS
 62
     3
 10
173.540723
 20
230.528295
 11
173.495035
 21
230.378295
  0
LINE
  8
CSLAYER1
  6
CONTINUOUS
 62
     3
 10
173.495035
 20
230.378295
 11
173.444848
 21
230.228295
  0
LINE
  8
CSLAYER1
  6
CONTINUOUS
 62
     3
 10
173.444848
 20
230.228295
 11
173.390535
 21
230.078295
  0
LINE
  8
CSLAYER1
  6
CONTINUOUS
 62
     3
 10
173.390535
 20
230.078295
 11
173.332473
 21
229.928295
  0
LINE
  8
CSLAYER1
  6
CONTINUOUS
 62
     3
 10
173.332473
 20
229.928295
 11
173.271035
 21
229.778295
  0
LINE
  8
CSLAYER1
  6
CONTINUOUS
 62
     3
 10
173.271035
 20
229.778295
 11
173.206598
 21
229.628295
  0
LINE
  8
CSLAYER1
  6
CONTINUOUS
 62
     3
 10
173.206598
 20
229.628295
 11
173.139535
 21
229.478295
  0
LINE
  8
CSLAYER1
  6
CONTINUOUS
 62
     3
 10
173.139535
 20
229.478295
 11
173.070223
 21
229.328295
  0
LINE
  8
CSLAYER1
  6
CONTINUOUS
 62
     3
 10
173.070223
 20
229.328295
 11
172.999035
 21
229.178295
  0
LINE
  8
CSLAYER1
  6
CONTINUOUS
 62
     3
 10
172.999035
 20
229.178295
 11
172.926348
 21
229.028295
  0
LINE
  8
CSLAYER1
  6
CONTINUOUS
 62
     3
 10
172.926348
 20
229.028295
 11
172.852535
 21
228.878295
  0
LINE
  8
CSLAYER1
  6
CONTINUOUS
 62
     3
 10
172.852535
 20
228.878295
 11
172.777973
 21
228.728295
  0
LINE
  8
CSLAYER1
  6
CONTINUOUS
 62
     3
 10
172.777973
 20
228.728295
 11
172.703035
 21
228.578295
  0
LINE
  8
CSLAYER1
  6
CONTINUOUS
 62
     3
 10
172.703035
 20
222.578295
 11
172.628098
 21
222.728295
  0
LINE
  8
CSLAYER1
  6
CONTINUOUS
 62
     3
 10
172.628098
 20
222.728295
 11
172.553535
 21
222.878295
  0
LINE
  8
CSLAYER1
  6
CONTINUOUS
 62
     3
 10
172.553535
 20
222.878295
 11
172.479723
 21
223.028295
  0
LINE
  8
CSLAYER1
  6
CONTINUOUS
 62
     3
 10
172.479723
 20
223.028295
 11
172.407035
 21
223.178295
  0
LINE
  8
CSLAYER1
  6
CONTINUOUS
 62
     3
 10
172.407035
 20
223.178295
 11
172.335848
 21
223.328295
  0
LINE
  8
CSLAYER1
  6
CONTINUOUS
 62
     3
 10
172.335848
 20
223.328295
 11
172.266535
 21
223.478295
  0
LINE
  8
CSLAYER1
  6
CONTINUOUS
 62
     3
 10
172.266535
 20
223.478295
 11
172.199473
 21
223.628295
  0
LINE
  8
CSLAYER1
  6
CONTINUOUS
 62
     3
 10
172.199473
 20
223.628295
 11
172.135035
 21
223.778295
  0
LINE
  8
CSLAYER1
  6
CONTINUOUS
 62
     3
 10
172.135035
 20
223.778295
 11
172.073598
 21
223.928295
  0
LINE
  8
CSLAYER1
  6
CONTINUOUS
 62
     3
 10
172.073598
 20
223.928295
 11
172.015535
 21
224.078295
  0
LINE
  8
CSLAYER1
  6
CONTINUOUS
 62
     3
 10
172.015535
 20
224.078295
 11
171.961223
 21
224.228295
  0
LINE
  8
CSLAYER1
  6
CONTINUOUS
 62
     3
 10
171.961223
 20
224.228295
 11
171.911035
 21
224.378295
  0
LINE
  8
CSLAYER1
  6
CONTINUOUS
 62
     3
 10
171.911035
 20
224.378295
 11
171.865348
 21
224.528295
  0
LINE
  8
CSLAYER1
  6
CONTINUOUS
 62
     3
 10
171.865348
 20
224.528295
 11
171.824535
 21
224.678295
  0
LINE
  8
CSLAYER1
  6
CONTINUOUS
 62
     3
 10
171.824535
 20
224.678295
 11
171.788973
 21
224.828295
  0
LINE
  8
CSLAYER1
  6
CONTINUOUS
 62
     3
 10
171.788973
 20
224.828295
 11
171.759035
 21
224.978295
  0
LINE
  8
CSLAYER1
  6
CONTINUOUS
 62
     3
 10
171.759035
 20
224.978295
 11
171.735098
 21
225.128295
  0
LINE
  8
CSLAYER1
  6
CONTINUOUS
 62
     3
 10
171.735098
 20
225.128295
 11
171.717535
 21
225.278295
  0
LINE
  8
CSLAYER1
  6
CONTINUOUS
 62
     3
 10
171.717535
 20
225.278295
 11
171.706723
 21
225.428295
  0
LINE
  8
CSLAYER1
  6
CONTINUOUS
 62
     3
 10
171.706723
 20
225.428295
 11
171.703035
 21
225.578295
  0
LINE
  8
CSLAYER1
  6
CONTINUOUS
 62
     3
 10
171.703035
 20
225.578295
 11
171.706723
 21
225.728295
  0
LINE
  8
CSLAYER1
  6
CONTINUOUS
 62
     3
 10
171.706723
 20
225.728295
 11
171.717535
 21
225.878295
  0
LINE
  8
CSLAYER1
  6
CONTINUOUS
 62
     3
 10
171.717535
 20
225.878295
 11
171.735098
 21
226.028295
  0
LINE
  8
CSLAYER1
  6
CONTINUOUS
 62
     3
 10
171.735098
 20
226.028295
 11
171.759035
 21
226.178295
  0
LINE
  8
CSLAYER1
  6
CONTINUOUS
 62
     3
 10
171.759035
 20
226.178295
 11
171.788973
 21
226.328295
  0
LINE
  8
CSLAYER1
  6
CONTINUOUS
 62
     3
 10
171.788973
 20
226.328295
 11
171.824535
 21
226.478295
  0
LINE
  8
CSLAYER1
  6
CONTINUOUS
 62
     3
 10
171.824535
 20
226.478295
 11
171.865348
 21
226.628295
  0
LINE
  8
CSLAYER1
  6
CONTINUOUS
 62
     3
 10
171.865348
 20
226.628295
 11
171.911035
 21
226.778295
  0
LINE
  8
CSLAYER1
  6
CONTINUOUS
 62
     3
 10
171.911035
 20
226.778295
 11
171.961223
 21
226.928295
  0
LINE
  8
CSLAYER1
  6
CONTINUOUS
 62
     3
 10
171.961223
 20
226.928295
 11
172.015535
 21
227.078295
  0
LINE
  8
CSLAYER1
  6
CONTINUOUS
 62
     3
 10
172.015535
 20
227.078295
 11
172.073598
 21
227.228295
  0
LINE
  8
CSLAYER1
  6
CONTINUOUS
 62
     3
 10
172.073598
 20
227.228295
 11
172.135035
 21
227.378295
  0
LINE
  8
CSLAYER1
  6
CONTINUOUS
 62
     3
 10
172.135035
 20
227.378295
 11
172.199473
 21
227.528295
  0
LINE
  8
CSLAYER1
  6
CONTINUOUS
 62
     3
 10
172.199473
 20
227.528295
 11
172.266535
 21
227.678295
  0
LINE
  8
CSLAYER1
  6
CONTINUOUS
 62
     3
 10
172.266535
 20
227.678295
 11
172.335848
 21
227.828295
  0
LINE
  8
CSLAYER1
  6
CONTINUOUS
 62
     3
 10
172.335848
 20
227.828295
 11
172.407035
 21
227.978295
  0
LINE
  8
CSLAYER1
  6
CONTINUOUS
 62
     3
 10
172.407035
 20
227.978295
 11
172.479723
 21
228.128295
  0
LINE
  8
CSLAYER1
  6
CONTINUOUS
 62
     3
 10
172.479723
 20
228.128295
 11
172.553535
 21
228.278295
  0
LINE
  8
CSLAYER1
  6
CONTINUOUS
 62
     3
 10
172.553535
 20
228.278295
 11
172.628098
 21
228.428295
  0
LINE
  8
CSLAYER1
  6
CONTINUOUS
 62
     3
 10
172.628098
 20
228.428295
 11
172.703035
 21
228.578295
  0
LINE
  8
CSLAYER1
  6
CENTER
 62
     3
 10
301.803035
 20
137.828302
 11
301.803035
 21
147.828302
  0
LINE
  8
CSLAYER1
  6
CENTER
 62
     3
 10
325.203035
 20
137.828302
 11
325.203035
 21
147.828302
  0
LINE
  8
CSLAYER1
  6
CENTER
 62
     3
 10
186.803035
 20
137.828302
 11
186.803035
 21
147.828302
  0
LINE
  8
CSLAYER1
  6
CENTER
 62
     3
 10
145.203035
 20
137.828302
 11
145.203035
 21
147.828302
  0
ENDSEC
  0
EOF
