  0
SECTION
  2
HEADER
  9
$ACADVER
  1
AC1006
  9
$INSBASE
 10
0.000000
 20
0.000000
 30
0.0
  9
$EXTMIN
 10
0.000000
 20
0.000000
  9
$EXTMAX
 10
420.000000
 20
297.000000
  9
$LIMMIN
 10
0.000000
 20
0.000000
  9
$LIMMAX
 10
420.000000
 20
297.000000
  9
$VIEWCTR
 10
210.000000
 20
148.500000
  9
$VIEWSIZE
 40
297.000000
  9
$SNAPMODE
 70
     0
  9
$SNAPUNIT
 10
1.0
 20
1.0
  9
$SNAPBASE
 10
0.0
 20
0.0
  9
$SNAPANG
 50
0.0
  9
$SNAPSTYLE
 70
     0
  9
$SNAPISOPAIR
 70
     0
  9
$GRIDMODE
 70
     0
  9
$GRIDUNIT
 10
0.0
 20
0.0
  9
$ORTHOMODE
 70
     0
  9
$REGENMODE
 70
     1
  9
$FILLMODE
 70
     1
  9
$QTEXTMODE
 70
     0
  9
$DRAGMODE
 70
     2
  9
$LTSCALE
 40
15.000000
  9
$OSMODE
 70
     0
  9
$ATTMODE
 70
     1
  9
$TEXTSIZE
 40
0.2
  9
$TRACEWID
 40
0.05
  9
$TEXTSTYLE
  7
STANDARD
  9
$CLAYER
  8
CSLAYER1
  9
$CELTYPE
  6
BYLAYER
  9
$CECOLOR
 62
   256
  9
$DIMSCALE
 40
1.0
  9
$DIMASZ
 40
0.18
  9
$DIMEXO
 40
0.0625
  9
$DIMDLI
 40
0.38
  9
$DIMRND
 40
0.0
  9
$DIMDLE
 40
0.0
  9
$DIMEXE
 40
0.18
  9
$DIMTP
 40
0.0
  9
$DIMTM
 40
0.0
  9
$DIMTXT
 40
0.18
  9
$DIMCEN
 40
0.09
  9
$DIMTSZ
 40
0.0
  9
$DIMTOL
 70
     0
  9
$DIMLIM
 70
     0
  9
$DIMTIH
 70
     1
  9
$DIMTOH
 70
     1
  9
$DIMSE1
 70
     0
  9
$DIMSE2
 70
     0
  9
$DIMTAD
 70
     0
  9
$DIMZIN
 70
     0
  9
$DIMBLK
  1

  9
$LUNITS
 70
     2
  9
$LUPREC
 70
     4
  9
$AXISMODE
 70
     0
  9
$AXISUNIT
 10
0.0
 20
0.0
  9
$SKETCHINC
 40
0.1
  9
$FILLETRAD
 40
0.0
  9
$AUNITS
 70
     0
  9
$AUPREC
 70
     0
  9
$MENU
  1
ACAD
  9
$ELEVATION
 40
0.0
  9
$THICKNESS
 40
0.0
  9
$VIEWDIR
 10
0.0
 20
0.0
 30
1.0
  9
$LIMCHECK
 70
     0
  9
$BLIPMODE
 70
     1
  9
$CHAMFERA
 40
0.0
  9
$CHAMFERB
 40
0.0
  9
$FASTZOOM
 70
     1
  9
$SKPOLY
 70
     0
  9
$TDCREATE
 40
2454217.000000
  9
$TDUPDATE
 40
2454223.000000
  9
$TDINDWG
 40
0.0
  9
$TDUSRTIMER
 40
0.0
  9
$USRTIMER
 70
     1
  9
$ANGBASE
 50
0.0
  9
$ANGDIR
 70
     0
  9
$PDMODE
 70
     0
  9
$PDSIZE
 40
0.0
  9
$PLINEWID
 40
0.0
  9
$COORDS
 70
     0
  9
$USERI1
 70
     0
  9
$USERI2
 70
     0
  9
$USERI3
 70
     0
  9
$USERI4
 70
     0
  9
$USERI5
 70
     0
  9
$USERR1
 40
0.0
  9
$USERR2
 40
0.0
  9
$USERR3
 40
0.0
  9
$USERR4
 40
0.0
  9
$USERR5
 40
0.0
  0
ENDSEC
  0
SECTION
  2
TABLES
  0
TABLE
  2
LTYPE
 70
     9
  0
LTYPE
  2
CONTINUOUS
 70
    64
  3
Solid line
 72
    65
 73
     0
 40
0.0
  0
LTYPE
  2
DASHED
 70
    64
  3
__ __ __ __ __ __ __ __ __ __ __ __ __ __ __
 72
    65
 73
     2
 40
0.75
 49
0.5
 49
-0.25
  0
LTYPE
  2
HIDDEN
 70
    64
  3
_ _ _ _ _ _ _ _ _ _ _ _ _ _ _ _ _ _ _ _ _ _ _
 72
    65
 73
     2
 40
0.375
 49
0.25
 49
-0.125
  0
LTYPE
  2
DOT
 70
    64
  3
...............................................
 72
    65
 73
     2
 40
0.25
 49
0.0
 49
-0.25
  0
LTYPE
  2
DASHDOT
 70
    64
  3
__ . __ . __ . __ . __ . __ . __ . __ . __ . __
 72
    65
 73
     4
 40
1.0
 49
0.5
 49
-0.25
 49
0.0
 49
-0.25
  0
LTYPE
  2
DIVIDE
 70
    64
  3
__ . . __ . . __ . . __ . . __ . . __ . . __
 72
    65
 73
     6
 40
1.25
 49
0.5
 49
-0.25
 49
0.0
 49
-0.25
 49
0.0
 49
-0.25
  0
LTYPE
  2
CENTER
 70
    64
  3
____ _ ____ _ ____ _ ____ _ ____ _ ____ _ ____ 
 72
    65
 73
     4
 40
2.0
 49
1.25
 49
-0.25
 49
0.25
 49
-0.25
  0
LTYPE
  2
PHANTOM
 70
    64
  3
______  __  __  ______  __  __  ______  __  __ 
 72
    65
 73
     6
 40
2.5
 49
1.25
 49
-0.25
 49
0.25
 49
-0.25
 49
0.25
 49
-0.25
  0
LTYPE
  2
BORDER
 70
    64
  3
__ __ . __ __ . __ __ . __ __ . __ __ . __ __ .
 72
    65
 73
     6
 40
1.75
 49
0.5
 49
-0.25
 49
0.5
 49
-0.25
 49
0.0
 49
-0.25
  0
ENDTAB
  0
TABLE
  2
LAYER
 70
    16
  0
LAYER
  2
CSLAYER1
 70
    64
 62
     7
  6
CONTINUOUS
  0
LAYER
  2
CSLAYER2
 70
    64
 62
     7
  6
CONTINUOUS
  0
LAYER
  2
CSLAYER3
 70
    64
 62
     7
  6
CONTINUOUS
  0
LAYER
  2
CSLAYER4
 70
    64
 62
     7
  6
CONTINUOUS
  0
LAYER
  2
CSLAYER5
 70
    64
 62
     7
  6
CONTINUOUS
  0
LAYER
  2
CSLAYER6
 70
    64
 62
     7
  6
CONTINUOUS
  0
LAYER
  2
CSLAYER7
 70
    64
 62
     7
  6
CONTINUOUS
  0
LAYER
  2
CSLAYER8
 70
    64
 62
     7
  6
CONTINUOUS
  0
LAYER
  2
CSLAYER9
 70
    64
 62
     7
  6
CONTINUOUS
  0
LAYER
  2
CSLAYER10
 70
    64
 62
     7
  6
CONTINUOUS
  0
LAYER
  2
CSLAYER11
 70
    64
 62
     7
  6
CONTINUOUS
  0
LAYER
  2
CSLAYER12
 70
    64
 62
     7
  6
CONTINUOUS
  0
LAYER
  2
CSLAYER13
 70
    64
 62
     7
  6
CONTINUOUS
  0
LAYER
  2
CSLAYER14
 70
    64
 62
     7
  6
CONTINUOUS
  0
LAYER
  2
CSLAYER15
 70
    64
 62
     7
  6
CONTINUOUS
  0
LAYER
  2
CSLAYER16
 70
    64
 62
     7
  6
CONTINUOUS
  0
ENDTAB
  0
TABLE
  2
STYLE
 70
     1
  0
STYLE
  2
FX_FONT
 70
     0
 40
1.0
 41
1.0
 50
0.0
 71
     0
 42
1.0
  3
monotxt
  4
bigfont
  0
ENDTAB
  0
TABLE
  2
VIEW
 70
     0
  0
ENDTAB
  0
ENDSEC
  0
SECTION
  2
BLOCKS
  0
ENDSEC
  0
SECTION
  2
ENTITIES
  0
TEXT
  8
CSLAYER1
 62
     3
 10
354.089539
 20
35.476463
 40
4.000000
 41
0.902344
  1
ＭＳ-300□1001
 50
0.000000
 51
10.000000
  7
FX_FONT
 72
     5
 11
392.589539
 21
35.476463
  0
TEXT
  8
CSLAYER1
 62
     4
 10
354.089539
 20
29.476463
 40
3.500000
 41
1.071429
  1
尺度1：1
 50
0.000000
 51
10.000000
  7
FX_FONT
 72
     5
 11
371.589539
 21
29.476463
  0
TEXT
  8
CSLAYER1
 62
     3
 10
354.089539
 20
41.476463
 40
4.000000
 41
1.038462
  1
ＤＣモータドライバ
 50
0.000000
 51
10.000000
  7
FX_FONT
 72
     5
 11
390.089539
 21
41.476463
  0
LINE
  8
CSLAYER17
  6
CENTER
 62
     3
 10
304.329193
 20
217.135482
 11
292.329193
 21
217.135482
  0
LINE
  8
CSLAYER17
  6
CENTER
 62
     3
 10
304.329193
 20
152.135482
 11
292.329193
 21
152.135482
  0
LINE
  8
CSLAYER17
  6
CENTER
 62
     3
 10
168.329193
 20
223.135482
 11
168.329193
 21
211.135482
  0
LINE
  8
CSLAYER17
  6
CENTER
 62
     3
 10
298.329193
 20
223.135482
 11
298.329193
 21
211.135482
  0
LINE
  8
CSLAYER17
  6
CENTER
 62
     3
 10
298.329193
 20
158.135482
 11
298.329193
 21
146.135482
  0
LINE
  8
CSLAYER17
  6
CENTER
 62
     3
 10
168.329193
 20
158.135482
 11
168.329193
 21
146.135482
  0
LINE
  8
CSLAYER17
  6
CENTER
 62
     3
 10
174.329193
 20
152.135482
 11
162.329193
 21
152.135482
  0
LINE
  8
CSLAYER17
  6
CENTER
 62
     3
 10
174.329193
 20
217.135482
 11
162.329193
 21
217.135482
  0
LINE
  8
CSLAYER17
  6
CONTINUOUS
 62
     6
 10
128.329193
 20
142.135482
 11
85.329193
 21
142.135482
  0
LINE
  8
CSLAYER17
  6
CONTINUOUS
 62
     6
 10
128.329193
 20
144.135482
 11
128.329193
 21
142.135482
  0
LINE
  8
CSLAYER17
  6
CENTER
 62
     3
 10
98.924006
 20
152.135482
 11
78.829193
 21
152.135482
  0
LINE
  8
CSLAYER17
  6
CENTER
 62
     3
 10
98.924006
 20
217.135482
 11
78.829193
 21
217.135482
  0
LINE
  8
CSLAYER17
  6
CONTINUOUS
 62
     6
 10
92.329193
 20
222.135482
 11
92.329193
 21
147.135482
  0
LINE
  8
CSLAYER17
  6
CONTINUOUS
 62
     6
 10
93.829193
 20
222.135482
 11
93.829193
 21
147.135482
  0
LINE
  8
CSLAYER17
  6
CONTINUOUS
 62
     6
 10
92.329193
 20
147.135482
 11
123.829193
 21
147.135482
  0
LINE
  8
CSLAYER17
  6
CONTINUOUS
 62
     6
 10
92.329193
 20
222.135482
 11
93.829193
 21
222.135482
  0
LINE
  8
CSLAYER17
  6
CONTINUOUS
 62
     6
 10
123.829193
 20
168.135482
 11
123.829193
 21
147.135482
  0
LINE
  8
CSLAYER17
  6
CONTINUOUS
 62
     6
 10
102.829193
 20
168.135482
 11
123.829193
 21
168.135482
  0
TEXT
  8
CSLAYER1
 62
     3
 10
299.229187
 20
187.835510
 40
2.200000
 41
0.920455
  1
VR5
 50
270.000000
 51
0.000000
  7
FX_FONT
 72
     5
 11
299.229187
 21
182.435510
  0
TEXT
  8
CSLAYER1
 62
     3
 10
278.229187
 20
180.335510
 40
2.200000
 41
0.920455
  1
VR3
 50
270.000000
 51
0.000000
  7
FX_FONT
 72
     5
 11
278.229187
 21
174.935510
  0
TEXT
  8
CSLAYER1
 62
     3
 10
299.229187
 20
195.835510
 40
2.200000
 41
0.920455
  1
VR2
 50
270.000000
 51
0.000000
  7
FX_FONT
 72
     5
 11
299.229187
 21
190.435510
  0
TEXT
  8
CSLAYER1
 62
     3
 10
299.229187
 20
180.335510
 40
2.200000
 41
0.920455
  1
VR4
 50
270.000000
 51
0.000000
  7
FX_FONT
 72
     5
 11
299.229187
 21
174.935510
  0
TEXT
  8
CSLAYER1
 62
     3
 10
275.229187
 20
179.435486
 40
2.200000
 41
0.981818
  1
GA
 50
270.000000
 51
0.000000
  7
FX_FONT
 72
     5
 11
275.229187
 21
175.835486
  0
LINE
  8
CSLAYER1
  6
CONTINUOUS
 62
     3
 10
275.079193
 20
179.760482
 11
275.079193
 21
175.510482
  0
LINE
  8
CSLAYER1
  6
CONTINUOUS
 62
     3
 10
277.579193
 20
179.760482
 11
277.579193
 21
175.510482
  0
LINE
  8
CSLAYER1
  6
CONTINUOUS
 62
     3
 10
277.579193
 20
179.760482
 11
275.079193
 21
179.760482
  0
LINE
  8
CSLAYER1
  6
CONTINUOUS
 62
     3
 10
277.579193
 20
175.510482
 11
275.079193
 21
175.510482
  0
TEXT
  8
CSLAYER1
 62
     3
 10
296.229187
 20
187.835510
 40
2.200000
 41
0.920455
  1
OFS
 50
270.000000
 51
0.000000
  7
FX_FONT
 72
     5
 11
296.229187
 21
182.435510
  0
LINE
  8
CSLAYER1
  6
CONTINUOUS
 62
     3
 10
296.079193
 20
188.010482
 11
296.079193
 21
182.260482
  0
LINE
  8
CSLAYER1
  6
CONTINUOUS
 62
     3
 10
298.579193
 20
188.010482
 11
298.579193
 21
182.260482
  0
LINE
  8
CSLAYER1
  6
CONTINUOUS
 62
     3
 10
298.579193
 20
188.010482
 11
296.079193
 21
188.010482
  0
LINE
  8
CSLAYER1
  6
CONTINUOUS
 62
     3
 10
298.579193
 20
182.260482
 11
296.079193
 21
182.260482
  0
TEXT
  8
CSLAYER1
 62
     3
 10
296.229187
 20
195.835510
 40
2.200000
 41
0.920455
  1
SPD
 50
270.000000
 51
0.000000
  7
FX_FONT
 72
     5
 11
296.229187
 21
190.435510
  0
LINE
  8
CSLAYER1
  6
CONTINUOUS
 62
     3
 10
296.079193
 20
196.010482
 11
296.079193
 21
190.260482
  0
LINE
  8
CSLAYER1
  6
CONTINUOUS
 62
     3
 10
298.579193
 20
196.010482
 11
298.579193
 21
190.260482
  0
LINE
  8
CSLAYER1
  6
CONTINUOUS
 62
     3
 10
298.579193
 20
196.010482
 11
296.079193
 21
196.010482
  0
LINE
  8
CSLAYER1
  6
CONTINUOUS
 62
     3
 10
298.579193
 20
190.260482
 11
296.079193
 21
190.260482
  0
TEXT
  8
CSLAYER1
 62
     3
 10
296.229187
 20
179.435486
 40
2.200000
 41
0.981818
  1
PH
 50
270.000000
 51
0.000000
  7
FX_FONT
 72
     5
 11
296.229187
 21
175.835486
  0
LINE
  8
CSLAYER1
  6
CONTINUOUS
 62
     3
 10
296.079193
 20
179.760482
 11
296.079193
 21
175.510482
  0
LINE
  8
CSLAYER1
  6
CONTINUOUS
 62
     3
 10
298.579193
 20
179.760482
 11
298.579193
 21
175.510482
  0
LINE
  8
CSLAYER1
  6
CONTINUOUS
 62
     3
 10
298.579193
 20
179.760482
 11
296.079193
 21
179.760482
  0
LINE
  8
CSLAYER1
  6
CONTINUOUS
 62
     3
 10
298.579193
 20
175.510482
 11
296.079193
 21
175.510482
  0
CIRCLE
  8
CSLAYER1
  6
CONTINUOUS
 62
     3
 10
291.829193
 20
177.635482
 40
1.650000
  0
LINE
  8
CSLAYER1
  6
CONTINUOUS
 62
     3
 10
291.499193
 20
176.315482
 11
291.499193
 21
177.305482
  0
LINE
  8
CSLAYER1
  6
CONTINUOUS
 62
     3
 10
292.159193
 20
176.315482
 11
292.159193
 21
177.305482
  0
LINE
  8
CSLAYER1
  6
CONTINUOUS
 62
     3
 10
293.149193
 20
177.305482
 11
292.159193
 21
177.305482
  0
LINE
  8
CSLAYER1
  6
CONTINUOUS
 62
     3
 10
293.149193
 20
177.965482
 11
292.159193
 21
177.965482
  0
LINE
  8
CSLAYER1
  6
CONTINUOUS
 62
     3
 10
293.149193
 20
177.305482
 11
293.149193
 21
177.965482
  0
LINE
  8
CSLAYER1
  6
CONTINUOUS
 62
     3
 10
291.499193
 20
176.315482
 11
292.159193
 21
176.315482
  0
LINE
  8
CSLAYER1
  6
CONTINUOUS
 62
     3
 10
292.159193
 20
178.955482
 11
291.499193
 21
178.955482
  0
LINE
  8
CSLAYER1
  6
CONTINUOUS
 62
     3
 10
290.905193
 20
176.949590
 11
290.905193
 21
177.305482
  0
LINE
  8
CSLAYER1
  6
CONTINUOUS
 62
     3
 10
290.905193
 20
176.949590
 11
290.509193
 21
177.635482
  0
LINE
  8
CSLAYER1
  6
CONTINUOUS
 62
     3
 10
290.905193
 20
178.321374
 11
290.509193
 21
177.635482
  0
LINE
  8
CSLAYER1
  6
CONTINUOUS
 62
     3
 10
290.905193
 20
177.965482
 11
290.905193
 21
178.321374
  0
LINE
  8
CSLAYER1
  6
CONTINUOUS
 62
     3
 10
291.499193
 20
177.965482
 11
291.499193
 21
178.955482
  0
LINE
  8
CSLAYER1
  6
CONTINUOUS
 62
     3
 10
292.159193
 20
177.965482
 11
292.159193
 21
178.955482
  0
LINE
  8
CSLAYER1
  6
CONTINUOUS
 62
     3
 10
291.499193
 20
177.305482
 11
290.905193
 21
177.305482
  0
LINE
  8
CSLAYER1
  6
CONTINUOUS
 62
     3
 10
291.499193
 20
177.965482
 11
290.905193
 21
177.965482
  0
CIRCLE
  8
CSLAYER1
  6
CONTINUOUS
 62
     3
 10
291.829193
 20
185.135482
 40
1.650000
  0
LINE
  8
CSLAYER1
  6
CONTINUOUS
 62
     3
 10
291.499193
 20
183.815482
 11
291.499193
 21
184.805482
  0
LINE
  8
CSLAYER1
  6
CONTINUOUS
 62
     3
 10
292.159193
 20
183.815482
 11
292.159193
 21
184.805482
  0
LINE
  8
CSLAYER1
  6
CONTINUOUS
 62
     3
 10
293.149193
 20
184.805482
 11
292.159193
 21
184.805482
  0
LINE
  8
CSLAYER1
  6
CONTINUOUS
 62
     3
 10
293.149193
 20
185.465482
 11
292.159193
 21
185.465482
  0
LINE
  8
CSLAYER1
  6
CONTINUOUS
 62
     3
 10
293.149193
 20
184.805482
 11
293.149193
 21
185.465482
  0
LINE
  8
CSLAYER1
  6
CONTINUOUS
 62
     3
 10
291.499193
 20
183.815482
 11
292.159193
 21
183.815482
  0
LINE
  8
CSLAYER1
  6
CONTINUOUS
 62
     3
 10
292.159193
 20
186.455482
 11
291.499193
 21
186.455482
  0
LINE
  8
CSLAYER1
  6
CONTINUOUS
 62
     3
 10
290.905193
 20
184.449590
 11
290.905193
 21
184.805482
  0
LINE
  8
CSLAYER1
  6
CONTINUOUS
 62
     3
 10
290.905193
 20
184.449590
 11
290.509193
 21
185.135482
  0
LINE
  8
CSLAYER1
  6
CONTINUOUS
 62
     3
 10
290.905193
 20
185.821374
 11
290.509193
 21
185.135482
  0
LINE
  8
CSLAYER1
  6
CONTINUOUS
 62
     3
 10
290.905193
 20
185.465482
 11
290.905193
 21
185.821374
  0
LINE
  8
CSLAYER1
  6
CONTINUOUS
 62
     3
 10
291.499193
 20
185.465482
 11
291.499193
 21
186.455482
  0
LINE
  8
CSLAYER1
  6
CONTINUOUS
 62
     3
 10
292.159193
 20
185.465482
 11
292.159193
 21
186.455482
  0
LINE
  8
CSLAYER1
  6
CONTINUOUS
 62
     3
 10
291.499193
 20
184.805482
 11
290.905193
 21
184.805482
  0
LINE
  8
CSLAYER1
  6
CONTINUOUS
 62
     3
 10
291.499193
 20
185.465482
 11
290.905193
 21
185.465482
  0
CIRCLE
  8
CSLAYER1
  6
CONTINUOUS
 62
     3
 10
284.329193
 20
177.635482
 40
1.650000
  0
LINE
  8
CSLAYER1
  6
CONTINUOUS
 62
     3
 10
283.999193
 20
176.315482
 11
283.999193
 21
177.305482
  0
LINE
  8
CSLAYER1
  6
CONTINUOUS
 62
     3
 10
284.659193
 20
176.315482
 11
284.659193
 21
177.305482
  0
LINE
  8
CSLAYER1
  6
CONTINUOUS
 62
     3
 10
285.649193
 20
177.305482
 11
284.659193
 21
177.305482
  0
LINE
  8
CSLAYER1
  6
CONTINUOUS
 62
     3
 10
285.649193
 20
177.965482
 11
284.659193
 21
177.965482
  0
LINE
  8
CSLAYER1
  6
CONTINUOUS
 62
     3
 10
285.649193
 20
177.305482
 11
285.649193
 21
177.965482
  0
LINE
  8
CSLAYER1
  6
CONTINUOUS
 62
     3
 10
283.999193
 20
176.315482
 11
284.659193
 21
176.315482
  0
LINE
  8
CSLAYER1
  6
CONTINUOUS
 62
     3
 10
284.659193
 20
178.955482
 11
283.999193
 21
178.955482
  0
LINE
  8
CSLAYER1
  6
CONTINUOUS
 62
     3
 10
283.405193
 20
176.949590
 11
283.405193
 21
177.305482
  0
LINE
  8
CSLAYER1
  6
CONTINUOUS
 62
     3
 10
283.405193
 20
176.949590
 11
283.009193
 21
177.635482
  0
LINE
  8
CSLAYER1
  6
CONTINUOUS
 62
     3
 10
283.405193
 20
178.321374
 11
283.009193
 21
177.635482
  0
LINE
  8
CSLAYER1
  6
CONTINUOUS
 62
     3
 10
283.405193
 20
177.965482
 11
283.405193
 21
178.321374
  0
LINE
  8
CSLAYER1
  6
CONTINUOUS
 62
     3
 10
283.999193
 20
177.965482
 11
283.999193
 21
178.955482
  0
LINE
  8
CSLAYER1
  6
CONTINUOUS
 62
     3
 10
284.659193
 20
177.965482
 11
284.659193
 21
178.955482
  0
LINE
  8
CSLAYER1
  6
CONTINUOUS
 62
     3
 10
283.999193
 20
177.305482
 11
283.405193
 21
177.305482
  0
LINE
  8
CSLAYER1
  6
CONTINUOUS
 62
     3
 10
283.999193
 20
177.965482
 11
283.405193
 21
177.965482
  0
CIRCLE
  8
CSLAYER1
  6
CONTINUOUS
 62
     3
 10
291.829193
 20
193.135482
 40
1.650000
  0
LINE
  8
CSLAYER1
  6
CONTINUOUS
 62
     6
 10
290.097142
 20
192.135482
 11
289.664130
 21
191.885482
  0
LINE
  8
CSLAYER1
  6
CONTINUOUS
 62
     3
 10
293.149193
 20
192.805482
 11
292.159193
 21
192.805482
  0
LINE
  8
CSLAYER1
  6
CONTINUOUS
 62
     3
 10
293.149193
 20
193.465482
 11
292.159193
 21
193.465482
  0
LINE
  8
CSLAYER1
  6
CONTINUOUS
 62
     3
 10
292.159193
 20
194.455482
 11
292.159193
 21
193.465482
  0
LINE
  8
CSLAYER1
  6
CONTINUOUS
 62
     3
 10
291.499193
 20
194.455482
 11
291.499193
 21
193.465482
  0
LINE
  8
CSLAYER1
  6
CONTINUOUS
 62
     3
 10
292.159193
 20
194.455482
 11
291.499193
 21
194.455482
  0
LINE
  8
CSLAYER1
  6
CONTINUOUS
 62
     3
 10
293.149193
 20
192.805482
 11
293.149193
 21
193.465482
  0
LINE
  8
CSLAYER1
  6
CONTINUOUS
 62
     3
 10
290.509193
 20
193.465482
 11
290.509193
 21
192.805482
  0
LINE
  8
CSLAYER1
  6
CONTINUOUS
 62
     3
 10
292.515085
 20
192.211482
 11
292.159193
 21
192.211482
  0
LINE
  8
CSLAYER1
  6
CONTINUOUS
 62
     3
 10
292.515085
 20
192.211482
 11
291.829193
 21
191.815482
  0
LINE
  8
CSLAYER1
  6
CONTINUOUS
 62
     3
 10
291.143301
 20
192.211482
 11
291.829193
 21
191.815482
  0
LINE
  8
CSLAYER1
  6
CONTINUOUS
 62
     3
 10
291.499193
 20
192.211482
 11
291.143301
 21
192.211482
  0
LINE
  8
CSLAYER1
  6
CONTINUOUS
 62
     3
 10
291.499193
 20
192.805482
 11
290.509193
 21
192.805482
  0
LINE
  8
CSLAYER1
  6
CONTINUOUS
 62
     3
 10
291.499193
 20
193.465482
 11
290.509193
 21
193.465482
  0
LINE
  8
CSLAYER1
  6
CONTINUOUS
 62
     3
 10
292.159193
 20
192.805482
 11
292.159193
 21
192.211482
  0
LINE
  8
CSLAYER1
  6
CONTINUOUS
 62
     3
 10
291.499193
 20
192.805482
 11
291.499193
 21
192.211482
  0
LINE
  8
CSLAYER1
  6
CONTINUOUS
 62
     3
 10
185.427260
 20
199.218809
 11
186.995860
 21
197.650209
  0
LINE
  8
CSLAYER1
  6
CONTINUOUS
 62
     3
 10
186.370070
 20
199.218809
 11
186.995860
 21
198.593018
  0
LINE
  8
CSLAYER1
  6
CONTINUOUS
 62
     3
 10
183.662526
 20
211.354442
 11
184.464827
 21
210.552142
  0
LINE
  8
CSLAYER1
  6
CONTINUOUS
 62
     3
 10
183.662526
 20
212.297251
 11
185.407636
 21
210.552142
  0
LINE
  8
CSLAYER1
  6
CONTINUOUS
 62
     3
 10
183.662526
 20
213.240060
 11
186.350445
 21
210.552142
  0
LINE
  8
CSLAYER1
  6
CONTINUOUS
 62
     3
 10
183.662526
 20
214.182869
 11
186.995860
 21
210.849536
  0
LINE
  8
CSLAYER1
  6
CONTINUOUS
 62
     3
 10
183.902729
 20
214.885475
 11
186.995860
 21
211.792345
  0
LINE
  8
CSLAYER1
  6
CONTINUOUS
 62
     3
 10
184.845538
 20
214.885475
 11
186.995860
 21
212.735154
  0
LINE
  8
CSLAYER1
  6
CONTINUOUS
 62
     3
 10
185.788348
 20
214.885475
 11
186.995860
 21
213.677963
  0
LINE
  8
CSLAYER1
  6
CONTINUOUS
 62
     3
 10
186.731157
 20
214.885475
 11
186.995860
 21
214.620772
  0
LINE
  8
CSLAYER1
  6
CONTINUOUS
 62
     3
 10
184.484451
 20
199.218809
 11
186.995860
 21
196.707400
  0
LINE
  8
CSLAYER1
  6
CONTINUOUS
 62
     3
 10
183.662526
 20
199.097924
 11
186.995860
 21
195.764591
  0
LINE
  8
CSLAYER1
  6
CONTINUOUS
 62
     3
 10
183.662526
 20
198.155115
 11
186.932167
 21
194.885475
  0
LINE
  8
CSLAYER1
  6
CONTINUOUS
 62
     3
 10
183.662526
 20
197.212306
 11
185.989358
 21
194.885475
  0
LINE
  8
CSLAYER1
  6
CONTINUOUS
 62
     3
 10
183.662526
 20
196.269497
 11
185.046549
 21
194.885475
  0
LINE
  8
CSLAYER1
  6
CONTINUOUS
 62
     3
 10
183.662526
 20
195.326688
 11
184.103740
 21
194.885475
  0
LINE
  8
CSLAYER1
  6
CONTINUOUS
 62
     3
 10
185.329193
 20
208.885475
 11
185.379151
 21
208.785475
  0
LINE
  8
CSLAYER1
  6
CONTINUOUS
 62
     3
 10
185.379151
 20
208.785475
 11
185.428860
 21
208.685475
  0
LINE
  8
CSLAYER1
  6
CONTINUOUS
 62
     3
 10
185.428860
 20
208.685475
 11
185.478068
 21
208.585475
  0
LINE
  8
CSLAYER1
  6
CONTINUOUS
 62
     3
 10
185.478068
 20
208.585475
 11
185.526526
 21
208.485475
  0
LINE
  8
CSLAYER1
  6
CONTINUOUS
 62
     3
 10
185.526526
 20
208.485475
 11
185.573985
 21
208.385475
  0
LINE
  8
CSLAYER1
  6
CONTINUOUS
 62
     3
 10
185.573985
 20
208.385475
 11
185.620193
 21
208.285475
  0
LINE
  8
CSLAYER1
  6
CONTINUOUS
 62
     3
 10
185.620193
 20
208.285475
 11
185.664901
 21
208.185475
  0
LINE
  8
CSLAYER1
  6
CONTINUOUS
 62
     3
 10
185.664901
 20
208.185475
 11
185.707860
 21
208.085475
  0
LINE
  8
CSLAYER1
  6
CONTINUOUS
 62
     3
 10
185.707860
 20
208.085475
 11
185.748818
 21
207.985475
  0
LINE
  8
CSLAYER1
  6
CONTINUOUS
 62
     3
 10
185.748818
 20
207.985475
 11
185.787526
 21
207.885475
  0
LINE
  8
CSLAYER1
  6
CONTINUOUS
 62
     3
 10
185.787526
 20
207.885475
 11
185.823735
 21
207.785475
  0
LINE
  8
CSLAYER1
  6
CONTINUOUS
 62
     3
 10
185.823735
 20
207.785475
 11
185.857193
 21
207.685475
  0
LINE
  8
CSLAYER1
  6
CONTINUOUS
 62
     3
 10
185.857193
 20
207.685475
 11
185.887651
 21
207.585475
  0
LINE
  8
CSLAYER1
  6
CONTINUOUS
 62
     3
 10
185.887651
 20
207.585475
 11
185.914860
 21
207.485475
  0
LINE
  8
CSLAYER1
  6
CONTINUOUS
 62
     3
 10
185.914860
 20
207.485475
 11
185.938568
 21
207.385475
  0
LINE
  8
CSLAYER1
  6
CONTINUOUS
 62
     3
 10
185.938568
 20
207.385475
 11
185.958526
 21
207.285475
  0
LINE
  8
CSLAYER1
  6
CONTINUOUS
 62
     3
 10
185.958526
 20
207.285475
 11
185.974485
 21
207.185475
  0
LINE
  8
CSLAYER1
  6
CONTINUOUS
 62
     3
 10
185.974485
 20
207.185475
 11
185.986193
 21
207.085475
  0
LINE
  8
CSLAYER1
  6
CONTINUOUS
 62
     3
 10
185.986193
 20
207.085475
 11
185.993401
 21
206.985475
  0
LINE
  8
CSLAYER1
  6
CONTINUOUS
 62
     3
 10
185.993401
 20
206.985475
 11
185.995860
 21
206.885475
  0
LINE
  8
CSLAYER1
  6
CONTINUOUS
 62
     3
 10
185.995860
 20
206.885475
 11
185.993401
 21
206.785475
  0
LINE
  8
CSLAYER1
  6
CONTINUOUS
 62
     3
 10
185.993401
 20
206.785475
 11
185.986193
 21
206.685475
  0
LINE
  8
CSLAYER1
  6
CONTINUOUS
 62
     3
 10
185.986193
 20
206.685475
 11
185.974485
 21
206.585475
  0
LINE
  8
CSLAYER1
  6
CONTINUOUS
 62
     3
 10
185.974485
 20
206.585475
 11
185.958526
 21
206.485475
  0
LINE
  8
CSLAYER1
  6
CONTINUOUS
 62
     3
 10
185.958526
 20
206.485475
 11
185.938568
 21
206.385475
  0
LINE
  8
CSLAYER1
  6
CONTINUOUS
 62
     3
 10
185.938568
 20
206.385475
 11
185.914860
 21
206.285475
  0
LINE
  8
CSLAYER1
  6
CONTINUOUS
 62
     3
 10
185.914860
 20
206.285475
 11
185.887651
 21
206.185475
  0
LINE
  8
CSLAYER1
  6
CONTINUOUS
 62
     3
 10
185.887651
 20
206.185475
 11
185.857193
 21
206.085475
  0
LINE
  8
CSLAYER1
  6
CONTINUOUS
 62
     3
 10
185.857193
 20
206.085475
 11
185.823735
 21
205.985475
  0
LINE
  8
CSLAYER1
  6
CONTINUOUS
 62
     3
 10
185.823735
 20
205.985475
 11
185.787526
 21
205.885475
  0
LINE
  8
CSLAYER1
  6
CONTINUOUS
 62
     3
 10
185.787526
 20
205.885475
 11
185.748818
 21
205.785475
  0
LINE
  8
CSLAYER1
  6
CONTINUOUS
 62
     3
 10
185.748818
 20
205.785475
 11
185.707860
 21
205.685475
  0
LINE
  8
CSLAYER1
  6
CONTINUOUS
 62
     3
 10
185.707860
 20
205.685475
 11
185.664901
 21
205.585475
  0
LINE
  8
CSLAYER1
  6
CONTINUOUS
 62
     3
 10
185.664901
 20
205.585475
 11
185.620193
 21
205.485475
  0
LINE
  8
CSLAYER1
  6
CONTINUOUS
 62
     3
 10
185.620193
 20
205.485475
 11
185.573985
 21
205.385475
  0
LINE
  8
CSLAYER1
  6
CONTINUOUS
 62
     3
 10
185.573985
 20
205.385475
 11
185.526526
 21
205.285475
  0
LINE
  8
CSLAYER1
  6
CONTINUOUS
 62
     3
 10
185.526526
 20
205.285475
 11
185.478068
 21
205.185475
  0
LINE
  8
CSLAYER1
  6
CONTINUOUS
 62
     3
 10
185.478068
 20
205.185475
 11
185.428860
 21
205.085475
  0
LINE
  8
CSLAYER1
  6
CONTINUOUS
 62
     3
 10
185.428860
 20
205.085475
 11
185.379151
 21
204.985475
  0
LINE
  8
CSLAYER1
  6
CONTINUOUS
 62
     3
 10
185.379151
 20
204.985475
 11
185.329193
 21
204.885475
  0
LINE
  8
CSLAYER1
  6
CONTINUOUS
 62
     3
 10
185.329193
 20
200.885475
 11
185.279235
 21
200.985475
  0
LINE
  8
CSLAYER1
  6
CONTINUOUS
 62
     3
 10
185.279235
 20
200.985475
 11
185.229526
 21
201.085475
  0
LINE
  8
CSLAYER1
  6
CONTINUOUS
 62
     3
 10
185.229526
 20
201.085475
 11
185.180318
 21
201.185475
  0
LINE
  8
CSLAYER1
  6
CONTINUOUS
 62
     3
 10
185.180318
 20
201.185475
 11
185.131860
 21
201.285475
  0
LINE
  8
CSLAYER1
  6
CONTINUOUS
 62
     3
 10
185.131860
 20
201.285475
 11
185.084401
 21
201.385475
  0
LINE
  8
CSLAYER1
  6
CONTINUOUS
 62
     3
 10
185.084401
 20
201.385475
 11
185.038193
 21
201.485475
  0
LINE
  8
CSLAYER1
  6
CONTINUOUS
 62
     3
 10
185.038193
 20
201.485475
 11
184.993485
 21
201.585475
  0
LINE
  8
CSLAYER1
  6
CONTINUOUS
 62
     3
 10
184.993485
 20
201.585475
 11
184.950526
 21
201.685475
  0
LINE
  8
CSLAYER1
  6
CONTINUOUS
 62
     3
 10
184.950526
 20
201.685475
 11
184.909568
 21
201.785475
  0
LINE
  8
CSLAYER1
  6
CONTINUOUS
 62
     3
 10
184.909568
 20
201.785475
 11
184.870860
 21
201.885475
  0
LINE
  8
CSLAYER1
  6
CONTINUOUS
 62
     3
 10
184.870860
 20
201.885475
 11
184.834651
 21
201.985475
  0
LINE
  8
CSLAYER1
  6
CONTINUOUS
 62
     3
 10
184.834651
 20
201.985475
 11
184.801193
 21
202.085475
  0
LINE
  8
CSLAYER1
  6
CONTINUOUS
 62
     3
 10
184.801193
 20
202.085475
 11
184.770735
 21
202.185475
  0
LINE
  8
CSLAYER1
  6
CONTINUOUS
 62
     3
 10
184.770735
 20
202.185475
 11
184.743526
 21
202.285475
  0
LINE
  8
CSLAYER1
  6
CONTINUOUS
 62
     3
 10
184.743526
 20
202.285475
 11
184.719818
 21
202.385475
  0
LINE
  8
CSLAYER1
  6
CONTINUOUS
 62
     3
 10
184.719818
 20
202.385475
 11
184.699860
 21
202.485475
  0
LINE
  8
CSLAYER1
  6
CONTINUOUS
 62
     3
 10
184.699860
 20
202.485475
 11
184.683901
 21
202.585475
  0
LINE
  8
CSLAYER1
  6
CONTINUOUS
 62
     3
 10
184.683901
 20
202.585475
 11
184.672193
 21
202.685475
  0
LINE
  8
CSLAYER1
  6
CONTINUOUS
 62
     3
 10
184.672193
 20
202.685475
 11
184.664985
 21
202.785475
  0
LINE
  8
CSLAYER1
  6
CONTINUOUS
 62
     3
 10
184.664985
 20
202.785475
 11
184.662526
 21
202.885475
  0
LINE
  8
CSLAYER1
  6
CONTINUOUS
 62
     3
 10
184.662526
 20
202.885475
 11
184.664985
 21
202.985475
  0
LINE
  8
CSLAYER1
  6
CONTINUOUS
 62
     3
 10
184.664985
 20
202.985475
 11
184.672193
 21
203.085475
  0
LINE
  8
CSLAYER1
  6
CONTINUOUS
 62
     3
 10
184.672193
 20
203.085475
 11
184.683901
 21
203.185475
  0
LINE
  8
CSLAYER1
  6
CONTINUOUS
 62
     3
 10
184.683901
 20
203.185475
 11
184.699860
 21
203.285475
  0
LINE
  8
CSLAYER1
  6
CONTINUOUS
 62
     3
 10
184.699860
 20
203.285475
 11
184.719818
 21
203.385475
  0
LINE
  8
CSLAYER1
  6
CONTINUOUS
 62
     3
 10
184.719818
 20
203.385475
 11
184.743526
 21
203.485475
  0
LINE
  8
CSLAYER1
  6
CONTINUOUS
 62
     3
 10
184.743526
 20
203.485475
 11
184.770735
 21
203.585475
  0
LINE
  8
CSLAYER1
  6
CONTINUOUS
 62
     3
 10
184.770735
 20
203.585475
 11
184.801193
 21
203.685475
  0
LINE
  8
CSLAYER1
  6
CONTINUOUS
 62
     3
 10
184.801193
 20
203.685475
 11
184.834651
 21
203.785475
  0
LINE
  8
CSLAYER1
  6
CONTINUOUS
 62
     3
 10
184.834651
 20
203.785475
 11
184.870860
 21
203.885475
  0
LINE
  8
CSLAYER1
  6
CONTINUOUS
 62
     3
 10
184.870860
 20
203.885475
 11
184.909568
 21
203.985475
  0
LINE
  8
CSLAYER1
  6
CONTINUOUS
 62
     3
 10
184.909568
 20
203.985475
 11
184.950526
 21
204.085475
  0
LINE
  8
CSLAYER1
  6
CONTINUOUS
 62
     3
 10
184.950526
 20
204.085475
 11
184.993485
 21
204.185475
  0
LINE
  8
CSLAYER1
  6
CONTINUOUS
 62
     3
 10
184.993485
 20
204.185475
 11
185.038193
 21
204.285475
  0
LINE
  8
CSLAYER1
  6
CONTINUOUS
 62
     3
 10
185.038193
 20
204.285475
 11
185.084401
 21
204.385475
  0
LINE
  8
CSLAYER1
  6
CONTINUOUS
 62
     3
 10
185.084401
 20
204.385475
 11
185.131860
 21
204.485475
  0
LINE
  8
CSLAYER1
  6
CONTINUOUS
 62
     3
 10
185.131860
 20
204.485475
 11
185.180318
 21
204.585475
  0
LINE
  8
CSLAYER1
  6
CONTINUOUS
 62
     3
 10
185.180318
 20
204.585475
 11
185.229526
 21
204.685475
  0
LINE
  8
CSLAYER1
  6
CONTINUOUS
 62
     3
 10
185.229526
 20
204.685475
 11
185.279235
 21
204.785475
  0
LINE
  8
CSLAYER1
  6
CONTINUOUS
 62
     3
 10
185.279235
 20
204.785475
 11
185.329193
 21
204.885475
  0
TEXT
  8
CSLAYER1
 62
     3
 10
189.979172
 20
164.510468
 40
2.200000
 41
0.920455
  1
VR1
 50
270.000000
 51
0.000000
  7
FX_FONT
 72
     5
 11
189.979172
 21
159.110468
  0
CIRCLE
  8
CSLAYER1
  6
CONTINUOUS
 62
     3
 10
187.579193
 20
167.885475
 40
1.650000
  0
LINE
  8
CSLAYER1
  6
CONTINUOUS
 62
     3
 10
187.249193
 20
166.565475
 11
187.249193
 21
167.555475
  0
LINE
  8
CSLAYER1
  6
CONTINUOUS
 62
     3
 10
187.909193
 20
166.565475
 11
187.909193
 21
167.555475
  0
LINE
  8
CSLAYER1
  6
CONTINUOUS
 62
     3
 10
188.899193
 20
167.555475
 11
187.909193
 21
167.555475
  0
LINE
  8
CSLAYER1
  6
CONTINUOUS
 62
     3
 10
188.899193
 20
168.215475
 11
187.909193
 21
168.215475
  0
LINE
  8
CSLAYER1
  6
CONTINUOUS
 62
     3
 10
188.899193
 20
167.555475
 11
188.899193
 21
168.215475
  0
LINE
  8
CSLAYER1
  6
CONTINUOUS
 62
     3
 10
187.249193
 20
166.565475
 11
187.909193
 21
166.565475
  0
LINE
  8
CSLAYER1
  6
CONTINUOUS
 62
     3
 10
187.909193
 20
169.205475
 11
187.249193
 21
169.205475
  0
LINE
  8
CSLAYER1
  6
CONTINUOUS
 62
     3
 10
186.655193
 20
167.199583
 11
186.655193
 21
167.555475
  0
LINE
  8
CSLAYER1
  6
CONTINUOUS
 62
     3
 10
186.655193
 20
167.199583
 11
186.259193
 21
167.885475
  0
LINE
  8
CSLAYER1
  6
CONTINUOUS
 62
     3
 10
186.655193
 20
168.571367
 11
186.259193
 21
167.885475
  0
LINE
  8
CSLAYER1
  6
CONTINUOUS
 62
     3
 10
186.655193
 20
168.215475
 11
186.655193
 21
168.571367
  0
LINE
  8
CSLAYER1
  6
CONTINUOUS
 62
     3
 10
187.249193
 20
168.215475
 11
187.249193
 21
169.205475
  0
LINE
  8
CSLAYER1
  6
CONTINUOUS
 62
     3
 10
187.909193
 20
168.215475
 11
187.909193
 21
169.205475
  0
LINE
  8
CSLAYER1
  6
CONTINUOUS
 62
     3
 10
187.249193
 20
167.555475
 11
186.655193
 21
167.555475
  0
LINE
  8
CSLAYER1
  6
CONTINUOUS
 62
     3
 10
187.249193
 20
168.215475
 11
186.655193
 21
168.215475
  0
TEXT
  8
CSLAYER1
 62
     3
 10
186.672485
 20
192.806168
 40
2.200000
 41
0.920455
  1
VR6
 50
270.000000
 51
0.000000
  7
FX_FONT
 72
     5
 11
186.672485
 21
187.406168
  0
TEXT
  8
CSLAYER1
 62
     3
 10
183.672485
 20
191.906143
 40
2.200000
 41
0.981818
  1
CL
 50
270.000000
 51
0.000000
  7
FX_FONT
 72
     5
 11
183.672485
 21
188.306143
  0
LINE
  8
CSLAYER1
  6
CONTINUOUS
 62
     3
 10
183.522508
 20
192.231132
 11
183.522508
 21
187.981132
  0
LINE
  8
CSLAYER1
  6
CONTINUOUS
 62
     3
 10
186.022508
 20
192.231132
 11
186.022508
 21
187.981132
  0
LINE
  8
CSLAYER1
  6
CONTINUOUS
 62
     3
 10
186.022508
 20
192.231132
 11
183.522508
 21
192.231132
  0
LINE
  8
CSLAYER1
  6
CONTINUOUS
 62
     3
 10
186.022508
 20
187.981132
 11
183.522508
 21
187.981132
  0
CIRCLE
  8
CSLAYER1
  6
CONTINUOUS
 62
     3
 10
192.772508
 20
190.106132
 40
1.650000
  0
LINE
  8
CSLAYER1
  6
CONTINUOUS
 62
     3
 10
192.442508
 20
188.786132
 11
192.442508
 21
189.776132
  0
LINE
  8
CSLAYER1
  6
CONTINUOUS
 62
     3
 10
193.102508
 20
188.786132
 11
193.102508
 21
189.776132
  0
LINE
  8
CSLAYER1
  6
CONTINUOUS
 62
     3
 10
194.092508
 20
189.776132
 11
193.102508
 21
189.776132
  0
LINE
  8
CSLAYER1
  6
CONTINUOUS
 62
     3
 10
194.092508
 20
190.436132
 11
193.102508
 21
190.436132
  0
LINE
  8
CSLAYER1
  6
CONTINUOUS
 62
     3
 10
194.092508
 20
189.776132
 11
194.092508
 21
190.436132
  0
LINE
  8
CSLAYER1
  6
CONTINUOUS
 62
     3
 10
192.442508
 20
188.786132
 11
193.102508
 21
188.786132
  0
LINE
  8
CSLAYER1
  6
CONTINUOUS
 62
     3
 10
193.102508
 20
191.426132
 11
192.442508
 21
191.426132
  0
LINE
  8
CSLAYER1
  6
CONTINUOUS
 62
     3
 10
191.848508
 20
189.420240
 11
191.848508
 21
189.776132
  0
LINE
  8
CSLAYER1
  6
CONTINUOUS
 62
     3
 10
191.848508
 20
189.420240
 11
191.452508
 21
190.106132
  0
LINE
  8
CSLAYER1
  6
CONTINUOUS
 62
     3
 10
191.848508
 20
190.792024
 11
191.452508
 21
190.106132
  0
LINE
  8
CSLAYER1
  6
CONTINUOUS
 62
     3
 10
191.848508
 20
190.436132
 11
191.848508
 21
190.792024
  0
LINE
  8
CSLAYER1
  6
CONTINUOUS
 62
     3
 10
192.442508
 20
190.436132
 11
192.442508
 21
191.426132
  0
LINE
  8
CSLAYER1
  6
CONTINUOUS
 62
     3
 10
193.102508
 20
190.436132
 11
193.102508
 21
191.426132
  0
LINE
  8
CSLAYER1
  6
CONTINUOUS
 62
     3
 10
192.442508
 20
189.776132
 11
191.848508
 21
189.776132
  0
LINE
  8
CSLAYER1
  6
CONTINUOUS
 62
     3
 10
192.442508
 20
190.436132
 11
191.848508
 21
190.436132
  0
TEXT
  8
CSLAYER1
 62
     3
 10
189.979187
 20
158.585495
 40
2.200000
 41
0.920455
  1
ACC
 50
270.000000
 51
0.000000
  7
FX_FONT
 72
     5
 11
189.979187
 21
153.185495
  0
LINE
  8
CSLAYER1
  6
CONTINUOUS
 62
     3
 10
189.829193
 20
158.760475
 11
189.829193
 21
153.010475
  0
LINE
  8
CSLAYER1
  6
CONTINUOUS
 62
     3
 10
192.329193
 20
158.760475
 11
192.329193
 21
153.010475
  0
LINE
  8
CSLAYER1
  6
CONTINUOUS
 62
     3
 10
192.329193
 20
158.760475
 11
189.829193
 21
158.760475
  0
LINE
  8
CSLAYER1
  6
CONTINUOUS
 62
     3
 10
192.329193
 20
153.010475
 11
189.829193
 21
153.010475
  0
TEXT
  8
CSLAYER1
 62
     3
 10
177.213211
 20
161.160461
 40
2.200000
 41
0.920455
  1
SW2
 50
0.000000
 51
0.000000
  7
FX_FONT
 72
     5
 11
182.613211
 21
161.160461
  0
LINE
  8
CSLAYER1
  6
CONTINUOUS
 62
     3
 10
177.038225
 20
161.010475
 11
182.788225
 21
161.010475
  0
LINE
  8
CSLAYER1
  6
CONTINUOUS
 62
     3
 10
177.079193
 20
163.510475
 11
182.829193
 21
163.510475
  0
LINE
  8
CSLAYER1
  6
CONTINUOUS
 62
     3
 10
177.038225
 20
163.510475
 11
177.038225
 21
161.010475
  0
LINE
  8
CSLAYER1
  6
CONTINUOUS
 62
     3
 10
182.788225
 20
163.510475
 11
182.788225
 21
161.010475
  0
TEXT
  8
CSLAYER1
 62
     3
 10
177.213211
 20
149.160461
 40
2.200000
 41
0.920455
  1
SW1
 50
0.000000
 51
0.000000
  7
FX_FONT
 72
     5
 11
182.613211
 21
149.160461
  0
LINE
  8
CSLAYER1
  6
CONTINUOUS
 62
     3
 10
177.038225
 20
149.010475
 11
182.788225
 21
149.010475
  0
LINE
  8
CSLAYER1
  6
CONTINUOUS
 62
     3
 10
177.079193
 20
151.510475
 11
182.829193
 21
151.510475
  0
LINE
  8
CSLAYER1
  6
CONTINUOUS
 62
     3
 10
177.038225
 20
151.510475
 11
177.038225
 21
149.010475
  0
LINE
  8
CSLAYER1
  6
CONTINUOUS
 62
     3
 10
182.788225
 20
151.510475
 11
182.788225
 21
149.010475
  0
LINE
  8
CSLAYER1
  6
CONTINUOUS
 62
     6
 10
118.329193
 20
172.760475
 11
102.829193
 21
172.760475
  0
LINE
  8
CSLAYER1
  6
CONTINUOUS
 62
     6
 10
118.329193
 20
185.760475
 11
106.424006
 21
185.760475
  0
LINE
  8
CSLAYER1
  6
CONTINUOUS
 62
     6
 10
119.329193
 20
184.760475
 11
119.329193
 21
173.760475
  0
LINE
  8
CSLAYER1
  6
CONTINUOUS
 62
     6
 10
123.329193
 20
181.631802
 11
119.329193
 21
181.631802
  0
LINE
  8
CSLAYER1
  6
CONTINUOUS
 62
     6
 10
123.329193
 20
207.631802
 11
121.329193
 21
207.631802
  0
LINE
  8
CSLAYER1
  6
CONTINUOUS
 62
     6
 10
124.329193
 20
206.631802
 11
124.329193
 21
182.631802
  0
ARC
  8
CSLAYER1
  6
CONTINUOUS
 62
     6
 10
123.329193
 20
206.631802
 40
1.000000
 50
0.000000
 51
90.000000
  0
ARC
  8
CSLAYER1
  6
CONTINUOUS
 62
     6
 10
123.329193
 20
182.631802
 40
1.000000
 50
270.000000
 51
360.000000
  0
LINE
  8
CSLAYER1
  6
CONTINUOUS
 62
     6
 10
118.329193
 20
185.760475
 11
119.329193
 21
184.760475
  0
LINE
  8
CSLAYER1
  6
CONTINUOUS
 62
     6
 10
119.329193
 20
173.760475
 11
118.329193
 21
172.760475
  0
LINE
  8
CSLAYER1
  6
CONTINUOUS
 62
     6
 10
121.329193
 20
191.025659
 11
104.329193
 21
191.025659
  0
LINE
  8
CSLAYER1
  6
CONTINUOUS
 62
     6
 10
121.329193
 20
220.025659
 11
93.829193
 21
220.025659
  0
LINE
  8
CSLAYER1
  6
CONTINUOUS
 62
     6
 10
115.829193
 20
196.525659
 11
103.829193
 21
196.525659
  0
LINE
  8
CSLAYER1
  6
CONTINUOUS
 62
     6
 10
115.829193
 20
214.525659
 11
93.829193
 21
214.525659
  0
LINE
  8
CSLAYER1
  6
CONTINUOUS
 62
     6
 10
121.329193
 20
220.025659
 11
121.329193
 21
191.025659
  0
LINE
  8
CSLAYER1
  6
CONTINUOUS
 62
     6
 10
115.829193
 20
214.525659
 11
115.829193
 21
196.525659
  0
LINE
  8
CSLAYER1
  6
CONTINUOUS
 62
     3
 10
121.329193
 20
220.025659
 11
115.829193
 21
214.525659
  0
LINE
  8
CSLAYER1
  6
CONTINUOUS
 62
     3
 10
121.329193
 20
191.025659
 11
115.829193
 21
196.525659
  0
LINE
  8
CSLAYER1
  6
CONTINUOUS
 62
     6
 10
160.329193
 20
97.135482
 11
306.329193
 21
97.135482
  0
LINE
  8
CSLAYER1
  6
CONTINUOUS
 62
     6
 10
308.329193
 20
95.135482
 11
308.329193
 21
52.135482
  0
LINE
  8
CSLAYER1
  6
CONTINUOUS
 62
     6
 10
308.329193
 20
52.135482
 11
158.329193
 21
52.135482
  0
LINE
  8
CSLAYER1
  6
CONTINUOUS
 62
     6
 10
158.329193
 20
95.135482
 11
158.329193
 21
52.135482
  0
ARC
  8
CSLAYER1
  6
CONTINUOUS
 62
     6
 10
306.329193
 20
95.135482
 40
2.000000
 50
0.000000
 51
90.000000
  0
ARC
  8
CSLAYER1
  6
CONTINUOUS
 62
     6
 10
160.329193
 20
95.135482
 40
2.000000
 50
90.000000
 51
180.000000
  0
LINE
  8
CSLAYER1
  6
DASHED
 62
     6
 10
308.329193
 20
54.135482
 11
158.329193
 21
54.135482
  0
LINE
  8
CSLAYER1
  6
CENTER
 62
     3
 10
205.329193
 20
49.135482
 11
205.329193
 21
74.135482
  0
LINE
  8
CSLAYER1
  6
CONTINUOUS
 62
     6
 10
215.329193
 20
69.135482
 11
215.329193
 21
54.135482
  0
LINE
  8
CSLAYER1
  6
CONTINUOUS
 62
     6
 10
195.329193
 20
69.135482
 11
195.329193
 21
54.135482
  0
ARC
  8
CSLAYER1
  6
CONTINUOUS
 62
     6
 10
213.329193
 20
69.135482
 40
2.000000
 50
0.000000
 51
90.000000
  0
LINE
  8
CSLAYER1
  6
CONTINUOUS
 62
     6
 10
213.329193
 20
71.135482
 11
197.329193
 21
71.135482
  0
LINE
  8
CSLAYER1
  6
CONTINUOUS
 62
     6
 10
207.829193
 20
54.135482
 11
207.829193
 21
52.135482
  0
LINE
  8
CSLAYER1
  6
CONTINUOUS
 62
     6
 10
202.829193
 20
54.135482
 11
202.829193
 21
52.135482
  0
LINE
  8
CSLAYER1
  6
CONTINUOUS
 62
     6
 10
215.329193
 20
54.135482
 11
195.329193
 21
54.135482
  0
LINE
  8
CSLAYER1
  6
CONTINUOUS
 62
     6
 10
215.329193
 20
54.135482
 11
215.329193
 21
52.135482
  0
LINE
  8
CSLAYER1
  6
CONTINUOUS
 62
     6
 10
195.329193
 20
54.135482
 11
195.329193
 21
52.135482
  0
LINE
  8
CSLAYER1
  6
CENTER
 62
     3
 10
285.329193
 20
49.135482
 11
285.329193
 21
74.135482
  0
LINE
  8
CSLAYER1
  6
CONTINUOUS
 62
     6
 10
295.329193
 20
69.135482
 11
295.329193
 21
54.135482
  0
LINE
  8
CSLAYER1
  6
CONTINUOUS
 62
     6
 10
275.329193
 20
69.135482
 11
275.329193
 21
54.135482
  0
ARC
  8
CSLAYER1
  6
CONTINUOUS
 62
     6
 10
293.329193
 20
69.135482
 40
2.000000
 50
0.000000
 51
90.000000
  0
LINE
  8
CSLAYER1
  6
CONTINUOUS
 62
     6
 10
293.329193
 20
71.135482
 11
277.329193
 21
71.135482
  0
LINE
  8
CSLAYER1
  6
CONTINUOUS
 62
     6
 10
287.829193
 20
54.135482
 11
287.829193
 21
52.135482
  0
LINE
  8
CSLAYER1
  6
CONTINUOUS
 62
     6
 10
282.829193
 20
54.135482
 11
282.829193
 21
52.135482
  0
LINE
  8
CSLAYER1
  6
CONTINUOUS
 62
     6
 10
295.329193
 20
54.135482
 11
275.329193
 21
54.135482
  0
LINE
  8
CSLAYER1
  6
CONTINUOUS
 62
     6
 10
295.329193
 20
54.135482
 11
295.329193
 21
52.135482
  0
LINE
  8
CSLAYER1
  6
CONTINUOUS
 62
     6
 10
275.329193
 20
54.135482
 11
275.329193
 21
52.135482
  0
LINE
  8
CSLAYER1
  6
CONTINUOUS
 62
     6
 10
293.329193
 20
54.135482
 11
293.329193
 21
52.135482
  0
LINE
  8
CSLAYER1
  6
CONTINUOUS
 62
     6
 10
277.329193
 20
54.135482
 11
277.329193
 21
52.135482
  0
LINE
  8
CSLAYER1
  6
CONTINUOUS
 62
     6
 10
213.329193
 20
54.135482
 11
213.329193
 21
52.135482
  0
LINE
  8
CSLAYER1
  6
CONTINUOUS
 62
     6
 10
197.329193
 20
54.135482
 11
197.329193
 21
52.135482
  0
ARC
  8
CSLAYER1
  6
CONTINUOUS
 62
     6
 10
277.329193
 20
69.135482
 40
2.000000
 50
90.000000
 51
180.000000
  0
ARC
  8
CSLAYER1
  6
CONTINUOUS
 62
     6
 10
197.329193
 20
69.135482
 40
2.000000
 50
90.000000
 51
180.000000
  0
CIRCLE
  8
CSLAYER1
  6
CONTINUOUS
 62
     6
 10
288.329193
 20
87.135482
 40
1.750000
  0
CIRCLE
  8
CSLAYER1
  6
CONTINUOUS
 62
     6
 10
188.329193
 20
87.135482
 40
1.750000
  0
TEXT
  8
CSLAYER17
 62
     3
 10
164.229187
 20
179.385468
 40
2.200000
 41
0.511364
  1
TG+
 50
270.000000
 51
0.000000
  7
FX_FONT
 72
     5
 11
164.229187
 21
176.385468
  0
LINE
  8
CSLAYER17
  6
CONTINUOUS
 62
     3
 10
164.079193
 20
179.885475
 11
164.079193
 21
175.885475
  0
LINE
  8
CSLAYER17
  6
CONTINUOUS
 62
     3
 10
166.579193
 20
179.885475
 11
166.579193
 21
175.885475
  0
LINE
  8
CSLAYER17
  6
CONTINUOUS
 62
     3
 10
166.579193
 20
179.885475
 11
164.079193
 21
179.885475
  0
LINE
  8
CSLAYER17
  6
CONTINUOUS
 62
     3
 10
166.579193
 20
175.885475
 11
164.079193
 21
175.885475
  0
TEXT
  8
CSLAYER17
 62
     3
 10
164.229187
 20
174.385468
 40
2.200000
 41
0.511364
  1
TG-
 50
270.000000
 51
0.000000
  7
FX_FONT
 72
     5
 11
164.229187
 21
171.385468
  0
LINE
  8
CSLAYER17
  6
CONTINUOUS
 62
     3
 10
164.079193
 20
174.885475
 11
164.079193
 21
170.885475
  0
LINE
  8
CSLAYER17
  6
CONTINUOUS
 62
     3
 10
166.579193
 20
174.885475
 11
166.579193
 21
170.885475
  0
LINE
  8
CSLAYER17
  6
CONTINUOUS
 62
     3
 10
166.579193
 20
174.885475
 11
164.079193
 21
174.885475
  0
LINE
  8
CSLAYER17
  6
CONTINUOUS
 62
     3
 10
166.579193
 20
170.885475
 11
164.079193
 21
170.885475
  0
TEXT
  8
CSLAYER17
 62
     3
 10
164.229187
 20
169.385468
 40
2.200000
 41
0.511364
  1
VR1
 50
270.000000
 51
0.000000
  7
FX_FONT
 72
     5
 11
164.229187
 21
166.385468
  0
LINE
  8
CSLAYER17
  6
CONTINUOUS
 62
     3
 10
164.079193
 20
169.885475
 11
164.079193
 21
165.885475
  0
LINE
  8
CSLAYER17
  6
CONTINUOUS
 62
     3
 10
166.579193
 20
169.885475
 11
166.579193
 21
165.885475
  0
LINE
  8
CSLAYER17
  6
CONTINUOUS
 62
     3
 10
166.579193
 20
169.885475
 11
164.079193
 21
169.885475
  0
LINE
  8
CSLAYER17
  6
CONTINUOUS
 62
     3
 10
166.579193
 20
165.885475
 11
164.079193
 21
165.885475
  0
TEXT
  8
CSLAYER17
 62
     3
 10
164.229187
 20
164.385468
 40
2.200000
 41
0.511364
  1
VR2
 50
270.000000
 51
0.000000
  7
FX_FONT
 72
     5
 11
164.229187
 21
161.385468
  0
LINE
  8
CSLAYER17
  6
CONTINUOUS
 62
     3
 10
164.079193
 20
164.885475
 11
164.079193
 21
160.885475
  0
LINE
  8
CSLAYER17
  6
CONTINUOUS
 62
     3
 10
166.579193
 20
164.885475
 11
166.579193
 21
160.885475
  0
LINE
  8
CSLAYER17
  6
CONTINUOUS
 62
     3
 10
166.579193
 20
164.885475
 11
164.079193
 21
164.885475
  0
LINE
  8
CSLAYER17
  6
CONTINUOUS
 62
     3
 10
166.579193
 20
160.885475
 11
164.079193
 21
160.885475
  0
TEXT
  8
CSLAYER17
 62
     3
 10
164.229187
 20
159.385468
 40
2.200000
 41
0.511364
  1
VR3
 50
270.000000
 51
0.000000
  7
FX_FONT
 72
     5
 11
164.229187
 21
156.385468
  0
LINE
  8
CSLAYER17
  6
CONTINUOUS
 62
     3
 10
164.079193
 20
159.885475
 11
164.079193
 21
155.885475
  0
LINE
  8
CSLAYER17
  6
CONTINUOUS
 62
     3
 10
166.579193
 20
159.885475
 11
166.579193
 21
155.885475
  0
LINE
  8
CSLAYER17
  6
CONTINUOUS
 62
     3
 10
166.579193
 20
159.885475
 11
164.079193
 21
159.885475
  0
LINE
  8
CSLAYER17
  6
CONTINUOUS
 62
     3
 10
166.579193
 20
155.885475
 11
164.079193
 21
155.885475
  0
LINE
  8
CSLAYER17
  6
CONTINUOUS
 62
     3
 10
174.329193
 20
179.885475
 11
174.329193
 21
155.885475
  0
LINE
  8
CSLAYER17
  6
CONTINUOUS
 62
     3
 10
169.329193
 20
179.885475
 11
169.329193
 21
155.885475
  0
TEXT
  8
CSLAYER17
 62
     3
 10
164.229187
 20
195.310455
 40
2.200000
 41
0.981818
  1
M+
 50
270.000000
 51
0.000000
  7
FX_FONT
 72
     5
 11
164.229187
 21
191.710455
  0
LINE
  8
CSLAYER17
  6
CONTINUOUS
 62
     3
 10
164.079193
 20
195.635475
 11
164.079193
 21
191.385475
  0
LINE
  8
CSLAYER17
  6
CONTINUOUS
 62
     3
 10
166.579193
 20
195.635475
 11
166.579193
 21
191.385475
  0
LINE
  8
CSLAYER17
  6
CONTINUOUS
 62
     3
 10
166.579193
 20
195.635475
 11
164.079193
 21
195.635475
  0
LINE
  8
CSLAYER17
  6
CONTINUOUS
 62
     3
 10
166.579193
 20
191.385475
 11
164.079193
 21
191.385475
  0
TEXT
  8
CSLAYER17
 62
     3
 10
164.229187
 20
187.560455
 40
2.200000
 41
0.981818
  1
M-
 50
270.000000
 51
0.000000
  7
FX_FONT
 72
     5
 11
164.229187
 21
183.960455
  0
LINE
  8
CSLAYER17
  6
CONTINUOUS
 62
     3
 10
164.079193
 20
187.885475
 11
164.079193
 21
183.635475
  0
LINE
  8
CSLAYER17
  6
CONTINUOUS
 62
     3
 10
166.579193
 20
187.885475
 11
166.579193
 21
183.635475
  0
LINE
  8
CSLAYER17
  6
CONTINUOUS
 62
     3
 10
166.579193
 20
187.885475
 11
164.079193
 21
187.885475
  0
LINE
  8
CSLAYER17
  6
CONTINUOUS
 62
     3
 10
166.579193
 20
183.635475
 11
164.079193
 21
183.635475
  0
LINE
  8
CSLAYER17
  6
CONTINUOUS
 62
     3
 10
168.829193
 20
212.385475
 11
168.829193
 21
205.635475
  0
LINE
  8
CSLAYER17
  6
CONTINUOUS
 62
     3
 10
178.529193
 20
212.385475
 11
178.529193
 21
205.635475
  0
LINE
  8
CSLAYER17
  6
CONTINUOUS
 62
     3
 10
178.529193
 20
189.135475
 11
178.529193
 21
182.385475
  0
LINE
  8
CSLAYER17
  6
CONTINUOUS
 62
     3
 10
168.829193
 20
189.135475
 11
168.829193
 21
182.385475
  0
LINE
  8
CSLAYER17
  6
CONTINUOUS
 62
     3
 10
168.829193
 20
196.885475
 11
168.829193
 21
190.135475
  0
LINE
  8
CSLAYER17
  6
CONTINUOUS
 62
     3
 10
178.529193
 20
196.885475
 11
178.529193
 21
190.135475
  0
LINE
  8
CSLAYER17
  6
CONTINUOUS
 62
     3
 10
168.829193
 20
204.635475
 11
168.829193
 21
197.885475
  0
LINE
  8
CSLAYER17
  6
CONTINUOUS
 62
     3
 10
178.529193
 20
204.635475
 11
178.529193
 21
197.885475
  0
TEXT
  8
CSLAYER17
 62
     3
 10
164.229187
 20
203.060455
 40
2.200000
 41
0.981818
  1
AC
 50
270.000000
 51
0.000000
  7
FX_FONT
 72
     5
 11
164.229187
 21
199.460455
  0
LINE
  8
CSLAYER17
  6
CONTINUOUS
 62
     3
 10
164.079193
 20
203.385475
 11
164.079193
 21
199.135475
  0
LINE
  8
CSLAYER17
  6
CONTINUOUS
 62
     3
 10
166.579193
 20
203.385475
 11
166.579193
 21
199.135475
  0
LINE
  8
CSLAYER17
  6
CONTINUOUS
 62
     3
 10
166.579193
 20
203.385475
 11
164.079193
 21
203.385475
  0
LINE
  8
CSLAYER17
  6
CONTINUOUS
 62
     3
 10
166.579193
 20
199.135475
 11
164.079193
 21
199.135475
  0
TEXT
  8
CSLAYER17
 62
     3
 10
164.229187
 20
210.810455
 40
2.200000
 41
0.981818
  1
AC
 50
270.000000
 51
0.000000
  7
FX_FONT
 72
     5
 11
164.229187
 21
207.210455
  0
LINE
  8
CSLAYER17
  6
CONTINUOUS
 62
     3
 10
164.079193
 20
211.135475
 11
164.079193
 21
206.885475
  0
LINE
  8
CSLAYER17
  6
CONTINUOUS
 62
     3
 10
166.579193
 20
211.135475
 11
166.579193
 21
206.885475
  0
LINE
  8
CSLAYER17
  6
CONTINUOUS
 62
     3
 10
166.579193
 20
211.135475
 11
164.079193
 21
211.135475
  0
LINE
  8
CSLAYER17
  6
CONTINUOUS
 62
     3
 10
166.579193
 20
206.885475
 11
164.079193
 21
206.885475
  0
LINE
  8
CSLAYER17
  6
CONTINUOUS
 62
     6
 10
94.372279
 20
219.307879
 11
94.372279
 21
214.963061
  0
ARC
  8
CSLAYER17
  6
CONTINUOUS
 62
     6
 10
90.492960
 20
217.135470
 40
5.431046
 50
-16.257006
 51
16.257016
  0
LINE
  8
CSLAYER17
  6
CONTINUOUS
 62
     6
 10
94.541004
 20
215.016608
 11
95.029660
 21
215.059357
  0
ARC
  8
CSLAYER17
  6
CONTINUOUS
 62
     6
 10
94.962037
 20
215.832273
 40
0.775864
 50
275.000111
 51
343.742611
  0
ARC
  8
CSLAYER17
  6
CONTINUOUS
 62
     6
 10
94.527461
 20
215.171186
 40
0.155173
 50
180.000000
 51
275.000152
  0
LINE
  8
CSLAYER17
  6
CONTINUOUS
 62
     6
 10
94.294711
 20
214.885470
 11
93.906779
 21
214.885470
  0
ARC
  8
CSLAYER17
  6
CONTINUOUS
 62
     6
 10
94.294711
 20
214.963061
 40
0.077586
 50
-89.999997
 51
0.000005
  0
ARC
  8
CSLAYER17
  6
CONTINUOUS
 62
     6
 10
93.906779
 20
214.963061
 40
0.077586
 50
180.000000
 51
270.000003
  0
LINE
  8
CSLAYER17
  6
CONTINUOUS
 62
     6
 10
94.541004
 20
219.254332
 11
95.029660
 21
219.211583
  0
ARC
  8
CSLAYER17
  6
CONTINUOUS
 62
     6
 10
94.962037
 20
218.438667
 40
0.775864
 50
16.257399
 51
84.999892
  0
ARC
  8
CSLAYER17
  6
CONTINUOUS
 62
     6
 10
94.527461
 20
219.099754
 40
0.155173
 50
84.999865
 51
179.942691
  0
ARC
  8
CSLAYER17
  6
CONTINUOUS
 62
     6
 10
94.294711
 20
219.307879
 40
0.077586
 50
0.000005
 51
90.000001
  0
LINE
  8
CSLAYER17
  6
CONTINUOUS
 62
     6
 10
94.294711
 20
219.385470
 11
93.906779
 21
219.385470
  0
ARC
  8
CSLAYER17
  6
CONTINUOUS
 62
     6
 10
93.906779
 20
219.307879
 40
0.077586
 50
90.000001
 51
179.942691
  0
LINE
  8
CSLAYER17
  6
CONTINUOUS
 62
     6
 10
94.372279
 20
217.597832
 11
93.829188
 21
217.253455
  0
LINE
  8
CSLAYER17
  6
CONTINUOUS
 62
     6
 10
94.372279
 20
217.209900
 11
93.829188
 21
216.865523
  0
LINE
  8
CSLAYER17
  6
CONTINUOUS
 62
     6
 10
94.372279
 20
154.307879
 11
94.372279
 21
149.963061
  0
ARC
  8
CSLAYER17
  6
CONTINUOUS
 62
     6
 10
90.492960
 20
152.135470
 40
5.431046
 50
-16.257006
 51
16.257016
  0
LINE
  8
CSLAYER17
  6
CONTINUOUS
 62
     6
 10
94.541004
 20
150.016608
 11
95.029660
 21
150.059357
  0
ARC
  8
CSLAYER17
  6
CONTINUOUS
 62
     6
 10
94.962037
 20
150.832273
 40
0.775864
 50
275.000111
 51
343.742611
  0
ARC
  8
CSLAYER17
  6
CONTINUOUS
 62
     6
 10
94.527461
 20
150.171186
 40
0.155173
 50
180.000000
 51
275.000152
  0
LINE
  8
CSLAYER17
  6
CONTINUOUS
 62
     6
 10
94.294711
 20
149.885470
 11
93.906779
 21
149.885470
  0
ARC
  8
CSLAYER17
  6
CONTINUOUS
 62
     6
 10
94.294711
 20
149.963061
 40
0.077586
 50
-89.999997
 51
0.000005
  0
ARC
  8
CSLAYER17
  6
CONTINUOUS
 62
     6
 10
93.906779
 20
149.963061
 40
0.077586
 50
180.000000
 51
270.000003
  0
LINE
  8
CSLAYER17
  6
CONTINUOUS
 62
     6
 10
94.541004
 20
154.254332
 11
95.029660
 21
154.211583
  0
ARC
  8
CSLAYER17
  6
CONTINUOUS
 62
     6
 10
94.962037
 20
153.438667
 40
0.775864
 50
16.257399
 51
84.999892
  0
ARC
  8
CSLAYER17
  6
CONTINUOUS
 62
     6
 10
94.527461
 20
154.099754
 40
0.155173
 50
84.999865
 51
179.942691
  0
ARC
  8
CSLAYER17
  6
CONTINUOUS
 62
     6
 10
94.294711
 20
154.307879
 40
0.077586
 50
0.000005
 51
90.000001
  0
LINE
  8
CSLAYER17
  6
CONTINUOUS
 62
     6
 10
94.294711
 20
154.385470
 11
93.906779
 21
154.385470
  0
ARC
  8
CSLAYER17
  6
CONTINUOUS
 62
     6
 10
93.906779
 20
154.307879
 40
0.077586
 50
90.000001
 51
179.942691
  0
LINE
  8
CSLAYER17
  6
CONTINUOUS
 62
     6
 10
94.372279
 20
152.597832
 11
93.829188
 21
152.253455
  0
LINE
  8
CSLAYER17
  6
CONTINUOUS
 62
     6
 10
94.372279
 20
152.209900
 11
93.829188
 21
151.865523
  0
LINE
  8
CSLAYER17
  6
CONTINUOUS
 62
     6
 10
102.829193
 20
156.285475
 11
102.829193
 21
179.885475
  0
LINE
  8
CSLAYER17
  6
CONTINUOUS
 62
     3
 10
99.829193
 20
156.285475
 11
99.829193
 21
179.885475
  0
LINE
  8
CSLAYER17
  6
CONTINUOUS
 62
     6
 10
102.829193
 20
179.885475
 11
93.829193
 21
179.885475
  0
LINE
  8
CSLAYER17
  6
CONTINUOUS
 62
     6
 10
102.829193
 20
156.285475
 11
93.829193
 21
156.285475
  0
LINE
  8
CSLAYER17
  6
CONTINUOUS
 62
     6
 10
98.829193
 20
174.335475
 11
94.829193
 21
174.335475
  0
LINE
  8
CSLAYER17
  6
CONTINUOUS
 62
     6
 10
97.829193
 20
178.535475
 11
95.829193
 21
178.535475
  0
LINE
  8
CSLAYER17
  6
CONTINUOUS
 62
     6
 10
97.829193
 20
175.635475
 11
95.829193
 21
175.635475
  0
LINE
  8
CSLAYER17
  6
CONTINUOUS
 62
     6
 10
98.829193
 20
178.835475
 11
94.829193
 21
178.835475
  0
LINE
  8
CSLAYER17
  6
CONTINUOUS
 62
     6
 10
98.829193
 20
175.335475
 11
94.829193
 21
175.335475
  0
LINE
  8
CSLAYER17
  6
CONTINUOUS
 62
     6
 10
98.829193
 20
175.335475
 11
98.829193
 21
178.835475
  0
LINE
  8
CSLAYER17
  6
CONTINUOUS
 62
     6
 10
97.829193
 20
175.635475
 11
97.829193
 21
178.535475
  0
LINE
  8
CSLAYER17
  6
CONTINUOUS
 62
     6
 10
95.829193
 20
175.635475
 11
95.829193
 21
178.535475
  0
LINE
  8
CSLAYER17
  6
CONTINUOUS
 62
     6
 10
94.829193
 20
175.335475
 11
94.829193
 21
178.835475
  0
LINE
  8
CSLAYER17
  6
CONTINUOUS
 62
     6
 10
98.829193
 20
174.335475
 11
94.829193
 21
174.335475
  0
LINE
  8
CSLAYER17
  6
CONTINUOUS
 62
     6
 10
98.829193
 20
170.835475
 11
94.829193
 21
170.835475
  0
LINE
  8
CSLAYER17
  6
CONTINUOUS
 62
     6
 10
98.829193
 20
170.835475
 11
98.829193
 21
174.335475
  0
LINE
  8
CSLAYER17
  6
CONTINUOUS
 62
     6
 10
94.829193
 20
170.835475
 11
94.829193
 21
174.335475
  0
LINE
  8
CSLAYER17
  6
CONTINUOUS
 62
     6
 10
98.829193
 20
169.835475
 11
94.829193
 21
169.835475
  0
LINE
  8
CSLAYER17
  6
CONTINUOUS
 62
     6
 10
98.829193
 20
166.335475
 11
94.829193
 21
166.335475
  0
LINE
  8
CSLAYER17
  6
CONTINUOUS
 62
     6
 10
98.829193
 20
166.335475
 11
98.829193
 21
169.835475
  0
LINE
  8
CSLAYER17
  6
CONTINUOUS
 62
     6
 10
94.829193
 20
166.335475
 11
94.829193
 21
169.835475
  0
LINE
  8
CSLAYER17
  6
CONTINUOUS
 62
     6
 10
98.829193
 20
165.335475
 11
94.829193
 21
165.335475
  0
LINE
  8
CSLAYER17
  6
CONTINUOUS
 62
     6
 10
98.829193
 20
161.835475
 11
94.829193
 21
161.835475
  0
LINE
  8
CSLAYER17
  6
CONTINUOUS
 62
     6
 10
98.829193
 20
161.835475
 11
98.829193
 21
165.335475
  0
LINE
  8
CSLAYER17
  6
CONTINUOUS
 62
     6
 10
94.829193
 20
161.835475
 11
94.829193
 21
165.335475
  0
LINE
  8
CSLAYER17
  6
CONTINUOUS
 62
     6
 10
98.829193
 20
160.835475
 11
94.829193
 21
160.835475
  0
LINE
  8
CSLAYER17
  6
CONTINUOUS
 62
     6
 10
98.829193
 20
157.335475
 11
94.829193
 21
157.335475
  0
LINE
  8
CSLAYER17
  6
CONTINUOUS
 62
     6
 10
98.829193
 20
157.335475
 11
98.829193
 21
160.835475
  0
LINE
  8
CSLAYER17
  6
CONTINUOUS
 62
     6
 10
94.829193
 20
157.335475
 11
94.829193
 21
160.835475
  0
LINE
  8
CSLAYER17
  6
CONTINUOUS
 62
     6
 10
97.829193
 20
174.035475
 11
95.829193
 21
174.035475
  0
LINE
  8
CSLAYER17
  6
CONTINUOUS
 62
     6
 10
97.829193
 20
171.135475
 11
95.829193
 21
171.135475
  0
LINE
  8
CSLAYER17
  6
CONTINUOUS
 62
     6
 10
97.829193
 20
171.135475
 11
97.829193
 21
174.035475
  0
LINE
  8
CSLAYER17
  6
CONTINUOUS
 62
     6
 10
95.829193
 20
171.135475
 11
95.829193
 21
174.035475
  0
LINE
  8
CSLAYER17
  6
CONTINUOUS
 62
     6
 10
97.829193
 20
169.535475
 11
95.829193
 21
169.535475
  0
LINE
  8
CSLAYER17
  6
CONTINUOUS
 62
     6
 10
97.829193
 20
166.635475
 11
95.829193
 21
166.635475
  0
LINE
  8
CSLAYER17
  6
CONTINUOUS
 62
     6
 10
97.829193
 20
166.635475
 11
97.829193
 21
169.535475
  0
LINE
  8
CSLAYER17
  6
CONTINUOUS
 62
     6
 10
95.829193
 20
166.635475
 11
95.829193
 21
169.535475
  0
LINE
  8
CSLAYER17
  6
CONTINUOUS
 62
     6
 10
97.829193
 20
165.035475
 11
95.829193
 21
165.035475
  0
LINE
  8
CSLAYER17
  6
CONTINUOUS
 62
     6
 10
97.829193
 20
162.135475
 11
95.829193
 21
162.135475
  0
LINE
  8
CSLAYER17
  6
CONTINUOUS
 62
     6
 10
97.829193
 20
162.135475
 11
97.829193
 21
165.035475
  0
LINE
  8
CSLAYER17
  6
CONTINUOUS
 62
     6
 10
95.829193
 20
162.135475
 11
95.829193
 21
165.035475
  0
LINE
  8
CSLAYER17
  6
CONTINUOUS
 62
     6
 10
97.829193
 20
160.535475
 11
95.829193
 21
160.535475
  0
LINE
  8
CSLAYER17
  6
CONTINUOUS
 62
     6
 10
97.829193
 20
157.635475
 11
95.829193
 21
157.635475
  0
LINE
  8
CSLAYER17
  6
CONTINUOUS
 62
     6
 10
97.829193
 20
157.635475
 11
97.829193
 21
160.535475
  0
LINE
  8
CSLAYER17
  6
CONTINUOUS
 62
     6
 10
95.829193
 20
157.635475
 11
95.829193
 21
160.535475
  0
LINE
  8
CSLAYER17
  6
CONTINUOUS
 62
     6
 10
109.376600
 20
181.385475
 11
109.376600
 21
182.385475
  0
LINE
  8
CSLAYER17
  6
CONTINUOUS
 62
     6
 10
109.376600
 20
213.385475
 11
93.829193
 21
213.385475
  0
LINE
  8
CSLAYER17
  6
CONTINUOUS
 62
     6
 10
109.376600
 20
212.385475
 11
97.829193
 21
212.385475
  0
LINE
  8
CSLAYER17
  6
CONTINUOUS
 62
     6
 10
109.376600
 20
205.635475
 11
97.829193
 21
205.635475
  0
LINE
  8
CSLAYER17
  6
CONTINUOUS
 62
     6
 10
109.376600
 20
204.635475
 11
97.829193
 21
204.635475
  0
LINE
  8
CSLAYER17
  6
CONTINUOUS
 62
     6
 10
109.376600
 20
197.885475
 11
97.829193
 21
197.885475
  0
LINE
  8
CSLAYER17
  6
CONTINUOUS
 62
     6
 10
109.376600
 20
196.885475
 11
97.829193
 21
196.885475
  0
LINE
  8
CSLAYER17
  6
CONTINUOUS
 62
     6
 10
109.376600
 20
190.135475
 11
97.829193
 21
190.135475
  0
LINE
  8
CSLAYER17
  6
CONTINUOUS
 62
     6
 10
109.376600
 20
189.135475
 11
97.829193
 21
189.135475
  0
LINE
  8
CSLAYER17
  6
CONTINUOUS
 62
     6
 10
109.376600
 20
181.385475
 11
93.829193
 21
181.385475
  0
LINE
  8
CSLAYER17
  6
CONTINUOUS
 62
     6
 10
109.376600
 20
182.385475
 11
97.829193
 21
182.385475
  0
LINE
  8
CSLAYER17
  6
CONTINUOUS
 62
     6
 10
102.829193
 20
182.385475
 11
102.829193
 21
189.135475
  0
LINE
  8
CSLAYER17
  6
CONTINUOUS
 62
     6
 10
97.829193
 20
182.385475
 11
97.829193
 21
189.135475
  0
LINE
  8
CSLAYER17
  6
CONTINUOUS
 62
     6
 10
102.829193
 20
190.135475
 11
102.829193
 21
196.885475
  0
LINE
  8
CSLAYER17
  6
CONTINUOUS
 62
     6
 10
102.829193
 20
197.885475
 11
102.829193
 21
204.635475
  0
LINE
  8
CSLAYER17
  6
CONTINUOUS
 62
     6
 10
102.829193
 20
205.635475
 11
102.829193
 21
212.385475
  0
LINE
  8
CSLAYER17
  6
CONTINUOUS
 62
     6
 10
109.376600
 20
212.385475
 11
109.376600
 21
213.385475
  0
LINE
  8
CSLAYER17
  6
CONTINUOUS
 62
     6
 10
109.376600
 20
204.635475
 11
109.376600
 21
205.635475
  0
LINE
  8
CSLAYER17
  6
CONTINUOUS
 62
     6
 10
109.376600
 20
196.885475
 11
109.376600
 21
197.885475
  0
LINE
  8
CSLAYER17
  6
CONTINUOUS
 62
     6
 10
109.376600
 20
189.135475
 11
109.376600
 21
190.135475
  0
LINE
  8
CSLAYER17
  6
CONTINUOUS
 62
     6
 10
103.829193
 20
205.635475
 11
103.829193
 21
212.385475
  0
LINE
  8
CSLAYER17
  6
CONTINUOUS
 62
     6
 10
103.829193
 20
197.885475
 11
103.829193
 21
204.635475
  0
LINE
  8
CSLAYER17
  6
CONTINUOUS
 62
     6
 10
103.829193
 20
190.135475
 11
103.829193
 21
196.885475
  0
LINE
  8
CSLAYER17
  6
CONTINUOUS
 62
     6
 10
103.829193
 20
182.385475
 11
103.829193
 21
189.135475
  0
LINE
  8
CSLAYER17
  6
CONTINUOUS
 62
     6
 10
103.829193
 20
211.010475
 11
102.829193
 21
211.010475
  0
LINE
  8
CSLAYER17
  6
CONTINUOUS
 62
     6
 10
103.829193
 20
207.010475
 11
102.829193
 21
207.010475
  0
LINE
  8
CSLAYER17
  6
CONTINUOUS
 62
     6
 10
103.829193
 20
203.260475
 11
102.829193
 21
203.260475
  0
LINE
  8
CSLAYER17
  6
CONTINUOUS
 62
     6
 10
103.829193
 20
199.260475
 11
102.829193
 21
199.260475
  0
LINE
  8
CSLAYER17
  6
CONTINUOUS
 62
     6
 10
103.829193
 20
195.510475
 11
102.829193
 21
195.510475
  0
LINE
  8
CSLAYER17
  6
CONTINUOUS
 62
     6
 10
103.829193
 20
191.510475
 11
102.829193
 21
191.510475
  0
LINE
  8
CSLAYER17
  6
CONTINUOUS
 62
     6
 10
103.829193
 20
187.760475
 11
102.829193
 21
187.760475
  0
LINE
  8
CSLAYER17
  6
CONTINUOUS
 62
     6
 10
103.829193
 20
183.760475
 11
102.829193
 21
183.760475
  0
LINE
  8
CSLAYER17
  6
CONTINUOUS
 62
     6
 10
97.829193
 20
205.635475
 11
97.829193
 21
212.385475
  0
LINE
  8
CSLAYER17
  6
CONTINUOUS
 62
     6
 10
97.829193
 20
197.885475
 11
97.829193
 21
204.635475
  0
LINE
  8
CSLAYER17
  6
CONTINUOUS
 62
     6
 10
97.829193
 20
190.135475
 11
97.829193
 21
196.885475
  0
LINE
  8
CSLAYER17
  6
CENTER
 62
     3
 10
205.329193
 20
240.135482
 11
205.329193
 21
224.135482
  0
LINE
  8
CSLAYER17
  6
CENTER
 62
     3
 10
200.829193
 20
232.135482
 11
209.829193
 21
232.135482
  0
LINE
  8
CSLAYER17
  6
CENTER
 62
     3
 10
205.329193
 20
147.135482
 11
205.329193
 21
124.135482
  0
LINE
  8
CSLAYER17
  6
CENTER
 62
     3
 10
209.829193
 20
132.135482
 11
200.829193
 21
132.135482
  0
LINE
  8
CSLAYER17
  6
CENTER
 62
     3
 10
285.329193
 20
147.135482
 11
285.329193
 21
124.135482
  0
LINE
  8
CSLAYER17
  6
CENTER
 62
     3
 10
289.829193
 20
132.135482
 11
280.829193
 21
132.135482
  0
LINE
  8
CSLAYER17
  6
CENTER
 62
     3
 10
285.329193
 20
240.135482
 11
285.329193
 21
224.135482
  0
LINE
  8
CSLAYER17
  6
CENTER
 62
     3
 10
280.829193
 20
232.135482
 11
289.829193
 21
232.135482
  0
LINE
  8
CSLAYER17
  6
CONTINUOUS
 62
     6
 10
85.329193
 20
227.135482
 11
83.329193
 21
227.135482
  0
LINE
  8
CSLAYER17
  6
CONTINUOUS
 62
     6
 10
85.329193
 20
237.135482
 11
83.329193
 21
237.135482
  0
LINE
  8
CSLAYER17
  6
CONTINUOUS
 62
     6
 10
83.329193
 20
237.135482
 11
83.329193
 21
127.135482
  0
LINE
  8
CSLAYER17
  6
CONTINUOUS
 62
     6
 10
85.329193
 20
237.135482
 11
85.329193
 21
144.135482
  0
LINE
  8
CSLAYER17
  6
CONTINUOUS
 62
     6
 10
83.329193
 20
127.135482
 11
85.329193
 21
127.135482
  0
LINE
  8
CSLAYER17
  6
CONTINUOUS
 62
     6
 10
128.329193
 20
144.135482
 11
85.329193
 21
144.135482
  0
ARC
  8
CSLAYER17
  6
CONTINUOUS
 62
     6
 10
85.329193
 20
144.135482
 40
2.000000
 50
180.000000
 51
270.000000
  0
LINE
  8
CSLAYER17
  6
CONTINUOUS
 62
     6
 10
85.329193
 20
142.135482
 11
85.329193
 21
127.135482
  0
LINE
  8
CSLAYER17
  6
CENTER
 62
     3
 10
78.829193
 20
232.135482
 11
89.829193
 21
232.135482
  0
LINE
  8
CSLAYER17
  6
CENTER
 62
     3
 10
89.829193
 20
132.135482
 11
78.829193
 21
132.135482
  0
LINE
  8
CSLAYER17
  6
CONTINUOUS
 62
     3
 10
85.329193
 20
229.635482
 11
84.662526
 21
229.635482
  0
LINE
  8
CSLAYER17
  6
CONTINUOUS
 62
     3
 10
85.329193
 20
134.635482
 11
84.662526
 21
134.635482
  0
LINE
  8
CSLAYER17
  6
CONTINUOUS
 62
     3
 10
83.995860
 20
229.635482
 11
83.329193
 21
229.635482
  0
LINE
  8
CSLAYER17
  6
CONTINUOUS
 62
     3
 10
83.995860
 20
134.635482
 11
83.329193
 21
134.635482
  0
LINE
  8
CSLAYER1
  6
CONTINUOUS
 62
     6
 10
222.829193
 20
90.635482
 11
222.829193
 21
63.635482
  0
LINE
  8
CSLAYER1
  6
CONTINUOUS
 62
     6
 10
219.829193
 20
90.635482
 11
219.829193
 21
63.635482
  0
ARC
  8
CSLAYER1
  6
CONTINUOUS
 62
     6
 10
221.329193
 20
63.635482
 40
1.500000
 50
180.000000
 51
360.000000
  0
ARC
  8
CSLAYER1
  6
CONTINUOUS
 62
     6
 10
221.329193
 20
90.635482
 40
1.500000
 50
0.000000
 51
180.000000
  0
LINE
  8
CSLAYER1
  6
CONTINUOUS
 62
     6
 10
228.829193
 20
90.635482
 11
228.829193
 21
63.635482
  0
LINE
  8
CSLAYER1
  6
CONTINUOUS
 62
     6
 10
225.829193
 20
90.635482
 11
225.829193
 21
63.635482
  0
ARC
  8
CSLAYER1
  6
CONTINUOUS
 62
     6
 10
227.329193
 20
63.635482
 40
1.500000
 50
180.000000
 51
360.000000
  0
ARC
  8
CSLAYER1
  6
CONTINUOUS
 62
     6
 10
227.329193
 20
90.635482
 40
1.500000
 50
0.000000
 51
180.000000
  0
LINE
  8
CSLAYER1
  6
CONTINUOUS
 62
     6
 10
234.829193
 20
90.635482
 11
234.829193
 21
63.635482
  0
LINE
  8
CSLAYER1
  6
CONTINUOUS
 62
     6
 10
231.829193
 20
90.635482
 11
231.829193
 21
63.635482
  0
ARC
  8
CSLAYER1
  6
CONTINUOUS
 62
     6
 10
233.329193
 20
63.635482
 40
1.500000
 50
180.000000
 51
360.000000
  0
ARC
  8
CSLAYER1
  6
CONTINUOUS
 62
     6
 10
233.329193
 20
90.635482
 40
1.500000
 50
0.000000
 51
180.000000
  0
LINE
  8
CSLAYER1
  6
CONTINUOUS
 62
     6
 10
240.829193
 20
90.635482
 11
240.829193
 21
63.635482
  0
LINE
  8
CSLAYER1
  6
CONTINUOUS
 62
     6
 10
237.829193
 20
90.635482
 11
237.829193
 21
63.635482
  0
ARC
  8
CSLAYER1
  6
CONTINUOUS
 62
     6
 10
239.329193
 20
63.635482
 40
1.500000
 50
180.000000
 51
360.000000
  0
ARC
  8
CSLAYER1
  6
CONTINUOUS
 62
     6
 10
239.329193
 20
90.635482
 40
1.500000
 50
0.000000
 51
180.000000
  0
LINE
  8
CSLAYER1
  6
CONTINUOUS
 62
     6
 10
246.829193
 20
90.635482
 11
246.829193
 21
63.635482
  0
LINE
  8
CSLAYER1
  6
CONTINUOUS
 62
     6
 10
243.829193
 20
90.635482
 11
243.829193
 21
63.635482
  0
ARC
  8
CSLAYER1
  6
CONTINUOUS
 62
     6
 10
245.329193
 20
63.635482
 40
1.500000
 50
180.000000
 51
360.000000
  0
ARC
  8
CSLAYER1
  6
CONTINUOUS
 62
     6
 10
245.329193
 20
90.635482
 40
1.500000
 50
0.000000
 51
180.000000
  0
LINE
  8
CSLAYER1
  6
CONTINUOUS
 62
     6
 10
252.829193
 20
90.635482
 11
252.829193
 21
63.635482
  0
LINE
  8
CSLAYER1
  6
CONTINUOUS
 62
     6
 10
249.829193
 20
90.635482
 11
249.829193
 21
63.635482
  0
ARC
  8
CSLAYER1
  6
CONTINUOUS
 62
     6
 10
251.329193
 20
63.635482
 40
1.500000
 50
180.000000
 51
360.000000
  0
ARC
  8
CSLAYER1
  6
CONTINUOUS
 62
     6
 10
251.329193
 20
90.635482
 40
1.500000
 50
0.000000
 51
180.000000
  0
LINE
  8
CSLAYER1
  6
CONTINUOUS
 62
     6
 10
258.829193
 20
90.635482
 11
258.829193
 21
63.635482
  0
LINE
  8
CSLAYER1
  6
CONTINUOUS
 62
     6
 10
255.829193
 20
90.635482
 11
255.829193
 21
63.635482
  0
ARC
  8
CSLAYER1
  6
CONTINUOUS
 62
     6
 10
257.329193
 20
63.635482
 40
1.500000
 50
180.000000
 51
360.000000
  0
ARC
  8
CSLAYER1
  6
CONTINUOUS
 62
     6
 10
257.329193
 20
90.635482
 40
1.500000
 50
0.000000
 51
180.000000
  0
LINE
  8
CSLAYER1
  6
CONTINUOUS
 62
     6
 10
264.829193
 20
90.635482
 11
264.829193
 21
63.635482
  0
LINE
  8
CSLAYER1
  6
CONTINUOUS
 62
     6
 10
261.829193
 20
90.635482
 11
261.829193
 21
63.635482
  0
ARC
  8
CSLAYER1
  6
CONTINUOUS
 62
     6
 10
263.329193
 20
63.635482
 40
1.500000
 50
180.000000
 51
360.000000
  0
ARC
  8
CSLAYER1
  6
CONTINUOUS
 62
     6
 10
263.329193
 20
90.635482
 40
1.500000
 50
0.000000
 51
180.000000
  0
LINE
  8
CSLAYER1
  6
CONTINUOUS
 62
     6
 10
270.829193
 20
90.635482
 11
270.829193
 21
63.635482
  0
LINE
  8
CSLAYER1
  6
CONTINUOUS
 62
     6
 10
267.829193
 20
90.635482
 11
267.829193
 21
63.635482
  0
ARC
  8
CSLAYER1
  6
CONTINUOUS
 62
     6
 10
269.329193
 20
63.635482
 40
1.500000
 50
180.000000
 51
360.000000
  0
ARC
  8
CSLAYER1
  6
CONTINUOUS
 62
     6
 10
269.329193
 20
90.635482
 40
1.500000
 50
0.000000
 51
180.000000
  0
TEXT
  8
CSLAYER1
 62
     3
 10
165.329224
 20
75.635506
 40
7.000000
 41
0.662946
  1
MS-300□1001
 50
0.000000
 51
0.000000
  7
FX_FONT
 72
     5
 11
214.829224
 21
75.635506
  0
TEXT
  8
CSLAYER1
 62
     3
 10
168.329224
 20
85.635506
 40
3.000000
 41
0.626087
  1
DC　MOTOR
 50
0.000000
 51
0.000000
  7
FX_FONT
 72
     5
 11
182.729223
 21
85.635506
  0
TEXT
  8
CSLAYER1
 62
     3
 10
168.329224
 20
69.635506
 40
3.000000
 41
0.620690
  1
PS:AC　100V
 50
0.000000
 51
0.000000
  7
FX_FONT
 72
     5
 11
186.329223
 21
69.635506
  0
TEXT
  8
CSLAYER1
 62
     3
 10
168.329224
 20
91.635513
 40
3.000000
 41
0.607229
  1
SAWAMURA DENKI KOGYO CO.,LTD
 50
0.000000
 51
0.000000
  7
FX_FONT
 72
     5
 11
218.729222
 21
91.635513
  0
CIRCLE
  8
CSLAYER1
  6
CONTINUOUS
 62
     3
 10
163.829193
 20
93.135482
 40
2.327586
  0
TEXT
  8
CSLAYER1
 62
     3
 10
193.329224
 20
85.635506
 40
3.000000
 41
0.635294
  1
DRIVER
 50
0.000000
 51
0.000000
  7
FX_FONT
 72
     5
 11
204.129223
 21
85.635506
  0
TEXT
  8
CSLAYER1
 62
     3
 10
166.529236
 20
64.635506
 40
3.000000
 41
0.618750
  1
OUT：DC　100V
 50
0.000000
 51
0.000000
  7
FX_FONT
 72
     5
 11
186.329235
 21
64.635506
  0
TEXT
  8
CSLAYER1
 62
     3
 10
179.129211
 20
59.635509
 40
3.000000
 41
0.654545
  1
1.2A
 50
0.000000
 51
0.000000
  7
FX_FONT
 72
     5
 11
186.329211
 21
59.635509
  0
LINE
  8
CSLAYER17
  6
CONTINUOUS
 62
     6
 10
104.872279
 20
211.182872
 11
104.872279
 21
206.838055
  0
ARC
  8
CSLAYER17
  6
CONTINUOUS
 62
     6
 10
100.992960
 20
209.010463
 40
5.431046
 50
-16.257006
 51
16.257016
  0
LINE
  8
CSLAYER17
  6
CONTINUOUS
 62
     6
 10
105.041004
 20
206.891601
 11
105.529660
 21
206.934351
  0
ARC
  8
CSLAYER17
  6
CONTINUOUS
 62
     6
 10
105.462037
 20
207.707267
 40
0.775864
 50
275.000111
 51
343.742611
  0
ARC
  8
CSLAYER17
  6
CONTINUOUS
 62
     6
 10
105.027461
 20
207.046180
 40
0.155173
 50
180.000000
 51
275.000152
  0
LINE
  8
CSLAYER17
  6
CONTINUOUS
 62
     6
 10
104.794711
 20
206.760463
 11
104.406779
 21
206.760463
  0
ARC
  8
CSLAYER17
  6
CONTINUOUS
 62
     6
 10
104.794711
 20
206.838055
 40
0.077586
 50
-89.999997
 51
0.000005
  0
ARC
  8
CSLAYER17
  6
CONTINUOUS
 62
     6
 10
104.406779
 20
206.838055
 40
0.077586
 50
180.000000
 51
270.000003
  0
LINE
  8
CSLAYER17
  6
CONTINUOUS
 62
     6
 10
105.041004
 20
211.129326
 11
105.529660
 21
211.086576
  0
ARC
  8
CSLAYER17
  6
CONTINUOUS
 62
     6
 10
105.462037
 20
210.313660
 40
0.775864
 50
16.257399
 51
84.999892
  0
ARC
  8
CSLAYER17
  6
CONTINUOUS
 62
     6
 10
105.027461
 20
210.974747
 40
0.155173
 50
84.999865
 51
179.942691
  0
ARC
  8
CSLAYER17
  6
CONTINUOUS
 62
     6
 10
104.794711
 20
211.182872
 40
0.077586
 50
0.000005
 51
90.000001
  0
LINE
  8
CSLAYER17
  6
CONTINUOUS
 62
     6
 10
104.794711
 20
211.260463
 11
104.406779
 21
211.260463
  0
ARC
  8
CSLAYER17
  6
CONTINUOUS
 62
     6
 10
104.406779
 20
211.182872
 40
0.077586
 50
90.000001
 51
179.942691
  0
LINE
  8
CSLAYER17
  6
CONTINUOUS
 62
     6
 10
104.872279
 20
209.472825
 11
104.329188
 21
209.128448
  0
LINE
  8
CSLAYER17
  6
CONTINUOUS
 62
     6
 10
104.872279
 20
209.084894
 11
104.329188
 21
208.740516
  0
LINE
  8
CSLAYER17
  6
CONTINUOUS
 62
     6
 10
104.329193
 20
206.510475
 11
104.329193
 21
211.510475
  0
LINE
  8
CSLAYER17
  6
CONTINUOUS
 62
     6
 10
104.329193
 20
211.510475
 11
103.829193
 21
211.510475
  0
LINE
  8
CSLAYER17
  6
CONTINUOUS
 62
     6
 10
104.329193
 20
206.510475
 11
103.829193
 21
206.510475
  0
LINE
  8
CSLAYER17
  6
CONTINUOUS
 62
     6
 10
103.829193
 20
211.510475
 11
103.829193
 21
206.510475
  0
LINE
  8
CSLAYER17
  6
CONTINUOUS
 62
     6
 10
104.872279
 20
203.432872
 11
104.872279
 21
199.088055
  0
ARC
  8
CSLAYER17
  6
CONTINUOUS
 62
     6
 10
100.992960
 20
201.260463
 40
5.431046
 50
-16.257006
 51
16.257016
  0
LINE
  8
CSLAYER17
  6
CONTINUOUS
 62
     6
 10
105.041004
 20
199.141601
 11
105.529660
 21
199.184351
  0
ARC
  8
CSLAYER17
  6
CONTINUOUS
 62
     6
 10
105.462037
 20
199.957267
 40
0.775864
 50
275.000111
 51
343.742611
  0
ARC
  8
CSLAYER17
  6
CONTINUOUS
 62
     6
 10
105.027461
 20
199.296180
 40
0.155173
 50
180.000000
 51
275.000152
  0
LINE
  8
CSLAYER17
  6
CONTINUOUS
 62
     6
 10
104.794711
 20
199.010463
 11
104.406779
 21
199.010463
  0
ARC
  8
CSLAYER17
  6
CONTINUOUS
 62
     6
 10
104.794711
 20
199.088055
 40
0.077586
 50
-89.999997
 51
0.000005
  0
ARC
  8
CSLAYER17
  6
CONTINUOUS
 62
     6
 10
104.406779
 20
199.088055
 40
0.077586
 50
180.000000
 51
270.000003
  0
LINE
  8
CSLAYER17
  6
CONTINUOUS
 62
     6
 10
105.041004
 20
203.379326
 11
105.529660
 21
203.336576
  0
ARC
  8
CSLAYER17
  6
CONTINUOUS
 62
     6
 10
105.462037
 20
202.563660
 40
0.775864
 50
16.257399
 51
84.999892
  0
ARC
  8
CSLAYER17
  6
CONTINUOUS
 62
     6
 10
105.027461
 20
203.224747
 40
0.155173
 50
84.999865
 51
179.942691
  0
ARC
  8
CSLAYER17
  6
CONTINUOUS
 62
     6
 10
104.794711
 20
203.432872
 40
0.077586
 50
0.000005
 51
90.000001
  0
LINE
  8
CSLAYER17
  6
CONTINUOUS
 62
     6
 10
104.794711
 20
203.510463
 11
104.406779
 21
203.510463
  0
ARC
  8
CSLAYER17
  6
CONTINUOUS
 62
     6
 10
104.406779
 20
203.432872
 40
0.077586
 50
90.000001
 51
179.942691
  0
LINE
  8
CSLAYER17
  6
CONTINUOUS
 62
     6
 10
104.872279
 20
201.722825
 11
104.329188
 21
201.378448
  0
LINE
  8
CSLAYER17
  6
CONTINUOUS
 62
     6
 10
104.872279
 20
201.334894
 11
104.329188
 21
200.990516
  0
LINE
  8
CSLAYER17
  6
CONTINUOUS
 62
     6
 10
104.329193
 20
198.760475
 11
104.329193
 21
203.760475
  0
LINE
  8
CSLAYER17
  6
CONTINUOUS
 62
     6
 10
104.329193
 20
203.760475
 11
103.829193
 21
203.760475
  0
LINE
  8
CSLAYER17
  6
CONTINUOUS
 62
     6
 10
104.329193
 20
198.760475
 11
103.829193
 21
198.760475
  0
LINE
  8
CSLAYER17
  6
CONTINUOUS
 62
     6
 10
103.829193
 20
203.760475
 11
103.829193
 21
198.760475
  0
LINE
  8
CSLAYER17
  6
CONTINUOUS
 62
     6
 10
104.872279
 20
195.682872
 11
104.872279
 21
191.338055
  0
ARC
  8
CSLAYER17
  6
CONTINUOUS
 62
     6
 10
100.992960
 20
193.510463
 40
5.431046
 50
-16.257006
 51
16.257016
  0
LINE
  8
CSLAYER17
  6
CONTINUOUS
 62
     6
 10
105.041004
 20
191.391601
 11
105.529660
 21
191.434351
  0
ARC
  8
CSLAYER17
  6
CONTINUOUS
 62
     6
 10
105.462037
 20
192.207267
 40
0.775864
 50
275.000111
 51
343.742611
  0
ARC
  8
CSLAYER17
  6
CONTINUOUS
 62
     6
 10
105.027461
 20
191.546180
 40
0.155173
 50
180.000000
 51
275.000152
  0
LINE
  8
CSLAYER17
  6
CONTINUOUS
 62
     6
 10
104.794711
 20
191.260463
 11
104.406779
 21
191.260463
  0
ARC
  8
CSLAYER17
  6
CONTINUOUS
 62
     6
 10
104.794711
 20
191.338055
 40
0.077586
 50
-89.999997
 51
0.000005
  0
ARC
  8
CSLAYER17
  6
CONTINUOUS
 62
     6
 10
104.406779
 20
191.338055
 40
0.077586
 50
180.000000
 51
270.000003
  0
LINE
  8
CSLAYER17
  6
CONTINUOUS
 62
     6
 10
105.041004
 20
195.629326
 11
105.529660
 21
195.586576
  0
ARC
  8
CSLAYER17
  6
CONTINUOUS
 62
     6
 10
105.462037
 20
194.813660
 40
0.775864
 50
16.257399
 51
84.999892
  0
ARC
  8
CSLAYER17
  6
CONTINUOUS
 62
     6
 10
105.027461
 20
195.474747
 40
0.155173
 50
84.999865
 51
179.942691
  0
ARC
  8
CSLAYER17
  6
CONTINUOUS
 62
     6
 10
104.794711
 20
195.682872
 40
0.077586
 50
0.000005
 51
90.000001
  0
LINE
  8
CSLAYER17
  6
CONTINUOUS
 62
     6
 10
104.794711
 20
195.760463
 11
104.406779
 21
195.760463
  0
ARC
  8
CSLAYER17
  6
CONTINUOUS
 62
     6
 10
104.406779
 20
195.682872
 40
0.077586
 50
90.000001
 51
179.942691
  0
LINE
  8
CSLAYER17
  6
CONTINUOUS
 62
     6
 10
104.872279
 20
193.972825
 11
104.329188
 21
193.628448
  0
LINE
  8
CSLAYER17
  6
CONTINUOUS
 62
     6
 10
104.872279
 20
193.584894
 11
104.329188
 21
193.240516
  0
LINE
  8
CSLAYER17
  6
CONTINUOUS
 62
     6
 10
104.329193
 20
191.010475
 11
104.329193
 21
196.010475
  0
LINE
  8
CSLAYER17
  6
CONTINUOUS
 62
     6
 10
104.329193
 20
196.010475
 11
103.829193
 21
196.010475
  0
LINE
  8
CSLAYER17
  6
CONTINUOUS
 62
     6
 10
104.329193
 20
191.010475
 11
103.829193
 21
191.010475
  0
LINE
  8
CSLAYER17
  6
CONTINUOUS
 62
     6
 10
103.829193
 20
196.010475
 11
103.829193
 21
191.010475
  0
LINE
  8
CSLAYER17
  6
CONTINUOUS
 62
     6
 10
104.872279
 20
187.932872
 11
104.872279
 21
183.588055
  0
ARC
  8
CSLAYER17
  6
CONTINUOUS
 62
     6
 10
100.992960
 20
185.760463
 40
5.431046
 50
-16.257006
 51
16.257016
  0
LINE
  8
CSLAYER17
  6
CONTINUOUS
 62
     6
 10
105.041004
 20
183.641601
 11
105.529660
 21
183.684351
  0
ARC
  8
CSLAYER17
  6
CONTINUOUS
 62
     6
 10
105.462037
 20
184.457267
 40
0.775864
 50
275.000111
 51
343.742611
  0
ARC
  8
CSLAYER17
  6
CONTINUOUS
 62
     6
 10
105.027461
 20
183.796180
 40
0.155173
 50
180.000000
 51
275.000152
  0
LINE
  8
CSLAYER17
  6
CONTINUOUS
 62
     6
 10
104.794711
 20
183.510463
 11
104.406779
 21
183.510463
  0
ARC
  8
CSLAYER17
  6
CONTINUOUS
 62
     6
 10
104.794711
 20
183.588055
 40
0.077586
 50
-89.999997
 51
0.000005
  0
ARC
  8
CSLAYER17
  6
CONTINUOUS
 62
     6
 10
104.406779
 20
183.588055
 40
0.077586
 50
180.000000
 51
270.000003
  0
LINE
  8
CSLAYER17
  6
CONTINUOUS
 62
     6
 10
105.041004
 20
187.879326
 11
105.529660
 21
187.836576
  0
ARC
  8
CSLAYER17
  6
CONTINUOUS
 62
     6
 10
105.462037
 20
187.063660
 40
0.775864
 50
16.257399
 51
84.999892
  0
ARC
  8
CSLAYER17
  6
CONTINUOUS
 62
     6
 10
105.027461
 20
187.724747
 40
0.155173
 50
84.999865
 51
179.942691
  0
ARC
  8
CSLAYER17
  6
CONTINUOUS
 62
     6
 10
104.794711
 20
187.932872
 40
0.077586
 50
0.000005
 51
90.000001
  0
LINE
  8
CSLAYER17
  6
CONTINUOUS
 62
     6
 10
104.794711
 20
188.010463
 11
104.406779
 21
188.010463
  0
ARC
  8
CSLAYER17
  6
CONTINUOUS
 62
     6
 10
104.406779
 20
187.932872
 40
0.077586
 50
90.000001
 51
179.942691
  0
LINE
  8
CSLAYER17
  6
CONTINUOUS
 62
     6
 10
104.872279
 20
186.222825
 11
104.329188
 21
185.878448
  0
LINE
  8
CSLAYER17
  6
CONTINUOUS
 62
     6
 10
104.872279
 20
185.834894
 11
104.329188
 21
185.490516
  0
LINE
  8
CSLAYER17
  6
CONTINUOUS
 62
     6
 10
104.329193
 20
183.260475
 11
104.329193
 21
188.260475
  0
LINE
  8
CSLAYER17
  6
CONTINUOUS
 62
     6
 10
104.329193
 20
188.260475
 11
103.829193
 21
188.260475
  0
LINE
  8
CSLAYER17
  6
CONTINUOUS
 62
     6
 10
104.329193
 20
183.260475
 11
103.829193
 21
183.260475
  0
LINE
  8
CSLAYER17
  6
CONTINUOUS
 62
     6
 10
103.829193
 20
188.260475
 11
103.829193
 21
183.260475
  0
LINE
  8
CSLAYER1
  6
CONTINUOUS
 62
     3
 10
161.674021
 20
93.135482
 11
162.751607
 21
93.135482
  0
LINE
  8
CSLAYER1
  6
CONTINUOUS
 62
     3
 10
162.751607
 20
93.135482
 11
162.751607
 21
94.213068
  0
LINE
  8
CSLAYER1
  6
CONTINUOUS
 62
     3
 10
162.751607
 20
94.213068
 11
165.984366
 21
93.135482
  0
LINE
  8
CSLAYER1
  6
CONTINUOUS
 62
     3
 10
165.984366
 20
93.135482
 11
164.906779
 21
93.135482
  0
LINE
  8
CSLAYER1
  6
CONTINUOUS
 62
     3
 10
164.906779
 20
93.135482
 11
164.906779
 21
92.057896
  0
LINE
  8
CSLAYER1
  6
CONTINUOUS
 62
     3
 10
164.906779
 20
92.057896
 11
161.674021
 21
93.135482
  0
CIRCLE
  8
CSLAYER1
  6
CONTINUOUS
 62
     3
 10
163.829193
 20
93.135482
 40
2.155172
  0
CIRCLE
  8
CSLAYER1
  6
CONTINUOUS
 62
     3
 10
163.829193
 20
93.135482
 40
2.500000
  0
LINE
  8
CSLAYER1
  6
CONTINUOUS
 62
     3
 10
162.751607
 20
93.277982
 11
165.556865
 21
93.277982
  0
LINE
  8
CSLAYER1
  6
CONTINUOUS
 62
     3
 10
162.751607
 20
93.477982
 11
164.956865
 21
93.477982
  0
LINE
  8
CSLAYER1
  6
CONTINUOUS
 62
     3
 10
162.751607
 20
93.677982
 11
164.356865
 21
93.677982
  0
LINE
  8
CSLAYER1
  6
CONTINUOUS
 62
     3
 10
162.751607
 20
93.877982
 11
163.756865
 21
93.877982
  0
LINE
  8
CSLAYER1
  6
CONTINUOUS
 62
     3
 10
162.751607
 20
94.077982
 11
163.156865
 21
94.077982
  0
LINE
  8
CSLAYER1
  6
CONTINUOUS
 62
     3
 10
161.846520
 20
93.077982
 11
164.906779
 21
93.077982
  0
LINE
  8
CSLAYER1
  6
CONTINUOUS
 62
     3
 10
162.446520
 20
92.877982
 11
164.906779
 21
92.877982
  0
LINE
  8
CSLAYER1
  6
CONTINUOUS
 62
     3
 10
163.046520
 20
92.677982
 11
164.906779
 21
92.677982
  0
LINE
  8
CSLAYER1
  6
CONTINUOUS
 62
     3
 10
163.646520
 20
92.477982
 11
164.906779
 21
92.477982
  0
LINE
  8
CSLAYER1
  6
CONTINUOUS
 62
     3
 10
164.246520
 20
92.277982
 11
164.906779
 21
92.277982
  0
LINE
  8
CSLAYER1
  6
CONTINUOUS
 62
     3
 10
164.846520
 20
92.077982
 11
164.906779
 21
92.077982
  0
LINE
  8
CSLAYER17
  6
CONTINUOUS
 62
     6
 10
92.083573
 20
220.310908
 11
92.329193
 21
219.885482
  0
LINE
  8
CSLAYER17
  6
CONTINUOUS
 62
     6
 10
92.329193
 20
219.885482
 11
92.329193
 21
214.385482
  0
LINE
  8
CSLAYER17
  6
CONTINUOUS
 62
     6
 10
92.329193
 20
214.385482
 11
92.083573
 21
213.960055
  0
ARC
  8
CSLAYER17
  6
CONTINUOUS
 62
     6
 10
90.923491
 20
219.517052
 40
1.405703
 50
-34.384247
 51
34.384247
  0
ARC
  8
CSLAYER17
  6
CONTINUOUS
 62
     6
 10
87.074813
 20
217.135482
 40
5.254380
 50
-17.587954
 51
17.587954
  0
ARC
  8
CSLAYER17
  6
CONTINUOUS
 62
     6
 10
90.923491
 20
214.753912
 40
1.405703
 50
-34.384247
 51
34.384247
  0
LINE
  8
CSLAYER17
  6
CONTINUOUS
 62
     6
 10
92.083573
 20
213.960055
 11
85.574813
 21
213.960055
  0
LINE
  8
CSLAYER17
  6
CONTINUOUS
 62
     6
 10
85.574813
 20
213.960055
 11
85.329193
 21
214.385482
  0
LINE
  8
CSLAYER17
  6
CONTINUOUS
 62
     6
 10
85.329193
 20
214.385482
 11
85.329193
 21
219.885482
  0
LINE
  8
CSLAYER17
  6
CONTINUOUS
 62
     6
 10
85.329193
 20
219.885482
 11
85.574813
 21
220.310908
  0
LINE
  8
CSLAYER17
  6
CONTINUOUS
 62
     6
 10
85.574813
 20
220.310908
 11
92.083573
 21
220.310908
  0
ARC
  8
CSLAYER17
  6
CONTINUOUS
 62
     6
 10
86.734896
 20
219.517052
 40
1.405703
 50
145.615753
 51
214.384247
  0
ARC
  8
CSLAYER17
  6
CONTINUOUS
 62
     6
 10
90.583573
 20
217.135482
 40
5.254380
 50
162.412046
 51
197.587954
  0
ARC
  8
CSLAYER17
  6
CONTINUOUS
 62
     6
 10
86.734896
 20
214.753912
 40
1.405703
 50
145.615753
 51
214.384247
  0
LINE
  8
CSLAYER17
  6
CONTINUOUS
 62
     6
 10
92.083573
 20
218.723195
 11
85.574813
 21
218.723195
  0
LINE
  8
CSLAYER17
  6
CONTINUOUS
 62
     6
 10
92.083573
 20
215.547769
 11
85.574813
 21
215.547769
  0
LINE
  8
CSLAYER17
  6
CONTINUOUS
 62
     6
 10
92.083573
 20
155.310908
 11
92.329193
 21
154.885482
  0
LINE
  8
CSLAYER17
  6
CONTINUOUS
 62
     6
 10
92.329193
 20
154.885482
 11
92.329193
 21
149.385482
  0
LINE
  8
CSLAYER17
  6
CONTINUOUS
 62
     6
 10
92.329193
 20
149.385482
 11
92.083573
 21
148.960055
  0
ARC
  8
CSLAYER17
  6
CONTINUOUS
 62
     6
 10
90.923491
 20
154.517052
 40
1.405703
 50
-34.384247
 51
34.384247
  0
ARC
  8
CSLAYER17
  6
CONTINUOUS
 62
     6
 10
87.074813
 20
152.135482
 40
5.254380
 50
-17.587954
 51
17.587954
  0
ARC
  8
CSLAYER17
  6
CONTINUOUS
 62
     6
 10
90.923491
 20
149.753912
 40
1.405703
 50
-34.384247
 51
34.384247
  0
LINE
  8
CSLAYER17
  6
CONTINUOUS
 62
     6
 10
92.083573
 20
148.960055
 11
85.574813
 21
148.960055
  0
LINE
  8
CSLAYER17
  6
CONTINUOUS
 62
     6
 10
85.574813
 20
148.960055
 11
85.329193
 21
149.385482
  0
LINE
  8
CSLAYER17
  6
CONTINUOUS
 62
     6
 10
85.329193
 20
149.385482
 11
85.329193
 21
154.885482
  0
LINE
  8
CSLAYER17
  6
CONTINUOUS
 62
     6
 10
85.329193
 20
154.885482
 11
85.574813
 21
155.310908
  0
LINE
  8
CSLAYER17
  6
CONTINUOUS
 62
     6
 10
85.574813
 20
155.310908
 11
92.083573
 21
155.310908
  0
ARC
  8
CSLAYER17
  6
CONTINUOUS
 62
     6
 10
86.734896
 20
154.517052
 40
1.405703
 50
145.615753
 51
214.384247
  0
ARC
  8
CSLAYER17
  6
CONTINUOUS
 62
     6
 10
90.583573
 20
152.135482
 40
5.254380
 50
162.412046
 51
197.587954
  0
ARC
  8
CSLAYER17
  6
CONTINUOUS
 62
     6
 10
86.734896
 20
149.753912
 40
1.405703
 50
145.615753
 51
214.384247
  0
LINE
  8
CSLAYER17
  6
CONTINUOUS
 62
     6
 10
92.083573
 20
153.723195
 11
85.574813
 21
153.723195
  0
LINE
  8
CSLAYER17
  6
CONTINUOUS
 62
     6
 10
92.083573
 20
150.547769
 11
85.574813
 21
150.547769
  0
ARC
  8
CSLAYER17
  6
CONTINUOUS
 62
     3
 10
179.954193
 20
167.785475
 40
1.500000
 50
-250.528779
 51
70.528779
  0
ARC
  8
CSLAYER17
  6
CONTINUOUS
 62
     3
 10
179.954193
 20
167.785475
 40
1.000000
 50
-240.000000
 51
60.000000
  0
LINE
  8
CSLAYER17
  6
CONTINUOUS
 62
     3
 10
180.454193
 20
169.785475
 11
180.454193
 21
168.285475
  0
LINE
  8
CSLAYER17
  6
CONTINUOUS
 62
     3
 10
179.454193
 20
169.785475
 11
179.454193
 21
168.285475
  0
ARC
  8
CSLAYER17
  6
CONTINUOUS
 62
     3
 10
179.954193
 20
168.285475
 40
0.500000
 50
180.000000
 51
360.000000
  0
ARC
  8
CSLAYER17
  6
CONTINUOUS
 62
     3
 10
179.954193
 20
169.785475
 40
0.500000
 50
0.000000
 51
180.000000
  0
ARC
  8
CSLAYER17
  6
CONTINUOUS
 62
     3
 10
179.954193
 20
155.785475
 40
1.500000
 50
-250.528779
 51
70.528779
  0
ARC
  8
CSLAYER17
  6
CONTINUOUS
 62
     3
 10
179.954193
 20
155.785475
 40
1.000000
 50
-240.000000
 51
60.000000
  0
LINE
  8
CSLAYER17
  6
CONTINUOUS
 62
     3
 10
180.454193
 20
157.785475
 11
180.454193
 21
156.285475
  0
LINE
  8
CSLAYER17
  6
CONTINUOUS
 62
     3
 10
179.454193
 20
157.785475
 11
179.454193
 21
156.285475
  0
ARC
  8
CSLAYER17
  6
CONTINUOUS
 62
     3
 10
179.954193
 20
156.285475
 40
0.500000
 50
180.000000
 51
360.000000
  0
ARC
  8
CSLAYER17
  6
CONTINUOUS
 62
     3
 10
179.954193
 20
157.785475
 40
0.500000
 50
0.000000
 51
180.000000
  0
LINE
  8
CSLAYER1
  6
CENTER
 62
     3
 10
184.829193
 20
87.135482
 11
191.829193
 21
87.135482
  0
LINE
  8
CSLAYER1
  6
CENTER
 62
     3
 10
188.329193
 20
90.635482
 11
188.329193
 21
83.635482
  0
LINE
  8
CSLAYER1
  6
CENTER
 62
     3
 10
284.829193
 20
87.135482
 11
291.829193
 21
87.135482
  0
LINE
  8
CSLAYER1
  6
CENTER
 62
     3
 10
288.329193
 20
90.635482
 11
288.329193
 21
83.635482
  0
LINE
  8
CSLAYER1
  6
CONTINUOUS
 62
     6
 10
295.079193
 20
174.760482
 11
293.579193
 21
174.760482
  0
LINE
  8
CSLAYER1
  6
CONTINUOUS
 62
     6
 10
293.579193
 20
174.260482
 11
293.579193
 21
174.760482
  0
LINE
  8
CSLAYER1
  6
CONTINUOUS
 62
     6
 10
290.079193
 20
174.260482
 11
290.079193
 21
174.760482
  0
LINE
  8
CSLAYER1
  6
CONTINUOUS
 62
     6
 10
290.079193
 20
174.760482
 11
288.579193
 21
174.760482
  0
LINE
  8
CSLAYER1
  6
CONTINUOUS
 62
     6
 10
288.579193
 20
180.510482
 11
290.079193
 21
180.510482
  0
LINE
  8
CSLAYER1
  6
CONTINUOUS
 62
     6
 10
290.079193
 20
181.010482
 11
290.079193
 21
180.510482
  0
LINE
  8
CSLAYER1
  6
CONTINUOUS
 62
     6
 10
293.579193
 20
181.010482
 11
293.579193
 21
180.510482
  0
LINE
  8
CSLAYER1
  6
CONTINUOUS
 62
     6
 10
293.579193
 20
180.510482
 11
295.079193
 21
180.510482
  0
POINT
  8
CSLAYER1
 62
     3
 10
291.829193
 20
177.635482
  0
ARC
  8
CSLAYER1
  6
CONTINUOUS
 62
     6
 10
291.829193
 20
177.635482
 40
2.000000
 50
41.409622
 51
318.590378
  0
LINE
  8
CSLAYER1
  6
CONTINUOUS
 62
     6
 10
293.329193
 20
175.812606
 11
293.329193
 21
176.312606
  0
LINE
  8
CSLAYER1
  6
CONTINUOUS
 62
     6
 10
293.329193
 20
178.958357
 11
293.329193
 21
179.458357
  0
LINE
  8
CSLAYER1
  6
CONTINUOUS
 62
     6
 10
289.829193
 20
177.635482
 11
289.329193
 21
177.635482
  0
LINE
  8
CSLAYER1
  6
CONTINUOUS
 62
     6
 10
290.097142
 20
176.635482
 11
289.664130
 21
176.385482
  0
LINE
  8
CSLAYER1
  6
CONTINUOUS
 62
     6
 10
290.829193
 20
175.903431
 11
290.579193
 21
175.470418
  0
LINE
  8
CSLAYER1
  6
CONTINUOUS
 62
     6
 10
291.829193
 20
175.635482
 11
291.829193
 21
175.135482
  0
LINE
  8
CSLAYER1
  6
CONTINUOUS
 62
     6
 10
292.829193
 20
175.903431
 11
293.079193
 21
175.470418
  0
LINE
  8
CSLAYER1
  6
CONTINUOUS
 62
     6
 10
290.097142
 20
178.635482
 11
289.664130
 21
178.885482
  0
LINE
  8
CSLAYER1
  6
CONTINUOUS
 62
     6
 10
290.829193
 20
179.367533
 11
290.579193
 21
179.800545
  0
LINE
  8
CSLAYER1
  6
CONTINUOUS
 62
     6
 10
291.829193
 20
179.635482
 11
291.829193
 21
180.135482
  0
LINE
  8
CSLAYER1
  6
CONTINUOUS
 62
     6
 10
292.829193
 20
179.367533
 11
293.079193
 21
179.800545
  0
LINE
  8
CSLAYER1
  6
CONTINUOUS
 62
     6
 10
295.079193
 20
182.260482
 11
293.579193
 21
182.260482
  0
LINE
  8
CSLAYER1
  6
CONTINUOUS
 62
     6
 10
293.579193
 20
181.760482
 11
293.579193
 21
182.260482
  0
LINE
  8
CSLAYER1
  6
CONTINUOUS
 62
     6
 10
290.079193
 20
181.760482
 11
290.079193
 21
182.260482
  0
LINE
  8
CSLAYER1
  6
CONTINUOUS
 62
     6
 10
290.079193
 20
182.260482
 11
288.579193
 21
182.260482
  0
LINE
  8
CSLAYER1
  6
CONTINUOUS
 62
     6
 10
288.579193
 20
188.010482
 11
290.079193
 21
188.010482
  0
LINE
  8
CSLAYER1
  6
CONTINUOUS
 62
     6
 10
290.079193
 20
188.510482
 11
290.079193
 21
188.010482
  0
LINE
  8
CSLAYER1
  6
CONTINUOUS
 62
     6
 10
293.579193
 20
188.510482
 11
293.579193
 21
188.010482
  0
LINE
  8
CSLAYER1
  6
CONTINUOUS
 62
     6
 10
293.579193
 20
188.010482
 11
295.079193
 21
188.010482
  0
POINT
  8
CSLAYER1
 62
     3
 10
291.829193
 20
185.135482
  0
ARC
  8
CSLAYER1
  6
CONTINUOUS
 62
     6
 10
291.829193
 20
185.135482
 40
2.000000
 50
41.409622
 51
318.590378
  0
LINE
  8
CSLAYER1
  6
CONTINUOUS
 62
     6
 10
293.329193
 20
183.312606
 11
293.329193
 21
183.812606
  0
LINE
  8
CSLAYER1
  6
CONTINUOUS
 62
     6
 10
293.329193
 20
186.458357
 11
293.329193
 21
186.958357
  0
LINE
  8
CSLAYER1
  6
CONTINUOUS
 62
     6
 10
289.829193
 20
185.135482
 11
289.329193
 21
185.135482
  0
LINE
  8
CSLAYER1
  6
CONTINUOUS
 62
     6
 10
290.097142
 20
184.135482
 11
289.664130
 21
183.885482
  0
LINE
  8
CSLAYER1
  6
CONTINUOUS
 62
     6
 10
290.829193
 20
183.403431
 11
290.579193
 21
182.970418
  0
LINE
  8
CSLAYER1
  6
CONTINUOUS
 62
     6
 10
291.829193
 20
183.135482
 11
291.829193
 21
182.635482
  0
LINE
  8
CSLAYER1
  6
CONTINUOUS
 62
     6
 10
292.829193
 20
183.403431
 11
293.079193
 21
182.970418
  0
LINE
  8
CSLAYER1
  6
CONTINUOUS
 62
     6
 10
290.097142
 20
186.135482
 11
289.664130
 21
186.385482
  0
LINE
  8
CSLAYER1
  6
CONTINUOUS
 62
     6
 10
290.829193
 20
186.867533
 11
290.579193
 21
187.300545
  0
LINE
  8
CSLAYER1
  6
CONTINUOUS
 62
     6
 10
291.829193
 20
187.135482
 11
291.829193
 21
187.635482
  0
LINE
  8
CSLAYER1
  6
CONTINUOUS
 62
     6
 10
292.829193
 20
186.867533
 11
293.079193
 21
187.300545
  0
LINE
  8
CSLAYER1
  6
CONTINUOUS
 62
     6
 10
287.579193
 20
174.760482
 11
286.079193
 21
174.760482
  0
LINE
  8
CSLAYER1
  6
CONTINUOUS
 62
     6
 10
286.079193
 20
174.260482
 11
286.079193
 21
174.760482
  0
LINE
  8
CSLAYER1
  6
CONTINUOUS
 62
     6
 10
282.579193
 20
174.260482
 11
282.579193
 21
174.760482
  0
LINE
  8
CSLAYER1
  6
CONTINUOUS
 62
     6
 10
282.579193
 20
174.760482
 11
281.079193
 21
174.760482
  0
LINE
  8
CSLAYER1
  6
CONTINUOUS
 62
     6
 10
281.079193
 20
180.510482
 11
282.579193
 21
180.510482
  0
LINE
  8
CSLAYER1
  6
CONTINUOUS
 62
     6
 10
282.579193
 20
181.010482
 11
282.579193
 21
180.510482
  0
LINE
  8
CSLAYER1
  6
CONTINUOUS
 62
     6
 10
286.079193
 20
181.010482
 11
286.079193
 21
180.510482
  0
LINE
  8
CSLAYER1
  6
CONTINUOUS
 62
     6
 10
286.079193
 20
180.510482
 11
287.579193
 21
180.510482
  0
POINT
  8
CSLAYER1
 62
     3
 10
284.329193
 20
177.635482
  0
ARC
  8
CSLAYER1
  6
CONTINUOUS
 62
     6
 10
284.329193
 20
177.635482
 40
2.000000
 50
41.409622
 51
318.590378
  0
LINE
  8
CSLAYER1
  6
CONTINUOUS
 62
     6
 10
285.829193
 20
175.812606
 11
285.829193
 21
176.312606
  0
LINE
  8
CSLAYER1
  6
CONTINUOUS
 62
     6
 10
285.829193
 20
178.958357
 11
285.829193
 21
179.458357
  0
LINE
  8
CSLAYER1
  6
CONTINUOUS
 62
     6
 10
282.329193
 20
177.635482
 11
281.829193
 21
177.635482
  0
LINE
  8
CSLAYER1
  6
CONTINUOUS
 62
     6
 10
282.597142
 20
176.635482
 11
282.164130
 21
176.385482
  0
LINE
  8
CSLAYER1
  6
CONTINUOUS
 62
     6
 10
283.329193
 20
175.903431
 11
283.079193
 21
175.470418
  0
LINE
  8
CSLAYER1
  6
CONTINUOUS
 62
     6
 10
284.329193
 20
175.635482
 11
284.329193
 21
175.135482
  0
LINE
  8
CSLAYER1
  6
CONTINUOUS
 62
     6
 10
285.329193
 20
175.903431
 11
285.579193
 21
175.470418
  0
LINE
  8
CSLAYER1
  6
CONTINUOUS
 62
     6
 10
282.597142
 20
178.635482
 11
282.164130
 21
178.885482
  0
LINE
  8
CSLAYER1
  6
CONTINUOUS
 62
     6
 10
283.329193
 20
179.367533
 11
283.079193
 21
179.800545
  0
LINE
  8
CSLAYER1
  6
CONTINUOUS
 62
     6
 10
284.329193
 20
179.635482
 11
284.329193
 21
180.135482
  0
LINE
  8
CSLAYER1
  6
CONTINUOUS
 62
     6
 10
285.329193
 20
179.367533
 11
285.579193
 21
179.800545
  0
LINE
  8
CSLAYER1
  6
CONTINUOUS
 62
     6
 10
295.079193
 20
190.260482
 11
293.579193
 21
190.260482
  0
LINE
  8
CSLAYER1
  6
CONTINUOUS
 62
     6
 10
293.579193
 20
189.760482
 11
293.579193
 21
190.260482
  0
LINE
  8
CSLAYER1
  6
CONTINUOUS
 62
     6
 10
290.079193
 20
189.760482
 11
290.079193
 21
190.260482
  0
LINE
  8
CSLAYER1
  6
CONTINUOUS
 62
     6
 10
290.079193
 20
190.260482
 11
288.579193
 21
190.260482
  0
LINE
  8
CSLAYER1
  6
CONTINUOUS
 62
     6
 10
288.579193
 20
196.010482
 11
290.079193
 21
196.010482
  0
LINE
  8
CSLAYER1
  6
CONTINUOUS
 62
     6
 10
290.079193
 20
196.510482
 11
290.079193
 21
196.010482
  0
LINE
  8
CSLAYER1
  6
CONTINUOUS
 62
     6
 10
293.579193
 20
196.510482
 11
293.579193
 21
196.010482
  0
LINE
  8
CSLAYER1
  6
CONTINUOUS
 62
     6
 10
293.579193
 20
196.010482
 11
295.079193
 21
196.010482
  0
POINT
  8
CSLAYER1
 62
     3
 10
291.829193
 20
193.135482
  0
ARC
  8
CSLAYER1
  6
CONTINUOUS
 62
     6
 10
291.829193
 20
193.135482
 40
2.000000
 50
41.409622
 51
318.590378
  0
LINE
  8
CSLAYER1
  6
CONTINUOUS
 62
     6
 10
293.329193
 20
191.312606
 11
293.329193
 21
191.812606
  0
LINE
  8
CSLAYER1
  6
CONTINUOUS
 62
     6
 10
293.329193
 20
194.458357
 11
293.329193
 21
194.958357
  0
LINE
  8
CSLAYER1
  6
CONTINUOUS
 62
     6
 10
289.829193
 20
193.135482
 11
289.329193
 21
193.135482
  0
LINE
  8
CSLAYER1
  6
CONTINUOUS
 62
     6
 10
290.829193
 20
191.403431
 11
290.579193
 21
190.970418
  0
LINE
  8
CSLAYER1
  6
CONTINUOUS
 62
     6
 10
291.829193
 20
191.135482
 11
291.829193
 21
190.635482
  0
LINE
  8
CSLAYER1
  6
CONTINUOUS
 62
     6
 10
292.829193
 20
191.403431
 11
293.079193
 21
190.970418
  0
LINE
  8
CSLAYER1
  6
CONTINUOUS
 62
     6
 10
290.097142
 20
194.135482
 11
289.664130
 21
194.385482
  0
LINE
  8
CSLAYER1
  6
CONTINUOUS
 62
     6
 10
290.829193
 20
194.867533
 11
290.579193
 21
195.300545
  0
LINE
  8
CSLAYER1
  6
CONTINUOUS
 62
     6
 10
291.829193
 20
195.135482
 11
291.829193
 21
195.635482
  0
LINE
  8
CSLAYER1
  6
CONTINUOUS
 62
     6
 10
292.829193
 20
194.867533
 11
293.079193
 21
195.300545
  0
LINE
  8
CSLAYER1
  6
CONTINUOUS
 62
     6
 10
288.579193
 20
174.260482
 11
288.579193
 21
181.010482
  0
LINE
  8
CSLAYER1
  6
CONTINUOUS
 62
     6
 10
295.079193
 20
174.260482
 11
295.079193
 21
181.010482
  0
LINE
  8
CSLAYER1
  6
CONTINUOUS
 62
     6
 10
295.079193
 20
174.260482
 11
288.579193
 21
174.260482
  0
LINE
  8
CSLAYER1
  6
CONTINUOUS
 62
     6
 10
295.079193
 20
181.010482
 11
288.579193
 21
181.010482
  0
LINE
  8
CSLAYER1
  6
CONTINUOUS
 62
     6
 10
288.579193
 20
181.760482
 11
288.579193
 21
188.510482
  0
LINE
  8
CSLAYER1
  6
CONTINUOUS
 62
     6
 10
295.079193
 20
181.760482
 11
295.079193
 21
188.510482
  0
LINE
  8
CSLAYER1
  6
CONTINUOUS
 62
     6
 10
295.079193
 20
181.760482
 11
288.579193
 21
181.760482
  0
LINE
  8
CSLAYER1
  6
CONTINUOUS
 62
     6
 10
295.079193
 20
188.510482
 11
288.579193
 21
188.510482
  0
LINE
  8
CSLAYER1
  6
CONTINUOUS
 62
     6
 10
281.079193
 20
174.260482
 11
281.079193
 21
181.010482
  0
LINE
  8
CSLAYER1
  6
CONTINUOUS
 62
     6
 10
287.579193
 20
174.260482
 11
287.579193
 21
181.010482
  0
LINE
  8
CSLAYER1
  6
CONTINUOUS
 62
     6
 10
287.579193
 20
174.260482
 11
281.079193
 21
174.260482
  0
LINE
  8
CSLAYER1
  6
CONTINUOUS
 62
     6
 10
287.579193
 20
181.010482
 11
281.079193
 21
181.010482
  0
LINE
  8
CSLAYER1
  6
CONTINUOUS
 62
     6
 10
288.579193
 20
189.760482
 11
288.579193
 21
196.510482
  0
LINE
  8
CSLAYER1
  6
CONTINUOUS
 62
     6
 10
295.079193
 20
189.760482
 11
295.079193
 21
196.510482
  0
LINE
  8
CSLAYER1
  6
CONTINUOUS
 62
     6
 10
295.079193
 20
189.760482
 11
288.579193
 21
189.760482
  0
LINE
  8
CSLAYER1
  6
CONTINUOUS
 62
     6
 10
295.079193
 20
196.510482
 11
288.579193
 21
196.510482
  0
LINE
  8
CSLAYER1
  6
CONTINUOUS
 62
     6
 10
193.329193
 20
168.135482
 11
291.461037
 21
168.135482
  0
LINE
  8
CSLAYER1
  6
CONTINUOUS
 62
     6
 10
291.461037
 20
168.135482
 11
291.461037
 21
148.635482
  0
LINE
  8
CSLAYER1
  6
CONTINUOUS
 62
     6
 10
288.461037
 20
159.671655
 11
288.461037
 21
148.635482
  0
ARC
  8
CSLAYER1
  6
CONTINUOUS
 62
     6
 10
289.961037
 20
148.635482
 40
1.500000
 50
-180.000000
 51
0.000000
  0
LINE
  8
CSLAYER1
  6
CONTINUOUS
 62
     6
 10
193.329193
 20
168.135482
 11
193.329193
 21
148.635482
  0
ARC
  8
CSLAYER1
  6
CONTINUOUS
 62
     6
 10
194.829193
 20
148.635482
 40
1.500000
 50
-180.000000
 51
0.000000
  0
LINE
  8
CSLAYER1
  6
CONTINUOUS
 62
     6
 10
283.533384
 20
159.671655
 11
283.533384
 21
148.635482
  0
ARC
  8
CSLAYER1
  6
CONTINUOUS
 62
     6
 10
285.997211
 20
159.671655
 40
2.463827
 50
0.000000
 51
180.000000
  0
LINE
  8
CSLAYER1
  6
CONTINUOUS
 62
     6
 10
280.533384
 20
159.671655
 11
280.533384
 21
148.635482
  0
ARC
  8
CSLAYER1
  6
CONTINUOUS
 62
     6
 10
282.033384
 20
148.635482
 40
1.500000
 50
-180.000000
 51
0.000000
  0
LINE
  8
CSLAYER1
  6
CONTINUOUS
 62
     6
 10
275.605730
 20
159.671655
 11
275.605730
 21
148.635482
  0
ARC
  8
CSLAYER1
  6
CONTINUOUS
 62
     6
 10
278.069557
 20
159.671655
 40
2.463827
 50
0.000000
 51
180.000000
  0
LINE
  8
CSLAYER1
  6
CONTINUOUS
 62
     6
 10
272.605730
 20
159.671655
 11
272.605730
 21
148.635482
  0
ARC
  8
CSLAYER1
  6
CONTINUOUS
 62
     6
 10
274.105730
 20
148.635482
 40
1.500000
 50
-180.000000
 51
0.000000
  0
LINE
  8
CSLAYER1
  6
CONTINUOUS
 62
     6
 10
267.678076
 20
159.671655
 11
267.678076
 21
148.635482
  0
ARC
  8
CSLAYER1
  6
CONTINUOUS
 62
     6
 10
270.141903
 20
159.671655
 40
2.463827
 50
0.000000
 51
180.000000
  0
LINE
  8
CSLAYER1
  6
CONTINUOUS
 62
     6
 10
264.678076
 20
159.671655
 11
264.678076
 21
148.635482
  0
ARC
  8
CSLAYER1
  6
CONTINUOUS
 62
     6
 10
266.178076
 20
148.635482
 40
1.500000
 50
-180.000000
 51
0.000000
  0
LINE
  8
CSLAYER1
  6
CONTINUOUS
 62
     6
 10
259.750423
 20
159.671655
 11
259.750423
 21
148.635482
  0
ARC
  8
CSLAYER1
  6
CONTINUOUS
 62
     6
 10
262.214249
 20
159.671655
 40
2.463827
 50
0.000000
 51
180.000000
  0
LINE
  8
CSLAYER1
  6
CONTINUOUS
 62
     6
 10
256.750423
 20
159.671655
 11
256.750423
 21
148.635482
  0
ARC
  8
CSLAYER1
  6
CONTINUOUS
 62
     6
 10
258.250423
 20
148.635482
 40
1.500000
 50
-180.000000
 51
0.000000
  0
LINE
  8
CSLAYER1
  6
CONTINUOUS
 62
     6
 10
251.822769
 20
159.671655
 11
251.822769
 21
148.635482
  0
ARC
  8
CSLAYER1
  6
CONTINUOUS
 62
     6
 10
254.286596
 20
159.671655
 40
2.463827
 50
0.000000
 51
180.000000
  0
LINE
  8
CSLAYER1
  6
CONTINUOUS
 62
     6
 10
248.822769
 20
159.671655
 11
248.822769
 21
148.635482
  0
ARC
  8
CSLAYER1
  6
CONTINUOUS
 62
     6
 10
250.322769
 20
148.635482
 40
1.500000
 50
-180.000000
 51
0.000000
  0
LINE
  8
CSLAYER1
  6
CONTINUOUS
 62
     6
 10
243.895115
 20
159.671655
 11
243.895115
 21
148.635482
  0
ARC
  8
CSLAYER1
  6
CONTINUOUS
 62
     6
 10
246.358942
 20
159.671655
 40
2.463827
 50
0.000000
 51
180.000000
  0
LINE
  8
CSLAYER1
  6
CONTINUOUS
 62
     6
 10
240.895115
 20
159.671655
 11
240.895115
 21
148.635482
  0
ARC
  8
CSLAYER1
  6
CONTINUOUS
 62
     6
 10
242.395115
 20
148.635482
 40
1.500000
 50
-180.000000
 51
0.000000
  0
LINE
  8
CSLAYER1
  6
CONTINUOUS
 62
     6
 10
235.967462
 20
159.671655
 11
235.967462
 21
148.635482
  0
ARC
  8
CSLAYER1
  6
CONTINUOUS
 62
     6
 10
238.431288
 20
159.671655
 40
2.463827
 50
0.000000
 51
180.000000
  0
LINE
  8
CSLAYER1
  6
CONTINUOUS
 62
     6
 10
232.967462
 20
159.671655
 11
232.967462
 21
148.635482
  0
ARC
  8
CSLAYER1
  6
CONTINUOUS
 62
     6
 10
234.467462
 20
148.635482
 40
1.500000
 50
-180.000000
 51
0.000000
  0
LINE
  8
CSLAYER1
  6
CONTINUOUS
 62
     6
 10
228.039808
 20
159.671655
 11
228.039808
 21
148.635482
  0
ARC
  8
CSLAYER1
  6
CONTINUOUS
 62
     6
 10
230.503635
 20
159.671655
 40
2.463827
 50
0.000000
 51
180.000000
  0
LINE
  8
CSLAYER1
  6
CONTINUOUS
 62
     6
 10
225.039808
 20
159.671655
 11
225.039808
 21
148.635482
  0
ARC
  8
CSLAYER1
  6
CONTINUOUS
 62
     6
 10
226.539808
 20
148.635482
 40
1.500000
 50
-180.000000
 51
0.000000
  0
LINE
  8
CSLAYER1
  6
CONTINUOUS
 62
     6
 10
220.112154
 20
159.671655
 11
220.112154
 21
148.635482
  0
ARC
  8
CSLAYER1
  6
CONTINUOUS
 62
     6
 10
222.575981
 20
159.671655
 40
2.463827
 50
0.000000
 51
180.000000
  0
LINE
  8
CSLAYER1
  6
CONTINUOUS
 62
     6
 10
217.112154
 20
159.671655
 11
217.112154
 21
148.635482
  0
ARC
  8
CSLAYER1
  6
CONTINUOUS
 62
     6
 10
218.612154
 20
148.635482
 40
1.500000
 50
-180.000000
 51
0.000000
  0
LINE
  8
CSLAYER1
  6
CONTINUOUS
 62
     6
 10
212.184501
 20
159.671655
 11
212.184501
 21
148.635482
  0
ARC
  8
CSLAYER1
  6
CONTINUOUS
 62
     6
 10
214.648327
 20
159.671655
 40
2.463827
 50
0.000000
 51
180.000000
  0
LINE
  8
CSLAYER1
  6
CONTINUOUS
 62
     6
 10
209.184501
 20
159.671655
 11
209.184501
 21
148.635482
  0
ARC
  8
CSLAYER1
  6
CONTINUOUS
 62
     6
 10
210.684501
 20
148.635482
 40
1.500000
 50
-180.000000
 51
0.000000
  0
LINE
  8
CSLAYER1
  6
CONTINUOUS
 62
     6
 10
204.256847
 20
159.671655
 11
204.256847
 21
148.635482
  0
ARC
  8
CSLAYER1
  6
CONTINUOUS
 62
     6
 10
206.720674
 20
159.671655
 40
2.463827
 50
0.000000
 51
180.000000
  0
LINE
  8
CSLAYER1
  6
CONTINUOUS
 62
     6
 10
201.256847
 20
159.671655
 11
201.256847
 21
148.635482
  0
ARC
  8
CSLAYER1
  6
CONTINUOUS
 62
     6
 10
202.756847
 20
148.635482
 40
1.500000
 50
-180.000000
 51
0.000000
  0
LINE
  8
CSLAYER1
  6
CONTINUOUS
 62
     6
 10
196.329193
 20
159.671655
 11
196.329193
 21
148.635482
  0
ARC
  8
CSLAYER1
  6
CONTINUOUS
 62
     6
 10
198.793020
 20
159.671655
 40
2.463827
 50
0.000000
 51
180.000000
  0
LINE
  8
CSLAYER1
  6
CONTINUOUS
 62
     6
 10
291.957873
 20
199.631802
 11
291.957873
 21
209.631802
  0
LINE
  8
CSLAYER1
  6
CONTINUOUS
 62
     6
 10
290.957873
 20
210.631802
 11
263.957873
 21
210.631802
  0
LINE
  8
CSLAYER1
  6
CONTINUOUS
 62
     6
 10
262.957873
 20
209.631802
 11
262.957873
 21
199.631802
  0
LINE
  8
CSLAYER1
  6
CONTINUOUS
 62
     6
 10
263.957873
 20
198.631802
 11
290.957873
 21
198.631802
  0
LINE
  8
CSLAYER1
  6
CONTINUOUS
 62
     6
 10
286.457873
 20
194.131802
 11
286.457873
 21
198.631802
  0
LINE
  8
CSLAYER1
  6
CONTINUOUS
 62
     6
 10
284.457873
 20
217.131802
 11
270.457873
 21
217.131802
  0
LINE
  8
CSLAYER1
  6
CONTINUOUS
 62
     6
 10
268.457873
 20
215.131802
 11
268.457873
 21
210.631802
  0
LINE
  8
CSLAYER1
  6
CONTINUOUS
 62
     6
 10
270.457873
 20
192.131802
 11
284.457873
 21
192.131802
  0
LINE
  8
CSLAYER1
  6
CONTINUOUS
 62
     6
 10
286.457873
 20
210.631802
 11
286.457873
 21
215.131802
  0
LINE
  8
CSLAYER1
  6
CONTINUOUS
 62
     6
 10
268.457873
 20
198.631802
 11
268.457873
 21
194.131802
  0
ARC
  8
CSLAYER1
  6
CONTINUOUS
 62
     6
 10
284.457873
 20
215.131802
 40
2.000000
 50
0.000000
 51
90.000000
  0
ARC
  8
CSLAYER1
  6
CONTINUOUS
 62
     6
 10
270.457873
 20
215.131802
 40
2.000000
 50
90.000000
 51
180.000000
  0
ARC
  8
CSLAYER1
  6
CONTINUOUS
 62
     6
 10
270.457873
 20
194.131802
 40
2.000000
 50
180.000000
 51
270.000000
  0
ARC
  8
CSLAYER1
  6
CONTINUOUS
 62
     6
 10
284.457873
 20
194.131802
 40
2.000000
 50
270.000000
 51
360.000000
  0
ARC
  8
CSLAYER1
  6
CONTINUOUS
 62
     6
 10
290.957873
 20
209.631802
 40
1.000000
 50
0.000000
 51
90.000000
  0
ARC
  8
CSLAYER1
  6
CONTINUOUS
 62
     6
 10
263.957873
 20
209.631802
 40
1.000000
 50
90.000000
 51
180.000000
  0
ARC
  8
CSLAYER1
  6
CONTINUOUS
 62
     6
 10
263.957873
 20
199.631802
 40
1.000000
 50
180.000000
 51
270.000000
  0
ARC
  8
CSLAYER1
  6
CONTINUOUS
 62
     6
 10
290.957873
 20
199.631802
 40
1.000000
 50
270.000000
 51
360.000000
  0
CIRCLE
  8
CSLAYER1
  6
CONTINUOUS
 62
     6
 10
243.957873
 20
194.631802
 40
13.000000
  0
LINE
  8
CSLAYER1
  6
CONTINUOUS
 62
     6
 10
213.980752
 20
220.025659
 11
203.980752
 21
220.025659
  0
LINE
  8
CSLAYER1
  6
CONTINUOUS
 62
     6
 10
202.980752
 20
219.025659
 11
202.980752
 21
192.025659
  0
LINE
  8
CSLAYER1
  6
CONTINUOUS
 62
     6
 10
203.980752
 20
191.025659
 11
213.980752
 21
191.025659
  0
LINE
  8
CSLAYER1
  6
CONTINUOUS
 62
     6
 10
214.980752
 20
192.025659
 11
214.980752
 21
219.025659
  0
LINE
  8
CSLAYER1
  6
CONTINUOUS
 62
     6
 10
219.480752
 20
214.525659
 11
214.980752
 21
214.525659
  0
LINE
  8
CSLAYER1
  6
CONTINUOUS
 62
     6
 10
196.480752
 20
212.525659
 11
196.480752
 21
198.525659
  0
LINE
  8
CSLAYER1
  6
CONTINUOUS
 62
     6
 10
198.480752
 20
196.525659
 11
202.980752
 21
196.525659
  0
LINE
  8
CSLAYER1
  6
CONTINUOUS
 62
     6
 10
221.480752
 20
198.525659
 11
221.480752
 21
212.525659
  0
LINE
  8
CSLAYER1
  6
CONTINUOUS
 62
     6
 10
202.980752
 20
214.525659
 11
198.480752
 21
214.525659
  0
LINE
  8
CSLAYER1
  6
CONTINUOUS
 62
     6
 10
214.980752
 20
196.525659
 11
219.480752
 21
196.525659
  0
ARC
  8
CSLAYER1
  6
CONTINUOUS
 62
     6
 10
198.480752
 20
212.525659
 40
2.000000
 50
90.000000
 51
180.000000
  0
ARC
  8
CSLAYER1
  6
CONTINUOUS
 62
     6
 10
198.480752
 20
198.525659
 40
2.000000
 50
180.000000
 51
270.000000
  0
ARC
  8
CSLAYER1
  6
CONTINUOUS
 62
     6
 10
219.480752
 20
198.525659
 40
2.000000
 50
270.000000
 51
360.000000
  0
ARC
  8
CSLAYER1
  6
CONTINUOUS
 62
     6
 10
219.480752
 20
212.525659
 40
2.000000
 50
0.000000
 51
90.000000
  0
ARC
  8
CSLAYER1
  6
CONTINUOUS
 62
     6
 10
203.980752
 20
219.025659
 40
1.000000
 50
90.000000
 51
180.000000
  0
ARC
  8
CSLAYER1
  6
CONTINUOUS
 62
     6
 10
203.980752
 20
192.025659
 40
1.000000
 50
180.000000
 51
270.000000
  0
ARC
  8
CSLAYER1
  6
CONTINUOUS
 62
     6
 10
213.980752
 20
192.025659
 40
1.000000
 50
270.000000
 51
360.000000
  0
ARC
  8
CSLAYER1
  6
CONTINUOUS
 62
     6
 10
213.980752
 20
219.025659
 40
1.000000
 50
0.000000
 51
90.000000
  0
LINE
  8
CSLAYER1
  6
CONTINUOUS
 62
     6
 10
186.995860
 20
194.885475
 11
186.995860
 21
214.885475
  0
LINE
  8
CSLAYER1
  6
CONTINUOUS
 62
     6
 10
186.995860
 20
214.885475
 11
183.662526
 21
214.885475
  0
LINE
  8
CSLAYER1
  6
CONTINUOUS
 62
     6
 10
186.995860
 20
194.885475
 11
183.662526
 21
194.885475
  0
LINE
  8
CSLAYER1
  6
CONTINUOUS
 62
     6
 10
183.662526
 20
194.885475
 11
183.662526
 21
214.885475
  0
LINE
  8
CSLAYER1
  6
CONTINUOUS
 62
     6
 10
186.995860
 20
199.218809
 11
183.662526
 21
199.218809
  0
LINE
  8
CSLAYER1
  6
CONTINUOUS
 62
     6
 10
186.995860
 20
210.552142
 11
183.662526
 21
210.552142
  0
LINE
  8
CSLAYER1
  6
CONTINUOUS
 62
     6
 10
190.829193
 20
165.010475
 11
189.329193
 21
165.010475
  0
LINE
  8
CSLAYER1
  6
CONTINUOUS
 62
     6
 10
189.329193
 20
164.510475
 11
189.329193
 21
165.010475
  0
LINE
  8
CSLAYER1
  6
CONTINUOUS
 62
     6
 10
185.829193
 20
164.510475
 11
185.829193
 21
165.010475
  0
LINE
  8
CSLAYER1
  6
CONTINUOUS
 62
     6
 10
185.829193
 20
165.010475
 11
184.329193
 21
165.010475
  0
LINE
  8
CSLAYER1
  6
CONTINUOUS
 62
     6
 10
184.329193
 20
170.760475
 11
185.829193
 21
170.760475
  0
LINE
  8
CSLAYER1
  6
CONTINUOUS
 62
     6
 10
185.829193
 20
171.260475
 11
185.829193
 21
170.760475
  0
LINE
  8
CSLAYER1
  6
CONTINUOUS
 62
     6
 10
189.329193
 20
171.260475
 11
189.329193
 21
170.760475
  0
LINE
  8
CSLAYER1
  6
CONTINUOUS
 62
     6
 10
189.329193
 20
170.760475
 11
190.829193
 21
170.760475
  0
POINT
  8
CSLAYER1
 62
     3
 10
187.579193
 20
167.885475
  0
ARC
  8
CSLAYER1
  6
CONTINUOUS
 62
     6
 10
187.579193
 20
167.885475
 40
2.000000
 50
41.409622
 51
318.590378
  0
LINE
  8
CSLAYER1
  6
CONTINUOUS
 62
     6
 10
189.079193
 20
166.062600
 11
189.079193
 21
166.562600
  0
LINE
  8
CSLAYER1
  6
CONTINUOUS
 62
     6
 10
189.079193
 20
169.208351
 11
189.079193
 21
169.708351
  0
LINE
  8
CSLAYER1
  6
CONTINUOUS
 62
     6
 10
185.579193
 20
167.885475
 11
185.079193
 21
167.885475
  0
LINE
  8
CSLAYER1
  6
CONTINUOUS
 62
     6
 10
185.847142
 20
166.885475
 11
185.414130
 21
166.635475
  0
LINE
  8
CSLAYER1
  6
CONTINUOUS
 62
     6
 10
186.579193
 20
166.153424
 11
186.329193
 21
165.720412
  0
LINE
  8
CSLAYER1
  6
CONTINUOUS
 62
     6
 10
187.579193
 20
165.885475
 11
187.579193
 21
165.385475
  0
LINE
  8
CSLAYER1
  6
CONTINUOUS
 62
     6
 10
188.579193
 20
166.153424
 11
188.829193
 21
165.720412
  0
LINE
  8
CSLAYER1
  6
CONTINUOUS
 62
     6
 10
185.847142
 20
168.885475
 11
185.414130
 21
169.135475
  0
LINE
  8
CSLAYER1
  6
CONTINUOUS
 62
     6
 10
186.579193
 20
169.617526
 11
186.329193
 21
170.050539
  0
LINE
  8
CSLAYER1
  6
CONTINUOUS
 62
     6
 10
187.579193
 20
169.885475
 11
187.579193
 21
170.385475
  0
LINE
  8
CSLAYER1
  6
CONTINUOUS
 62
     6
 10
188.579193
 20
169.617526
 11
188.829193
 21
170.050539
  0
LINE
  8
CSLAYER1
  6
CONTINUOUS
 62
     6
 10
184.329193
 20
164.510475
 11
184.329193
 21
171.260475
  0
LINE
  8
CSLAYER1
  6
CONTINUOUS
 62
     6
 10
190.829193
 20
164.510475
 11
190.829193
 21
171.260475
  0
LINE
  8
CSLAYER1
  6
CONTINUOUS
 62
     6
 10
190.829193
 20
164.510475
 11
184.329193
 21
164.510475
  0
LINE
  8
CSLAYER1
  6
CONTINUOUS
 62
     6
 10
190.829193
 20
171.260475
 11
184.329193
 21
171.260475
  0
LINE
  8
CSLAYER1
  6
CONTINUOUS
 62
     6
 10
196.022508
 20
187.231132
 11
194.522508
 21
187.231132
  0
LINE
  8
CSLAYER1
  6
CONTINUOUS
 62
     6
 10
194.522508
 20
186.731132
 11
194.522508
 21
187.231132
  0
LINE
  8
CSLAYER1
  6
CONTINUOUS
 62
     6
 10
191.022508
 20
186.731132
 11
191.022508
 21
187.231132
  0
LINE
  8
CSLAYER1
  6
CONTINUOUS
 62
     6
 10
191.022508
 20
187.231132
 11
189.522508
 21
187.231132
  0
LINE
  8
CSLAYER1
  6
CONTINUOUS
 62
     6
 10
189.522508
 20
192.981132
 11
191.022508
 21
192.981132
  0
LINE
  8
CSLAYER1
  6
CONTINUOUS
 62
     6
 10
191.022508
 20
193.481132
 11
191.022508
 21
192.981132
  0
LINE
  8
CSLAYER1
  6
CONTINUOUS
 62
     6
 10
194.522508
 20
193.481132
 11
194.522508
 21
192.981132
  0
LINE
  8
CSLAYER1
  6
CONTINUOUS
 62
     6
 10
194.522508
 20
192.981132
 11
196.022508
 21
192.981132
  0
POINT
  8
CSLAYER1
 62
     3
 10
192.772508
 20
190.106132
  0
ARC
  8
CSLAYER1
  6
CONTINUOUS
 62
     6
 10
192.772508
 20
190.106132
 40
2.000000
 50
41.409622
 51
318.590378
  0
LINE
  8
CSLAYER1
  6
CONTINUOUS
 62
     6
 10
194.272508
 20
188.283256
 11
194.272508
 21
188.783256
  0
LINE
  8
CSLAYER1
  6
CONTINUOUS
 62
     6
 10
194.272508
 20
191.429008
 11
194.272508
 21
191.929008
  0
LINE
  8
CSLAYER1
  6
CONTINUOUS
 62
     6
 10
190.772508
 20
190.106132
 11
190.272508
 21
190.106132
  0
LINE
  8
CSLAYER1
  6
CONTINUOUS
 62
     6
 10
191.040458
 20
189.106132
 11
190.607445
 21
188.856132
  0
LINE
  8
CSLAYER1
  6
CONTINUOUS
 62
     6
 10
191.772508
 20
188.374081
 11
191.522508
 21
187.941069
  0
LINE
  8
CSLAYER1
  6
CONTINUOUS
 62
     6
 10
192.772508
 20
188.106132
 11
192.772508
 21
187.606132
  0
LINE
  8
CSLAYER1
  6
CONTINUOUS
 62
     6
 10
193.772508
 20
188.374081
 11
194.022508
 21
187.941069
  0
LINE
  8
CSLAYER1
  6
CONTINUOUS
 62
     6
 10
191.040458
 20
191.106132
 11
190.607445
 21
191.356132
  0
LINE
  8
CSLAYER1
  6
CONTINUOUS
 62
     6
 10
191.772508
 20
191.838183
 11
191.522508
 21
192.271196
  0
LINE
  8
CSLAYER1
  6
CONTINUOUS
 62
     6
 10
192.772508
 20
192.106132
 11
192.772508
 21
192.606132
  0
LINE
  8
CSLAYER1
  6
CONTINUOUS
 62
     6
 10
193.772508
 20
191.838183
 11
194.022508
 21
192.271196
  0
LINE
  8
CSLAYER1
  6
CONTINUOUS
 62
     6
 10
189.522508
 20
186.731132
 11
189.522508
 21
193.481132
  0
LINE
  8
CSLAYER1
  6
CONTINUOUS
 62
     6
 10
196.022508
 20
186.731132
 11
196.022508
 21
193.481132
  0
LINE
  8
CSLAYER1
  6
CONTINUOUS
 62
     6
 10
196.022508
 20
186.731132
 11
189.522508
 21
186.731132
  0
LINE
  8
CSLAYER1
  6
CONTINUOUS
 62
     6
 10
196.022508
 20
193.481132
 11
189.522508
 21
193.481132
  0
LINE
  8
CSLAYER1
  6
CONTINUOUS
 62
     6
 10
186.329193
 20
172.760475
 11
186.329193
 21
185.760475
  0
LINE
  8
CSLAYER1
  6
CONTINUOUS
 62
     6
 10
186.329193
 20
185.760475
 11
182.329193
 21
185.760475
  0
LINE
  8
CSLAYER1
  6
CONTINUOUS
 62
     6
 10
182.329193
 20
185.760475
 11
182.329193
 21
172.760475
  0
LINE
  8
CSLAYER1
  6
CONTINUOUS
 62
     6
 10
182.329193
 20
172.760475
 11
186.329193
 21
172.760475
  0
CIRCLE
  8
CSLAYER17
  6
CONTINUOUS
 62
     6
 10
298.329193
 20
217.135475
 40
2.750000
  0
ARC
  8
CSLAYER17
  6
CONTINUOUS
 62
     6
 10
298.329194
 20
217.135485
 40
1.527778
 50
73.398416
 51
106.601577
  0
ARC
  8
CSLAYER17
  6
CONTINUOUS
 62
     6
 10
298.329194
 20
217.135485
 40
1.527778
 50
163.398422
 51
196.601583
  0
ARC
  8
CSLAYER17
  6
CONTINUOUS
 62
     6
 10
298.329194
 20
217.135485
 40
1.527778
 50
253.398438
 51
286.601572
  0
ARC
  8
CSLAYER17
  6
CONTINUOUS
 62
     6
 10
298.329194
 20
217.135485
 40
1.527778
 50
-16.601594
 51
16.601595
  0
LINE
  8
CSLAYER17
  6
CONTINUOUS
 62
     6
 10
297.892680
 20
216.262459
 11
297.892680
 21
215.671400
  0
LINE
  8
CSLAYER17
  6
CONTINUOUS
 62
     6
 10
297.892680
 20
218.008512
 11
297.892680
 21
218.599571
  0
LINE
  8
CSLAYER17
  6
CONTINUOUS
 62
     6
 10
298.765707
 20
216.262459
 11
298.765707
 21
215.671400
  0
LINE
  8
CSLAYER17
  6
CONTINUOUS
 62
     6
 10
298.765707
 20
218.008512
 11
298.765707
 21
218.599571
  0
LINE
  8
CSLAYER17
  6
CONTINUOUS
 62
     6
 10
297.456190
 20
217.571999
 11
296.865086
 21
217.571999
  0
LINE
  8
CSLAYER17
  6
CONTINUOUS
 62
     6
 10
299.202198
 20
217.571999
 11
299.793302
 21
217.571999
  0
LINE
  8
CSLAYER17
  6
CONTINUOUS
 62
     6
 10
297.456190
 20
216.698972
 11
296.865086
 21
216.698972
  0
LINE
  8
CSLAYER17
  6
CONTINUOUS
 62
     6
 10
299.202198
 20
216.698972
 11
299.793302
 21
216.698972
  0
ARC
  8
CSLAYER17
  6
CONTINUOUS
 62
     6
 10
297.456190
 20
216.262459
 40
0.436508
 50
0.000001
 51
89.942691
  0
ARC
  8
CSLAYER17
  6
CONTINUOUS
 62
     6
 10
299.202198
 20
216.262459
 40
0.436508
 50
90.000010
 51
180.000016
  0
ARC
  8
CSLAYER17
  6
CONTINUOUS
 62
     6
 10
299.202198
 20
218.008512
 40
0.436508
 50
180.000016
 51
270.000005
  0
ARC
  8
CSLAYER17
  6
CONTINUOUS
 62
     6
 10
297.456190
 20
218.008512
 40
0.436508
 50
270.000005
 51
359.942654
  0
CIRCLE
  8
CSLAYER17
  6
CONTINUOUS
 62
     6
 10
298.329193
 20
152.135475
 40
2.750000
  0
ARC
  8
CSLAYER17
  6
CONTINUOUS
 62
     6
 10
298.329194
 20
152.135485
 40
1.527778
 50
73.398416
 51
106.601577
  0
ARC
  8
CSLAYER17
  6
CONTINUOUS
 62
     6
 10
298.329194
 20
152.135485
 40
1.527778
 50
163.398422
 51
196.601583
  0
ARC
  8
CSLAYER17
  6
CONTINUOUS
 62
     6
 10
298.329194
 20
152.135485
 40
1.527778
 50
253.398438
 51
286.601572
  0
ARC
  8
CSLAYER17
  6
CONTINUOUS
 62
     6
 10
298.329194
 20
152.135485
 40
1.527778
 50
-16.601594
 51
16.601595
  0
LINE
  8
CSLAYER17
  6
CONTINUOUS
 62
     6
 10
297.892680
 20
151.262459
 11
297.892680
 21
150.671400
  0
LINE
  8
CSLAYER17
  6
CONTINUOUS
 62
     6
 10
297.892680
 20
153.008512
 11
297.892680
 21
153.599571
  0
LINE
  8
CSLAYER17
  6
CONTINUOUS
 62
     6
 10
298.765707
 20
151.262459
 11
298.765707
 21
150.671400
  0
LINE
  8
CSLAYER17
  6
CONTINUOUS
 62
     6
 10
298.765707
 20
153.008512
 11
298.765707
 21
153.599571
  0
LINE
  8
CSLAYER17
  6
CONTINUOUS
 62
     6
 10
297.456190
 20
152.571999
 11
296.865086
 21
152.571999
  0
LINE
  8
CSLAYER17
  6
CONTINUOUS
 62
     6
 10
299.202198
 20
152.571999
 11
299.793302
 21
152.571999
  0
LINE
  8
CSLAYER17
  6
CONTINUOUS
 62
     6
 10
297.456190
 20
151.698972
 11
296.865086
 21
151.698972
  0
LINE
  8
CSLAYER17
  6
CONTINUOUS
 62
     6
 10
299.202198
 20
151.698972
 11
299.793302
 21
151.698972
  0
ARC
  8
CSLAYER17
  6
CONTINUOUS
 62
     6
 10
297.456190
 20
151.262459
 40
0.436508
 50
0.000001
 51
89.942691
  0
ARC
  8
CSLAYER17
  6
CONTINUOUS
 62
     6
 10
299.202198
 20
151.262459
 40
0.436508
 50
90.000010
 51
180.000016
  0
ARC
  8
CSLAYER17
  6
CONTINUOUS
 62
     6
 10
299.202198
 20
153.008512
 40
0.436508
 50
180.000016
 51
270.000005
  0
ARC
  8
CSLAYER17
  6
CONTINUOUS
 62
     6
 10
297.456190
 20
153.008512
 40
0.436508
 50
270.000005
 51
359.942654
  0
CIRCLE
  8
CSLAYER17
  6
CONTINUOUS
 62
     6
 10
168.329193
 20
217.135475
 40
2.750000
  0
ARC
  8
CSLAYER17
  6
CONTINUOUS
 62
     6
 10
168.329194
 20
217.135485
 40
1.527778
 50
73.398416
 51
106.601577
  0
ARC
  8
CSLAYER17
  6
CONTINUOUS
 62
     6
 10
168.329194
 20
217.135485
 40
1.527778
 50
163.398422
 51
196.601583
  0
ARC
  8
CSLAYER17
  6
CONTINUOUS
 62
     6
 10
168.329194
 20
217.135485
 40
1.527778
 50
253.398438
 51
286.601572
  0
ARC
  8
CSLAYER17
  6
CONTINUOUS
 62
     6
 10
168.329194
 20
217.135485
 40
1.527778
 50
-16.601594
 51
16.601595
  0
LINE
  8
CSLAYER17
  6
CONTINUOUS
 62
     6
 10
167.892680
 20
216.262459
 11
167.892680
 21
215.671400
  0
LINE
  8
CSLAYER17
  6
CONTINUOUS
 62
     6
 10
167.892680
 20
218.008512
 11
167.892680
 21
218.599571
  0
LINE
  8
CSLAYER17
  6
CONTINUOUS
 62
     6
 10
168.765707
 20
216.262459
 11
168.765707
 21
215.671400
  0
LINE
  8
CSLAYER17
  6
CONTINUOUS
 62
     6
 10
168.765707
 20
218.008512
 11
168.765707
 21
218.599571
  0
LINE
  8
CSLAYER17
  6
CONTINUOUS
 62
     6
 10
167.456190
 20
217.571999
 11
166.865086
 21
217.571999
  0
LINE
  8
CSLAYER17
  6
CONTINUOUS
 62
     6
 10
169.202198
 20
217.571999
 11
169.793302
 21
217.571999
  0
LINE
  8
CSLAYER17
  6
CONTINUOUS
 62
     6
 10
167.456190
 20
216.698972
 11
166.865086
 21
216.698972
  0
LINE
  8
CSLAYER17
  6
CONTINUOUS
 62
     6
 10
169.202198
 20
216.698972
 11
169.793302
 21
216.698972
  0
ARC
  8
CSLAYER17
  6
CONTINUOUS
 62
     6
 10
167.456190
 20
216.262459
 40
0.436508
 50
0.000001
 51
89.942691
  0
ARC
  8
CSLAYER17
  6
CONTINUOUS
 62
     6
 10
169.202198
 20
216.262459
 40
0.436508
 50
90.000010
 51
180.000016
  0
ARC
  8
CSLAYER17
  6
CONTINUOUS
 62
     6
 10
169.202198
 20
218.008512
 40
0.436508
 50
180.000016
 51
270.000005
  0
ARC
  8
CSLAYER17
  6
CONTINUOUS
 62
     6
 10
167.456190
 20
218.008512
 40
0.436508
 50
270.000005
 51
359.942654
  0
CIRCLE
  8
CSLAYER17
  6
CONTINUOUS
 62
     6
 10
168.329193
 20
152.135475
 40
2.750000
  0
ARC
  8
CSLAYER17
  6
CONTINUOUS
 62
     6
 10
168.329194
 20
152.135485
 40
1.527778
 50
73.398416
 51
106.601577
  0
ARC
  8
CSLAYER17
  6
CONTINUOUS
 62
     6
 10
168.329194
 20
152.135485
 40
1.527778
 50
163.398422
 51
196.601583
  0
ARC
  8
CSLAYER17
  6
CONTINUOUS
 62
     6
 10
168.329194
 20
152.135485
 40
1.527778
 50
253.398438
 51
286.601572
  0
ARC
  8
CSLAYER17
  6
CONTINUOUS
 62
     6
 10
168.329194
 20
152.135485
 40
1.527778
 50
-16.601594
 51
16.601595
  0
LINE
  8
CSLAYER17
  6
CONTINUOUS
 62
     6
 10
167.892680
 20
151.262459
 11
167.892680
 21
150.671400
  0
LINE
  8
CSLAYER17
  6
CONTINUOUS
 62
     6
 10
167.892680
 20
153.008512
 11
167.892680
 21
153.599571
  0
LINE
  8
CSLAYER17
  6
CONTINUOUS
 62
     6
 10
168.765707
 20
151.262459
 11
168.765707
 21
150.671400
  0
LINE
  8
CSLAYER17
  6
CONTINUOUS
 62
     6
 10
168.765707
 20
153.008512
 11
168.765707
 21
153.599571
  0
LINE
  8
CSLAYER17
  6
CONTINUOUS
 62
     6
 10
167.456190
 20
152.571999
 11
166.865086
 21
152.571999
  0
LINE
  8
CSLAYER17
  6
CONTINUOUS
 62
     6
 10
169.202198
 20
152.571999
 11
169.793302
 21
152.571999
  0
LINE
  8
CSLAYER17
  6
CONTINUOUS
 62
     6
 10
167.456190
 20
151.698972
 11
166.865086
 21
151.698972
  0
LINE
  8
CSLAYER17
  6
CONTINUOUS
 62
     6
 10
169.202198
 20
151.698972
 11
169.793302
 21
151.698972
  0
ARC
  8
CSLAYER17
  6
CONTINUOUS
 62
     6
 10
167.456190
 20
151.262459
 40
0.436508
 50
0.000001
 51
89.942691
  0
ARC
  8
CSLAYER17
  6
CONTINUOUS
 62
     6
 10
169.202198
 20
151.262459
 40
0.436508
 50
90.000010
 51
180.000016
  0
ARC
  8
CSLAYER17
  6
CONTINUOUS
 62
     6
 10
169.202198
 20
153.008512
 40
0.436508
 50
180.000016
 51
270.000005
  0
ARC
  8
CSLAYER17
  6
CONTINUOUS
 62
     6
 10
167.456190
 20
153.008512
 40
0.436508
 50
270.000005
 51
359.942654
  0
LINE
  8
CSLAYER17
  6
CONTINUOUS
 62
     6
 10
167.329193
 20
179.885475
 11
167.329193
 21
155.885475
  0
LINE
  8
CSLAYER17
  6
CONTINUOUS
 62
     6
 10
176.329193
 20
179.885475
 11
167.329193
 21
179.885475
  0
LINE
  8
CSLAYER17
  6
CONTINUOUS
 62
     6
 10
176.329193
 20
179.885475
 11
176.329193
 21
155.885475
  0
LINE
  8
CSLAYER17
  6
CONTINUOUS
 62
     6
 10
176.329193
 20
155.885475
 11
167.329193
 21
155.885475
  0
CIRCLE
  8
CSLAYER17
  6
CONTINUOUS
 62
     6
 10
171.829193
 20
177.485475
 40
2.000000
  0
CIRCLE
  8
CSLAYER17
  6
CONTINUOUS
 62
     6
 10
171.829193
 20
172.685475
 40
2.000000
  0
CIRCLE
  8
CSLAYER17
  6
CONTINUOUS
 62
     6
 10
171.829193
 20
167.885475
 40
2.000000
  0
CIRCLE
  8
CSLAYER17
  6
CONTINUOUS
 62
     6
 10
171.829193
 20
163.085475
 40
2.000000
  0
CIRCLE
  8
CSLAYER17
  6
CONTINUOUS
 62
     6
 10
171.829193
 20
158.285475
 40
2.000000
  0
LINE
  8
CSLAYER17
  6
CONTINUOUS
 62
     6
 10
173.709516
 20
176.804016
 11
170.298871
 21
178.773153
  0
LINE
  8
CSLAYER17
  6
CONTINUOUS
 62
     6
 10
173.359516
 20
176.197798
 11
169.948871
 21
178.166935
  0
LINE
  8
CSLAYER17
  6
CONTINUOUS
 62
     6
 10
171.147734
 20
170.805153
 11
173.116870
 21
174.215798
  0
LINE
  8
CSLAYER17
  6
CONTINUOUS
 62
     6
 10
170.541516
 20
171.155153
 11
172.510653
 21
174.565798
  0
LINE
  8
CSLAYER17
  6
CONTINUOUS
 62
     6
 10
172.676917
 20
166.074022
 11
171.657617
 21
169.878102
  0
LINE
  8
CSLAYER17
  6
CONTINUOUS
 62
     6
 10
172.000769
 20
165.892848
 11
170.981469
 21
169.696929
  0
LINE
  8
CSLAYER17
  6
CONTINUOUS
 62
     6
 10
170.017740
 20
163.933199
 11
173.821820
 21
162.913899
  0
LINE
  8
CSLAYER17
  6
CONTINUOUS
 62
     6
 10
169.836566
 20
163.257051
 11
173.640647
 21
162.237751
  0
LINE
  8
CSLAYER17
  6
CONTINUOUS
 62
     6
 10
170.017740
 20
157.437751
 11
173.821820
 21
158.457051
  0
LINE
  8
CSLAYER17
  6
CONTINUOUS
 62
     6
 10
169.836566
 20
158.113899
 11
173.640647
 21
159.133199
  0
LINE
  8
CSLAYER17
  6
CONTINUOUS
 62
     6
 10
167.329193
 20
213.385475
 11
167.329193
 21
181.385475
  0
LINE
  8
CSLAYER17
  6
CONTINUOUS
 62
     6
 10
180.329193
 20
213.385475
 11
180.329193
 21
181.385475
  0
LINE
  8
CSLAYER17
  6
CONTINUOUS
 62
     6
 10
180.329193
 20
213.385475
 11
167.329193
 21
213.385475
  0
LINE
  8
CSLAYER17
  6
CONTINUOUS
 62
     6
 10
180.329193
 20
181.385475
 11
167.329193
 21
181.385475
  0
LINE
  8
CSLAYER17
  6
CONTINUOUS
 62
     6
 10
180.329193
 20
212.385475
 11
167.329193
 21
212.385475
  0
LINE
  8
CSLAYER17
  6
CONTINUOUS
 62
     6
 10
180.329193
 20
182.385475
 11
167.329193
 21
182.385475
  0
POINT
  8
CSLAYER17
 62
     3
 10
173.679193
 20
209.010475
  0
LINE
  8
CSLAYER17
  6
CONTINUOUS
 62
     6
 10
176.429193
 20
211.885475
 11
176.429193
 21
206.135475
  0
LINE
  8
CSLAYER17
  6
CONTINUOUS
 62
     6
 10
170.929193
 20
211.885475
 11
170.929193
 21
206.135475
  0
LINE
  8
CSLAYER17
  6
CONTINUOUS
 62
     6
 10
170.929193
 20
211.885475
 11
176.429193
 21
211.885475
  0
LINE
  8
CSLAYER17
  6
CONTINUOUS
 62
     6
 10
170.929193
 20
206.135475
 11
176.429193
 21
206.135475
  0
LINE
  8
CSLAYER17
  6
CONTINUOUS
 62
     6
 10
177.429193
 20
211.010475
 11
177.429193
 21
207.010475
  0
LINE
  8
CSLAYER17
  6
CONTINUOUS
 62
     6
 10
169.929193
 20
211.010475
 11
169.929193
 21
207.010475
  0
LINE
  8
CSLAYER17
  6
CONTINUOUS
 62
     6
 10
177.429193
 20
211.010475
 11
176.429193
 21
211.010475
  0
LINE
  8
CSLAYER17
  6
CONTINUOUS
 62
     6
 10
177.429193
 20
207.010475
 11
176.429193
 21
207.010475
  0
LINE
  8
CSLAYER17
  6
CONTINUOUS
 62
     6
 10
170.929193
 20
211.010475
 11
169.929193
 21
211.010475
  0
LINE
  8
CSLAYER17
  6
CONTINUOUS
 62
     6
 10
170.929193
 20
207.010475
 11
169.929193
 21
207.010475
  0
LINE
  8
CSLAYER17
  6
CONTINUOUS
 62
     6
 10
180.329193
 20
204.635475
 11
167.329193
 21
204.635475
  0
LINE
  8
CSLAYER17
  6
CONTINUOUS
 62
     6
 10
180.329193
 20
205.635475
 11
167.329193
 21
205.635475
  0
LINE
  8
CSLAYER17
  6
CONTINUOUS
 62
     6
 10
180.329193
 20
196.885475
 11
167.329193
 21
196.885475
  0
LINE
  8
CSLAYER17
  6
CONTINUOUS
 62
     6
 10
180.329193
 20
197.885475
 11
167.329193
 21
197.885475
  0
LINE
  8
CSLAYER17
  6
CONTINUOUS
 62
     6
 10
180.329193
 20
189.135475
 11
167.329193
 21
189.135475
  0
LINE
  8
CSLAYER17
  6
CONTINUOUS
 62
     6
 10
180.329193
 20
190.135475
 11
167.329193
 21
190.135475
  0
POINT
  8
CSLAYER17
 62
     3
 10
173.679193
 20
201.260475
  0
LINE
  8
CSLAYER17
  6
CONTINUOUS
 62
     6
 10
176.429193
 20
204.135475
 11
176.429193
 21
198.385475
  0
LINE
  8
CSLAYER17
  6
CONTINUOUS
 62
     6
 10
170.929193
 20
204.135475
 11
170.929193
 21
198.385475
  0
LINE
  8
CSLAYER17
  6
CONTINUOUS
 62
     6
 10
170.929193
 20
204.135475
 11
176.429193
 21
204.135475
  0
LINE
  8
CSLAYER17
  6
CONTINUOUS
 62
     6
 10
170.929193
 20
198.385475
 11
176.429193
 21
198.385475
  0
LINE
  8
CSLAYER17
  6
CONTINUOUS
 62
     6
 10
177.429193
 20
203.260475
 11
177.429193
 21
199.260475
  0
LINE
  8
CSLAYER17
  6
CONTINUOUS
 62
     6
 10
169.929193
 20
203.260475
 11
169.929193
 21
199.260475
  0
LINE
  8
CSLAYER17
  6
CONTINUOUS
 62
     6
 10
177.429193
 20
203.260475
 11
176.429193
 21
203.260475
  0
LINE
  8
CSLAYER17
  6
CONTINUOUS
 62
     6
 10
177.429193
 20
199.260475
 11
176.429193
 21
199.260475
  0
LINE
  8
CSLAYER17
  6
CONTINUOUS
 62
     6
 10
170.929193
 20
203.260475
 11
169.929193
 21
203.260475
  0
LINE
  8
CSLAYER17
  6
CONTINUOUS
 62
     6
 10
170.929193
 20
199.260475
 11
169.929193
 21
199.260475
  0
POINT
  8
CSLAYER17
 62
     3
 10
173.679193
 20
193.510475
  0
LINE
  8
CSLAYER17
  6
CONTINUOUS
 62
     6
 10
176.429193
 20
196.385475
 11
176.429193
 21
190.635475
  0
LINE
  8
CSLAYER17
  6
CONTINUOUS
 62
     6
 10
170.929193
 20
196.385475
 11
170.929193
 21
190.635475
  0
LINE
  8
CSLAYER17
  6
CONTINUOUS
 62
     6
 10
170.929193
 20
196.385475
 11
176.429193
 21
196.385475
  0
LINE
  8
CSLAYER17
  6
CONTINUOUS
 62
     6
 10
170.929193
 20
190.635475
 11
176.429193
 21
190.635475
  0
LINE
  8
CSLAYER17
  6
CONTINUOUS
 62
     6
 10
177.429193
 20
195.510475
 11
177.429193
 21
191.510475
  0
LINE
  8
CSLAYER17
  6
CONTINUOUS
 62
     6
 10
169.929193
 20
195.510475
 11
169.929193
 21
191.510475
  0
LINE
  8
CSLAYER17
  6
CONTINUOUS
 62
     6
 10
177.429193
 20
195.510475
 11
176.429193
 21
195.510475
  0
LINE
  8
CSLAYER17
  6
CONTINUOUS
 62
     6
 10
177.429193
 20
191.510475
 11
176.429193
 21
191.510475
  0
LINE
  8
CSLAYER17
  6
CONTINUOUS
 62
     6
 10
170.929193
 20
195.510475
 11
169.929193
 21
195.510475
  0
LINE
  8
CSLAYER17
  6
CONTINUOUS
 62
     6
 10
170.929193
 20
191.510475
 11
169.929193
 21
191.510475
  0
POINT
  8
CSLAYER17
 62
     3
 10
173.679193
 20
185.760475
  0
LINE
  8
CSLAYER17
  6
CONTINUOUS
 62
     6
 10
176.429193
 20
188.635475
 11
176.429193
 21
182.885475
  0
LINE
  8
CSLAYER17
  6
CONTINUOUS
 62
     6
 10
170.929193
 20
188.635475
 11
170.929193
 21
182.885475
  0
LINE
  8
CSLAYER17
  6
CONTINUOUS
 62
     6
 10
170.929193
 20
188.635475
 11
176.429193
 21
188.635475
  0
LINE
  8
CSLAYER17
  6
CONTINUOUS
 62
     6
 10
170.929193
 20
182.885475
 11
176.429193
 21
182.885475
  0
LINE
  8
CSLAYER17
  6
CONTINUOUS
 62
     6
 10
177.429193
 20
187.760475
 11
177.429193
 21
183.760475
  0
LINE
  8
CSLAYER17
  6
CONTINUOUS
 62
     6
 10
169.929193
 20
187.760475
 11
169.929193
 21
183.760475
  0
LINE
  8
CSLAYER17
  6
CONTINUOUS
 62
     6
 10
177.429193
 20
187.760475
 11
176.429193
 21
187.760475
  0
LINE
  8
CSLAYER17
  6
CONTINUOUS
 62
     6
 10
177.429193
 20
183.760475
 11
176.429193
 21
183.760475
  0
LINE
  8
CSLAYER17
  6
CONTINUOUS
 62
     6
 10
170.929193
 20
187.760475
 11
169.929193
 21
187.760475
  0
LINE
  8
CSLAYER17
  6
CONTINUOUS
 62
     6
 10
170.929193
 20
183.760475
 11
169.929193
 21
183.760475
  0
LINE
  8
CSLAYER17
  6
CONTINUOUS
 62
     6
 10
308.329193
 20
142.135482
 11
308.329193
 21
225.135482
  0
LINE
  8
CSLAYER17
  6
CONTINUOUS
 62
     6
 10
306.329193
 20
227.135482
 11
295.329193
 21
227.135482
  0
LINE
  8
CSLAYER17
  6
CONTINUOUS
 62
     6
 10
158.329193
 20
225.135482
 11
158.329193
 21
142.135482
  0
LINE
  8
CSLAYER17
  6
CONTINUOUS
 62
     6
 10
158.329193
 20
142.135482
 11
308.329193
 21
142.135482
  0
LINE
  8
CSLAYER17
  6
CONTINUOUS
 62
     6
 10
158.329193
 20
144.135482
 11
308.329193
 21
144.135482
  0
ARC
  8
CSLAYER17
  6
CONTINUOUS
 62
     6
 10
306.329193
 20
225.135482
 40
2.000000
 50
0.000000
 51
90.000000
  0
ARC
  8
CSLAYER17
  6
CONTINUOUS
 62
     6
 10
160.329193
 20
225.135482
 40
2.000000
 50
90.000000
 51
180.000000
  0
LINE
  8
CSLAYER17
  6
CONTINUOUS
 62
     6
 10
213.329193
 20
235.135482
 11
213.329193
 21
229.135482
  0
LINE
  8
CSLAYER17
  6
CONTINUOUS
 62
     6
 10
197.329193
 20
235.135482
 11
197.329193
 21
229.135482
  0
LINE
  8
CSLAYER17
  6
CONTINUOUS
 62
     6
 10
211.329193
 20
237.135482
 11
208.829193
 21
237.135482
  0
ARC
  8
CSLAYER17
  6
CONTINUOUS
 62
     6
 10
211.329193
 20
235.135482
 40
2.000000
 50
0.000000
 51
90.000000
  0
ARC
  8
CSLAYER17
  6
CONTINUOUS
 62
     6
 10
199.329193
 20
235.135482
 40
2.000000
 50
90.000000
 51
180.000000
  0
LINE
  8
CSLAYER17
  6
CONTINUOUS
 62
     6
 10
207.829193
 20
236.135482
 11
207.829193
 21
232.135482
  0
LINE
  8
CSLAYER17
  6
CONTINUOUS
 62
     6
 10
202.829193
 20
236.135482
 11
202.829193
 21
232.135482
  0
ARC
  8
CSLAYER17
  6
CONTINUOUS
 62
     6
 10
205.329193
 20
232.135482
 40
2.500000
 50
180.000000
 51
360.000000
  0
LINE
  8
CSLAYER17
  6
CONTINUOUS
 62
     6
 10
201.829193
 20
237.135482
 11
199.329193
 21
237.135482
  0
LINE
  8
CSLAYER17
  6
CONTINUOUS
 62
     6
 10
197.329193
 20
129.135482
 11
197.329193
 21
142.135482
  0
LINE
  8
CSLAYER17
  6
CONTINUOUS
 62
     6
 10
213.329193
 20
129.135482
 11
213.329193
 21
142.135482
  0
LINE
  8
CSLAYER17
  6
CONTINUOUS
 62
     6
 10
199.329193
 20
127.135482
 11
201.829193
 21
127.135482
  0
ARC
  8
CSLAYER17
  6
CONTINUOUS
 62
     6
 10
199.329193
 20
129.135482
 40
2.000000
 50
180.000000
 51
270.000000
  0
ARC
  8
CSLAYER17
  6
CONTINUOUS
 62
     6
 10
211.329193
 20
129.135482
 40
2.000000
 50
270.000000
 51
360.000000
  0
LINE
  8
CSLAYER17
  6
CONTINUOUS
 62
     6
 10
202.829193
 20
128.135482
 11
202.829193
 21
132.135482
  0
LINE
  8
CSLAYER17
  6
CONTINUOUS
 62
     6
 10
207.829193
 20
128.135482
 11
207.829193
 21
132.135482
  0
ARC
  8
CSLAYER17
  6
CONTINUOUS
 62
     6
 10
205.329193
 20
132.135482
 40
2.500000
 50
0.000000
 51
180.000000
  0
LINE
  8
CSLAYER17
  6
CONTINUOUS
 62
     6
 10
208.829193
 20
127.135482
 11
211.329193
 21
127.135482
  0
LINE
  8
CSLAYER17
  6
CONTINUOUS
 62
     6
 10
277.329193
 20
129.135482
 11
277.329193
 21
142.135482
  0
LINE
  8
CSLAYER17
  6
CONTINUOUS
 62
     6
 10
293.329193
 20
129.135482
 11
293.329193
 21
142.135482
  0
LINE
  8
CSLAYER17
  6
CONTINUOUS
 62
     6
 10
279.329193
 20
127.135482
 11
281.829193
 21
127.135482
  0
ARC
  8
CSLAYER17
  6
CONTINUOUS
 62
     6
 10
279.329193
 20
129.135482
 40
2.000000
 50
180.000000
 51
270.000000
  0
ARC
  8
CSLAYER17
  6
CONTINUOUS
 62
     6
 10
291.329193
 20
129.135482
 40
2.000000
 50
270.000000
 51
360.000000
  0
LINE
  8
CSLAYER17
  6
CONTINUOUS
 62
     6
 10
282.829193
 20
128.135482
 11
282.829193
 21
132.135482
  0
LINE
  8
CSLAYER17
  6
CONTINUOUS
 62
     6
 10
287.829193
 20
128.135482
 11
287.829193
 21
132.135482
  0
ARC
  8
CSLAYER17
  6
CONTINUOUS
 62
     6
 10
285.329193
 20
132.135482
 40
2.500000
 50
0.000000
 51
180.000000
  0
LINE
  8
CSLAYER17
  6
CONTINUOUS
 62
     6
 10
288.829193
 20
127.135482
 11
291.329193
 21
127.135482
  0
LINE
  8
CSLAYER17
  6
CONTINUOUS
 62
     6
 10
293.329193
 20
235.135482
 11
293.329193
 21
229.135482
  0
LINE
  8
CSLAYER17
  6
CONTINUOUS
 62
     6
 10
277.329193
 20
235.135482
 11
277.329193
 21
229.135482
  0
LINE
  8
CSLAYER17
  6
CONTINUOUS
 62
     6
 10
291.329193
 20
237.135482
 11
288.829193
 21
237.135482
  0
ARC
  8
CSLAYER17
  6
CONTINUOUS
 62
     6
 10
291.329193
 20
235.135482
 40
2.000000
 50
0.000000
 51
90.000000
  0
ARC
  8
CSLAYER17
  6
CONTINUOUS
 62
     6
 10
279.329193
 20
235.135482
 40
2.000000
 50
90.000000
 51
180.000000
  0
LINE
  8
CSLAYER17
  6
CONTINUOUS
 62
     6
 10
287.829193
 20
236.135482
 11
287.829193
 21
232.135482
  0
LINE
  8
CSLAYER17
  6
CONTINUOUS
 62
     6
 10
282.829193
 20
236.135482
 11
282.829193
 21
232.135482
  0
ARC
  8
CSLAYER17
  6
CONTINUOUS
 62
     6
 10
285.329193
 20
232.135482
 40
2.500000
 50
180.000000
 51
360.000000
  0
LINE
  8
CSLAYER17
  6
CONTINUOUS
 62
     6
 10
281.829193
 20
237.135482
 11
279.329193
 21
237.135482
  0
ARC
  8
CSLAYER17
  6
CONTINUOUS
 62
     6
 10
295.329193
 20
229.135482
 40
2.000000
 50
180.000000
 51
270.000000
  0
ARC
  8
CSLAYER17
  6
CONTINUOUS
 62
     6
 10
275.329193
 20
229.135482
 40
2.000000
 50
270.000000
 51
360.000000
  0
ARC
  8
CSLAYER17
  6
CONTINUOUS
 62
     6
 10
215.329193
 20
229.135482
 40
2.000000
 50
180.000000
 51
270.000000
  0
ARC
  8
CSLAYER17
  6
CONTINUOUS
 62
     6
 10
195.329193
 20
229.135482
 40
2.000000
 50
-90.000000
 51
0.000000
  0
LINE
  8
CSLAYER17
  6
CONTINUOUS
 62
     6
 10
275.329193
 20
227.135482
 11
215.329193
 21
227.135482
  0
LINE
  8
CSLAYER17
  6
CONTINUOUS
 62
     6
 10
195.329193
 20
227.135482
 11
160.329193
 21
227.135482
  0
ARC
  8
CSLAYER17
  6
CONTINUOUS
 62
     6
 10
288.829193
 20
236.135482
 40
1.000000
 50
90.000000
 51
180.000000
  0
ARC
  8
CSLAYER17
  6
CONTINUOUS
 62
     6
 10
281.829193
 20
236.135482
 40
1.000000
 50
0.000000
 51
90.000000
  0
ARC
  8
CSLAYER17
  6
CONTINUOUS
 62
     6
 10
208.829193
 20
236.135482
 40
1.000000
 50
90.000000
 51
180.000000
  0
ARC
  8
CSLAYER17
  6
CONTINUOUS
 62
     6
 10
201.829193
 20
236.135482
 40
1.000000
 50
0.000000
 51
90.000000
  0
ARC
  8
CSLAYER17
  6
CONTINUOUS
 62
     6
 10
208.829193
 20
128.135482
 40
1.000000
 50
180.000000
 51
270.000000
  0
ARC
  8
CSLAYER17
  6
CONTINUOUS
 62
     6
 10
201.829193
 20
128.135482
 40
1.000000
 50
270.000000
 51
360.000000
  0
ARC
  8
CSLAYER17
  6
CONTINUOUS
 62
     6
 10
281.829193
 20
128.135482
 40
1.000000
 50
270.000000
 51
360.000000
  0
ARC
  8
CSLAYER17
  6
CONTINUOUS
 62
     6
 10
288.829193
 20
128.135482
 40
1.000000
 50
180.000000
 51
270.000000
  0
LINE
  8
CSLAYER17
  6
CONTINUOUS
 62
     6
 10
163.329193
 20
147.135482
 11
303.329193
 21
147.135482
  0
LINE
  8
CSLAYER17
  6
CONTINUOUS
 62
     6
 10
303.329193
 20
147.135482
 11
303.329193
 21
222.135482
  0
LINE
  8
CSLAYER17
  6
CONTINUOUS
 62
     6
 10
303.329193
 20
222.135482
 11
163.329193
 21
222.135482
  0
LINE
  8
CSLAYER17
  6
CONTINUOUS
 62
     6
 10
163.329193
 20
222.135482
 11
163.329193
 21
147.135482
  0
CIRCLE
  8
CSLAYER17
  6
CONTINUOUS
 62
     6
 10
173.679198
 20
209.010484
 40
2.250000
  0
ARC
  8
CSLAYER17
  6
CONTINUOUS
 62
     6
 10
173.679190
 20
209.010484
 40
1.250000
 50
163.398416
 51
196.601577
  0
ARC
  8
CSLAYER17
  6
CONTINUOUS
 62
     6
 10
173.679190
 20
209.010484
 40
1.250000
 50
253.398422
 51
286.601583
  0
ARC
  8
CSLAYER17
  6
CONTINUOUS
 62
     6
 10
173.679190
 20
209.010484
 40
1.250000
 50
-16.601562
 51
16.601572
  0
ARC
  8
CSLAYER17
  6
CONTINUOUS
 62
     6
 10
173.679190
 20
209.010484
 40
1.250000
 50
73.398406
 51
106.601595
  0
LINE
  8
CSLAYER17
  6
CONTINUOUS
 62
     6
 10
174.393484
 20
208.653337
 11
174.877078
 21
208.653337
  0
LINE
  8
CSLAYER17
  6
CONTINUOUS
 62
     6
 10
172.964895
 20
208.653337
 11
172.481302
 21
208.653337
  0
LINE
  8
CSLAYER17
  6
CONTINUOUS
 62
     6
 10
174.393484
 20
209.367632
 11
174.877078
 21
209.367632
  0
LINE
  8
CSLAYER17
  6
CONTINUOUS
 62
     6
 10
172.964895
 20
209.367632
 11
172.481302
 21
209.367632
  0
LINE
  8
CSLAYER17
  6
CONTINUOUS
 62
     6
 10
173.322042
 20
208.296208
 11
173.322042
 21
207.812578
  0
LINE
  8
CSLAYER17
  6
CONTINUOUS
 62
     6
 10
173.322042
 20
209.724760
 11
173.322042
 21
210.208391
  0
LINE
  8
CSLAYER17
  6
CONTINUOUS
 62
     6
 10
174.036337
 20
208.296208
 11
174.036337
 21
207.812578
  0
LINE
  8
CSLAYER17
  6
CONTINUOUS
 62
     6
 10
174.036337
 20
209.724760
 11
174.036337
 21
210.208391
  0
ARC
  8
CSLAYER17
  6
CONTINUOUS
 62
     6
 10
174.393484
 20
208.296208
 40
0.357143
 50
90.000001
 51
179.942691
  0
ARC
  8
CSLAYER17
  6
CONTINUOUS
 62
     6
 10
174.393484
 20
209.724760
 40
0.357143
 50
180.000010
 51
270.000016
  0
ARC
  8
CSLAYER17
  6
CONTINUOUS
 62
     6
 10
172.964895
 20
209.724760
 40
0.357143
 50
-89.999984
 51
0.000005
  0
ARC
  8
CSLAYER17
  6
CONTINUOUS
 62
     6
 10
172.964895
 20
208.296208
 40
0.357143
 50
0.000005
 51
89.942654
  0
CIRCLE
  8
CSLAYER17
  6
CONTINUOUS
 62
     6
 10
173.679198
 20
201.260484
 40
2.250000
  0
ARC
  8
CSLAYER17
  6
CONTINUOUS
 62
     6
 10
173.679190
 20
201.260484
 40
1.250000
 50
163.398416
 51
196.601577
  0
ARC
  8
CSLAYER17
  6
CONTINUOUS
 62
     6
 10
173.679190
 20
201.260484
 40
1.250000
 50
253.398422
 51
286.601583
  0
ARC
  8
CSLAYER17
  6
CONTINUOUS
 62
     6
 10
173.679190
 20
201.260484
 40
1.250000
 50
-16.601562
 51
16.601572
  0
ARC
  8
CSLAYER17
  6
CONTINUOUS
 62
     6
 10
173.679190
 20
201.260484
 40
1.250000
 50
73.398406
 51
106.601595
  0
LINE
  8
CSLAYER17
  6
CONTINUOUS
 62
     6
 10
174.393484
 20
200.903337
 11
174.877078
 21
200.903337
  0
LINE
  8
CSLAYER17
  6
CONTINUOUS
 62
     6
 10
172.964895
 20
200.903337
 11
172.481302
 21
200.903337
  0
LINE
  8
CSLAYER17
  6
CONTINUOUS
 62
     6
 10
174.393484
 20
201.617632
 11
174.877078
 21
201.617632
  0
LINE
  8
CSLAYER17
  6
CONTINUOUS
 62
     6
 10
172.964895
 20
201.617632
 11
172.481302
 21
201.617632
  0
LINE
  8
CSLAYER17
  6
CONTINUOUS
 62
     6
 10
173.322042
 20
200.546208
 11
173.322042
 21
200.062578
  0
LINE
  8
CSLAYER17
  6
CONTINUOUS
 62
     6
 10
173.322042
 20
201.974760
 11
173.322042
 21
202.458391
  0
LINE
  8
CSLAYER17
  6
CONTINUOUS
 62
     6
 10
174.036337
 20
200.546208
 11
174.036337
 21
200.062578
  0
LINE
  8
CSLAYER17
  6
CONTINUOUS
 62
     6
 10
174.036337
 20
201.974760
 11
174.036337
 21
202.458391
  0
ARC
  8
CSLAYER17
  6
CONTINUOUS
 62
     6
 10
174.393484
 20
200.546208
 40
0.357143
 50
90.000001
 51
179.942691
  0
ARC
  8
CSLAYER17
  6
CONTINUOUS
 62
     6
 10
174.393484
 20
201.974760
 40
0.357143
 50
180.000010
 51
270.000016
  0
ARC
  8
CSLAYER17
  6
CONTINUOUS
 62
     6
 10
172.964895
 20
201.974760
 40
0.357143
 50
-89.999984
 51
0.000005
  0
ARC
  8
CSLAYER17
  6
CONTINUOUS
 62
     6
 10
172.964895
 20
200.546208
 40
0.357143
 50
0.000005
 51
89.942654
  0
CIRCLE
  8
CSLAYER17
  6
CONTINUOUS
 62
     6
 10
173.679198
 20
193.510484
 40
2.250000
  0
ARC
  8
CSLAYER17
  6
CONTINUOUS
 62
     6
 10
173.679190
 20
193.510484
 40
1.250000
 50
163.398416
 51
196.601577
  0
ARC
  8
CSLAYER17
  6
CONTINUOUS
 62
     6
 10
173.679190
 20
193.510484
 40
1.250000
 50
253.398422
 51
286.601583
  0
ARC
  8
CSLAYER17
  6
CONTINUOUS
 62
     6
 10
173.679190
 20
193.510484
 40
1.250000
 50
-16.601562
 51
16.601572
  0
ARC
  8
CSLAYER17
  6
CONTINUOUS
 62
     6
 10
173.679190
 20
193.510484
 40
1.250000
 50
73.398406
 51
106.601595
  0
LINE
  8
CSLAYER17
  6
CONTINUOUS
 62
     6
 10
174.393484
 20
193.153337
 11
174.877078
 21
193.153337
  0
LINE
  8
CSLAYER17
  6
CONTINUOUS
 62
     6
 10
172.964895
 20
193.153337
 11
172.481302
 21
193.153337
  0
LINE
  8
CSLAYER17
  6
CONTINUOUS
 62
     6
 10
174.393484
 20
193.867632
 11
174.877078
 21
193.867632
  0
LINE
  8
CSLAYER17
  6
CONTINUOUS
 62
     6
 10
172.964895
 20
193.867632
 11
172.481302
 21
193.867632
  0
LINE
  8
CSLAYER17
  6
CONTINUOUS
 62
     6
 10
173.322042
 20
192.796208
 11
173.322042
 21
192.312578
  0
LINE
  8
CSLAYER17
  6
CONTINUOUS
 62
     6
 10
173.322042
 20
194.224760
 11
173.322042
 21
194.708391
  0
LINE
  8
CSLAYER17
  6
CONTINUOUS
 62
     6
 10
174.036337
 20
192.796208
 11
174.036337
 21
192.312578
  0
LINE
  8
CSLAYER17
  6
CONTINUOUS
 62
     6
 10
174.036337
 20
194.224760
 11
174.036337
 21
194.708391
  0
ARC
  8
CSLAYER17
  6
CONTINUOUS
 62
     6
 10
174.393484
 20
192.796208
 40
0.357143
 50
90.000001
 51
179.942691
  0
ARC
  8
CSLAYER17
  6
CONTINUOUS
 62
     6
 10
174.393484
 20
194.224760
 40
0.357143
 50
180.000010
 51
270.000016
  0
ARC
  8
CSLAYER17
  6
CONTINUOUS
 62
     6
 10
172.964895
 20
194.224760
 40
0.357143
 50
-89.999984
 51
0.000005
  0
ARC
  8
CSLAYER17
  6
CONTINUOUS
 62
     6
 10
172.964895
 20
192.796208
 40
0.357143
 50
0.000005
 51
89.942654
  0
CIRCLE
  8
CSLAYER17
  6
CONTINUOUS
 62
     6
 10
173.679198
 20
185.760484
 40
2.250000
  0
ARC
  8
CSLAYER17
  6
CONTINUOUS
 62
     6
 10
173.679190
 20
185.760484
 40
1.250000
 50
163.398416
 51
196.601577
  0
ARC
  8
CSLAYER17
  6
CONTINUOUS
 62
     6
 10
173.679190
 20
185.760484
 40
1.250000
 50
253.398422
 51
286.601583
  0
ARC
  8
CSLAYER17
  6
CONTINUOUS
 62
     6
 10
173.679190
 20
185.760484
 40
1.250000
 50
-16.601562
 51
16.601572
  0
ARC
  8
CSLAYER17
  6
CONTINUOUS
 62
     6
 10
173.679190
 20
185.760484
 40
1.250000
 50
73.398406
 51
106.601595
  0
LINE
  8
CSLAYER17
  6
CONTINUOUS
 62
     6
 10
174.393484
 20
185.403337
 11
174.877078
 21
185.403337
  0
LINE
  8
CSLAYER17
  6
CONTINUOUS
 62
     6
 10
172.964895
 20
185.403337
 11
172.481302
 21
185.403337
  0
LINE
  8
CSLAYER17
  6
CONTINUOUS
 62
     6
 10
174.393484
 20
186.117632
 11
174.877078
 21
186.117632
  0
LINE
  8
CSLAYER17
  6
CONTINUOUS
 62
     6
 10
172.964895
 20
186.117632
 11
172.481302
 21
186.117632
  0
LINE
  8
CSLAYER17
  6
CONTINUOUS
 62
     6
 10
173.322042
 20
185.046208
 11
173.322042
 21
184.562578
  0
LINE
  8
CSLAYER17
  6
CONTINUOUS
 62
     6
 10
173.322042
 20
186.474760
 11
173.322042
 21
186.958391
  0
LINE
  8
CSLAYER17
  6
CONTINUOUS
 62
     6
 10
174.036337
 20
185.046208
 11
174.036337
 21
184.562578
  0
LINE
  8
CSLAYER17
  6
CONTINUOUS
 62
     6
 10
174.036337
 20
186.474760
 11
174.036337
 21
186.958391
  0
ARC
  8
CSLAYER17
  6
CONTINUOUS
 62
     6
 10
174.393484
 20
185.046208
 40
0.357143
 50
90.000001
 51
179.942691
  0
ARC
  8
CSLAYER17
  6
CONTINUOUS
 62
     6
 10
174.393484
 20
186.474760
 40
0.357143
 50
180.000010
 51
270.000016
  0
ARC
  8
CSLAYER17
  6
CONTINUOUS
 62
     6
 10
172.964895
 20
186.474760
 40
0.357143
 50
-89.999984
 51
0.000005
  0
ARC
  8
CSLAYER17
  6
CONTINUOUS
 62
     6
 10
172.964895
 20
185.046208
 40
0.357143
 50
0.000005
 51
89.942654
  0
LINE
  8
CSLAYER17
  6
CONTINUOUS
 62
     6
 10
177.954193
 20
164.535475
 11
181.954193
 21
164.535475
  0
LINE
  8
CSLAYER17
  6
CONTINUOUS
 62
     6
 10
177.954193
 20
164.535475
 11
177.954193
 21
171.035475
  0
LINE
  8
CSLAYER17
  6
CONTINUOUS
 62
     6
 10
181.954193
 20
164.535475
 11
181.954193
 21
171.035475
  0
LINE
  8
CSLAYER17
  6
CONTINUOUS
 62
     6
 10
177.954193
 20
171.035475
 11
181.954193
 21
171.035475
  0
POINT
  8
CSLAYER17
 62
     3
 10
179.954193
 20
167.785475
  0
LINE
  8
CSLAYER17
  6
CONTINUOUS
 62
     6
 10
177.954193
 20
152.535475
 11
181.954193
 21
152.535475
  0
LINE
  8
CSLAYER17
  6
CONTINUOUS
 62
     6
 10
177.954193
 20
152.535475
 11
177.954193
 21
159.035475
  0
LINE
  8
CSLAYER17
  6
CONTINUOUS
 62
     6
 10
181.954193
 20
152.535475
 11
181.954193
 21
159.035475
  0
LINE
  8
CSLAYER17
  6
CONTINUOUS
 62
     6
 10
177.954193
 20
159.035475
 11
181.954193
 21
159.035475
  0
POINT
  8
CSLAYER17
 62
     3
 10
179.954193
 20
155.785475
  0
LINE
  8
CSLAYER17
  6
CENTER
 62
     3
 10
118.329193
 20
148.135482
 11
118.329193
 21
138.135482
  0
LINE
  8
CSLAYER17
  6
CENTER
 62
     3
 10
188.329193
 20
147.135482
 11
188.329193
 21
138.135482
  0
LINE
  8
CSLAYER17
  6
CENTER
 62
     3
 10
288.329193
 20
147.135482
 11
288.329193
 21
138.135482
  0
ENDSEC
  0
EOF
