  0
SECTION
  2
HEADER
  9
$ACADVER
  1
AC1006
  9
$INSBASE
 10
0.000000
 20
0.000000
 30
0.0
  9
$EXTMIN
 10
0.000000
 20
0.000000
  9
$EXTMAX
 10
594.000000
 20
420.000000
  9
$LIMMIN
 10
0.000000
 20
0.000000
  9
$LIMMAX
 10
594.000000
 20
420.000000
  9
$VIEWCTR
 10
297.000000
 20
210.000000
  9
$VIEWSIZE
 40
420.000000
  9
$SNAPMODE
 70
     0
  9
$SNAPUNIT
 10
1.0
 20
1.0
  9
$SNAPBASE
 10
0.0
 20
0.0
  9
$SNAPANG
 50
0.0
  9
$SNAPSTYLE
 70
     0
  9
$SNAPISOPAIR
 70
     0
  9
$GRIDMODE
 70
     0
  9
$GRIDUNIT
 10
0.0
 20
0.0
  9
$ORTHOMODE
 70
     0
  9
$REGENMODE
 70
     1
  9
$FILLMODE
 70
     1
  9
$QTEXTMODE
 70
     0
  9
$DRAGMODE
 70
     2
  9
$LTSCALE
 40
15.000000
  9
$OSMODE
 70
     0
  9
$ATTMODE
 70
     1
  9
$TEXTSIZE
 40
0.2
  9
$TRACEWID
 40
0.05
  9
$TEXTSTYLE
  7
STANDARD
  9
$CLAYER
  8
CSLAYER1
  9
$CELTYPE
  6
BYLAYER
  9
$CECOLOR
 62
   256
  9
$DIMSCALE
 40
1.0
  9
$DIMASZ
 40
0.18
  9
$DIMEXO
 40
0.0625
  9
$DIMDLI
 40
0.38
  9
$DIMRND
 40
0.0
  9
$DIMDLE
 40
0.0
  9
$DIMEXE
 40
0.18
  9
$DIMTP
 40
0.0
  9
$DIMTM
 40
0.0
  9
$DIMTXT
 40
0.18
  9
$DIMCEN
 40
0.09
  9
$DIMTSZ
 40
0.0
  9
$DIMTOL
 70
     0
  9
$DIMLIM
 70
     0
  9
$DIMTIH
 70
     1
  9
$DIMTOH
 70
     1
  9
$DIMSE1
 70
     0
  9
$DIMSE2
 70
     0
  9
$DIMTAD
 70
     0
  9
$DIMZIN
 70
     0
  9
$DIMBLK
  1

  9
$LUNITS
 70
     2
  9
$LUPREC
 70
     4
  9
$AXISMODE
 70
     0
  9
$AXISUNIT
 10
0.0
 20
0.0
  9
$SKETCHINC
 40
0.1
  9
$FILLETRAD
 40
0.0
  9
$AUNITS
 70
     0
  9
$AUPREC
 70
     0
  9
$MENU
  1
ACAD
  9
$ELEVATION
 40
0.0
  9
$THICKNESS
 40
0.0
  9
$VIEWDIR
 10
0.0
 20
0.0
 30
1.0
  9
$LIMCHECK
 70
     0
  9
$BLIPMODE
 70
     1
  9
$CHAMFERA
 40
0.0
  9
$CHAMFERB
 40
0.0
  9
$FASTZOOM
 70
     1
  9
$SKPOLY
 70
     0
  9
$TDCREATE
 40
2454235.000000
  9
$TDUPDATE
 40
2454237.000000
  9
$TDINDWG
 40
0.0
  9
$TDUSRTIMER
 40
0.0
  9
$USRTIMER
 70
     1
  9
$ANGBASE
 50
0.0
  9
$ANGDIR
 70
     0
  9
$PDMODE
 70
     0
  9
$PDSIZE
 40
0.0
  9
$PLINEWID
 40
0.0
  9
$COORDS
 70
     0
  9
$USERI1
 70
     0
  9
$USERI2
 70
     0
  9
$USERI3
 70
     0
  9
$USERI4
 70
     0
  9
$USERI5
 70
     0
  9
$USERR1
 40
0.0
  9
$USERR2
 40
0.0
  9
$USERR3
 40
0.0
  9
$USERR4
 40
0.0
  9
$USERR5
 40
0.0
  0
ENDSEC
  0
SECTION
  2
TABLES
  0
TABLE
  2
LTYPE
 70
     9
  0
LTYPE
  2
CONTINUOUS
 70
    64
  3
Solid line
 72
    65
 73
     0
 40
0.0
  0
LTYPE
  2
DASHED
 70
    64
  3
__ __ __ __ __ __ __ __ __ __ __ __ __ __ __
 72
    65
 73
     2
 40
0.75
 49
0.5
 49
-0.25
  0
LTYPE
  2
HIDDEN
 70
    64
  3
_ _ _ _ _ _ _ _ _ _ _ _ _ _ _ _ _ _ _ _ _ _ _
 72
    65
 73
     2
 40
0.375
 49
0.25
 49
-0.125
  0
LTYPE
  2
DOT
 70
    64
  3
...............................................
 72
    65
 73
     2
 40
0.25
 49
0.0
 49
-0.25
  0
LTYPE
  2
DASHDOT
 70
    64
  3
__ . __ . __ . __ . __ . __ . __ . __ . __ . __
 72
    65
 73
     4
 40
1.0
 49
0.5
 49
-0.25
 49
0.0
 49
-0.25
  0
LTYPE
  2
DIVIDE
 70
    64
  3
__ . . __ . . __ . . __ . . __ . . __ . . __
 72
    65
 73
     6
 40
1.25
 49
0.5
 49
-0.25
 49
0.0
 49
-0.25
 49
0.0
 49
-0.25
  0
LTYPE
  2
CENTER
 70
    64
  3
____ _ ____ _ ____ _ ____ _ ____ _ ____ _ ____ 
 72
    65
 73
     4
 40
2.0
 49
1.25
 49
-0.25
 49
0.25
 49
-0.25
  0
LTYPE
  2
PHANTOM
 70
    64
  3
______  __  __  ______  __  __  ______  __  __ 
 72
    65
 73
     6
 40
2.5
 49
1.25
 49
-0.25
 49
0.25
 49
-0.25
 49
0.25
 49
-0.25
  0
LTYPE
  2
BORDER
 70
    64
  3
__ __ . __ __ . __ __ . __ __ . __ __ . __ __ .
 72
    65
 73
     6
 40
1.75
 49
0.5
 49
-0.25
 49
0.5
 49
-0.25
 49
0.0
 49
-0.25
  0
ENDTAB
  0
TABLE
  2
LAYER
 70
    16
  0
LAYER
  2
CSLAYER1
 70
    64
 62
     7
  6
CONTINUOUS
  0
LAYER
  2
CSLAYER2
 70
    64
 62
     7
  6
CONTINUOUS
  0
LAYER
  2
CSLAYER3
 70
    64
 62
     7
  6
CONTINUOUS
  0
LAYER
  2
CSLAYER4
 70
    64
 62
     7
  6
CONTINUOUS
  0
LAYER
  2
CSLAYER5
 70
    64
 62
     7
  6
CONTINUOUS
  0
LAYER
  2
CSLAYER6
 70
    64
 62
     7
  6
CONTINUOUS
  0
LAYER
  2
CSLAYER7
 70
    64
 62
     7
  6
CONTINUOUS
  0
LAYER
  2
CSLAYER8
 70
    64
 62
     7
  6
CONTINUOUS
  0
LAYER
  2
CSLAYER9
 70
    64
 62
     7
  6
CONTINUOUS
  0
LAYER
  2
CSLAYER10
 70
    64
 62
     7
  6
CONTINUOUS
  0
LAYER
  2
CSLAYER11
 70
    64
 62
     7
  6
CONTINUOUS
  0
LAYER
  2
CSLAYER12
 70
    64
 62
     7
  6
CONTINUOUS
  0
LAYER
  2
CSLAYER13
 70
    64
 62
     7
  6
CONTINUOUS
  0
LAYER
  2
CSLAYER14
 70
    64
 62
     7
  6
CONTINUOUS
  0
LAYER
  2
CSLAYER15
 70
    64
 62
     7
  6
CONTINUOUS
  0
LAYER
  2
CSLAYER16
 70
    64
 62
     7
  6
CONTINUOUS
  0
ENDTAB
  0
TABLE
  2
STYLE
 70
     1
  0
STYLE
  2
FX_FONT
 70
     0
 40
1.0
 41
1.0
 50
0.0
 71
     0
 42
1.0
  3
monotxt
  4
bigfont
  0
ENDTAB
  0
TABLE
  2
VIEW
 70
     0
  0
ENDTAB
  0
ENDSEC
  0
SECTION
  2
BLOCKS
  0
ENDSEC
  0
SECTION
  2
ENTITIES
  0
TEXT
  8
CSLAYER1
 62
     3
 10
459.983337
 20
46.193451
 40
4.000000
 41
1.038462
  1
MS-100□25
 50
0.000000
 51
10.000000
  7
FX_FONT
 72
     5
 11
495.983337
 21
46.193451
  0
TEXT
  8
CSLAYER1
 62
     4
 10
459.983337
 20
40.193451
 40
3.500000
 41
1.071429
  1
尺度1：1
 50
0.000000
 51
10.000000
  7
FX_FONT
 72
     5
 11
477.483337
 21
40.193451
  0
TEXT
  8
CSLAYER1
 62
     3
 10
459.983337
 20
52.193451
 40
4.000000
 41
1.038462
  1
DCモータドライバ
 50
0.000000
 51
10.000000
  7
FX_FONT
 72
     5
 11
495.983337
 21
52.193451
  0
LINE
  8
CSLAYER1
  6
CONTINUOUS
 62
     7
 10
376.500000
 20
394.500000
 11
235.500000
 21
394.500000
  0
LINE
  8
CSLAYER1
  6
CONTINUOUS
 62
     7
 10
233.500000
 20
392.500000
 11
233.500000
 21
339.500000
  0
LINE
  8
CSLAYER1
  6
CONTINUOUS
 62
     7
 10
233.500000
 20
339.500000
 11
234.500000
 21
339.500000
  0
LINE
  8
CSLAYER1
  6
CONTINUOUS
 62
     7
 10
349.500000
 20
393.500000
 11
349.500000
 21
394.500000
  0
LINE
  8
CSLAYER1
  6
CONTINUOUS
 62
     7
 10
347.500000
 20
393.500000
 11
347.500000
 21
394.500000
  0
LINE
  8
CSLAYER1
  6
CONTINUOUS
 62
     7
 10
335.500000
 20
393.500000
 11
335.500000
 21
394.500000
  0
LINE
  8
CSLAYER1
  6
CONTINUOUS
 62
     7
 10
337.500000
 20
393.500000
 11
337.500000
 21
394.500000
  0
LINE
  8
CSLAYER1
  6
CONTINUOUS
 62
     7
 10
269.500000
 20
393.500000
 11
269.500000
 21
394.500000
  0
LINE
  8
CSLAYER1
  6
CONTINUOUS
 62
     7
 10
267.500000
 20
393.500000
 11
267.500000
 21
394.500000
  0
LINE
  8
CSLAYER1
  6
CONTINUOUS
 62
     7
 10
255.500000
 20
393.500000
 11
255.500000
 21
394.500000
  0
LINE
  8
CSLAYER1
  6
CONTINUOUS
 62
     7
 10
257.500000
 20
393.500000
 11
257.500000
 21
394.500000
  0
LINE
  8
CSLAYER1
  6
CONTINUOUS
 62
     7
 10
376.500000
 20
392.500000
 11
376.500000
 21
394.500000
  0
LINE
  8
CSLAYER1
  6
CONTINUOUS
 62
     6
 10
235.500000
 20
107.500000
 11
235.500000
 21
106.500000
  0
LINE
  8
CSLAYER1
  6
CONTINUOUS
 62
     6
 10
234.500000
 20
108.500000
 11
233.500000
 21
108.500000
  0
LINE
  8
CSLAYER1
  6
CONTINUOUS
 62
     6
 10
376.500000
 20
106.500000
 11
235.500000
 21
106.500000
  0
LINE
  8
CSLAYER1
  6
CONTINUOUS
 62
     6
 10
233.500000
 20
108.500000
 11
233.500000
 21
316.500000
  0
CIRCLE
  8
CSLAYER1
  6
DOT
 62
     3
 10
252.500000
 20
311.500000
 40
2.000000
  0
CIRCLE
  8
CSLAYER1
  6
DOT
 62
     3
 10
252.500000
 20
311.500000
 40
1.600000
  0
LINE
  8
CSLAYER1
  6
DOT
 62
     3
 10
242.500000
 20
310.000000
 11
242.500000
 21
303.000000
  0
LINE
  8
CSLAYER1
  6
DOT
 62
     3
 10
246.000000
 20
306.500000
 11
239.000000
 21
306.500000
  0
CIRCLE
  8
CSLAYER1
  6
DOT
 62
     3
 10
242.500000
 20
306.500000
 40
1.500000
  0
CIRCLE
  8
CSLAYER1
  6
DOT
 62
     3
 10
357.500000
 20
311.500000
 40
2.000000
  0
CIRCLE
  8
CSLAYER1
  6
DOT
 62
     3
 10
357.500000
 20
311.500000
 40
1.600000
  0
LINE
  8
CSLAYER1
  6
DOT
 62
     3
 10
367.500000
 20
310.000000
 11
367.500000
 21
303.000000
  0
LINE
  8
CSLAYER1
  6
DOT
 62
     3
 10
371.000000
 20
306.500000
 11
364.000000
 21
306.500000
  0
CIRCLE
  8
CSLAYER1
  6
DOT
 62
     3
 10
367.500000
 20
306.500000
 40
1.500000
  0
LINE
  8
CSLAYER1
  6
DOT
 62
     3
 10
371.000000
 20
116.500000
 11
353.000000
 21
116.500000
  0
CIRCLE
  8
CSLAYER1
  6
DOT
 62
     3
 10
357.500000
 20
116.500000
 40
2.000000
  0
CIRCLE
  8
CSLAYER1
  6
DOT
 62
     3
 10
357.500000
 20
116.500000
 40
1.600000
  0
LINE
  8
CSLAYER1
  6
DOT
 62
     3
 10
367.500000
 20
120.000000
 11
367.500000
 21
113.000000
  0
CIRCLE
  8
CSLAYER1
  6
DOT
 62
     3
 10
367.500000
 20
116.500000
 40
1.500000
  0
LINE
  8
CSLAYER1
  6
DOT
 62
     3
 10
239.000000
 20
116.500000
 11
257.000000
 21
116.500000
  0
CIRCLE
  8
CSLAYER1
  6
DOT
 62
     3
 10
252.500000
 20
116.500000
 40
2.000000
  0
CIRCLE
  8
CSLAYER1
  6
DOT
 62
     3
 10
252.500000
 20
116.500000
 40
1.600000
  0
LINE
  8
CSLAYER1
  6
DOT
 62
     3
 10
242.500000
 20
120.000000
 11
242.500000
 21
113.000000
  0
CIRCLE
  8
CSLAYER1
  6
DOT
 62
     3
 10
242.500000
 20
116.500000
 40
1.500000
  0
LINE
  8
CSLAYER1
  6
DOT
 62
     3
 10
357.500000
 20
316.000000
 11
357.500000
 21
307.000000
  0
LINE
  8
CSLAYER1
  6
DOT
 62
     3
 10
362.000000
 20
311.500000
 11
353.000000
 21
311.500000
  0
LINE
  8
CSLAYER1
  6
DOT
 62
     3
 10
252.500000
 20
316.000000
 11
252.500000
 21
307.000000
  0
LINE
  8
CSLAYER1
  6
DOT
 62
     3
 10
257.000000
 20
311.500000
 11
248.000000
 21
311.500000
  0
LINE
  8
CSLAYER1
  6
DOT
 62
     3
 10
357.500000
 20
121.000000
 11
357.500000
 21
112.000000
  0
LINE
  8
CSLAYER1
  6
DOT
 62
     3
 10
252.500000
 20
121.000000
 11
252.500000
 21
112.000000
  0
LINE
  8
CSLAYER1
  6
CONTINUOUS
 62
     7
 10
255.500000
 20
107.500000
 11
255.500000
 21
106.500000
  0
LINE
  8
CSLAYER1
  6
CONTINUOUS
 62
     7
 10
257.500000
 20
107.500000
 11
257.500000
 21
106.500000
  0
LINE
  8
CSLAYER1
  6
CONTINUOUS
 62
     7
 10
269.500000
 20
107.500000
 11
269.500000
 21
106.500000
  0
LINE
  8
CSLAYER1
  6
CONTINUOUS
 62
     7
 10
267.500000
 20
107.500000
 11
267.500000
 21
106.500000
  0
LINE
  8
CSLAYER1
  6
CONTINUOUS
 62
     7
 10
335.500000
 20
107.500000
 11
335.500000
 21
106.500000
  0
LINE
  8
CSLAYER1
  6
CONTINUOUS
 62
     7
 10
337.500000
 20
107.500000
 11
337.500000
 21
106.500000
  0
LINE
  8
CSLAYER1
  6
CONTINUOUS
 62
     7
 10
349.500000
 20
107.500000
 11
349.500000
 21
106.500000
  0
LINE
  8
CSLAYER1
  6
CONTINUOUS
 62
     7
 10
347.500000
 20
107.500000
 11
347.500000
 21
106.500000
  0
LINE
  8
CSLAYER1
  6
CONTINUOUS
 62
     7
 10
376.500000
 20
107.500000
 11
376.500000
 21
106.500000
  0
LINE
  8
CSLAYER1
  6
CONTINUOUS
 62
     7
 10
233.500000
 20
316.500000
 11
234.500000
 21
316.500000
  0
LINE
  8
CSLAYER1
  6
CONTINUOUS
 62
     6
 10
378.000000
 20
31.000000
 11
378.000000
 21
84.500000
  0
LINE
  8
CSLAYER1
  6
CONTINUOUS
 62
     6
 10
376.500000
 20
31.000000
 11
376.500000
 21
86.436492
  0
LINE
  8
CSLAYER1
  6
CONTINUOUS
 62
     6
 10
234.500000
 20
85.000000
 11
234.500000
 21
86.500000
  0
LINE
  8
CSLAYER1
  6
CONTINUOUS
 62
     6
 10
234.500000
 20
86.500000
 11
376.000000
 21
86.500000
  0
ARC
  8
CSLAYER1
  6
CONTINUOUS
 62
     6
 10
376.000000
 20
84.500000
 40
2.000000
 50
0.000000
 51
90.000000
  0
LINE
  8
CSLAYER1
  6
CONTINUOUS
 62
     7
 10
234.500000
 20
85.000000
 11
378.000000
 21
85.000000
  0
LINE
  8
CSLAYER1
  6
CONTINUOUS
 62
     7
 10
376.500000
 20
31.000000
 11
378.000000
 21
31.000000
  0
LINE
  8
CSLAYER1
  6
CONTINUOUS
 62
     6
 10
424.500000
 20
107.500000
 11
424.500000
 21
106.500000
  0
LINE
  8
CSLAYER1
  6
CONTINUOUS
 62
     6
 10
479.500000
 20
316.500000
 11
479.500000
 21
108.500000
  0
LINE
  8
CSLAYER1
  6
CONTINUOUS
 62
     6
 10
477.500000
 20
106.500000
 11
424.500000
 21
106.500000
  0
ARC
  8
CSLAYER1
  6
CONTINUOUS
 62
     7
 10
477.500000
 20
108.500000
 40
2.000000
 50
270.000000
 51
360.000000
  0
LINE
  8
CSLAYER1
  6
CONTINUOUS
 62
     7
 10
452.500000
 20
107.500000
 11
452.500000
 21
106.500000
  0
LINE
  8
CSLAYER1
  6
CONTINUOUS
 62
     7
 10
454.500000
 20
107.500000
 11
454.500000
 21
106.500000
  0
LINE
  8
CSLAYER1
  6
CONTINUOUS
 62
     7
 10
466.500000
 20
107.500000
 11
466.500000
 21
106.500000
  0
LINE
  8
CSLAYER1
  6
CONTINUOUS
 62
     7
 10
464.500000
 20
107.500000
 11
464.500000
 21
106.500000
  0
TEXT
  8
CSLAYER1
 62
     3
 10
140.301147
 20
115.339554
 40
3.500000
 41
0.834783
  1
SAWAMURA
 50
0.000000
 51
0.000000
  7
FX_FONT
 72
     5
 11
162.701147
 21
115.339554
  0
TEXT
  8
CSLAYER1
 62
     3
 10
140.301147
 20
111.159561
 40
3.500000
 41
0.857143
  1
DENKI
 50
0.000000
 51
0.000000
  7
FX_FONT
 72
     5
 11
154.301147
 21
111.159561
  0
LINE
  8
CSLAYER1
  6
DASHED
 62
     3
 10
129.000000
 20
316.500000
 11
129.000000
 21
108.500000
  0
LINE
  8
CSLAYER1
  6
CONTINUOUS
 62
     6
 10
181.000000
 20
316.500000
 11
127.000000
 21
316.500000
  0
LINE
  8
CSLAYER1
  6
CONTINUOUS
 62
     6
 10
182.000000
 20
315.500000
 11
182.000000
 21
106.500000
  0
LINE
  8
CSLAYER1
  6
CONTINUOUS
 62
     6
 10
127.000000
 20
108.500000
 11
182.000000
 21
108.500000
  0
LINE
  8
CSLAYER1
  6
CONTINUOUS
 62
     6
 10
127.000000
 20
316.500000
 11
127.000000
 21
108.500000
  0
LINE
  8
CSLAYER1
  6
CONTINUOUS
 62
     6
 10
129.000000
 20
106.500000
 11
182.000000
 21
106.500000
  0
LINE
  8
CSLAYER1
  6
CONTINUOUS
 62
     6
 10
182.000000
 20
315.500000
 11
181.000000
 21
316.500000
  0
LINE
  8
CSLAYER1
  6
CENTER
 62
     3
 10
172.000000
 20
315.500000
 11
172.000000
 21
307.500000
  0
LINE
  8
CSLAYER1
  6
CENTER
 62
     3
 10
137.000000
 20
315.500000
 11
137.000000
 21
307.500000
  0
LINE
  8
CSLAYER1
  6
CENTER
 62
     3
 10
176.000000
 20
311.500000
 11
168.000000
 21
311.500000
  0
LINE
  8
CSLAYER1
  6
CENTER
 62
     3
 10
176.000000
 20
111.500000
 11
168.000000
 21
111.500000
  0
LINE
  8
CSLAYER1
  6
CENTER
 62
     3
 10
141.000000
 20
311.500000
 11
133.000000
 21
311.500000
  0
LINE
  8
CSLAYER1
  6
CENTER
 62
     3
 10
172.000000
 20
115.215305
 11
172.000000
 21
107.500000
  0
LINE
  8
CSLAYER1
  6
CENTER
 62
     3
 10
137.000000
 20
115.500000
 11
137.000000
 21
107.500000
  0
LINE
  8
CSLAYER1
  6
CENTER
 62
     3
 10
139.977284
 20
111.500000
 11
132.000000
 21
111.500000
  0
LINE
  8
CSLAYER1
  6
CONTINUOUS
 62
     3
 10
135.275862
 20
117.063691
 11
136.137931
 21
117.063691
  0
LINE
  8
CSLAYER1
  6
CONTINUOUS
 62
     3
 10
136.137931
 20
117.063691
 11
136.137931
 21
117.925760
  0
LINE
  8
CSLAYER1
  6
CONTINUOUS
 62
     3
 10
136.137931
 20
117.925760
 11
138.724138
 21
117.063691
  0
LINE
  8
CSLAYER1
  6
CONTINUOUS
 62
     3
 10
138.724138
 20
117.063691
 11
137.862069
 21
117.063691
  0
LINE
  8
CSLAYER1
  6
CONTINUOUS
 62
     3
 10
137.862069
 20
117.063691
 11
137.862069
 21
116.201622
  0
LINE
  8
CSLAYER1
  6
CONTINUOUS
 62
     3
 10
137.862069
 20
116.201622
 11
135.275862
 21
117.063691
  0
CIRCLE
  8
CSLAYER1
  6
CONTINUOUS
 62
     3
 10
137.000000
 20
117.063691
 40
1.724138
  0
CIRCLE
  8
CSLAYER1
  6
CONTINUOUS
 62
     3
 10
137.000000
 20
117.063691
 40
2.000000
  0
CIRCLE
  8
CSLAYER1
  6
CONTINUOUS
 62
     3
 10
172.000000
 20
111.500000
 40
2.000000
  0
CIRCLE
  8
CSLAYER1
  6
CONTINUOUS
 62
     6
 10
172.000000
 20
111.500000
 40
1.600000
  0
CIRCLE
  8
CSLAYER1
  6
CONTINUOUS
 62
     3
 10
137.000000
 20
111.500000
 40
2.000000
  0
CIRCLE
  8
CSLAYER1
  6
CONTINUOUS
 62
     6
 10
137.000000
 20
111.500000
 40
1.600000
  0
CIRCLE
  8
CSLAYER1
  6
CONTINUOUS
 62
     3
 10
172.000000
 20
311.500000
 40
2.000000
  0
CIRCLE
  8
CSLAYER1
  6
CONTINUOUS
 62
     6
 10
172.000000
 20
311.500000
 40
1.600000
  0
CIRCLE
  8
CSLAYER1
  6
CONTINUOUS
 62
     3
 10
137.000000
 20
311.500000
 40
2.000000
  0
CIRCLE
  8
CSLAYER1
  6
CONTINUOUS
 62
     6
 10
137.000000
 20
311.500000
 40
1.600000
  0
ARC
  8
CSLAYER1
  6
CONTINUOUS
 62
     7
 10
129.000000
 20
108.500000
 40
2.000000
 50
180.000000
 51
270.000000
  0
LINE
  8
CSLAYER1
  6
CONTINUOUS
 62
     6
 10
378.000000
 20
393.500000
 11
378.000000
 21
340.000000
  0
LINE
  8
CSLAYER1
  6
CONTINUOUS
 62
     6
 10
376.500000
 20
393.500000
 11
376.500000
 21
338.063508
  0
LINE
  8
CSLAYER1
  6
CONTINUOUS
 62
     6
 10
234.500000
 20
392.500000
 11
234.500000
 21
338.000000
  0
LINE
  8
CSLAYER1
  6
CONTINUOUS
 62
     6
 10
234.500000
 20
338.000000
 11
376.000000
 21
338.000000
  0
ARC
  8
CSLAYER1
  6
CONTINUOUS
 62
     6
 10
376.000000
 20
340.000000
 40
2.000000
 50
270.000000
 51
360.000000
  0
CIRCLE
  8
CSLAYER1
  6
CONTINUOUS
 62
     7
 10
342.500000
 20
387.500000
 40
1.500000
  0
LINE
  8
CSLAYER1
  6
CONTINUOUS
 62
     7
 10
269.000000
 20
353.000000
 11
269.000000
 21
380.000000
  0
LINE
  8
CSLAYER1
  6
CONTINUOUS
 62
     7
 10
272.000000
 20
353.000000
 11
272.000000
 21
380.000000
  0
ARC
  8
CSLAYER1
  6
CONTINUOUS
 62
     7
 10
270.500000
 20
380.000000
 40
1.500000
 50
-0.000000
 51
180.000000
  0
ARC
  8
CSLAYER1
  6
CONTINUOUS
 62
     7
 10
270.500000
 20
353.000000
 40
1.500000
 50
180.000000
 51
360.000000
  0
LINE
  8
CSLAYER1
  6
CONTINUOUS
 62
     7
 10
275.000000
 20
353.000000
 11
275.000000
 21
380.000000
  0
LINE
  8
CSLAYER1
  6
CONTINUOUS
 62
     7
 10
278.000000
 20
353.000000
 11
278.000000
 21
380.000000
  0
ARC
  8
CSLAYER1
  6
CONTINUOUS
 62
     7
 10
276.500000
 20
380.000000
 40
1.500000
 50
-0.000000
 51
180.000000
  0
ARC
  8
CSLAYER1
  6
CONTINUOUS
 62
     7
 10
276.500000
 20
353.000000
 40
1.500000
 50
180.000000
 51
360.000000
  0
LINE
  8
CSLAYER1
  6
CONTINUOUS
 62
     7
 10
281.000000
 20
353.000000
 11
281.000000
 21
380.000000
  0
LINE
  8
CSLAYER1
  6
CONTINUOUS
 62
     7
 10
284.000000
 20
353.000000
 11
284.000000
 21
380.000000
  0
ARC
  8
CSLAYER1
  6
CONTINUOUS
 62
     7
 10
282.500000
 20
380.000000
 40
1.500000
 50
-0.000000
 51
180.000000
  0
ARC
  8
CSLAYER1
  6
CONTINUOUS
 62
     7
 10
282.500000
 20
353.000000
 40
1.500000
 50
180.000000
 51
360.000000
  0
LINE
  8
CSLAYER1
  6
CONTINUOUS
 62
     7
 10
287.000000
 20
353.000000
 11
287.000000
 21
380.000000
  0
LINE
  8
CSLAYER1
  6
CONTINUOUS
 62
     7
 10
290.000000
 20
353.000000
 11
290.000000
 21
380.000000
  0
ARC
  8
CSLAYER1
  6
CONTINUOUS
 62
     7
 10
288.500000
 20
380.000000
 40
1.500000
 50
-0.000000
 51
180.000000
  0
ARC
  8
CSLAYER1
  6
CONTINUOUS
 62
     7
 10
288.500000
 20
353.000000
 40
1.500000
 50
180.000000
 51
360.000000
  0
LINE
  8
CSLAYER1
  6
CONTINUOUS
 62
     7
 10
293.000000
 20
353.000000
 11
293.000000
 21
380.000000
  0
LINE
  8
CSLAYER1
  6
CONTINUOUS
 62
     7
 10
296.000000
 20
353.000000
 11
296.000000
 21
380.000000
  0
ARC
  8
CSLAYER1
  6
CONTINUOUS
 62
     7
 10
294.500000
 20
380.000000
 40
1.500000
 50
-0.000000
 51
180.000000
  0
ARC
  8
CSLAYER1
  6
CONTINUOUS
 62
     7
 10
294.500000
 20
353.000000
 40
1.500000
 50
180.000000
 51
360.000000
  0
LINE
  8
CSLAYER1
  6
CONTINUOUS
 62
     7
 10
299.000000
 20
353.000000
 11
299.000000
 21
380.000000
  0
LINE
  8
CSLAYER1
  6
CONTINUOUS
 62
     7
 10
302.000000
 20
353.000000
 11
302.000000
 21
380.000000
  0
ARC
  8
CSLAYER1
  6
CONTINUOUS
 62
     7
 10
300.500000
 20
380.000000
 40
1.500000
 50
-0.000000
 51
180.000000
  0
ARC
  8
CSLAYER1
  6
CONTINUOUS
 62
     7
 10
300.500000
 20
353.000000
 40
1.500000
 50
180.000000
 51
360.000000
  0
LINE
  8
CSLAYER1
  6
CONTINUOUS
 62
     7
 10
305.000000
 20
353.000000
 11
305.000000
 21
380.000000
  0
LINE
  8
CSLAYER1
  6
CONTINUOUS
 62
     7
 10
308.000000
 20
353.000000
 11
308.000000
 21
380.000000
  0
ARC
  8
CSLAYER1
  6
CONTINUOUS
 62
     7
 10
306.500000
 20
380.000000
 40
1.500000
 50
-0.000000
 51
180.000000
  0
ARC
  8
CSLAYER1
  6
CONTINUOUS
 62
     7
 10
306.500000
 20
353.000000
 40
1.500000
 50
180.000000
 51
360.000000
  0
LINE
  8
CSLAYER1
  6
CONTINUOUS
 62
     7
 10
311.000000
 20
353.000000
 11
311.000000
 21
380.000000
  0
LINE
  8
CSLAYER1
  6
CONTINUOUS
 62
     7
 10
314.000000
 20
353.000000
 11
314.000000
 21
380.000000
  0
ARC
  8
CSLAYER1
  6
CONTINUOUS
 62
     7
 10
312.500000
 20
380.000000
 40
1.500000
 50
-0.000000
 51
180.000000
  0
ARC
  8
CSLAYER1
  6
CONTINUOUS
 62
     7
 10
312.500000
 20
353.000000
 40
1.500000
 50
180.000000
 51
360.000000
  0
LINE
  8
CSLAYER1
  6
CONTINUOUS
 62
     7
 10
317.000000
 20
353.000000
 11
317.000000
 21
380.000000
  0
LINE
  8
CSLAYER1
  6
CONTINUOUS
 62
     7
 10
320.000000
 20
353.000000
 11
320.000000
 21
380.000000
  0
ARC
  8
CSLAYER1
  6
CONTINUOUS
 62
     7
 10
318.500000
 20
380.000000
 40
1.500000
 50
-0.000000
 51
180.000000
  0
ARC
  8
CSLAYER1
  6
CONTINUOUS
 62
     7
 10
318.500000
 20
353.000000
 40
1.500000
 50
180.000000
 51
360.000000
  0
LINE
  8
CSLAYER1
  6
CONTINUOUS
 62
     7
 10
323.000000
 20
353.000000
 11
323.000000
 21
380.000000
  0
LINE
  8
CSLAYER1
  6
CONTINUOUS
 62
     7
 10
326.000000
 20
353.000000
 11
326.000000
 21
380.000000
  0
ARC
  8
CSLAYER1
  6
CONTINUOUS
 62
     7
 10
324.500000
 20
380.000000
 40
1.500000
 50
-0.000000
 51
180.000000
  0
ARC
  8
CSLAYER1
  6
CONTINUOUS
 62
     7
 10
324.500000
 20
353.000000
 40
1.500000
 50
180.000000
 51
360.000000
  0
LINE
  8
CSLAYER1
  6
CONTINUOUS
 62
     7
 10
329.000000
 20
353.000000
 11
329.000000
 21
380.000000
  0
LINE
  8
CSLAYER1
  6
CONTINUOUS
 62
     7
 10
332.000000
 20
353.000000
 11
332.000000
 21
380.000000
  0
ARC
  8
CSLAYER1
  6
CONTINUOUS
 62
     7
 10
330.500000
 20
380.000000
 40
1.500000
 50
-0.000000
 51
180.000000
  0
ARC
  8
CSLAYER1
  6
CONTINUOUS
 62
     7
 10
330.500000
 20
353.000000
 40
1.500000
 50
180.000000
 51
360.000000
  0
LINE
  8
CSLAYER1
  6
CONTINUOUS
 62
     7
 10
335.000000
 20
353.000000
 11
335.000000
 21
380.000000
  0
LINE
  8
CSLAYER1
  6
CONTINUOUS
 62
     7
 10
338.000000
 20
353.000000
 11
338.000000
 21
380.000000
  0
ARC
  8
CSLAYER1
  6
CONTINUOUS
 62
     7
 10
336.500000
 20
380.000000
 40
1.500000
 50
-0.000000
 51
180.000000
  0
ARC
  8
CSLAYER1
  6
CONTINUOUS
 62
     7
 10
336.500000
 20
353.000000
 40
1.500000
 50
180.000000
 51
360.000000
  0
LINE
  8
CSLAYER1
  6
CONTINUOUS
 62
     7
 10
235.500000
 20
393.500000
 11
376.500000
 21
393.500000
  0
LINE
  8
CSLAYER1
  6
DASHED
 62
     3
 10
234.500000
 20
339.500000
 11
376.500000
 21
339.500000
  0
LINE
  8
CSLAYER1
  6
CONTINUOUS
 62
     7
 10
375.500000
 20
393.500000
 11
376.500000
 21
392.500000
  0
LINE
  8
CSLAYER1
  6
CONTINUOUS
 62
     7
 10
376.500000
 20
393.500000
 11
378.000000
 21
393.500000
  0
LINE
  8
CSLAYER1
  6
CONTINUOUS
 62
     7
 10
235.500000
 20
393.500000
 11
234.500000
 21
392.500000
  0
LINE
  8
CSLAYER1
  6
CONTINUOUS
 62
     6
 10
378.000000
 20
316.500000
 11
378.000000
 21
107.500000
  0
LINE
  8
CSLAYER1
  6
CONTINUOUS
 62
     6
 10
234.500000
 20
318.000000
 11
376.500000
 21
318.000000
  0
LINE
  8
CSLAYER1
  6
CONTINUOUS
 62
     7
 10
234.500000
 20
108.500000
 11
234.500000
 21
318.000000
  0
LINE
  8
CSLAYER1
  6
CONTINUOUS
 62
     7
 10
378.000000
 20
107.500000
 11
235.500000
 21
107.500000
  0
LINE
  8
CSLAYER1
  6
CONTINUOUS
 62
     7
 10
376.500000
 20
318.000000
 11
376.500000
 21
316.500000
  0
LINE
  8
CSLAYER1
  6
CONTINUOUS
 62
     7
 10
378.000000
 20
316.500000
 11
376.500000
 21
316.500000
  0
LINE
  8
CSLAYER1
  6
DASHED
 62
     3
 10
376.500000
 20
316.500000
 11
376.500000
 21
107.500000
  0
LINE
  8
CSLAYER1
  6
DASHED
 62
     3
 10
376.500000
 20
316.500000
 11
234.500000
 21
316.500000
  0
LINE
  8
CSLAYER1
  6
CONTINUOUS
 62
     7
 10
251.000000
 20
184.000000
 11
251.000000
 21
211.000000
  0
LINE
  8
CSLAYER1
  6
CONTINUOUS
 62
     7
 10
254.000000
 20
184.000000
 11
254.000000
 21
211.000000
  0
ARC
  8
CSLAYER1
  6
CONTINUOUS
 62
     7
 10
252.500000
 20
211.000000
 40
1.500000
 50
-0.000000
 51
180.000000
  0
ARC
  8
CSLAYER1
  6
CONTINUOUS
 62
     7
 10
252.500000
 20
184.000000
 40
1.500000
 50
180.000000
 51
360.000000
  0
LINE
  8
CSLAYER1
  6
CONTINUOUS
 62
     7
 10
257.000000
 20
184.000000
 11
257.000000
 21
211.000000
  0
LINE
  8
CSLAYER1
  6
CONTINUOUS
 62
     7
 10
260.000000
 20
184.000000
 11
260.000000
 21
211.000000
  0
ARC
  8
CSLAYER1
  6
CONTINUOUS
 62
     7
 10
258.500000
 20
211.000000
 40
1.500000
 50
-0.000000
 51
180.000000
  0
ARC
  8
CSLAYER1
  6
CONTINUOUS
 62
     7
 10
258.500000
 20
184.000000
 40
1.500000
 50
180.000000
 51
360.000000
  0
LINE
  8
CSLAYER1
  6
CONTINUOUS
 62
     7
 10
263.000000
 20
184.000000
 11
263.000000
 21
211.000000
  0
LINE
  8
CSLAYER1
  6
CONTINUOUS
 62
     7
 10
266.000000
 20
184.000000
 11
266.000000
 21
211.000000
  0
ARC
  8
CSLAYER1
  6
CONTINUOUS
 62
     7
 10
264.500000
 20
211.000000
 40
1.500000
 50
-0.000000
 51
180.000000
  0
ARC
  8
CSLAYER1
  6
CONTINUOUS
 62
     7
 10
264.500000
 20
184.000000
 40
1.500000
 50
180.000000
 51
360.000000
  0
LINE
  8
CSLAYER1
  6
CONTINUOUS
 62
     7
 10
269.000000
 20
184.000000
 11
269.000000
 21
211.000000
  0
LINE
  8
CSLAYER1
  6
CONTINUOUS
 62
     7
 10
272.000000
 20
184.000000
 11
272.000000
 21
211.000000
  0
ARC
  8
CSLAYER1
  6
CONTINUOUS
 62
     7
 10
270.500000
 20
211.000000
 40
1.500000
 50
-0.000000
 51
180.000000
  0
ARC
  8
CSLAYER1
  6
CONTINUOUS
 62
     7
 10
270.500000
 20
184.000000
 40
1.500000
 50
180.000000
 51
360.000000
  0
LINE
  8
CSLAYER1
  6
CONTINUOUS
 62
     7
 10
275.000000
 20
184.000000
 11
275.000000
 21
211.000000
  0
LINE
  8
CSLAYER1
  6
CONTINUOUS
 62
     7
 10
278.000000
 20
184.000000
 11
278.000000
 21
211.000000
  0
ARC
  8
CSLAYER1
  6
CONTINUOUS
 62
     7
 10
276.500000
 20
211.000000
 40
1.500000
 50
-0.000000
 51
180.000000
  0
ARC
  8
CSLAYER1
  6
CONTINUOUS
 62
     7
 10
276.500000
 20
184.000000
 40
1.500000
 50
180.000000
 51
360.000000
  0
LINE
  8
CSLAYER1
  6
CONTINUOUS
 62
     7
 10
281.000000
 20
184.000000
 11
281.000000
 21
211.000000
  0
LINE
  8
CSLAYER1
  6
CONTINUOUS
 62
     7
 10
284.000000
 20
184.000000
 11
284.000000
 21
211.000000
  0
ARC
  8
CSLAYER1
  6
CONTINUOUS
 62
     7
 10
282.500000
 20
211.000000
 40
1.500000
 50
-0.000000
 51
180.000000
  0
ARC
  8
CSLAYER1
  6
CONTINUOUS
 62
     7
 10
282.500000
 20
184.000000
 40
1.500000
 50
180.000000
 51
360.000000
  0
LINE
  8
CSLAYER1
  6
CONTINUOUS
 62
     7
 10
287.000000
 20
184.000000
 11
287.000000
 21
211.000000
  0
LINE
  8
CSLAYER1
  6
CONTINUOUS
 62
     7
 10
290.000000
 20
184.000000
 11
290.000000
 21
211.000000
  0
ARC
  8
CSLAYER1
  6
CONTINUOUS
 62
     7
 10
288.500000
 20
211.000000
 40
1.500000
 50
-0.000000
 51
180.000000
  0
ARC
  8
CSLAYER1
  6
CONTINUOUS
 62
     7
 10
288.500000
 20
184.000000
 40
1.500000
 50
180.000000
 51
360.000000
  0
LINE
  8
CSLAYER1
  6
CONTINUOUS
 62
     7
 10
293.000000
 20
184.000000
 11
293.000000
 21
211.000000
  0
LINE
  8
CSLAYER1
  6
CONTINUOUS
 62
     7
 10
296.000000
 20
184.000000
 11
296.000000
 21
211.000000
  0
ARC
  8
CSLAYER1
  6
CONTINUOUS
 62
     7
 10
294.500000
 20
211.000000
 40
1.500000
 50
-0.000000
 51
180.000000
  0
ARC
  8
CSLAYER1
  6
CONTINUOUS
 62
     7
 10
294.500000
 20
184.000000
 40
1.500000
 50
180.000000
 51
360.000000
  0
LINE
  8
CSLAYER1
  6
CONTINUOUS
 62
     7
 10
299.000000
 20
184.000000
 11
299.000000
 21
211.000000
  0
LINE
  8
CSLAYER1
  6
CONTINUOUS
 62
     7
 10
302.000000
 20
184.000000
 11
302.000000
 21
211.000000
  0
ARC
  8
CSLAYER1
  6
CONTINUOUS
 62
     7
 10
300.500000
 20
211.000000
 40
1.500000
 50
-0.000000
 51
180.000000
  0
ARC
  8
CSLAYER1
  6
CONTINUOUS
 62
     7
 10
300.500000
 20
184.000000
 40
1.500000
 50
180.000000
 51
360.000000
  0
LINE
  8
CSLAYER1
  6
CONTINUOUS
 62
     7
 10
305.000000
 20
184.000000
 11
305.000000
 21
211.000000
  0
LINE
  8
CSLAYER1
  6
CONTINUOUS
 62
     7
 10
308.000000
 20
184.000000
 11
308.000000
 21
211.000000
  0
ARC
  8
CSLAYER1
  6
CONTINUOUS
 62
     7
 10
306.500000
 20
211.000000
 40
1.500000
 50
-0.000000
 51
180.000000
  0
ARC
  8
CSLAYER1
  6
CONTINUOUS
 62
     7
 10
306.500000
 20
184.000000
 40
1.500000
 50
180.000000
 51
360.000000
  0
LINE
  8
CSLAYER1
  6
CONTINUOUS
 62
     7
 10
311.000000
 20
184.000000
 11
311.000000
 21
211.000000
  0
LINE
  8
CSLAYER1
  6
CONTINUOUS
 62
     7
 10
314.000000
 20
184.000000
 11
314.000000
 21
211.000000
  0
ARC
  8
CSLAYER1
  6
CONTINUOUS
 62
     7
 10
312.500000
 20
211.000000
 40
1.500000
 50
-0.000000
 51
180.000000
  0
ARC
  8
CSLAYER1
  6
CONTINUOUS
 62
     7
 10
312.500000
 20
184.000000
 40
1.500000
 50
180.000000
 51
360.000000
  0
LINE
  8
CSLAYER1
  6
CONTINUOUS
 62
     7
 10
317.000000
 20
184.000000
 11
317.000000
 21
211.000000
  0
LINE
  8
CSLAYER1
  6
CONTINUOUS
 62
     7
 10
320.000000
 20
184.000000
 11
320.000000
 21
211.000000
  0
ARC
  8
CSLAYER1
  6
CONTINUOUS
 62
     7
 10
318.500000
 20
211.000000
 40
1.500000
 50
-0.000000
 51
180.000000
  0
ARC
  8
CSLAYER1
  6
CONTINUOUS
 62
     7
 10
318.500000
 20
184.000000
 40
1.500000
 50
180.000000
 51
360.000000
  0
LINE
  8
CSLAYER1
  6
CONTINUOUS
 62
     7
 10
323.000000
 20
184.000000
 11
323.000000
 21
211.000000
  0
LINE
  8
CSLAYER1
  6
CONTINUOUS
 62
     7
 10
326.000000
 20
184.000000
 11
326.000000
 21
211.000000
  0
ARC
  8
CSLAYER1
  6
CONTINUOUS
 62
     7
 10
324.500000
 20
211.000000
 40
1.500000
 50
-0.000000
 51
180.000000
  0
ARC
  8
CSLAYER1
  6
CONTINUOUS
 62
     7
 10
324.500000
 20
184.000000
 40
1.500000
 50
180.000000
 51
360.000000
  0
LINE
  8
CSLAYER1
  6
CONTINUOUS
 62
     7
 10
329.000000
 20
184.000000
 11
329.000000
 21
211.000000
  0
LINE
  8
CSLAYER1
  6
CONTINUOUS
 62
     7
 10
332.000000
 20
184.000000
 11
332.000000
 21
211.000000
  0
ARC
  8
CSLAYER1
  6
CONTINUOUS
 62
     7
 10
330.500000
 20
211.000000
 40
1.500000
 50
-0.000000
 51
180.000000
  0
ARC
  8
CSLAYER1
  6
CONTINUOUS
 62
     7
 10
330.500000
 20
184.000000
 40
1.500000
 50
180.000000
 51
360.000000
  0
LINE
  8
CSLAYER1
  6
CONTINUOUS
 62
     7
 10
335.000000
 20
184.000000
 11
335.000000
 21
211.000000
  0
LINE
  8
CSLAYER1
  6
CONTINUOUS
 62
     7
 10
338.000000
 20
184.000000
 11
338.000000
 21
211.000000
  0
ARC
  8
CSLAYER1
  6
CONTINUOUS
 62
     7
 10
336.500000
 20
211.000000
 40
1.500000
 50
-0.000000
 51
180.000000
  0
ARC
  8
CSLAYER1
  6
CONTINUOUS
 62
     7
 10
336.500000
 20
184.000000
 40
1.500000
 50
180.000000
 51
360.000000
  0
LINE
  8
CSLAYER1
  6
CONTINUOUS
 62
     7
 10
341.000000
 20
184.000000
 11
341.000000
 21
211.000000
  0
LINE
  8
CSLAYER1
  6
CONTINUOUS
 62
     7
 10
344.000000
 20
184.000000
 11
344.000000
 21
211.000000
  0
ARC
  8
CSLAYER1
  6
CONTINUOUS
 62
     7
 10
342.500000
 20
211.000000
 40
1.500000
 50
-0.000000
 51
180.000000
  0
ARC
  8
CSLAYER1
  6
CONTINUOUS
 62
     7
 10
342.500000
 20
184.000000
 40
1.500000
 50
180.000000
 51
360.000000
  0
LINE
  8
CSLAYER1
  6
CONTINUOUS
 62
     7
 10
347.000000
 20
184.000000
 11
347.000000
 21
211.000000
  0
LINE
  8
CSLAYER1
  6
CONTINUOUS
 62
     7
 10
350.000000
 20
184.000000
 11
350.000000
 21
211.000000
  0
ARC
  8
CSLAYER1
  6
CONTINUOUS
 62
     7
 10
348.500000
 20
211.000000
 40
1.500000
 50
-0.000000
 51
180.000000
  0
ARC
  8
CSLAYER1
  6
CONTINUOUS
 62
     7
 10
348.500000
 20
184.000000
 40
1.500000
 50
180.000000
 51
360.000000
  0
LINE
  8
CSLAYER1
  6
CONTINUOUS
 62
     7
 10
353.000000
 20
184.000000
 11
353.000000
 21
211.000000
  0
LINE
  8
CSLAYER1
  6
CONTINUOUS
 62
     7
 10
356.000000
 20
184.000000
 11
356.000000
 21
211.000000
  0
ARC
  8
CSLAYER1
  6
CONTINUOUS
 62
     7
 10
354.500000
 20
211.000000
 40
1.500000
 50
-0.000000
 51
180.000000
  0
ARC
  8
CSLAYER1
  6
CONTINUOUS
 62
     7
 10
354.500000
 20
184.000000
 40
1.500000
 50
180.000000
 51
360.000000
  0
LINE
  8
CSLAYER1
  6
CONTINUOUS
 62
     7
 10
359.000000
 20
184.000000
 11
359.000000
 21
211.000000
  0
LINE
  8
CSLAYER1
  6
CONTINUOUS
 62
     7
 10
362.000000
 20
184.000000
 11
362.000000
 21
211.000000
  0
ARC
  8
CSLAYER1
  6
CONTINUOUS
 62
     7
 10
360.500000
 20
211.000000
 40
1.500000
 50
-0.000000
 51
180.000000
  0
ARC
  8
CSLAYER1
  6
CONTINUOUS
 62
     7
 10
360.500000
 20
184.000000
 40
1.500000
 50
180.000000
 51
360.000000
  0
LINE
  8
CSLAYER1
  6
CONTINUOUS
 62
     7
 10
365.000000
 20
184.000000
 11
365.000000
 21
211.000000
  0
LINE
  8
CSLAYER1
  6
CONTINUOUS
 62
     7
 10
368.000000
 20
184.000000
 11
368.000000
 21
211.000000
  0
ARC
  8
CSLAYER1
  6
CONTINUOUS
 62
     7
 10
366.500000
 20
211.000000
 40
1.500000
 50
-0.000000
 51
180.000000
  0
ARC
  8
CSLAYER1
  6
CONTINUOUS
 62
     7
 10
366.500000
 20
184.000000
 40
1.500000
 50
180.000000
 51
360.000000
  0
LINE
  8
CSLAYER1
  6
CONTINUOUS
 62
     7
 10
341.000000
 20
171.000000
 11
341.000000
 21
144.000000
  0
LINE
  8
CSLAYER1
  6
CONTINUOUS
 62
     7
 10
344.000000
 20
171.000000
 11
344.000000
 21
144.000000
  0
ARC
  8
CSLAYER1
  6
CONTINUOUS
 62
     7
 10
342.500000
 20
144.000000
 40
1.500000
 50
180.000000
 51
360.000000
  0
ARC
  8
CSLAYER1
  6
CONTINUOUS
 62
     7
 10
342.500000
 20
171.000000
 40
1.500000
 50
0.000000
 51
180.000000
  0
LINE
  8
CSLAYER1
  6
CONTINUOUS
 62
     7
 10
347.000000
 20
171.000000
 11
347.000000
 21
144.000000
  0
LINE
  8
CSLAYER1
  6
CONTINUOUS
 62
     7
 10
350.000000
 20
171.000000
 11
350.000000
 21
144.000000
  0
ARC
  8
CSLAYER1
  6
CONTINUOUS
 62
     7
 10
348.500000
 20
144.000000
 40
1.500000
 50
180.000000
 51
360.000000
  0
ARC
  8
CSLAYER1
  6
CONTINUOUS
 62
     7
 10
348.500000
 20
171.000000
 40
1.500000
 50
0.000000
 51
180.000000
  0
LINE
  8
CSLAYER1
  6
CONTINUOUS
 62
     7
 10
353.000000
 20
171.000000
 11
353.000000
 21
144.000000
  0
LINE
  8
CSLAYER1
  6
CONTINUOUS
 62
     7
 10
356.000000
 20
171.000000
 11
356.000000
 21
144.000000
  0
ARC
  8
CSLAYER1
  6
CONTINUOUS
 62
     7
 10
354.500000
 20
144.000000
 40
1.500000
 50
-180.000000
 51
0.000000
  0
ARC
  8
CSLAYER1
  6
CONTINUOUS
 62
     7
 10
354.500000
 20
171.000000
 40
1.500000
 50
0.000000
 51
180.000000
  0
LINE
  8
CSLAYER1
  6
CONTINUOUS
 62
     7
 10
359.000000
 20
171.000000
 11
359.000000
 21
144.000000
  0
LINE
  8
CSLAYER1
  6
CONTINUOUS
 62
     7
 10
362.000000
 20
171.000000
 11
362.000000
 21
144.000000
  0
ARC
  8
CSLAYER1
  6
CONTINUOUS
 62
     7
 10
360.500000
 20
144.000000
 40
1.500000
 50
-180.000000
 51
0.000000
  0
ARC
  8
CSLAYER1
  6
CONTINUOUS
 62
     7
 10
360.500000
 20
171.000000
 40
1.500000
 50
0.000000
 51
180.000000
  0
LINE
  8
CSLAYER1
  6
CONTINUOUS
 62
     7
 10
365.000000
 20
171.000000
 11
365.000000
 21
144.000000
  0
LINE
  8
CSLAYER1
  6
CONTINUOUS
 62
     7
 10
368.000000
 20
171.000000
 11
368.000000
 21
144.000000
  0
ARC
  8
CSLAYER1
  6
CONTINUOUS
 62
     7
 10
366.500000
 20
144.000000
 40
1.500000
 50
-180.000000
 51
0.000000
  0
ARC
  8
CSLAYER1
  6
CONTINUOUS
 62
     7
 10
366.500000
 20
171.000000
 40
1.500000
 50
0.000000
 51
180.000000
  0
CIRCLE
  8
CSLAYER1
  6
CONTINUOUS
 62
     7
 10
292.500000
 20
149.000000
 40
3.000000
  0
CIRCLE
  8
CSLAYER1
  6
CONTINUOUS
 62
     7
 10
282.500000
 20
149.000000
 40
3.000000
  0
CIRCLE
  8
CSLAYER1
  6
CONTINUOUS
 62
     7
 10
272.500000
 20
149.000000
 40
3.000000
  0
CIRCLE
  8
CSLAYER1
  6
CONTINUOUS
 62
     7
 10
256.500000
 20
132.500000
 40
3.000000
  0
CIRCLE
  8
CSLAYER1
  6
CONTINUOUS
 62
     7
 10
280.500000
 20
126.500000
 40
3.000000
  0
CIRCLE
  8
CSLAYER1
  6
CONTINUOUS
 62
     7
 10
293.500000
 20
130.500000
 40
3.000000
  0
CIRCLE
  8
CSLAYER1
  6
CONTINUOUS
 62
     7
 10
302.500000
 20
130.500000
 40
3.000000
  0
TEXT
  8
CSLAYER1
 62
     3
 10
270.000000
 20
152.499985
 40
3.500000
 41
0.857143
  1
CL
 50
0.000000
 51
0.000000
  7
FX_FONT
 72
     5
 11
275.000000
 21
152.499985
  0
TEXT
  8
CSLAYER1
 62
     3
 10
278.767944
 20
152.499985
 40
3.500000
 41
0.803571
  1
OFS
 50
0.000000
 51
0.000000
  7
FX_FONT
 72
     5
 11
286.267944
 21
152.499985
  0
TEXT
  8
CSLAYER1
 62
     3
 10
288.767944
 20
152.499985
 40
3.500000
 41
0.803571
  1
SPD
 50
0.000000
 51
0.000000
  7
FX_FONT
 72
     5
 11
296.267944
 21
152.499985
  0
TEXT
  8
CSLAYER1
 62
     3
 10
254.000000
 20
135.999969
 40
3.500000
 41
0.857143
  1
SS
 50
0.000000
 51
0.000000
  7
FX_FONT
 72
     5
 11
259.000000
 21
135.999969
  0
TEXT
  8
CSLAYER1
 62
     3
 10
278.000000
 20
129.999969
 40
3.500000
 41
0.857143
  1
SW
 50
0.000000
 51
0.000000
  7
FX_FONT
 72
     5
 11
283.000000
 21
129.999969
  0
TEXT
  8
CSLAYER1
 62
     3
 10
291.000000
 20
133.999969
 40
3.500000
 41
0.857143
  1
PH
 50
0.000000
 51
0.000000
  7
FX_FONT
 72
     5
 11
296.000000
 21
133.999969
  0
TEXT
  8
CSLAYER1
 62
     3
 10
300.000000
 20
133.999969
 40
3.500000
 41
0.857143
  1
GA
 50
0.000000
 51
0.000000
  7
FX_FONT
 72
     5
 11
305.000000
 21
133.999969
  0
LINE
  8
CSLAYER1
  6
CONTINUOUS
 62
     7
 10
234.500000
 20
108.500000
 11
235.500000
 21
107.500000
  0
LINE
  8
CSLAYER1
  6
CONTINUOUS
 62
     7
 10
376.500000
 20
30.000000
 11
235.500000
 21
30.000000
  0
LINE
  8
CSLAYER1
  6
CONTINUOUS
 62
     7
 10
233.500000
 20
32.000000
 11
233.500000
 21
85.000000
  0
LINE
  8
CSLAYER1
  6
CONTINUOUS
 62
     7
 10
233.500000
 20
85.000000
 11
255.500000
 21
85.000000
  0
LINE
  8
CSLAYER1
  6
CONTINUOUS
 62
     7
 10
376.500000
 20
84.000000
 11
376.500000
 21
67.000000
  0
LINE
  8
CSLAYER1
  6
CONTINUOUS
 62
     7
 10
235.500000
 20
85.000000
 11
235.500000
 21
30.000000
  0
LINE
  8
CSLAYER1
  6
CONTINUOUS
 62
     7
 10
376.500000
 20
84.000000
 11
375.500000
 21
85.000000
  0
LINE
  8
CSLAYER1
  6
CENTER
 62
     3
 10
368.500000
 20
35.500000
 11
368.500000
 21
44.500000
  0
LINE
  8
CSLAYER1
  6
CENTER
 62
     3
 10
373.000000
 20
40.000000
 11
364.000000
 21
40.000000
  0
CIRCLE
  8
CSLAYER1
  6
CONTINUOUS
 62
     3
 10
368.500000
 20
40.000000
 40
2.000000
  0
CIRCLE
  8
CSLAYER1
  6
CONTINUOUS
 62
     6
 10
368.500000
 20
40.000000
 40
1.600000
  0
LINE
  8
CSLAYER1
  6
CENTER
 62
     3
 10
368.500000
 20
75.500000
 11
368.500000
 21
84.500000
  0
LINE
  8
CSLAYER1
  6
CENTER
 62
     3
 10
373.000000
 20
80.000000
 11
364.000000
 21
80.000000
  0
CIRCLE
  8
CSLAYER1
  6
CONTINUOUS
 62
     3
 10
368.500000
 20
80.000000
 40
2.000000
  0
CIRCLE
  8
CSLAYER1
  6
CONTINUOUS
 62
     6
 10
368.500000
 20
80.000000
 40
1.600000
  0
LINE
  8
CSLAYER1
  6
CENTER
 62
     3
 10
243.500000
 20
75.500000
 11
243.500000
 21
84.500000
  0
LINE
  8
CSLAYER1
  6
CENTER
 62
     3
 10
248.000000
 20
80.000000
 11
239.000000
 21
80.000000
  0
CIRCLE
  8
CSLAYER1
  6
CONTINUOUS
 62
     3
 10
243.500000
 20
80.000000
 40
2.000000
  0
CIRCLE
  8
CSLAYER1
  6
CONTINUOUS
 62
     6
 10
243.500000
 20
80.000000
 40
1.600000
  0
LINE
  8
CSLAYER1
  6
CENTER
 62
     3
 10
243.500000
 20
35.500000
 11
243.500000
 21
44.500000
  0
LINE
  8
CSLAYER1
  6
CENTER
 62
     3
 10
248.000000
 20
40.000000
 11
239.000000
 21
40.000000
  0
CIRCLE
  8
CSLAYER1
  6
CONTINUOUS
 62
     3
 10
243.500000
 20
40.000000
 40
2.000000
  0
CIRCLE
  8
CSLAYER1
  6
CONTINUOUS
 62
     6
 10
243.500000
 20
40.000000
 40
1.600000
  0
LINE
  8
CSLAYER1
  6
DASHED
 62
     3
 10
376.500000
 20
32.000000
 11
235.500000
 21
32.000000
  0
LINE
  8
CSLAYER1
  6
CONTINUOUS
 62
     7
 10
255.500000
 20
83.000000
 11
257.500000
 21
83.000000
  0
LINE
  8
CSLAYER1
  6
CONTINUOUS
 62
     7
 10
349.500000
 20
83.000000
 11
349.500000
 21
85.000000
  0
LINE
  8
CSLAYER1
  6
CONTINUOUS
 62
     7
 10
347.500000
 20
83.000000
 11
347.500000
 21
85.000000
  0
LINE
  8
CSLAYER1
  6
CONTINUOUS
 62
     7
 10
335.500000
 20
83.000000
 11
335.500000
 21
85.000000
  0
LINE
  8
CSLAYER1
  6
CONTINUOUS
 62
     7
 10
337.500000
 20
83.000000
 11
337.500000
 21
85.000000
  0
LINE
  8
CSLAYER1
  6
CONTINUOUS
 62
     7
 10
269.500000
 20
83.000000
 11
269.500000
 21
85.000000
  0
LINE
  8
CSLAYER1
  6
CONTINUOUS
 62
     7
 10
267.500000
 20
83.000000
 11
267.500000
 21
85.000000
  0
LINE
  8
CSLAYER1
  6
CONTINUOUS
 62
     7
 10
255.500000
 20
83.000000
 11
255.500000
 21
85.000000
  0
LINE
  8
CSLAYER1
  6
CONTINUOUS
 62
     7
 10
257.500000
 20
83.000000
 11
257.500000
 21
85.000000
  0
LINE
  8
CSLAYER1
  6
CONTINUOUS
 62
     7
 10
349.500000
 20
85.000000
 11
375.500000
 21
85.000000
  0
LINE
  8
CSLAYER1
  6
CONTINUOUS
 62
     7
 10
337.500000
 20
85.000000
 11
347.500000
 21
85.000000
  0
LINE
  8
CSLAYER1
  6
CONTINUOUS
 62
     7
 10
269.500000
 20
85.000000
 11
335.500000
 21
85.000000
  0
LINE
  8
CSLAYER1
  6
CONTINUOUS
 62
     7
 10
257.500000
 20
85.000000
 11
267.500000
 21
85.000000
  0
LINE
  8
CSLAYER1
  6
CONTINUOUS
 62
     7
 10
374.500000
 20
43.000000
 11
376.500000
 21
43.000000
  0
LINE
  8
CSLAYER1
  6
CONTINUOUS
 62
     7
 10
374.500000
 20
45.000000
 11
376.500000
 21
45.000000
  0
LINE
  8
CSLAYER1
  6
CONTINUOUS
 62
     7
 10
374.500000
 20
57.000000
 11
376.500000
 21
57.000000
  0
LINE
  8
CSLAYER1
  6
CONTINUOUS
 62
     7
 10
374.500000
 20
55.000000
 11
376.500000
 21
55.000000
  0
LINE
  8
CSLAYER1
  6
CONTINUOUS
 62
     7
 10
376.500000
 20
55.000000
 11
376.500000
 21
45.000000
  0
LINE
  8
CSLAYER1
  6
CONTINUOUS
 62
     7
 10
376.500000
 20
53.000000
 11
376.500000
 21
30.000000
  0
LINE
  8
CSLAYER1
  6
CONTINUOUS
 62
     7
 10
376.500000
 20
55.000000
 11
376.500000
 21
45.000000
  0
LINE
  8
CSLAYER1
  6
CONTINUOUS
 62
     7
 10
267.500000
 20
83.000000
 11
269.500000
 21
83.000000
  0
LINE
  8
CSLAYER1
  6
CONTINUOUS
 62
     3
 10
259.500000
 20
83.000000
 11
265.500000
 21
83.000000
  0
LINE
  8
CSLAYER1
  6
CONTINUOUS
 62
     7
 10
335.500000
 20
83.000000
 11
337.500000
 21
83.000000
  0
LINE
  8
CSLAYER1
  6
CONTINUOUS
 62
     7
 10
347.500000
 20
83.000000
 11
349.500000
 21
83.000000
  0
LINE
  8
CSLAYER1
  6
CONTINUOUS
 62
     3
 10
339.500000
 20
83.000000
 11
345.500000
 21
83.000000
  0
ARC
  8
CSLAYER1
  6
CONTINUOUS
 62
     7
 10
235.500000
 20
32.000000
 40
2.000000
 50
180.000000
 51
270.000000
  0
LINE
  8
CSLAYER1
  6
CONTINUOUS
 62
     7
 10
235.500000
 20
32.000000
 11
233.500000
 21
32.000000
  0
LINE
  8
CSLAYER1
  6
CONTINUOUS
 62
     7
 10
374.500000
 20
57.000000
 11
374.500000
 21
55.000000
  0
LINE
  8
CSLAYER1
  6
CONTINUOUS
 62
     7
 10
374.500000
 20
45.000000
 11
374.500000
 21
43.000000
  0
LINE
  8
CSLAYER1
  6
CONTINUOUS
 62
     3
 10
374.500000
 20
53.000000
 11
374.500000
 21
47.000000
  0
LINE
  8
CSLAYER1
  6
CONTINUOUS
 62
     6
 10
423.000000
 20
107.500000
 11
423.000000
 21
316.000000
  0
LINE
  8
CSLAYER1
  6
CONTINUOUS
 62
     6
 10
425.000000
 20
318.000000
 11
478.500000
 21
318.000000
  0
LINE
  8
CSLAYER1
  6
CONTINUOUS
 62
     6
 10
478.500000
 20
318.000000
 11
478.500000
 21
316.500000
  0
LINE
  8
CSLAYER1
  6
CONTINUOUS
 62
     7
 10
423.000000
 20
316.500000
 11
479.500000
 21
316.500000
  0
LINE
  8
CSLAYER1
  6
DASHED
 62
     3
 10
424.500000
 20
316.500000
 11
424.500000
 21
107.500000
  0
LINE
  8
CSLAYER1
  6
CONTINUOUS
 62
     6
 10
477.500000
 20
107.500000
 11
423.000000
 21
107.500000
  0
ARC
  8
CSLAYER1
  6
CONTINUOUS
 62
     7
 10
425.000000
 20
316.000000
 40
2.000000
 50
90.000000
 51
180.000000
  0
LINE
  8
CSLAYER1
  6
CONTINUOUS
 62
     7
 10
478.500000
 20
108.500000
 11
477.500000
 21
107.500000
  0
LINE
  8
CSLAYER1
  6
CONTINUOUS
 62
     7
 10
477.500000
 20
316.500000
 11
478.500000
 21
315.500000
  0
LINE
  8
CSLAYER1
  6
CONTINUOUS
 62
     6
 10
478.500000
 20
316.500000
 11
478.500000
 21
108.500000
  0
LINE
  8
CSLAYER1
  6
CONTINUOUS
 62
     7
 10
471.500000
 20
171.000000
 11
471.500000
 21
144.000000
  0
LINE
  8
CSLAYER1
  6
CONTINUOUS
 62
     7
 10
468.500000
 20
171.000000
 11
468.500000
 21
144.000000
  0
ARC
  8
CSLAYER1
  6
CONTINUOUS
 62
     7
 10
470.000000
 20
144.000000
 40
1.500000
 50
180.000000
 51
360.000000
  0
ARC
  8
CSLAYER1
  6
CONTINUOUS
 62
     7
 10
470.000000
 20
171.000000
 40
1.500000
 50
0.000000
 51
180.000000
  0
LINE
  8
CSLAYER1
  6
CONTINUOUS
 62
     7
 10
465.500000
 20
171.000000
 11
465.500000
 21
144.000000
  0
LINE
  8
CSLAYER1
  6
CONTINUOUS
 62
     7
 10
462.500000
 20
171.000000
 11
462.500000
 21
144.000000
  0
ARC
  8
CSLAYER1
  6
CONTINUOUS
 62
     7
 10
464.000000
 20
144.000000
 40
1.500000
 50
180.000000
 51
360.000000
  0
ARC
  8
CSLAYER1
  6
CONTINUOUS
 62
     7
 10
464.000000
 20
171.000000
 40
1.500000
 50
0.000000
 51
180.000000
  0
LINE
  8
CSLAYER1
  6
CONTINUOUS
 62
     7
 10
459.500000
 20
171.000000
 11
459.500000
 21
144.000000
  0
LINE
  8
CSLAYER1
  6
CONTINUOUS
 62
     7
 10
456.500000
 20
171.000000
 11
456.500000
 21
144.000000
  0
ARC
  8
CSLAYER1
  6
CONTINUOUS
 62
     7
 10
458.000000
 20
144.000000
 40
1.500000
 50
-180.000000
 51
0.000000
  0
ARC
  8
CSLAYER1
  6
CONTINUOUS
 62
     7
 10
458.000000
 20
171.000000
 40
1.500000
 50
0.000000
 51
180.000000
  0
LINE
  8
CSLAYER1
  6
CONTINUOUS
 62
     7
 10
453.500000
 20
171.000000
 11
453.500000
 21
144.000000
  0
LINE
  8
CSLAYER1
  6
CONTINUOUS
 62
     7
 10
450.500000
 20
171.000000
 11
450.500000
 21
144.000000
  0
ARC
  8
CSLAYER1
  6
CONTINUOUS
 62
     7
 10
452.000000
 20
144.000000
 40
1.500000
 50
-180.000000
 51
0.000000
  0
ARC
  8
CSLAYER1
  6
CONTINUOUS
 62
     7
 10
452.000000
 20
171.000000
 40
1.500000
 50
0.000000
 51
180.000000
  0
LINE
  8
CSLAYER1
  6
CONTINUOUS
 62
     7
 10
447.500000
 20
171.000000
 11
447.500000
 21
144.000000
  0
LINE
  8
CSLAYER1
  6
CONTINUOUS
 62
     7
 10
444.500000
 20
171.000000
 11
444.500000
 21
144.000000
  0
ARC
  8
CSLAYER1
  6
CONTINUOUS
 62
     7
 10
446.000000
 20
144.000000
 40
1.500000
 50
-180.000000
 51
0.000000
  0
ARC
  8
CSLAYER1
  6
CONTINUOUS
 62
     7
 10
446.000000
 20
171.000000
 40
1.500000
 50
0.000000
 51
180.000000
  0
LINE
  8
CSLAYER1
  6
CONTINUOUS
 62
     7
 10
471.500000
 20
184.000000
 11
471.500000
 21
211.000000
  0
LINE
  8
CSLAYER1
  6
CONTINUOUS
 62
     7
 10
468.500000
 20
184.000000
 11
468.500000
 21
211.000000
  0
ARC
  8
CSLAYER1
  6
CONTINUOUS
 62
     7
 10
470.000000
 20
211.000000
 40
1.500000
 50
0.000000
 51
180.000000
  0
ARC
  8
CSLAYER1
  6
CONTINUOUS
 62
     7
 10
470.000000
 20
184.000000
 40
1.500000
 50
180.000000
 51
360.000000
  0
LINE
  8
CSLAYER1
  6
CONTINUOUS
 62
     7
 10
465.500000
 20
184.000000
 11
465.500000
 21
211.000000
  0
LINE
  8
CSLAYER1
  6
CONTINUOUS
 62
     7
 10
462.500000
 20
184.000000
 11
462.500000
 21
211.000000
  0
ARC
  8
CSLAYER1
  6
CONTINUOUS
 62
     7
 10
464.000000
 20
211.000000
 40
1.500000
 50
0.000000
 51
180.000000
  0
ARC
  8
CSLAYER1
  6
CONTINUOUS
 62
     7
 10
464.000000
 20
184.000000
 40
1.500000
 50
180.000000
 51
360.000000
  0
LINE
  8
CSLAYER1
  6
CONTINUOUS
 62
     7
 10
459.500000
 20
184.000000
 11
459.500000
 21
211.000000
  0
LINE
  8
CSLAYER1
  6
CONTINUOUS
 62
     7
 10
456.500000
 20
184.000000
 11
456.500000
 21
211.000000
  0
ARC
  8
CSLAYER1
  6
CONTINUOUS
 62
     7
 10
458.000000
 20
211.000000
 40
1.500000
 50
0.000000
 51
180.000000
  0
ARC
  8
CSLAYER1
  6
CONTINUOUS
 62
     7
 10
458.000000
 20
184.000000
 40
1.500000
 50
180.000000
 51
360.000000
  0
LINE
  8
CSLAYER1
  6
CONTINUOUS
 62
     7
 10
453.500000
 20
184.000000
 11
453.500000
 21
211.000000
  0
LINE
  8
CSLAYER1
  6
CONTINUOUS
 62
     7
 10
450.500000
 20
184.000000
 11
450.500000
 21
211.000000
  0
ARC
  8
CSLAYER1
  6
CONTINUOUS
 62
     7
 10
452.000000
 20
211.000000
 40
1.500000
 50
0.000000
 51
180.000000
  0
ARC
  8
CSLAYER1
  6
CONTINUOUS
 62
     7
 10
452.000000
 20
184.000000
 40
1.500000
 50
180.000000
 51
360.000000
  0
LINE
  8
CSLAYER1
  6
CONTINUOUS
 62
     7
 10
447.500000
 20
184.000000
 11
447.500000
 21
211.000000
  0
LINE
  8
CSLAYER1
  6
CONTINUOUS
 62
     7
 10
444.500000
 20
184.000000
 11
444.500000
 21
211.000000
  0
ARC
  8
CSLAYER1
  6
CONTINUOUS
 62
     7
 10
446.000000
 20
211.000000
 40
1.500000
 50
0.000000
 51
180.000000
  0
ARC
  8
CSLAYER1
  6
CONTINUOUS
 62
     7
 10
446.000000
 20
184.000000
 40
1.500000
 50
180.000000
 51
360.000000
  0
LINE
  8
CSLAYER1
  6
CONTINUOUS
 62
     6
 10
183.500000
 20
107.500000
 11
183.500000
 21
316.000000
  0
LINE
  8
CSLAYER1
  6
CONTINUOUS
 62
     6
 10
181.500000
 20
318.000000
 11
128.000000
 21
318.000000
  0
LINE
  8
CSLAYER1
  6
CONTINUOUS
 62
     6
 10
128.000000
 20
318.000000
 11
128.000000
 21
316.500000
  0
LINE
  8
CSLAYER1
  6
CONTINUOUS
 62
     6
 10
182.000000
 20
316.500000
 11
128.000000
 21
316.500000
  0
LINE
  8
CSLAYER1
  6
CONTINUOUS
 62
     6
 10
182.000000
 20
316.500000
 11
182.000000
 21
107.500000
  0
LINE
  8
CSLAYER1
  6
CONTINUOUS
 62
     6
 10
182.000000
 20
107.500000
 11
183.500000
 21
107.500000
  0
ARC
  8
CSLAYER1
  6
CONTINUOUS
 62
     7
 10
181.500000
 20
316.000000
 40
2.000000
 50
0.000000
 51
90.000000
  0
ARC
  8
CSLAYER1
  6
CONTINUOUS
 62
     7
 10
235.500000
 20
392.500000
 40
2.000000
 50
90.000000
 51
180.000000
  0
LINE
  8
CSLAYER1
  6
CONTINUOUS
 62
     7
 10
251.000000
 20
224.000000
 11
251.000000
 21
251.000000
  0
LINE
  8
CSLAYER1
  6
CONTINUOUS
 62
     7
 10
254.000000
 20
224.000000
 11
254.000000
 21
251.000000
  0
ARC
  8
CSLAYER1
  6
CONTINUOUS
 62
     7
 10
252.500000
 20
251.000000
 40
1.500000
 50
-0.000000
 51
180.000000
  0
ARC
  8
CSLAYER1
  6
CONTINUOUS
 62
     7
 10
252.500000
 20
224.000000
 40
1.500000
 50
180.000000
 51
360.000000
  0
LINE
  8
CSLAYER1
  6
CONTINUOUS
 62
     7
 10
257.000000
 20
224.000000
 11
257.000000
 21
251.000000
  0
LINE
  8
CSLAYER1
  6
CONTINUOUS
 62
     7
 10
260.000000
 20
224.000000
 11
260.000000
 21
251.000000
  0
ARC
  8
CSLAYER1
  6
CONTINUOUS
 62
     7
 10
258.500000
 20
251.000000
 40
1.500000
 50
-0.000000
 51
180.000000
  0
ARC
  8
CSLAYER1
  6
CONTINUOUS
 62
     7
 10
258.500000
 20
224.000000
 40
1.500000
 50
180.000000
 51
360.000000
  0
LINE
  8
CSLAYER1
  6
CONTINUOUS
 62
     7
 10
263.000000
 20
224.000000
 11
263.000000
 21
251.000000
  0
LINE
  8
CSLAYER1
  6
CONTINUOUS
 62
     7
 10
266.000000
 20
224.000000
 11
266.000000
 21
251.000000
  0
ARC
  8
CSLAYER1
  6
CONTINUOUS
 62
     7
 10
264.500000
 20
251.000000
 40
1.500000
 50
-0.000000
 51
180.000000
  0
ARC
  8
CSLAYER1
  6
CONTINUOUS
 62
     7
 10
264.500000
 20
224.000000
 40
1.500000
 50
180.000000
 51
360.000000
  0
LINE
  8
CSLAYER1
  6
CONTINUOUS
 62
     7
 10
269.000000
 20
224.000000
 11
269.000000
 21
251.000000
  0
LINE
  8
CSLAYER1
  6
CONTINUOUS
 62
     7
 10
272.000000
 20
224.000000
 11
272.000000
 21
251.000000
  0
ARC
  8
CSLAYER1
  6
CONTINUOUS
 62
     7
 10
270.500000
 20
251.000000
 40
1.500000
 50
-0.000000
 51
180.000000
  0
ARC
  8
CSLAYER1
  6
CONTINUOUS
 62
     7
 10
270.500000
 20
224.000000
 40
1.500000
 50
180.000000
 51
360.000000
  0
LINE
  8
CSLAYER1
  6
CONTINUOUS
 62
     7
 10
275.000000
 20
224.000000
 11
275.000000
 21
251.000000
  0
LINE
  8
CSLAYER1
  6
CONTINUOUS
 62
     7
 10
278.000000
 20
224.000000
 11
278.000000
 21
251.000000
  0
ARC
  8
CSLAYER1
  6
CONTINUOUS
 62
     7
 10
276.500000
 20
251.000000
 40
1.500000
 50
-0.000000
 51
180.000000
  0
ARC
  8
CSLAYER1
  6
CONTINUOUS
 62
     7
 10
276.500000
 20
224.000000
 40
1.500000
 50
180.000000
 51
360.000000
  0
LINE
  8
CSLAYER1
  6
CONTINUOUS
 62
     7
 10
281.000000
 20
224.000000
 11
281.000000
 21
251.000000
  0
LINE
  8
CSLAYER1
  6
CONTINUOUS
 62
     7
 10
284.000000
 20
224.000000
 11
284.000000
 21
251.000000
  0
ARC
  8
CSLAYER1
  6
CONTINUOUS
 62
     7
 10
282.500000
 20
251.000000
 40
1.500000
 50
-0.000000
 51
180.000000
  0
ARC
  8
CSLAYER1
  6
CONTINUOUS
 62
     7
 10
282.500000
 20
224.000000
 40
1.500000
 50
180.000000
 51
360.000000
  0
LINE
  8
CSLAYER1
  6
CONTINUOUS
 62
     7
 10
287.000000
 20
224.000000
 11
287.000000
 21
251.000000
  0
LINE
  8
CSLAYER1
  6
CONTINUOUS
 62
     7
 10
290.000000
 20
224.000000
 11
290.000000
 21
251.000000
  0
ARC
  8
CSLAYER1
  6
CONTINUOUS
 62
     7
 10
288.500000
 20
251.000000
 40
1.500000
 50
-0.000000
 51
180.000000
  0
ARC
  8
CSLAYER1
  6
CONTINUOUS
 62
     7
 10
288.500000
 20
224.000000
 40
1.500000
 50
180.000000
 51
360.000000
  0
LINE
  8
CSLAYER1
  6
CONTINUOUS
 62
     7
 10
293.000000
 20
224.000000
 11
293.000000
 21
251.000000
  0
LINE
  8
CSLAYER1
  6
CONTINUOUS
 62
     7
 10
296.000000
 20
224.000000
 11
296.000000
 21
251.000000
  0
ARC
  8
CSLAYER1
  6
CONTINUOUS
 62
     7
 10
294.500000
 20
251.000000
 40
1.500000
 50
-0.000000
 51
180.000000
  0
ARC
  8
CSLAYER1
  6
CONTINUOUS
 62
     7
 10
294.500000
 20
224.000000
 40
1.500000
 50
180.000000
 51
360.000000
  0
LINE
  8
CSLAYER1
  6
CONTINUOUS
 62
     7
 10
299.000000
 20
224.000000
 11
299.000000
 21
251.000000
  0
LINE
  8
CSLAYER1
  6
CONTINUOUS
 62
     7
 10
302.000000
 20
224.000000
 11
302.000000
 21
251.000000
  0
ARC
  8
CSLAYER1
  6
CONTINUOUS
 62
     7
 10
300.500000
 20
251.000000
 40
1.500000
 50
-0.000000
 51
180.000000
  0
ARC
  8
CSLAYER1
  6
CONTINUOUS
 62
     7
 10
300.500000
 20
224.000000
 40
1.500000
 50
180.000000
 51
360.000000
  0
LINE
  8
CSLAYER1
  6
CONTINUOUS
 62
     7
 10
305.000000
 20
224.000000
 11
305.000000
 21
251.000000
  0
LINE
  8
CSLAYER1
  6
CONTINUOUS
 62
     7
 10
308.000000
 20
224.000000
 11
308.000000
 21
251.000000
  0
ARC
  8
CSLAYER1
  6
CONTINUOUS
 62
     7
 10
306.500000
 20
251.000000
 40
1.500000
 50
-0.000000
 51
180.000000
  0
ARC
  8
CSLAYER1
  6
CONTINUOUS
 62
     7
 10
306.500000
 20
224.000000
 40
1.500000
 50
180.000000
 51
360.000000
  0
LINE
  8
CSLAYER1
  6
CONTINUOUS
 62
     7
 10
311.000000
 20
224.000000
 11
311.000000
 21
251.000000
  0
LINE
  8
CSLAYER1
  6
CONTINUOUS
 62
     7
 10
314.000000
 20
224.000000
 11
314.000000
 21
251.000000
  0
ARC
  8
CSLAYER1
  6
CONTINUOUS
 62
     7
 10
312.500000
 20
251.000000
 40
1.500000
 50
-0.000000
 51
180.000000
  0
ARC
  8
CSLAYER1
  6
CONTINUOUS
 62
     7
 10
312.500000
 20
224.000000
 40
1.500000
 50
180.000000
 51
360.000000
  0
LINE
  8
CSLAYER1
  6
CONTINUOUS
 62
     7
 10
317.000000
 20
224.000000
 11
317.000000
 21
251.000000
  0
LINE
  8
CSLAYER1
  6
CONTINUOUS
 62
     7
 10
320.000000
 20
224.000000
 11
320.000000
 21
251.000000
  0
ARC
  8
CSLAYER1
  6
CONTINUOUS
 62
     7
 10
318.500000
 20
251.000000
 40
1.500000
 50
-0.000000
 51
180.000000
  0
ARC
  8
CSLAYER1
  6
CONTINUOUS
 62
     7
 10
318.500000
 20
224.000000
 40
1.500000
 50
180.000000
 51
360.000000
  0
LINE
  8
CSLAYER1
  6
CONTINUOUS
 62
     7
 10
323.000000
 20
224.000000
 11
323.000000
 21
251.000000
  0
LINE
  8
CSLAYER1
  6
CONTINUOUS
 62
     7
 10
326.000000
 20
224.000000
 11
326.000000
 21
251.000000
  0
ARC
  8
CSLAYER1
  6
CONTINUOUS
 62
     7
 10
324.500000
 20
251.000000
 40
1.500000
 50
-0.000000
 51
180.000000
  0
ARC
  8
CSLAYER1
  6
CONTINUOUS
 62
     7
 10
324.500000
 20
224.000000
 40
1.500000
 50
180.000000
 51
360.000000
  0
LINE
  8
CSLAYER1
  6
CONTINUOUS
 62
     7
 10
329.000000
 20
224.000000
 11
329.000000
 21
251.000000
  0
LINE
  8
CSLAYER1
  6
CONTINUOUS
 62
     7
 10
332.000000
 20
224.000000
 11
332.000000
 21
251.000000
  0
ARC
  8
CSLAYER1
  6
CONTINUOUS
 62
     7
 10
330.500000
 20
251.000000
 40
1.500000
 50
-0.000000
 51
180.000000
  0
ARC
  8
CSLAYER1
  6
CONTINUOUS
 62
     7
 10
330.500000
 20
224.000000
 40
1.500000
 50
180.000000
 51
360.000000
  0
LINE
  8
CSLAYER1
  6
CONTINUOUS
 62
     7
 10
335.000000
 20
224.000000
 11
335.000000
 21
251.000000
  0
LINE
  8
CSLAYER1
  6
CONTINUOUS
 62
     7
 10
338.000000
 20
224.000000
 11
338.000000
 21
251.000000
  0
ARC
  8
CSLAYER1
  6
CONTINUOUS
 62
     7
 10
336.500000
 20
251.000000
 40
1.500000
 50
-0.000000
 51
180.000000
  0
ARC
  8
CSLAYER1
  6
CONTINUOUS
 62
     7
 10
336.500000
 20
224.000000
 40
1.500000
 50
180.000000
 51
360.000000
  0
LINE
  8
CSLAYER1
  6
CONTINUOUS
 62
     7
 10
341.000000
 20
224.000000
 11
341.000000
 21
251.000000
  0
LINE
  8
CSLAYER1
  6
CONTINUOUS
 62
     7
 10
344.000000
 20
224.000000
 11
344.000000
 21
251.000000
  0
ARC
  8
CSLAYER1
  6
CONTINUOUS
 62
     7
 10
342.500000
 20
251.000000
 40
1.500000
 50
-0.000000
 51
180.000000
  0
ARC
  8
CSLAYER1
  6
CONTINUOUS
 62
     7
 10
342.500000
 20
224.000000
 40
1.500000
 50
180.000000
 51
360.000000
  0
LINE
  8
CSLAYER1
  6
CONTINUOUS
 62
     7
 10
347.000000
 20
224.000000
 11
347.000000
 21
251.000000
  0
LINE
  8
CSLAYER1
  6
CONTINUOUS
 62
     7
 10
350.000000
 20
224.000000
 11
350.000000
 21
251.000000
  0
ARC
  8
CSLAYER1
  6
CONTINUOUS
 62
     7
 10
348.500000
 20
251.000000
 40
1.500000
 50
-0.000000
 51
180.000000
  0
ARC
  8
CSLAYER1
  6
CONTINUOUS
 62
     7
 10
348.500000
 20
224.000000
 40
1.500000
 50
180.000000
 51
360.000000
  0
LINE
  8
CSLAYER1
  6
CONTINUOUS
 62
     7
 10
353.000000
 20
224.000000
 11
353.000000
 21
251.000000
  0
LINE
  8
CSLAYER1
  6
CONTINUOUS
 62
     7
 10
356.000000
 20
224.000000
 11
356.000000
 21
251.000000
  0
ARC
  8
CSLAYER1
  6
CONTINUOUS
 62
     7
 10
354.500000
 20
251.000000
 40
1.500000
 50
-0.000000
 51
180.000000
  0
ARC
  8
CSLAYER1
  6
CONTINUOUS
 62
     7
 10
354.500000
 20
224.000000
 40
1.500000
 50
180.000000
 51
360.000000
  0
LINE
  8
CSLAYER1
  6
CONTINUOUS
 62
     7
 10
359.000000
 20
224.000000
 11
359.000000
 21
251.000000
  0
LINE
  8
CSLAYER1
  6
CONTINUOUS
 62
     7
 10
362.000000
 20
224.000000
 11
362.000000
 21
251.000000
  0
ARC
  8
CSLAYER1
  6
CONTINUOUS
 62
     7
 10
360.500000
 20
251.000000
 40
1.500000
 50
-0.000000
 51
180.000000
  0
ARC
  8
CSLAYER1
  6
CONTINUOUS
 62
     7
 10
360.500000
 20
224.000000
 40
1.500000
 50
180.000000
 51
360.000000
  0
LINE
  8
CSLAYER1
  6
CONTINUOUS
 62
     7
 10
365.000000
 20
224.000000
 11
365.000000
 21
251.000000
  0
LINE
  8
CSLAYER1
  6
CONTINUOUS
 62
     7
 10
368.000000
 20
224.000000
 11
368.000000
 21
251.000000
  0
ARC
  8
CSLAYER1
  6
CONTINUOUS
 62
     7
 10
366.500000
 20
251.000000
 40
1.500000
 50
-0.000000
 51
180.000000
  0
ARC
  8
CSLAYER1
  6
CONTINUOUS
 62
     7
 10
366.500000
 20
224.000000
 40
1.500000
 50
180.000000
 51
360.000000
  0
LINE
  8
CSLAYER1
  6
CONTINUOUS
 62
     7
 10
471.500000
 20
224.000000
 11
471.500000
 21
251.000000
  0
LINE
  8
CSLAYER1
  6
CONTINUOUS
 62
     7
 10
468.500000
 20
224.000000
 11
468.500000
 21
251.000000
  0
ARC
  8
CSLAYER1
  6
CONTINUOUS
 62
     7
 10
470.000000
 20
251.000000
 40
1.500000
 50
0.000000
 51
180.000000
  0
ARC
  8
CSLAYER1
  6
CONTINUOUS
 62
     7
 10
470.000000
 20
224.000000
 40
1.500000
 50
180.000000
 51
360.000000
  0
LINE
  8
CSLAYER1
  6
CONTINUOUS
 62
     7
 10
465.500000
 20
224.000000
 11
465.500000
 21
251.000000
  0
LINE
  8
CSLAYER1
  6
CONTINUOUS
 62
     7
 10
462.500000
 20
224.000000
 11
462.500000
 21
251.000000
  0
ARC
  8
CSLAYER1
  6
CONTINUOUS
 62
     7
 10
464.000000
 20
251.000000
 40
1.500000
 50
0.000000
 51
180.000000
  0
ARC
  8
CSLAYER1
  6
CONTINUOUS
 62
     7
 10
464.000000
 20
224.000000
 40
1.500000
 50
180.000000
 51
360.000000
  0
LINE
  8
CSLAYER1
  6
CONTINUOUS
 62
     7
 10
459.500000
 20
224.000000
 11
459.500000
 21
251.000000
  0
LINE
  8
CSLAYER1
  6
CONTINUOUS
 62
     7
 10
456.500000
 20
224.000000
 11
456.500000
 21
251.000000
  0
ARC
  8
CSLAYER1
  6
CONTINUOUS
 62
     7
 10
458.000000
 20
251.000000
 40
1.500000
 50
0.000000
 51
180.000000
  0
ARC
  8
CSLAYER1
  6
CONTINUOUS
 62
     7
 10
458.000000
 20
224.000000
 40
1.500000
 50
180.000000
 51
360.000000
  0
LINE
  8
CSLAYER1
  6
CONTINUOUS
 62
     7
 10
453.500000
 20
224.000000
 11
453.500000
 21
251.000000
  0
LINE
  8
CSLAYER1
  6
CONTINUOUS
 62
     7
 10
450.500000
 20
224.000000
 11
450.500000
 21
251.000000
  0
ARC
  8
CSLAYER1
  6
CONTINUOUS
 62
     7
 10
452.000000
 20
251.000000
 40
1.500000
 50
0.000000
 51
180.000000
  0
ARC
  8
CSLAYER1
  6
CONTINUOUS
 62
     7
 10
452.000000
 20
224.000000
 40
1.500000
 50
180.000000
 51
360.000000
  0
LINE
  8
CSLAYER1
  6
CONTINUOUS
 62
     7
 10
447.500000
 20
224.000000
 11
447.500000
 21
251.000000
  0
LINE
  8
CSLAYER1
  6
CONTINUOUS
 62
     7
 10
444.500000
 20
224.000000
 11
444.500000
 21
251.000000
  0
ARC
  8
CSLAYER1
  6
CONTINUOUS
 62
     7
 10
446.000000
 20
251.000000
 40
1.500000
 50
0.000000
 51
180.000000
  0
ARC
  8
CSLAYER1
  6
CONTINUOUS
 62
     7
 10
446.000000
 20
224.000000
 40
1.500000
 50
180.000000
 51
360.000000
  0
TEXT
  8
CSLAYER1
 62
     3
 10
143.500000
 20
311.282227
 40
4.000000
 41
0.652174
  1
DC MOTOR
 50
0.000000
 51
0.000000
  7
FX_FONT
 72
     5
 11
163.500000
 21
311.282227
  0
TEXT
  8
CSLAYER1
 62
     3
 10
146.000000
 20
306.991150
 40
4.000000
 41
0.661765
  1
DRIVER
 50
0.000000
 51
0.000000
  7
FX_FONT
 72
     5
 11
161.000000
 21
306.991150
  0
TEXT
  8
CSLAYER1
 62
     3
 10
142.250000
 20
302.420959
 40
4.000000
 41
0.649038
  1
MS-100 25
 50
0.000000
 51
0.000000
  7
FX_FONT
 72
     5
 11
164.750000
 21
302.420959
  0
LINE
  8
CSLAYER1
  6
CONTINUOUS
 62
     6
 10
140.000000
 20
174.500000
 11
158.000000
 21
174.500000
  0
LINE
  8
CSLAYER1
  6
CONTINUOUS
 62
     6
 10
158.000000
 20
174.500000
 11
158.000000
 21
120.500000
  0
LINE
  8
CSLAYER1
  6
CONTINUOUS
 62
     6
 10
158.000000
 20
120.500000
 11
140.000000
 21
120.500000
  0
LINE
  8
CSLAYER1
  6
CONTINUOUS
 62
     6
 10
140.000000
 20
120.500000
 11
140.000000
 21
174.500000
  0
LINE
  8
CSLAYER1
  6
CONTINUOUS
 62
     3
 10
140.000000
 20
169.100000
 11
158.000000
 21
169.100000
  0
LINE
  8
CSLAYER1
  6
CONTINUOUS
 62
     3
 10
140.000000
 20
163.700000
 11
158.000000
 21
163.700000
  0
LINE
  8
CSLAYER1
  6
CONTINUOUS
 62
     3
 10
140.000000
 20
158.300000
 11
158.000000
 21
158.300000
  0
LINE
  8
CSLAYER1
  6
CONTINUOUS
 62
     3
 10
140.000000
 20
152.900000
 11
158.000000
 21
152.900000
  0
LINE
  8
CSLAYER1
  6
CONTINUOUS
 62
     3
 10
140.000000
 20
147.500000
 11
158.000000
 21
147.500000
  0
LINE
  8
CSLAYER1
  6
CONTINUOUS
 62
     3
 10
140.000000
 20
142.100000
 11
158.000000
 21
142.100000
  0
LINE
  8
CSLAYER1
  6
CONTINUOUS
 62
     3
 10
140.000000
 20
136.700000
 11
158.000000
 21
136.700000
  0
LINE
  8
CSLAYER1
  6
CONTINUOUS
 62
     3
 10
140.000000
 20
131.300000
 11
158.000000
 21
131.300000
  0
LINE
  8
CSLAYER1
  6
CONTINUOUS
 62
     3
 10
140.000000
 20
125.900000
 11
158.000000
 21
125.900000
  0
LINE
  8
CSLAYER1
  6
CONTINUOUS
 62
     3
 10
146.928203
 20
174.500000
 11
146.928203
 21
120.500000
  0
LINE
  8
CSLAYER1
  6
CONTINUOUS
 62
     3
 10
156.079803
 20
174.500000
 11
156.079803
 21
120.500000
  0
TEXT
  8
CSLAYER1
 62
     3
 10
130.708679
 20
169.100021
 40
4.500000
 41
0.700000
  1
TG+
 50
0.000000
 51
0.000000
  7
FX_FONT
 72
     5
 11
139.108679
 21
169.100021
  0
TEXT
  8
CSLAYER1
 62
     3
 10
130.708679
 20
163.699997
 40
4.500000
 41
0.700000
  1
TG-
 50
0.000000
 51
0.000000
  7
FX_FONT
 72
     5
 11
139.108679
 21
163.699997
  0
TEXT
  8
CSLAYER1
 62
     3
 10
130.708679
 20
158.300003
 40
4.500000
 41
0.700000
  1
VR1
 50
0.000000
 51
0.000000
  7
FX_FONT
 72
     5
 11
139.108679
 21
158.300003
  0
TEXT
  8
CSLAYER1
 62
     3
 10
130.708679
 20
152.900009
 40
4.500000
 41
0.700000
  1
VR2
 50
0.000000
 51
0.000000
  7
FX_FONT
 72
     5
 11
139.108679
 21
152.900009
  0
TEXT
  8
CSLAYER1
 62
     3
 10
130.708679
 20
147.499985
 40
4.500000
 41
0.700000
  1
VR3
 50
0.000000
 51
0.000000
  7
FX_FONT
 72
     5
 11
139.108679
 21
147.499985
  0
TEXT
  8
CSLAYER1
 62
     3
 10
130.708679
 20
142.099991
 40
4.500000
 41
0.700000
  1
COM
 50
0.000000
 51
0.000000
  7
FX_FONT
 72
     5
 11
139.108679
 21
142.099991
  0
TEXT
  8
CSLAYER1
 62
     3
 10
130.708679
 20
136.699997
 40
4.500000
 41
0.700000
  1
CWP
 50
0.000000
 51
0.000000
  7
FX_FONT
 72
     5
 11
139.108679
 21
136.699997
  0
TEXT
  8
CSLAYER1
 62
     3
 10
130.708679
 20
131.300003
 40
4.500000
 41
0.700000
  1
CCP
 50
0.000000
 51
0.000000
  7
FX_FONT
 72
     5
 11
139.108679
 21
131.300003
  0
TEXT
  8
CSLAYER1
 62
     3
 10
130.708679
 20
125.900009
 40
4.500000
 41
0.700000
  1
INH
 50
0.000000
 51
0.000000
  7
FX_FONT
 72
     5
 11
139.108679
 21
125.900009
  0
TEXT
  8
CSLAYER1
 62
     3
 10
130.708679
 20
120.499985
 40
4.500000
 41
0.700000
  1
COM
 50
0.000000
 51
0.000000
  7
FX_FONT
 72
     5
 11
139.108679
 21
120.499985
  0
LINE
  8
CSLAYER1
  6
CONTINUOUS
 62
     3
 10
151.928203
 20
174.500000
 11
151.928203
 21
120.500000
  0
ARC
  8
CSLAYER1
  6
CONTINUOUS
 62
     3
 10
152.992892
 20
171.800000
 40
1.805556
 50
-70.999198
 51
70.999198
  0
LINE
  8
CSLAYER1
  6
CONTINUOUS
 62
     3
 10
153.027337
 20
170.608366
 11
154.381565
 21
172.953957
  0
POLYLINE
  8
CSLAYER1
  6
CONTINUOUS
 62
     7
 66
     1
 10
0.0
 20
0.0
 30
0.0
  0
VERTEX
  8
CSLAYER1
  6
CONTINUOUS
 62
     7
 10
154.004003
 20
169.994444
 30
0.0
  0
VERTEX
  8
CSLAYER1
  6
CONTINUOUS
 62
     7
 10
154.117305
 20
170.001315
 30
0.0
  0
VERTEX
  8
CSLAYER1
  6
CONTINUOUS
 62
     7
 10
154.229746
 20
170.021875
 30
0.0
  0
VERTEX
  8
CSLAYER1
  6
CONTINUOUS
 62
     7
 10
154.340468
 20
170.055967
 30
0.0
  0
VERTEX
  8
CSLAYER1
  6
CONTINUOUS
 62
     7
 10
154.448629
 20
170.103333
 30
0.0
  0
VERTEX
  8
CSLAYER1
  6
CONTINUOUS
 62
     7
 10
154.553407
 20
170.163611
 30
0.0
  0
VERTEX
  8
CSLAYER1
  6
CONTINUOUS
 62
     7
 10
154.654003
 20
170.236343
 30
0.0
  0
VERTEX
  8
CSLAYER1
  6
CONTINUOUS
 62
     7
 10
154.749652
 20
170.320975
 30
0.0
  0
VERTEX
  8
CSLAYER1
  6
CONTINUOUS
 62
     7
 10
154.839627
 20
170.416864
 30
0.0
  0
VERTEX
  8
CSLAYER1
  6
CONTINUOUS
 62
     7
 10
154.923242
 20
170.523279
 30
0.0
  0
VERTEX
  8
CSLAYER1
  6
CONTINUOUS
 62
     7
 10
154.999861
 20
170.639411
 30
0.0
  0
VERTEX
  8
CSLAYER1
  6
CONTINUOUS
 62
     7
 10
155.068901
 20
170.764376
 30
0.0
  0
VERTEX
  8
CSLAYER1
  6
CONTINUOUS
 62
     7
 10
155.129836
 20
170.897222
 30
0.0
  0
VERTEX
  8
CSLAYER1
  6
CONTINUOUS
 62
     7
 10
155.182203
 20
171.036939
 30
0.0
  0
VERTEX
  8
CSLAYER1
  6
CONTINUOUS
 62
     7
 10
155.225603
 20
171.182464
 30
0.0
  0
VERTEX
  8
CSLAYER1
  6
CONTINUOUS
 62
     7
 10
155.259706
 20
171.332688
 30
0.0
  0
VERTEX
  8
CSLAYER1
  6
CONTINUOUS
 62
     7
 10
155.284253
 20
171.486469
 30
0.0
  0
VERTEX
  8
CSLAYER1
  6
CONTINUOUS
 62
     7
 10
155.299056
 20
171.642635
 30
0.0
  0
VERTEX
  8
CSLAYER1
  6
CONTINUOUS
 62
     7
 10
155.304003
 20
171.800000
 30
0.0
  0
VERTEX
  8
CSLAYER1
  6
CONTINUOUS
 62
     7
 10
155.299056
 20
171.957365
 30
0.0
  0
VERTEX
  8
CSLAYER1
  6
CONTINUOUS
 62
     7
 10
155.284253
 20
172.113531
 30
0.0
  0
VERTEX
  8
CSLAYER1
  6
CONTINUOUS
 62
     7
 10
155.259706
 20
172.267312
 30
0.0
  0
VERTEX
  8
CSLAYER1
  6
CONTINUOUS
 62
     7
 10
155.225603
 20
172.417536
 30
0.0
  0
VERTEX
  8
CSLAYER1
  6
CONTINUOUS
 62
     7
 10
155.182203
 20
172.563061
 30
0.0
  0
VERTEX
  8
CSLAYER1
  6
CONTINUOUS
 62
     7
 10
155.129836
 20
172.702778
 30
0.0
  0
VERTEX
  8
CSLAYER1
  6
CONTINUOUS
 62
     7
 10
155.068901
 20
172.835624
 30
0.0
  0
VERTEX
  8
CSLAYER1
  6
CONTINUOUS
 62
     7
 10
154.999861
 20
172.960589
 30
0.0
  0
VERTEX
  8
CSLAYER1
  6
CONTINUOUS
 62
     7
 10
154.923242
 20
173.076721
 30
0.0
  0
VERTEX
  8
CSLAYER1
  6
CONTINUOUS
 62
     7
 10
154.839627
 20
173.183136
 30
0.0
  0
VERTEX
  8
CSLAYER1
  6
CONTINUOUS
 62
     7
 10
154.749652
 20
173.279025
 30
0.0
  0
VERTEX
  8
CSLAYER1
  6
CONTINUOUS
 62
     7
 10
154.654003
 20
173.363657
 30
0.0
  0
VERTEX
  8
CSLAYER1
  6
CONTINUOUS
 62
     7
 10
154.553407
 20
173.436389
 30
0.0
  0
VERTEX
  8
CSLAYER1
  6
CONTINUOUS
 62
     7
 10
154.448629
 20
173.496667
 30
0.0
  0
VERTEX
  8
CSLAYER1
  6
CONTINUOUS
 62
     7
 10
154.340468
 20
173.544033
 30
0.0
  0
VERTEX
  8
CSLAYER1
  6
CONTINUOUS
 62
     7
 10
154.229746
 20
173.578125
 30
0.0
  0
VERTEX
  8
CSLAYER1
  6
CONTINUOUS
 62
     7
 10
154.117305
 20
173.598685
 30
0.0
  0
VERTEX
  8
CSLAYER1
  6
CONTINUOUS
 62
     7
 10
154.004003
 20
173.605556
 30
0.0
  0
VERTEX
  8
CSLAYER1
  6
CONTINUOUS
 62
     7
 10
153.890700
 20
173.598685
 30
0.0
  0
VERTEX
  8
CSLAYER1
  6
CONTINUOUS
 62
     7
 10
153.778260
 20
173.578125
 30
0.0
  0
VERTEX
  8
CSLAYER1
  6
CONTINUOUS
 62
     7
 10
153.667538
 20
173.544033
 30
0.0
  0
VERTEX
  8
CSLAYER1
  6
CONTINUOUS
 62
     7
 10
153.559377
 20
173.496667
 30
0.0
  0
VERTEX
  8
CSLAYER1
  6
CONTINUOUS
 62
     7
 10
153.454599
 20
173.436389
 30
0.0
  0
VERTEX
  8
CSLAYER1
  6
CONTINUOUS
 62
     7
 10
153.354003
 20
173.363657
 30
0.0
  0
VERTEX
  8
CSLAYER1
  6
CONTINUOUS
 62
     7
 10
153.258354
 20
173.279025
 30
0.0
  0
VERTEX
  8
CSLAYER1
  6
CONTINUOUS
 62
     7
 10
153.168379
 20
173.183136
 30
0.0
  0
VERTEX
  8
CSLAYER1
  6
CONTINUOUS
 62
     7
 10
153.084764
 20
173.076721
 30
0.0
  0
VERTEX
  8
CSLAYER1
  6
CONTINUOUS
 62
     7
 10
153.008145
 20
172.960589
 30
0.0
  0
VERTEX
  8
CSLAYER1
  6
CONTINUOUS
 62
     7
 10
152.939105
 20
172.835624
 30
0.0
  0
VERTEX
  8
CSLAYER1
  6
CONTINUOUS
 62
     7
 10
152.878170
 20
172.702778
 30
0.0
  0
VERTEX
  8
CSLAYER1
  6
CONTINUOUS
 62
     7
 10
152.825803
 20
172.563061
 30
0.0
  0
VERTEX
  8
CSLAYER1
  6
CONTINUOUS
 62
     7
 10
152.782403
 20
172.417536
 30
0.0
  0
VERTEX
  8
CSLAYER1
  6
CONTINUOUS
 62
     7
 10
152.748299
 20
172.267312
 30
0.0
  0
VERTEX
  8
CSLAYER1
  6
CONTINUOUS
 62
     7
 10
152.723753
 20
172.113531
 30
0.0
  0
VERTEX
  8
CSLAYER1
  6
CONTINUOUS
 62
     7
 10
152.708950
 20
171.957365
 30
0.0
  0
VERTEX
  8
CSLAYER1
  6
CONTINUOUS
 62
     7
 10
152.704003
 20
171.800000
 30
0.0
  0
VERTEX
  8
CSLAYER1
  6
CONTINUOUS
 62
     7
 10
152.708950
 20
171.642635
 30
0.0
  0
VERTEX
  8
CSLAYER1
  6
CONTINUOUS
 62
     7
 10
152.723753
 20
171.486469
 30
0.0
  0
VERTEX
  8
CSLAYER1
  6
CONTINUOUS
 62
     7
 10
152.748299
 20
171.332688
 30
0.0
  0
VERTEX
  8
CSLAYER1
  6
CONTINUOUS
 62
     7
 10
152.782403
 20
171.182464
 30
0.0
  0
VERTEX
  8
CSLAYER1
  6
CONTINUOUS
 62
     7
 10
152.825803
 20
171.036939
 30
0.0
  0
VERTEX
  8
CSLAYER1
  6
CONTINUOUS
 62
     7
 10
152.878170
 20
170.897222
 30
0.0
  0
VERTEX
  8
CSLAYER1
  6
CONTINUOUS
 62
     7
 10
152.939105
 20
170.764376
 30
0.0
  0
VERTEX
  8
CSLAYER1
  6
CONTINUOUS
 62
     7
 10
153.008145
 20
170.639411
 30
0.0
  0
VERTEX
  8
CSLAYER1
  6
CONTINUOUS
 62
     7
 10
153.084764
 20
170.523279
 30
0.0
  0
VERTEX
  8
CSLAYER1
  6
CONTINUOUS
 62
     7
 10
153.168379
 20
170.416864
 30
0.0
  0
VERTEX
  8
CSLAYER1
  6
CONTINUOUS
 62
     7
 10
153.258354
 20
170.320975
 30
0.0
  0
VERTEX
  8
CSLAYER1
  6
CONTINUOUS
 62
     7
 10
153.354003
 20
170.236343
 30
0.0
  0
VERTEX
  8
CSLAYER1
  6
CONTINUOUS
 62
     7
 10
153.454599
 20
170.163611
 30
0.0
  0
VERTEX
  8
CSLAYER1
  6
CONTINUOUS
 62
     7
 10
153.559377
 20
170.103333
 30
0.0
  0
VERTEX
  8
CSLAYER1
  6
CONTINUOUS
 62
     7
 10
153.667538
 20
170.055967
 30
0.0
  0
VERTEX
  8
CSLAYER1
  6
CONTINUOUS
 62
     7
 10
153.778260
 20
170.021875
 30
0.0
  0
VERTEX
  8
CSLAYER1
  6
CONTINUOUS
 62
     7
 10
153.890700
 20
170.001315
 30
0.0
  0
VERTEX
  8
CSLAYER1
  6
CONTINUOUS
 62
     7
 10
154.004003
 20
169.994444
 30
0.0
  0
SEQEND
  0
LINE
  8
CSLAYER1
  6
CONTINUOUS
 62
     6
 10
141.500000
 20
170.100000
 11
141.500000
 21
173.500000
  0
LINE
  8
CSLAYER1
  6
CONTINUOUS
 62
     6
 10
145.000000
 20
170.100000
 11
141.500000
 21
170.100000
  0
LINE
  8
CSLAYER1
  6
CONTINUOUS
 62
     6
 10
145.000000
 20
173.500000
 11
141.500000
 21
173.500000
  0
LINE
  8
CSLAYER1
  6
CONTINUOUS
 62
     6
 10
145.000000
 20
170.100000
 11
145.000000
 21
173.500000
  0
LINE
  8
CSLAYER1
  6
CONTINUOUS
 62
     6
 10
143.600000
 20
173.500000
 11
143.600000
 21
170.100000
  0
LINE
  8
CSLAYER1
  6
CONTINUOUS
 62
     6
 10
141.500000
 20
164.700000
 11
141.500000
 21
168.100000
  0
LINE
  8
CSLAYER1
  6
CONTINUOUS
 62
     6
 10
145.000000
 20
164.700000
 11
141.500000
 21
164.700000
  0
LINE
  8
CSLAYER1
  6
CONTINUOUS
 62
     6
 10
145.000000
 20
168.100000
 11
141.500000
 21
168.100000
  0
LINE
  8
CSLAYER1
  6
CONTINUOUS
 62
     6
 10
145.000000
 20
164.700000
 11
145.000000
 21
168.100000
  0
LINE
  8
CSLAYER1
  6
CONTINUOUS
 62
     6
 10
143.600000
 20
168.100000
 11
143.600000
 21
164.700000
  0
LINE
  8
CSLAYER1
  6
CONTINUOUS
 62
     6
 10
141.500000
 20
159.300000
 11
141.500000
 21
162.700000
  0
LINE
  8
CSLAYER1
  6
CONTINUOUS
 62
     6
 10
145.000000
 20
159.300000
 11
141.500000
 21
159.300000
  0
LINE
  8
CSLAYER1
  6
CONTINUOUS
 62
     6
 10
145.000000
 20
162.700000
 11
141.500000
 21
162.700000
  0
LINE
  8
CSLAYER1
  6
CONTINUOUS
 62
     6
 10
145.000000
 20
159.300000
 11
145.000000
 21
162.700000
  0
LINE
  8
CSLAYER1
  6
CONTINUOUS
 62
     6
 10
143.600000
 20
162.700000
 11
143.600000
 21
159.300000
  0
LINE
  8
CSLAYER1
  6
CONTINUOUS
 62
     6
 10
141.500000
 20
153.900000
 11
141.500000
 21
157.300000
  0
LINE
  8
CSLAYER1
  6
CONTINUOUS
 62
     6
 10
145.000000
 20
153.900000
 11
141.500000
 21
153.900000
  0
LINE
  8
CSLAYER1
  6
CONTINUOUS
 62
     6
 10
145.000000
 20
157.300000
 11
141.500000
 21
157.300000
  0
LINE
  8
CSLAYER1
  6
CONTINUOUS
 62
     6
 10
145.000000
 20
153.900000
 11
145.000000
 21
157.300000
  0
LINE
  8
CSLAYER1
  6
CONTINUOUS
 62
     6
 10
143.600000
 20
157.300000
 11
143.600000
 21
153.900000
  0
LINE
  8
CSLAYER1
  6
CONTINUOUS
 62
     6
 10
141.500000
 20
148.500000
 11
141.500000
 21
151.900000
  0
LINE
  8
CSLAYER1
  6
CONTINUOUS
 62
     6
 10
145.000000
 20
148.500000
 11
141.500000
 21
148.500000
  0
LINE
  8
CSLAYER1
  6
CONTINUOUS
 62
     6
 10
145.000000
 20
151.900000
 11
141.500000
 21
151.900000
  0
LINE
  8
CSLAYER1
  6
CONTINUOUS
 62
     6
 10
145.000000
 20
148.500000
 11
145.000000
 21
151.900000
  0
LINE
  8
CSLAYER1
  6
CONTINUOUS
 62
     6
 10
143.600000
 20
151.900000
 11
143.600000
 21
148.500000
  0
LINE
  8
CSLAYER1
  6
CONTINUOUS
 62
     6
 10
141.500000
 20
143.100000
 11
141.500000
 21
146.500000
  0
LINE
  8
CSLAYER1
  6
CONTINUOUS
 62
     6
 10
145.000000
 20
143.100000
 11
141.500000
 21
143.100000
  0
LINE
  8
CSLAYER1
  6
CONTINUOUS
 62
     6
 10
145.000000
 20
146.500000
 11
141.500000
 21
146.500000
  0
LINE
  8
CSLAYER1
  6
CONTINUOUS
 62
     6
 10
145.000000
 20
143.100000
 11
145.000000
 21
146.500000
  0
LINE
  8
CSLAYER1
  6
CONTINUOUS
 62
     6
 10
143.600000
 20
146.500000
 11
143.600000
 21
143.100000
  0
LINE
  8
CSLAYER1
  6
CONTINUOUS
 62
     6
 10
141.500000
 20
137.700000
 11
141.500000
 21
141.100000
  0
LINE
  8
CSLAYER1
  6
CONTINUOUS
 62
     6
 10
145.000000
 20
137.700000
 11
141.500000
 21
137.700000
  0
LINE
  8
CSLAYER1
  6
CONTINUOUS
 62
     6
 10
145.000000
 20
141.100000
 11
141.500000
 21
141.100000
  0
LINE
  8
CSLAYER1
  6
CONTINUOUS
 62
     6
 10
145.000000
 20
137.700000
 11
145.000000
 21
141.100000
  0
LINE
  8
CSLAYER1
  6
CONTINUOUS
 62
     6
 10
143.600000
 20
141.100000
 11
143.600000
 21
137.700000
  0
LINE
  8
CSLAYER1
  6
CONTINUOUS
 62
     6
 10
141.500000
 20
132.300000
 11
141.500000
 21
135.700000
  0
LINE
  8
CSLAYER1
  6
CONTINUOUS
 62
     6
 10
145.000000
 20
132.300000
 11
141.500000
 21
132.300000
  0
LINE
  8
CSLAYER1
  6
CONTINUOUS
 62
     6
 10
145.000000
 20
135.700000
 11
141.500000
 21
135.700000
  0
LINE
  8
CSLAYER1
  6
CONTINUOUS
 62
     6
 10
145.000000
 20
132.300000
 11
145.000000
 21
135.700000
  0
LINE
  8
CSLAYER1
  6
CONTINUOUS
 62
     6
 10
143.600000
 20
135.700000
 11
143.600000
 21
132.300000
  0
LINE
  8
CSLAYER1
  6
CONTINUOUS
 62
     6
 10
141.500000
 20
126.900000
 11
141.500000
 21
130.300000
  0
LINE
  8
CSLAYER1
  6
CONTINUOUS
 62
     6
 10
145.000000
 20
126.900000
 11
141.500000
 21
126.900000
  0
LINE
  8
CSLAYER1
  6
CONTINUOUS
 62
     6
 10
145.000000
 20
130.300000
 11
141.500000
 21
130.300000
  0
LINE
  8
CSLAYER1
  6
CONTINUOUS
 62
     6
 10
145.000000
 20
126.900000
 11
145.000000
 21
130.300000
  0
LINE
  8
CSLAYER1
  6
CONTINUOUS
 62
     6
 10
143.600000
 20
130.300000
 11
143.600000
 21
126.900000
  0
LINE
  8
CSLAYER1
  6
CONTINUOUS
 62
     6
 10
141.500000
 20
121.500000
 11
141.500000
 21
124.900000
  0
LINE
  8
CSLAYER1
  6
CONTINUOUS
 62
     6
 10
145.000000
 20
121.500000
 11
141.500000
 21
121.500000
  0
LINE
  8
CSLAYER1
  6
CONTINUOUS
 62
     6
 10
145.000000
 20
124.900000
 11
141.500000
 21
124.900000
  0
LINE
  8
CSLAYER1
  6
CONTINUOUS
 62
     6
 10
145.000000
 20
121.500000
 11
145.000000
 21
124.900000
  0
LINE
  8
CSLAYER1
  6
CONTINUOUS
 62
     6
 10
143.600000
 20
124.900000
 11
143.600000
 21
121.500000
  0
ARC
  8
CSLAYER1
  6
CONTINUOUS
 62
     3
 10
152.992892
 20
166.400000
 40
1.805556
 50
-70.999198
 51
70.999198
  0
LINE
  8
CSLAYER1
  6
CONTINUOUS
 62
     3
 10
153.027337
 20
165.208366
 11
154.381565
 21
167.553957
  0
POLYLINE
  8
CSLAYER1
  6
CONTINUOUS
 62
     7
 66
     1
 10
0.0
 20
0.0
 30
0.0
  0
VERTEX
  8
CSLAYER1
  6
CONTINUOUS
 62
     7
 10
154.004003
 20
164.594444
 30
0.0
  0
VERTEX
  8
CSLAYER1
  6
CONTINUOUS
 62
     7
 10
154.117305
 20
164.601315
 30
0.0
  0
VERTEX
  8
CSLAYER1
  6
CONTINUOUS
 62
     7
 10
154.229746
 20
164.621875
 30
0.0
  0
VERTEX
  8
CSLAYER1
  6
CONTINUOUS
 62
     7
 10
154.340468
 20
164.655967
 30
0.0
  0
VERTEX
  8
CSLAYER1
  6
CONTINUOUS
 62
     7
 10
154.448629
 20
164.703333
 30
0.0
  0
VERTEX
  8
CSLAYER1
  6
CONTINUOUS
 62
     7
 10
154.553407
 20
164.763611
 30
0.0
  0
VERTEX
  8
CSLAYER1
  6
CONTINUOUS
 62
     7
 10
154.654003
 20
164.836343
 30
0.0
  0
VERTEX
  8
CSLAYER1
  6
CONTINUOUS
 62
     7
 10
154.749652
 20
164.920975
 30
0.0
  0
VERTEX
  8
CSLAYER1
  6
CONTINUOUS
 62
     7
 10
154.839627
 20
165.016864
 30
0.0
  0
VERTEX
  8
CSLAYER1
  6
CONTINUOUS
 62
     7
 10
154.923242
 20
165.123279
 30
0.0
  0
VERTEX
  8
CSLAYER1
  6
CONTINUOUS
 62
     7
 10
154.999861
 20
165.239411
 30
0.0
  0
VERTEX
  8
CSLAYER1
  6
CONTINUOUS
 62
     7
 10
155.068901
 20
165.364376
 30
0.0
  0
VERTEX
  8
CSLAYER1
  6
CONTINUOUS
 62
     7
 10
155.129836
 20
165.497222
 30
0.0
  0
VERTEX
  8
CSLAYER1
  6
CONTINUOUS
 62
     7
 10
155.182203
 20
165.636939
 30
0.0
  0
VERTEX
  8
CSLAYER1
  6
CONTINUOUS
 62
     7
 10
155.225603
 20
165.782464
 30
0.0
  0
VERTEX
  8
CSLAYER1
  6
CONTINUOUS
 62
     7
 10
155.259706
 20
165.932688
 30
0.0
  0
VERTEX
  8
CSLAYER1
  6
CONTINUOUS
 62
     7
 10
155.284253
 20
166.086469
 30
0.0
  0
VERTEX
  8
CSLAYER1
  6
CONTINUOUS
 62
     7
 10
155.299056
 20
166.242635
 30
0.0
  0
VERTEX
  8
CSLAYER1
  6
CONTINUOUS
 62
     7
 10
155.304003
 20
166.400000
 30
0.0
  0
VERTEX
  8
CSLAYER1
  6
CONTINUOUS
 62
     7
 10
155.299056
 20
166.557365
 30
0.0
  0
VERTEX
  8
CSLAYER1
  6
CONTINUOUS
 62
     7
 10
155.284253
 20
166.713531
 30
0.0
  0
VERTEX
  8
CSLAYER1
  6
CONTINUOUS
 62
     7
 10
155.259706
 20
166.867312
 30
0.0
  0
VERTEX
  8
CSLAYER1
  6
CONTINUOUS
 62
     7
 10
155.225603
 20
167.017536
 30
0.0
  0
VERTEX
  8
CSLAYER1
  6
CONTINUOUS
 62
     7
 10
155.182203
 20
167.163061
 30
0.0
  0
VERTEX
  8
CSLAYER1
  6
CONTINUOUS
 62
     7
 10
155.129836
 20
167.302778
 30
0.0
  0
VERTEX
  8
CSLAYER1
  6
CONTINUOUS
 62
     7
 10
155.068901
 20
167.435624
 30
0.0
  0
VERTEX
  8
CSLAYER1
  6
CONTINUOUS
 62
     7
 10
154.999861
 20
167.560589
 30
0.0
  0
VERTEX
  8
CSLAYER1
  6
CONTINUOUS
 62
     7
 10
154.923242
 20
167.676721
 30
0.0
  0
VERTEX
  8
CSLAYER1
  6
CONTINUOUS
 62
     7
 10
154.839627
 20
167.783136
 30
0.0
  0
VERTEX
  8
CSLAYER1
  6
CONTINUOUS
 62
     7
 10
154.749652
 20
167.879025
 30
0.0
  0
VERTEX
  8
CSLAYER1
  6
CONTINUOUS
 62
     7
 10
154.654003
 20
167.963657
 30
0.0
  0
VERTEX
  8
CSLAYER1
  6
CONTINUOUS
 62
     7
 10
154.553407
 20
168.036389
 30
0.0
  0
VERTEX
  8
CSLAYER1
  6
CONTINUOUS
 62
     7
 10
154.448629
 20
168.096667
 30
0.0
  0
VERTEX
  8
CSLAYER1
  6
CONTINUOUS
 62
     7
 10
154.340468
 20
168.144033
 30
0.0
  0
VERTEX
  8
CSLAYER1
  6
CONTINUOUS
 62
     7
 10
154.229746
 20
168.178125
 30
0.0
  0
VERTEX
  8
CSLAYER1
  6
CONTINUOUS
 62
     7
 10
154.117305
 20
168.198685
 30
0.0
  0
VERTEX
  8
CSLAYER1
  6
CONTINUOUS
 62
     7
 10
154.004003
 20
168.205556
 30
0.0
  0
VERTEX
  8
CSLAYER1
  6
CONTINUOUS
 62
     7
 10
153.890700
 20
168.198685
 30
0.0
  0
VERTEX
  8
CSLAYER1
  6
CONTINUOUS
 62
     7
 10
153.778260
 20
168.178125
 30
0.0
  0
VERTEX
  8
CSLAYER1
  6
CONTINUOUS
 62
     7
 10
153.667538
 20
168.144033
 30
0.0
  0
VERTEX
  8
CSLAYER1
  6
CONTINUOUS
 62
     7
 10
153.559377
 20
168.096667
 30
0.0
  0
VERTEX
  8
CSLAYER1
  6
CONTINUOUS
 62
     7
 10
153.454599
 20
168.036389
 30
0.0
  0
VERTEX
  8
CSLAYER1
  6
CONTINUOUS
 62
     7
 10
153.354003
 20
167.963657
 30
0.0
  0
VERTEX
  8
CSLAYER1
  6
CONTINUOUS
 62
     7
 10
153.258354
 20
167.879025
 30
0.0
  0
VERTEX
  8
CSLAYER1
  6
CONTINUOUS
 62
     7
 10
153.168379
 20
167.783136
 30
0.0
  0
VERTEX
  8
CSLAYER1
  6
CONTINUOUS
 62
     7
 10
153.084764
 20
167.676721
 30
0.0
  0
VERTEX
  8
CSLAYER1
  6
CONTINUOUS
 62
     7
 10
153.008145
 20
167.560589
 30
0.0
  0
VERTEX
  8
CSLAYER1
  6
CONTINUOUS
 62
     7
 10
152.939105
 20
167.435624
 30
0.0
  0
VERTEX
  8
CSLAYER1
  6
CONTINUOUS
 62
     7
 10
152.878170
 20
167.302778
 30
0.0
  0
VERTEX
  8
CSLAYER1
  6
CONTINUOUS
 62
     7
 10
152.825803
 20
167.163061
 30
0.0
  0
VERTEX
  8
CSLAYER1
  6
CONTINUOUS
 62
     7
 10
152.782403
 20
167.017536
 30
0.0
  0
VERTEX
  8
CSLAYER1
  6
CONTINUOUS
 62
     7
 10
152.748299
 20
166.867312
 30
0.0
  0
VERTEX
  8
CSLAYER1
  6
CONTINUOUS
 62
     7
 10
152.723753
 20
166.713531
 30
0.0
  0
VERTEX
  8
CSLAYER1
  6
CONTINUOUS
 62
     7
 10
152.708950
 20
166.557365
 30
0.0
  0
VERTEX
  8
CSLAYER1
  6
CONTINUOUS
 62
     7
 10
152.704003
 20
166.400000
 30
0.0
  0
VERTEX
  8
CSLAYER1
  6
CONTINUOUS
 62
     7
 10
152.708950
 20
166.242635
 30
0.0
  0
VERTEX
  8
CSLAYER1
  6
CONTINUOUS
 62
     7
 10
152.723753
 20
166.086469
 30
0.0
  0
VERTEX
  8
CSLAYER1
  6
CONTINUOUS
 62
     7
 10
152.748299
 20
165.932688
 30
0.0
  0
VERTEX
  8
CSLAYER1
  6
CONTINUOUS
 62
     7
 10
152.782403
 20
165.782464
 30
0.0
  0
VERTEX
  8
CSLAYER1
  6
CONTINUOUS
 62
     7
 10
152.825803
 20
165.636939
 30
0.0
  0
VERTEX
  8
CSLAYER1
  6
CONTINUOUS
 62
     7
 10
152.878170
 20
165.497222
 30
0.0
  0
VERTEX
  8
CSLAYER1
  6
CONTINUOUS
 62
     7
 10
152.939105
 20
165.364376
 30
0.0
  0
VERTEX
  8
CSLAYER1
  6
CONTINUOUS
 62
     7
 10
153.008145
 20
165.239411
 30
0.0
  0
VERTEX
  8
CSLAYER1
  6
CONTINUOUS
 62
     7
 10
153.084764
 20
165.123279
 30
0.0
  0
VERTEX
  8
CSLAYER1
  6
CONTINUOUS
 62
     7
 10
153.168379
 20
165.016864
 30
0.0
  0
VERTEX
  8
CSLAYER1
  6
CONTINUOUS
 62
     7
 10
153.258354
 20
164.920975
 30
0.0
  0
VERTEX
  8
CSLAYER1
  6
CONTINUOUS
 62
     7
 10
153.354003
 20
164.836343
 30
0.0
  0
VERTEX
  8
CSLAYER1
  6
CONTINUOUS
 62
     7
 10
153.454599
 20
164.763611
 30
0.0
  0
VERTEX
  8
CSLAYER1
  6
CONTINUOUS
 62
     7
 10
153.559377
 20
164.703333
 30
0.0
  0
VERTEX
  8
CSLAYER1
  6
CONTINUOUS
 62
     7
 10
153.667538
 20
164.655967
 30
0.0
  0
VERTEX
  8
CSLAYER1
  6
CONTINUOUS
 62
     7
 10
153.778260
 20
164.621875
 30
0.0
  0
VERTEX
  8
CSLAYER1
  6
CONTINUOUS
 62
     7
 10
153.890700
 20
164.601315
 30
0.0
  0
VERTEX
  8
CSLAYER1
  6
CONTINUOUS
 62
     7
 10
154.004003
 20
164.594444
 30
0.0
  0
SEQEND
  0
ARC
  8
CSLAYER1
  6
CONTINUOUS
 62
     3
 10
152.992892
 20
161.000000
 40
1.805556
 50
-70.999198
 51
70.999198
  0
LINE
  8
CSLAYER1
  6
CONTINUOUS
 62
     3
 10
153.027337
 20
159.808366
 11
154.381565
 21
162.153957
  0
POLYLINE
  8
CSLAYER1
  6
CONTINUOUS
 62
     7
 66
     1
 10
0.0
 20
0.0
 30
0.0
  0
VERTEX
  8
CSLAYER1
  6
CONTINUOUS
 62
     7
 10
154.004003
 20
159.194444
 30
0.0
  0
VERTEX
  8
CSLAYER1
  6
CONTINUOUS
 62
     7
 10
154.117305
 20
159.201315
 30
0.0
  0
VERTEX
  8
CSLAYER1
  6
CONTINUOUS
 62
     7
 10
154.229746
 20
159.221875
 30
0.0
  0
VERTEX
  8
CSLAYER1
  6
CONTINUOUS
 62
     7
 10
154.340468
 20
159.255967
 30
0.0
  0
VERTEX
  8
CSLAYER1
  6
CONTINUOUS
 62
     7
 10
154.448629
 20
159.303333
 30
0.0
  0
VERTEX
  8
CSLAYER1
  6
CONTINUOUS
 62
     7
 10
154.553407
 20
159.363611
 30
0.0
  0
VERTEX
  8
CSLAYER1
  6
CONTINUOUS
 62
     7
 10
154.654003
 20
159.436343
 30
0.0
  0
VERTEX
  8
CSLAYER1
  6
CONTINUOUS
 62
     7
 10
154.749652
 20
159.520975
 30
0.0
  0
VERTEX
  8
CSLAYER1
  6
CONTINUOUS
 62
     7
 10
154.839627
 20
159.616864
 30
0.0
  0
VERTEX
  8
CSLAYER1
  6
CONTINUOUS
 62
     7
 10
154.923242
 20
159.723279
 30
0.0
  0
VERTEX
  8
CSLAYER1
  6
CONTINUOUS
 62
     7
 10
154.999861
 20
159.839411
 30
0.0
  0
VERTEX
  8
CSLAYER1
  6
CONTINUOUS
 62
     7
 10
155.068901
 20
159.964376
 30
0.0
  0
VERTEX
  8
CSLAYER1
  6
CONTINUOUS
 62
     7
 10
155.129836
 20
160.097222
 30
0.0
  0
VERTEX
  8
CSLAYER1
  6
CONTINUOUS
 62
     7
 10
155.182203
 20
160.236939
 30
0.0
  0
VERTEX
  8
CSLAYER1
  6
CONTINUOUS
 62
     7
 10
155.225603
 20
160.382464
 30
0.0
  0
VERTEX
  8
CSLAYER1
  6
CONTINUOUS
 62
     7
 10
155.259706
 20
160.532688
 30
0.0
  0
VERTEX
  8
CSLAYER1
  6
CONTINUOUS
 62
     7
 10
155.284253
 20
160.686469
 30
0.0
  0
VERTEX
  8
CSLAYER1
  6
CONTINUOUS
 62
     7
 10
155.299056
 20
160.842635
 30
0.0
  0
VERTEX
  8
CSLAYER1
  6
CONTINUOUS
 62
     7
 10
155.304003
 20
161.000000
 30
0.0
  0
VERTEX
  8
CSLAYER1
  6
CONTINUOUS
 62
     7
 10
155.299056
 20
161.157365
 30
0.0
  0
VERTEX
  8
CSLAYER1
  6
CONTINUOUS
 62
     7
 10
155.284253
 20
161.313531
 30
0.0
  0
VERTEX
  8
CSLAYER1
  6
CONTINUOUS
 62
     7
 10
155.259706
 20
161.467312
 30
0.0
  0
VERTEX
  8
CSLAYER1
  6
CONTINUOUS
 62
     7
 10
155.225603
 20
161.617536
 30
0.0
  0
VERTEX
  8
CSLAYER1
  6
CONTINUOUS
 62
     7
 10
155.182203
 20
161.763061
 30
0.0
  0
VERTEX
  8
CSLAYER1
  6
CONTINUOUS
 62
     7
 10
155.129836
 20
161.902778
 30
0.0
  0
VERTEX
  8
CSLAYER1
  6
CONTINUOUS
 62
     7
 10
155.068901
 20
162.035624
 30
0.0
  0
VERTEX
  8
CSLAYER1
  6
CONTINUOUS
 62
     7
 10
154.999861
 20
162.160589
 30
0.0
  0
VERTEX
  8
CSLAYER1
  6
CONTINUOUS
 62
     7
 10
154.923242
 20
162.276721
 30
0.0
  0
VERTEX
  8
CSLAYER1
  6
CONTINUOUS
 62
     7
 10
154.839627
 20
162.383136
 30
0.0
  0
VERTEX
  8
CSLAYER1
  6
CONTINUOUS
 62
     7
 10
154.749652
 20
162.479025
 30
0.0
  0
VERTEX
  8
CSLAYER1
  6
CONTINUOUS
 62
     7
 10
154.654003
 20
162.563657
 30
0.0
  0
VERTEX
  8
CSLAYER1
  6
CONTINUOUS
 62
     7
 10
154.553407
 20
162.636389
 30
0.0
  0
VERTEX
  8
CSLAYER1
  6
CONTINUOUS
 62
     7
 10
154.448629
 20
162.696667
 30
0.0
  0
VERTEX
  8
CSLAYER1
  6
CONTINUOUS
 62
     7
 10
154.340468
 20
162.744033
 30
0.0
  0
VERTEX
  8
CSLAYER1
  6
CONTINUOUS
 62
     7
 10
154.229746
 20
162.778125
 30
0.0
  0
VERTEX
  8
CSLAYER1
  6
CONTINUOUS
 62
     7
 10
154.117305
 20
162.798685
 30
0.0
  0
VERTEX
  8
CSLAYER1
  6
CONTINUOUS
 62
     7
 10
154.004003
 20
162.805556
 30
0.0
  0
VERTEX
  8
CSLAYER1
  6
CONTINUOUS
 62
     7
 10
153.890700
 20
162.798685
 30
0.0
  0
VERTEX
  8
CSLAYER1
  6
CONTINUOUS
 62
     7
 10
153.778260
 20
162.778125
 30
0.0
  0
VERTEX
  8
CSLAYER1
  6
CONTINUOUS
 62
     7
 10
153.667538
 20
162.744033
 30
0.0
  0
VERTEX
  8
CSLAYER1
  6
CONTINUOUS
 62
     7
 10
153.559377
 20
162.696667
 30
0.0
  0
VERTEX
  8
CSLAYER1
  6
CONTINUOUS
 62
     7
 10
153.454599
 20
162.636389
 30
0.0
  0
VERTEX
  8
CSLAYER1
  6
CONTINUOUS
 62
     7
 10
153.354003
 20
162.563657
 30
0.0
  0
VERTEX
  8
CSLAYER1
  6
CONTINUOUS
 62
     7
 10
153.258354
 20
162.479025
 30
0.0
  0
VERTEX
  8
CSLAYER1
  6
CONTINUOUS
 62
     7
 10
153.168379
 20
162.383136
 30
0.0
  0
VERTEX
  8
CSLAYER1
  6
CONTINUOUS
 62
     7
 10
153.084764
 20
162.276721
 30
0.0
  0
VERTEX
  8
CSLAYER1
  6
CONTINUOUS
 62
     7
 10
153.008145
 20
162.160589
 30
0.0
  0
VERTEX
  8
CSLAYER1
  6
CONTINUOUS
 62
     7
 10
152.939105
 20
162.035624
 30
0.0
  0
VERTEX
  8
CSLAYER1
  6
CONTINUOUS
 62
     7
 10
152.878170
 20
161.902778
 30
0.0
  0
VERTEX
  8
CSLAYER1
  6
CONTINUOUS
 62
     7
 10
152.825803
 20
161.763061
 30
0.0
  0
VERTEX
  8
CSLAYER1
  6
CONTINUOUS
 62
     7
 10
152.782403
 20
161.617536
 30
0.0
  0
VERTEX
  8
CSLAYER1
  6
CONTINUOUS
 62
     7
 10
152.748299
 20
161.467312
 30
0.0
  0
VERTEX
  8
CSLAYER1
  6
CONTINUOUS
 62
     7
 10
152.723753
 20
161.313531
 30
0.0
  0
VERTEX
  8
CSLAYER1
  6
CONTINUOUS
 62
     7
 10
152.708950
 20
161.157365
 30
0.0
  0
VERTEX
  8
CSLAYER1
  6
CONTINUOUS
 62
     7
 10
152.704003
 20
161.000000
 30
0.0
  0
VERTEX
  8
CSLAYER1
  6
CONTINUOUS
 62
     7
 10
152.708950
 20
160.842635
 30
0.0
  0
VERTEX
  8
CSLAYER1
  6
CONTINUOUS
 62
     7
 10
152.723753
 20
160.686469
 30
0.0
  0
VERTEX
  8
CSLAYER1
  6
CONTINUOUS
 62
     7
 10
152.748299
 20
160.532688
 30
0.0
  0
VERTEX
  8
CSLAYER1
  6
CONTINUOUS
 62
     7
 10
152.782403
 20
160.382464
 30
0.0
  0
VERTEX
  8
CSLAYER1
  6
CONTINUOUS
 62
     7
 10
152.825803
 20
160.236939
 30
0.0
  0
VERTEX
  8
CSLAYER1
  6
CONTINUOUS
 62
     7
 10
152.878170
 20
160.097222
 30
0.0
  0
VERTEX
  8
CSLAYER1
  6
CONTINUOUS
 62
     7
 10
152.939105
 20
159.964376
 30
0.0
  0
VERTEX
  8
CSLAYER1
  6
CONTINUOUS
 62
     7
 10
153.008145
 20
159.839411
 30
0.0
  0
VERTEX
  8
CSLAYER1
  6
CONTINUOUS
 62
     7
 10
153.084764
 20
159.723279
 30
0.0
  0
VERTEX
  8
CSLAYER1
  6
CONTINUOUS
 62
     7
 10
153.168379
 20
159.616864
 30
0.0
  0
VERTEX
  8
CSLAYER1
  6
CONTINUOUS
 62
     7
 10
153.258354
 20
159.520975
 30
0.0
  0
VERTEX
  8
CSLAYER1
  6
CONTINUOUS
 62
     7
 10
153.354003
 20
159.436343
 30
0.0
  0
VERTEX
  8
CSLAYER1
  6
CONTINUOUS
 62
     7
 10
153.454599
 20
159.363611
 30
0.0
  0
VERTEX
  8
CSLAYER1
  6
CONTINUOUS
 62
     7
 10
153.559377
 20
159.303333
 30
0.0
  0
VERTEX
  8
CSLAYER1
  6
CONTINUOUS
 62
     7
 10
153.667538
 20
159.255967
 30
0.0
  0
VERTEX
  8
CSLAYER1
  6
CONTINUOUS
 62
     7
 10
153.778260
 20
159.221875
 30
0.0
  0
VERTEX
  8
CSLAYER1
  6
CONTINUOUS
 62
     7
 10
153.890700
 20
159.201315
 30
0.0
  0
VERTEX
  8
CSLAYER1
  6
CONTINUOUS
 62
     7
 10
154.004003
 20
159.194444
 30
0.0
  0
SEQEND
  0
ARC
  8
CSLAYER1
  6
CONTINUOUS
 62
     3
 10
152.992892
 20
155.600000
 40
1.805556
 50
-70.999198
 51
70.999198
  0
LINE
  8
CSLAYER1
  6
CONTINUOUS
 62
     3
 10
153.027337
 20
154.408366
 11
154.381565
 21
156.753957
  0
POLYLINE
  8
CSLAYER1
  6
CONTINUOUS
 62
     7
 66
     1
 10
0.0
 20
0.0
 30
0.0
  0
VERTEX
  8
CSLAYER1
  6
CONTINUOUS
 62
     7
 10
154.004003
 20
153.794444
 30
0.0
  0
VERTEX
  8
CSLAYER1
  6
CONTINUOUS
 62
     7
 10
154.117305
 20
153.801315
 30
0.0
  0
VERTEX
  8
CSLAYER1
  6
CONTINUOUS
 62
     7
 10
154.229746
 20
153.821875
 30
0.0
  0
VERTEX
  8
CSLAYER1
  6
CONTINUOUS
 62
     7
 10
154.340468
 20
153.855967
 30
0.0
  0
VERTEX
  8
CSLAYER1
  6
CONTINUOUS
 62
     7
 10
154.448629
 20
153.903333
 30
0.0
  0
VERTEX
  8
CSLAYER1
  6
CONTINUOUS
 62
     7
 10
154.553407
 20
153.963611
 30
0.0
  0
VERTEX
  8
CSLAYER1
  6
CONTINUOUS
 62
     7
 10
154.654003
 20
154.036343
 30
0.0
  0
VERTEX
  8
CSLAYER1
  6
CONTINUOUS
 62
     7
 10
154.749652
 20
154.120975
 30
0.0
  0
VERTEX
  8
CSLAYER1
  6
CONTINUOUS
 62
     7
 10
154.839627
 20
154.216864
 30
0.0
  0
VERTEX
  8
CSLAYER1
  6
CONTINUOUS
 62
     7
 10
154.923242
 20
154.323279
 30
0.0
  0
VERTEX
  8
CSLAYER1
  6
CONTINUOUS
 62
     7
 10
154.999861
 20
154.439411
 30
0.0
  0
VERTEX
  8
CSLAYER1
  6
CONTINUOUS
 62
     7
 10
155.068901
 20
154.564376
 30
0.0
  0
VERTEX
  8
CSLAYER1
  6
CONTINUOUS
 62
     7
 10
155.129836
 20
154.697222
 30
0.0
  0
VERTEX
  8
CSLAYER1
  6
CONTINUOUS
 62
     7
 10
155.182203
 20
154.836939
 30
0.0
  0
VERTEX
  8
CSLAYER1
  6
CONTINUOUS
 62
     7
 10
155.225603
 20
154.982464
 30
0.0
  0
VERTEX
  8
CSLAYER1
  6
CONTINUOUS
 62
     7
 10
155.259706
 20
155.132688
 30
0.0
  0
VERTEX
  8
CSLAYER1
  6
CONTINUOUS
 62
     7
 10
155.284253
 20
155.286469
 30
0.0
  0
VERTEX
  8
CSLAYER1
  6
CONTINUOUS
 62
     7
 10
155.299056
 20
155.442635
 30
0.0
  0
VERTEX
  8
CSLAYER1
  6
CONTINUOUS
 62
     7
 10
155.304003
 20
155.600000
 30
0.0
  0
VERTEX
  8
CSLAYER1
  6
CONTINUOUS
 62
     7
 10
155.299056
 20
155.757365
 30
0.0
  0
VERTEX
  8
CSLAYER1
  6
CONTINUOUS
 62
     7
 10
155.284253
 20
155.913531
 30
0.0
  0
VERTEX
  8
CSLAYER1
  6
CONTINUOUS
 62
     7
 10
155.259706
 20
156.067312
 30
0.0
  0
VERTEX
  8
CSLAYER1
  6
CONTINUOUS
 62
     7
 10
155.225603
 20
156.217536
 30
0.0
  0
VERTEX
  8
CSLAYER1
  6
CONTINUOUS
 62
     7
 10
155.182203
 20
156.363061
 30
0.0
  0
VERTEX
  8
CSLAYER1
  6
CONTINUOUS
 62
     7
 10
155.129836
 20
156.502778
 30
0.0
  0
VERTEX
  8
CSLAYER1
  6
CONTINUOUS
 62
     7
 10
155.068901
 20
156.635624
 30
0.0
  0
VERTEX
  8
CSLAYER1
  6
CONTINUOUS
 62
     7
 10
154.999861
 20
156.760589
 30
0.0
  0
VERTEX
  8
CSLAYER1
  6
CONTINUOUS
 62
     7
 10
154.923242
 20
156.876721
 30
0.0
  0
VERTEX
  8
CSLAYER1
  6
CONTINUOUS
 62
     7
 10
154.839627
 20
156.983136
 30
0.0
  0
VERTEX
  8
CSLAYER1
  6
CONTINUOUS
 62
     7
 10
154.749652
 20
157.079025
 30
0.0
  0
VERTEX
  8
CSLAYER1
  6
CONTINUOUS
 62
     7
 10
154.654003
 20
157.163657
 30
0.0
  0
VERTEX
  8
CSLAYER1
  6
CONTINUOUS
 62
     7
 10
154.553407
 20
157.236389
 30
0.0
  0
VERTEX
  8
CSLAYER1
  6
CONTINUOUS
 62
     7
 10
154.448629
 20
157.296667
 30
0.0
  0
VERTEX
  8
CSLAYER1
  6
CONTINUOUS
 62
     7
 10
154.340468
 20
157.344033
 30
0.0
  0
VERTEX
  8
CSLAYER1
  6
CONTINUOUS
 62
     7
 10
154.229746
 20
157.378125
 30
0.0
  0
VERTEX
  8
CSLAYER1
  6
CONTINUOUS
 62
     7
 10
154.117305
 20
157.398685
 30
0.0
  0
VERTEX
  8
CSLAYER1
  6
CONTINUOUS
 62
     7
 10
154.004003
 20
157.405556
 30
0.0
  0
VERTEX
  8
CSLAYER1
  6
CONTINUOUS
 62
     7
 10
153.890700
 20
157.398685
 30
0.0
  0
VERTEX
  8
CSLAYER1
  6
CONTINUOUS
 62
     7
 10
153.778260
 20
157.378125
 30
0.0
  0
VERTEX
  8
CSLAYER1
  6
CONTINUOUS
 62
     7
 10
153.667538
 20
157.344033
 30
0.0
  0
VERTEX
  8
CSLAYER1
  6
CONTINUOUS
 62
     7
 10
153.559377
 20
157.296667
 30
0.0
  0
VERTEX
  8
CSLAYER1
  6
CONTINUOUS
 62
     7
 10
153.454599
 20
157.236389
 30
0.0
  0
VERTEX
  8
CSLAYER1
  6
CONTINUOUS
 62
     7
 10
153.354003
 20
157.163657
 30
0.0
  0
VERTEX
  8
CSLAYER1
  6
CONTINUOUS
 62
     7
 10
153.258354
 20
157.079025
 30
0.0
  0
VERTEX
  8
CSLAYER1
  6
CONTINUOUS
 62
     7
 10
153.168379
 20
156.983136
 30
0.0
  0
VERTEX
  8
CSLAYER1
  6
CONTINUOUS
 62
     7
 10
153.084764
 20
156.876721
 30
0.0
  0
VERTEX
  8
CSLAYER1
  6
CONTINUOUS
 62
     7
 10
153.008145
 20
156.760589
 30
0.0
  0
VERTEX
  8
CSLAYER1
  6
CONTINUOUS
 62
     7
 10
152.939105
 20
156.635624
 30
0.0
  0
VERTEX
  8
CSLAYER1
  6
CONTINUOUS
 62
     7
 10
152.878170
 20
156.502778
 30
0.0
  0
VERTEX
  8
CSLAYER1
  6
CONTINUOUS
 62
     7
 10
152.825803
 20
156.363061
 30
0.0
  0
VERTEX
  8
CSLAYER1
  6
CONTINUOUS
 62
     7
 10
152.782403
 20
156.217536
 30
0.0
  0
VERTEX
  8
CSLAYER1
  6
CONTINUOUS
 62
     7
 10
152.748299
 20
156.067312
 30
0.0
  0
VERTEX
  8
CSLAYER1
  6
CONTINUOUS
 62
     7
 10
152.723753
 20
155.913531
 30
0.0
  0
VERTEX
  8
CSLAYER1
  6
CONTINUOUS
 62
     7
 10
152.708950
 20
155.757365
 30
0.0
  0
VERTEX
  8
CSLAYER1
  6
CONTINUOUS
 62
     7
 10
152.704003
 20
155.600000
 30
0.0
  0
VERTEX
  8
CSLAYER1
  6
CONTINUOUS
 62
     7
 10
152.708950
 20
155.442635
 30
0.0
  0
VERTEX
  8
CSLAYER1
  6
CONTINUOUS
 62
     7
 10
152.723753
 20
155.286469
 30
0.0
  0
VERTEX
  8
CSLAYER1
  6
CONTINUOUS
 62
     7
 10
152.748299
 20
155.132688
 30
0.0
  0
VERTEX
  8
CSLAYER1
  6
CONTINUOUS
 62
     7
 10
152.782403
 20
154.982464
 30
0.0
  0
VERTEX
  8
CSLAYER1
  6
CONTINUOUS
 62
     7
 10
152.825803
 20
154.836939
 30
0.0
  0
VERTEX
  8
CSLAYER1
  6
CONTINUOUS
 62
     7
 10
152.878170
 20
154.697222
 30
0.0
  0
VERTEX
  8
CSLAYER1
  6
CONTINUOUS
 62
     7
 10
152.939105
 20
154.564376
 30
0.0
  0
VERTEX
  8
CSLAYER1
  6
CONTINUOUS
 62
     7
 10
153.008145
 20
154.439411
 30
0.0
  0
VERTEX
  8
CSLAYER1
  6
CONTINUOUS
 62
     7
 10
153.084764
 20
154.323279
 30
0.0
  0
VERTEX
  8
CSLAYER1
  6
CONTINUOUS
 62
     7
 10
153.168379
 20
154.216864
 30
0.0
  0
VERTEX
  8
CSLAYER1
  6
CONTINUOUS
 62
     7
 10
153.258354
 20
154.120975
 30
0.0
  0
VERTEX
  8
CSLAYER1
  6
CONTINUOUS
 62
     7
 10
153.354003
 20
154.036343
 30
0.0
  0
VERTEX
  8
CSLAYER1
  6
CONTINUOUS
 62
     7
 10
153.454599
 20
153.963611
 30
0.0
  0
VERTEX
  8
CSLAYER1
  6
CONTINUOUS
 62
     7
 10
153.559377
 20
153.903333
 30
0.0
  0
VERTEX
  8
CSLAYER1
  6
CONTINUOUS
 62
     7
 10
153.667538
 20
153.855967
 30
0.0
  0
VERTEX
  8
CSLAYER1
  6
CONTINUOUS
 62
     7
 10
153.778260
 20
153.821875
 30
0.0
  0
VERTEX
  8
CSLAYER1
  6
CONTINUOUS
 62
     7
 10
153.890700
 20
153.801315
 30
0.0
  0
VERTEX
  8
CSLAYER1
  6
CONTINUOUS
 62
     7
 10
154.004003
 20
153.794444
 30
0.0
  0
SEQEND
  0
ARC
  8
CSLAYER1
  6
CONTINUOUS
 62
     3
 10
152.992892
 20
150.200000
 40
1.805556
 50
-70.999198
 51
70.999198
  0
LINE
  8
CSLAYER1
  6
CONTINUOUS
 62
     3
 10
153.027337
 20
149.008366
 11
154.381565
 21
151.353957
  0
POLYLINE
  8
CSLAYER1
  6
CONTINUOUS
 62
     7
 66
     1
 10
0.0
 20
0.0
 30
0.0
  0
VERTEX
  8
CSLAYER1
  6
CONTINUOUS
 62
     7
 10
154.004003
 20
148.394444
 30
0.0
  0
VERTEX
  8
CSLAYER1
  6
CONTINUOUS
 62
     7
 10
154.117305
 20
148.401315
 30
0.0
  0
VERTEX
  8
CSLAYER1
  6
CONTINUOUS
 62
     7
 10
154.229746
 20
148.421875
 30
0.0
  0
VERTEX
  8
CSLAYER1
  6
CONTINUOUS
 62
     7
 10
154.340468
 20
148.455967
 30
0.0
  0
VERTEX
  8
CSLAYER1
  6
CONTINUOUS
 62
     7
 10
154.448629
 20
148.503333
 30
0.0
  0
VERTEX
  8
CSLAYER1
  6
CONTINUOUS
 62
     7
 10
154.553407
 20
148.563611
 30
0.0
  0
VERTEX
  8
CSLAYER1
  6
CONTINUOUS
 62
     7
 10
154.654003
 20
148.636343
 30
0.0
  0
VERTEX
  8
CSLAYER1
  6
CONTINUOUS
 62
     7
 10
154.749652
 20
148.720975
 30
0.0
  0
VERTEX
  8
CSLAYER1
  6
CONTINUOUS
 62
     7
 10
154.839627
 20
148.816864
 30
0.0
  0
VERTEX
  8
CSLAYER1
  6
CONTINUOUS
 62
     7
 10
154.923242
 20
148.923279
 30
0.0
  0
VERTEX
  8
CSLAYER1
  6
CONTINUOUS
 62
     7
 10
154.999861
 20
149.039411
 30
0.0
  0
VERTEX
  8
CSLAYER1
  6
CONTINUOUS
 62
     7
 10
155.068901
 20
149.164376
 30
0.0
  0
VERTEX
  8
CSLAYER1
  6
CONTINUOUS
 62
     7
 10
155.129836
 20
149.297222
 30
0.0
  0
VERTEX
  8
CSLAYER1
  6
CONTINUOUS
 62
     7
 10
155.182203
 20
149.436939
 30
0.0
  0
VERTEX
  8
CSLAYER1
  6
CONTINUOUS
 62
     7
 10
155.225603
 20
149.582464
 30
0.0
  0
VERTEX
  8
CSLAYER1
  6
CONTINUOUS
 62
     7
 10
155.259706
 20
149.732688
 30
0.0
  0
VERTEX
  8
CSLAYER1
  6
CONTINUOUS
 62
     7
 10
155.284253
 20
149.886469
 30
0.0
  0
VERTEX
  8
CSLAYER1
  6
CONTINUOUS
 62
     7
 10
155.299056
 20
150.042635
 30
0.0
  0
VERTEX
  8
CSLAYER1
  6
CONTINUOUS
 62
     7
 10
155.304003
 20
150.200000
 30
0.0
  0
VERTEX
  8
CSLAYER1
  6
CONTINUOUS
 62
     7
 10
155.299056
 20
150.357365
 30
0.0
  0
VERTEX
  8
CSLAYER1
  6
CONTINUOUS
 62
     7
 10
155.284253
 20
150.513531
 30
0.0
  0
VERTEX
  8
CSLAYER1
  6
CONTINUOUS
 62
     7
 10
155.259706
 20
150.667312
 30
0.0
  0
VERTEX
  8
CSLAYER1
  6
CONTINUOUS
 62
     7
 10
155.225603
 20
150.817536
 30
0.0
  0
VERTEX
  8
CSLAYER1
  6
CONTINUOUS
 62
     7
 10
155.182203
 20
150.963061
 30
0.0
  0
VERTEX
  8
CSLAYER1
  6
CONTINUOUS
 62
     7
 10
155.129836
 20
151.102778
 30
0.0
  0
VERTEX
  8
CSLAYER1
  6
CONTINUOUS
 62
     7
 10
155.068901
 20
151.235624
 30
0.0
  0
VERTEX
  8
CSLAYER1
  6
CONTINUOUS
 62
     7
 10
154.999861
 20
151.360589
 30
0.0
  0
VERTEX
  8
CSLAYER1
  6
CONTINUOUS
 62
     7
 10
154.923242
 20
151.476721
 30
0.0
  0
VERTEX
  8
CSLAYER1
  6
CONTINUOUS
 62
     7
 10
154.839627
 20
151.583136
 30
0.0
  0
VERTEX
  8
CSLAYER1
  6
CONTINUOUS
 62
     7
 10
154.749652
 20
151.679025
 30
0.0
  0
VERTEX
  8
CSLAYER1
  6
CONTINUOUS
 62
     7
 10
154.654003
 20
151.763657
 30
0.0
  0
VERTEX
  8
CSLAYER1
  6
CONTINUOUS
 62
     7
 10
154.553407
 20
151.836389
 30
0.0
  0
VERTEX
  8
CSLAYER1
  6
CONTINUOUS
 62
     7
 10
154.448629
 20
151.896667
 30
0.0
  0
VERTEX
  8
CSLAYER1
  6
CONTINUOUS
 62
     7
 10
154.340468
 20
151.944033
 30
0.0
  0
VERTEX
  8
CSLAYER1
  6
CONTINUOUS
 62
     7
 10
154.229746
 20
151.978125
 30
0.0
  0
VERTEX
  8
CSLAYER1
  6
CONTINUOUS
 62
     7
 10
154.117305
 20
151.998685
 30
0.0
  0
VERTEX
  8
CSLAYER1
  6
CONTINUOUS
 62
     7
 10
154.004003
 20
152.005556
 30
0.0
  0
VERTEX
  8
CSLAYER1
  6
CONTINUOUS
 62
     7
 10
153.890700
 20
151.998685
 30
0.0
  0
VERTEX
  8
CSLAYER1
  6
CONTINUOUS
 62
     7
 10
153.778260
 20
151.978125
 30
0.0
  0
VERTEX
  8
CSLAYER1
  6
CONTINUOUS
 62
     7
 10
153.667538
 20
151.944033
 30
0.0
  0
VERTEX
  8
CSLAYER1
  6
CONTINUOUS
 62
     7
 10
153.559377
 20
151.896667
 30
0.0
  0
VERTEX
  8
CSLAYER1
  6
CONTINUOUS
 62
     7
 10
153.454599
 20
151.836389
 30
0.0
  0
VERTEX
  8
CSLAYER1
  6
CONTINUOUS
 62
     7
 10
153.354003
 20
151.763657
 30
0.0
  0
VERTEX
  8
CSLAYER1
  6
CONTINUOUS
 62
     7
 10
153.258354
 20
151.679025
 30
0.0
  0
VERTEX
  8
CSLAYER1
  6
CONTINUOUS
 62
     7
 10
153.168379
 20
151.583136
 30
0.0
  0
VERTEX
  8
CSLAYER1
  6
CONTINUOUS
 62
     7
 10
153.084764
 20
151.476721
 30
0.0
  0
VERTEX
  8
CSLAYER1
  6
CONTINUOUS
 62
     7
 10
153.008145
 20
151.360589
 30
0.0
  0
VERTEX
  8
CSLAYER1
  6
CONTINUOUS
 62
     7
 10
152.939105
 20
151.235624
 30
0.0
  0
VERTEX
  8
CSLAYER1
  6
CONTINUOUS
 62
     7
 10
152.878170
 20
151.102778
 30
0.0
  0
VERTEX
  8
CSLAYER1
  6
CONTINUOUS
 62
     7
 10
152.825803
 20
150.963061
 30
0.0
  0
VERTEX
  8
CSLAYER1
  6
CONTINUOUS
 62
     7
 10
152.782403
 20
150.817536
 30
0.0
  0
VERTEX
  8
CSLAYER1
  6
CONTINUOUS
 62
     7
 10
152.748299
 20
150.667312
 30
0.0
  0
VERTEX
  8
CSLAYER1
  6
CONTINUOUS
 62
     7
 10
152.723753
 20
150.513531
 30
0.0
  0
VERTEX
  8
CSLAYER1
  6
CONTINUOUS
 62
     7
 10
152.708950
 20
150.357365
 30
0.0
  0
VERTEX
  8
CSLAYER1
  6
CONTINUOUS
 62
     7
 10
152.704003
 20
150.200000
 30
0.0
  0
VERTEX
  8
CSLAYER1
  6
CONTINUOUS
 62
     7
 10
152.708950
 20
150.042635
 30
0.0
  0
VERTEX
  8
CSLAYER1
  6
CONTINUOUS
 62
     7
 10
152.723753
 20
149.886469
 30
0.0
  0
VERTEX
  8
CSLAYER1
  6
CONTINUOUS
 62
     7
 10
152.748299
 20
149.732688
 30
0.0
  0
VERTEX
  8
CSLAYER1
  6
CONTINUOUS
 62
     7
 10
152.782403
 20
149.582464
 30
0.0
  0
VERTEX
  8
CSLAYER1
  6
CONTINUOUS
 62
     7
 10
152.825803
 20
149.436939
 30
0.0
  0
VERTEX
  8
CSLAYER1
  6
CONTINUOUS
 62
     7
 10
152.878170
 20
149.297222
 30
0.0
  0
VERTEX
  8
CSLAYER1
  6
CONTINUOUS
 62
     7
 10
152.939105
 20
149.164376
 30
0.0
  0
VERTEX
  8
CSLAYER1
  6
CONTINUOUS
 62
     7
 10
153.008145
 20
149.039411
 30
0.0
  0
VERTEX
  8
CSLAYER1
  6
CONTINUOUS
 62
     7
 10
153.084764
 20
148.923279
 30
0.0
  0
VERTEX
  8
CSLAYER1
  6
CONTINUOUS
 62
     7
 10
153.168379
 20
148.816864
 30
0.0
  0
VERTEX
  8
CSLAYER1
  6
CONTINUOUS
 62
     7
 10
153.258354
 20
148.720975
 30
0.0
  0
VERTEX
  8
CSLAYER1
  6
CONTINUOUS
 62
     7
 10
153.354003
 20
148.636343
 30
0.0
  0
VERTEX
  8
CSLAYER1
  6
CONTINUOUS
 62
     7
 10
153.454599
 20
148.563611
 30
0.0
  0
VERTEX
  8
CSLAYER1
  6
CONTINUOUS
 62
     7
 10
153.559377
 20
148.503333
 30
0.0
  0
VERTEX
  8
CSLAYER1
  6
CONTINUOUS
 62
     7
 10
153.667538
 20
148.455967
 30
0.0
  0
VERTEX
  8
CSLAYER1
  6
CONTINUOUS
 62
     7
 10
153.778260
 20
148.421875
 30
0.0
  0
VERTEX
  8
CSLAYER1
  6
CONTINUOUS
 62
     7
 10
153.890700
 20
148.401315
 30
0.0
  0
VERTEX
  8
CSLAYER1
  6
CONTINUOUS
 62
     7
 10
154.004003
 20
148.394444
 30
0.0
  0
SEQEND
  0
ARC
  8
CSLAYER1
  6
CONTINUOUS
 62
     3
 10
152.992892
 20
144.800000
 40
1.805556
 50
-70.999198
 51
70.999198
  0
LINE
  8
CSLAYER1
  6
CONTINUOUS
 62
     3
 10
153.027337
 20
143.608366
 11
154.381565
 21
145.953957
  0
POLYLINE
  8
CSLAYER1
  6
CONTINUOUS
 62
     7
 66
     1
 10
0.0
 20
0.0
 30
0.0
  0
VERTEX
  8
CSLAYER1
  6
CONTINUOUS
 62
     7
 10
154.004003
 20
142.994444
 30
0.0
  0
VERTEX
  8
CSLAYER1
  6
CONTINUOUS
 62
     7
 10
154.117305
 20
143.001315
 30
0.0
  0
VERTEX
  8
CSLAYER1
  6
CONTINUOUS
 62
     7
 10
154.229746
 20
143.021875
 30
0.0
  0
VERTEX
  8
CSLAYER1
  6
CONTINUOUS
 62
     7
 10
154.340468
 20
143.055967
 30
0.0
  0
VERTEX
  8
CSLAYER1
  6
CONTINUOUS
 62
     7
 10
154.448629
 20
143.103333
 30
0.0
  0
VERTEX
  8
CSLAYER1
  6
CONTINUOUS
 62
     7
 10
154.553407
 20
143.163611
 30
0.0
  0
VERTEX
  8
CSLAYER1
  6
CONTINUOUS
 62
     7
 10
154.654003
 20
143.236343
 30
0.0
  0
VERTEX
  8
CSLAYER1
  6
CONTINUOUS
 62
     7
 10
154.749652
 20
143.320975
 30
0.0
  0
VERTEX
  8
CSLAYER1
  6
CONTINUOUS
 62
     7
 10
154.839627
 20
143.416864
 30
0.0
  0
VERTEX
  8
CSLAYER1
  6
CONTINUOUS
 62
     7
 10
154.923242
 20
143.523279
 30
0.0
  0
VERTEX
  8
CSLAYER1
  6
CONTINUOUS
 62
     7
 10
154.999861
 20
143.639411
 30
0.0
  0
VERTEX
  8
CSLAYER1
  6
CONTINUOUS
 62
     7
 10
155.068901
 20
143.764376
 30
0.0
  0
VERTEX
  8
CSLAYER1
  6
CONTINUOUS
 62
     7
 10
155.129836
 20
143.897222
 30
0.0
  0
VERTEX
  8
CSLAYER1
  6
CONTINUOUS
 62
     7
 10
155.182203
 20
144.036939
 30
0.0
  0
VERTEX
  8
CSLAYER1
  6
CONTINUOUS
 62
     7
 10
155.225603
 20
144.182464
 30
0.0
  0
VERTEX
  8
CSLAYER1
  6
CONTINUOUS
 62
     7
 10
155.259706
 20
144.332688
 30
0.0
  0
VERTEX
  8
CSLAYER1
  6
CONTINUOUS
 62
     7
 10
155.284253
 20
144.486469
 30
0.0
  0
VERTEX
  8
CSLAYER1
  6
CONTINUOUS
 62
     7
 10
155.299056
 20
144.642635
 30
0.0
  0
VERTEX
  8
CSLAYER1
  6
CONTINUOUS
 62
     7
 10
155.304003
 20
144.800000
 30
0.0
  0
VERTEX
  8
CSLAYER1
  6
CONTINUOUS
 62
     7
 10
155.299056
 20
144.957365
 30
0.0
  0
VERTEX
  8
CSLAYER1
  6
CONTINUOUS
 62
     7
 10
155.284253
 20
145.113531
 30
0.0
  0
VERTEX
  8
CSLAYER1
  6
CONTINUOUS
 62
     7
 10
155.259706
 20
145.267312
 30
0.0
  0
VERTEX
  8
CSLAYER1
  6
CONTINUOUS
 62
     7
 10
155.225603
 20
145.417536
 30
0.0
  0
VERTEX
  8
CSLAYER1
  6
CONTINUOUS
 62
     7
 10
155.182203
 20
145.563061
 30
0.0
  0
VERTEX
  8
CSLAYER1
  6
CONTINUOUS
 62
     7
 10
155.129836
 20
145.702778
 30
0.0
  0
VERTEX
  8
CSLAYER1
  6
CONTINUOUS
 62
     7
 10
155.068901
 20
145.835624
 30
0.0
  0
VERTEX
  8
CSLAYER1
  6
CONTINUOUS
 62
     7
 10
154.999861
 20
145.960589
 30
0.0
  0
VERTEX
  8
CSLAYER1
  6
CONTINUOUS
 62
     7
 10
154.923242
 20
146.076721
 30
0.0
  0
VERTEX
  8
CSLAYER1
  6
CONTINUOUS
 62
     7
 10
154.839627
 20
146.183136
 30
0.0
  0
VERTEX
  8
CSLAYER1
  6
CONTINUOUS
 62
     7
 10
154.749652
 20
146.279025
 30
0.0
  0
VERTEX
  8
CSLAYER1
  6
CONTINUOUS
 62
     7
 10
154.654003
 20
146.363657
 30
0.0
  0
VERTEX
  8
CSLAYER1
  6
CONTINUOUS
 62
     7
 10
154.553407
 20
146.436389
 30
0.0
  0
VERTEX
  8
CSLAYER1
  6
CONTINUOUS
 62
     7
 10
154.448629
 20
146.496667
 30
0.0
  0
VERTEX
  8
CSLAYER1
  6
CONTINUOUS
 62
     7
 10
154.340468
 20
146.544033
 30
0.0
  0
VERTEX
  8
CSLAYER1
  6
CONTINUOUS
 62
     7
 10
154.229746
 20
146.578125
 30
0.0
  0
VERTEX
  8
CSLAYER1
  6
CONTINUOUS
 62
     7
 10
154.117305
 20
146.598685
 30
0.0
  0
VERTEX
  8
CSLAYER1
  6
CONTINUOUS
 62
     7
 10
154.004003
 20
146.605556
 30
0.0
  0
VERTEX
  8
CSLAYER1
  6
CONTINUOUS
 62
     7
 10
153.890700
 20
146.598685
 30
0.0
  0
VERTEX
  8
CSLAYER1
  6
CONTINUOUS
 62
     7
 10
153.778260
 20
146.578125
 30
0.0
  0
VERTEX
  8
CSLAYER1
  6
CONTINUOUS
 62
     7
 10
153.667538
 20
146.544033
 30
0.0
  0
VERTEX
  8
CSLAYER1
  6
CONTINUOUS
 62
     7
 10
153.559377
 20
146.496667
 30
0.0
  0
VERTEX
  8
CSLAYER1
  6
CONTINUOUS
 62
     7
 10
153.454599
 20
146.436389
 30
0.0
  0
VERTEX
  8
CSLAYER1
  6
CONTINUOUS
 62
     7
 10
153.354003
 20
146.363657
 30
0.0
  0
VERTEX
  8
CSLAYER1
  6
CONTINUOUS
 62
     7
 10
153.258354
 20
146.279025
 30
0.0
  0
VERTEX
  8
CSLAYER1
  6
CONTINUOUS
 62
     7
 10
153.168379
 20
146.183136
 30
0.0
  0
VERTEX
  8
CSLAYER1
  6
CONTINUOUS
 62
     7
 10
153.084764
 20
146.076721
 30
0.0
  0
VERTEX
  8
CSLAYER1
  6
CONTINUOUS
 62
     7
 10
153.008145
 20
145.960589
 30
0.0
  0
VERTEX
  8
CSLAYER1
  6
CONTINUOUS
 62
     7
 10
152.939105
 20
145.835624
 30
0.0
  0
VERTEX
  8
CSLAYER1
  6
CONTINUOUS
 62
     7
 10
152.878170
 20
145.702778
 30
0.0
  0
VERTEX
  8
CSLAYER1
  6
CONTINUOUS
 62
     7
 10
152.825803
 20
145.563061
 30
0.0
  0
VERTEX
  8
CSLAYER1
  6
CONTINUOUS
 62
     7
 10
152.782403
 20
145.417536
 30
0.0
  0
VERTEX
  8
CSLAYER1
  6
CONTINUOUS
 62
     7
 10
152.748299
 20
145.267312
 30
0.0
  0
VERTEX
  8
CSLAYER1
  6
CONTINUOUS
 62
     7
 10
152.723753
 20
145.113531
 30
0.0
  0
VERTEX
  8
CSLAYER1
  6
CONTINUOUS
 62
     7
 10
152.708950
 20
144.957365
 30
0.0
  0
VERTEX
  8
CSLAYER1
  6
CONTINUOUS
 62
     7
 10
152.704003
 20
144.800000
 30
0.0
  0
VERTEX
  8
CSLAYER1
  6
CONTINUOUS
 62
     7
 10
152.708950
 20
144.642635
 30
0.0
  0
VERTEX
  8
CSLAYER1
  6
CONTINUOUS
 62
     7
 10
152.723753
 20
144.486469
 30
0.0
  0
VERTEX
  8
CSLAYER1
  6
CONTINUOUS
 62
     7
 10
152.748299
 20
144.332688
 30
0.0
  0
VERTEX
  8
CSLAYER1
  6
CONTINUOUS
 62
     7
 10
152.782403
 20
144.182464
 30
0.0
  0
VERTEX
  8
CSLAYER1
  6
CONTINUOUS
 62
     7
 10
152.825803
 20
144.036939
 30
0.0
  0
VERTEX
  8
CSLAYER1
  6
CONTINUOUS
 62
     7
 10
152.878170
 20
143.897222
 30
0.0
  0
VERTEX
  8
CSLAYER1
  6
CONTINUOUS
 62
     7
 10
152.939105
 20
143.764376
 30
0.0
  0
VERTEX
  8
CSLAYER1
  6
CONTINUOUS
 62
     7
 10
153.008145
 20
143.639411
 30
0.0
  0
VERTEX
  8
CSLAYER1
  6
CONTINUOUS
 62
     7
 10
153.084764
 20
143.523279
 30
0.0
  0
VERTEX
  8
CSLAYER1
  6
CONTINUOUS
 62
     7
 10
153.168379
 20
143.416864
 30
0.0
  0
VERTEX
  8
CSLAYER1
  6
CONTINUOUS
 62
     7
 10
153.258354
 20
143.320975
 30
0.0
  0
VERTEX
  8
CSLAYER1
  6
CONTINUOUS
 62
     7
 10
153.354003
 20
143.236343
 30
0.0
  0
VERTEX
  8
CSLAYER1
  6
CONTINUOUS
 62
     7
 10
153.454599
 20
143.163611
 30
0.0
  0
VERTEX
  8
CSLAYER1
  6
CONTINUOUS
 62
     7
 10
153.559377
 20
143.103333
 30
0.0
  0
VERTEX
  8
CSLAYER1
  6
CONTINUOUS
 62
     7
 10
153.667538
 20
143.055967
 30
0.0
  0
VERTEX
  8
CSLAYER1
  6
CONTINUOUS
 62
     7
 10
153.778260
 20
143.021875
 30
0.0
  0
VERTEX
  8
CSLAYER1
  6
CONTINUOUS
 62
     7
 10
153.890700
 20
143.001315
 30
0.0
  0
VERTEX
  8
CSLAYER1
  6
CONTINUOUS
 62
     7
 10
154.004003
 20
142.994444
 30
0.0
  0
SEQEND
  0
ARC
  8
CSLAYER1
  6
CONTINUOUS
 62
     3
 10
152.992892
 20
139.400000
 40
1.805556
 50
-70.999198
 51
70.999198
  0
LINE
  8
CSLAYER1
  6
CONTINUOUS
 62
     3
 10
153.027337
 20
138.208366
 11
154.381565
 21
140.553957
  0
POLYLINE
  8
CSLAYER1
  6
CONTINUOUS
 62
     7
 66
     1
 10
0.0
 20
0.0
 30
0.0
  0
VERTEX
  8
CSLAYER1
  6
CONTINUOUS
 62
     7
 10
154.004003
 20
137.594444
 30
0.0
  0
VERTEX
  8
CSLAYER1
  6
CONTINUOUS
 62
     7
 10
154.117305
 20
137.601315
 30
0.0
  0
VERTEX
  8
CSLAYER1
  6
CONTINUOUS
 62
     7
 10
154.229746
 20
137.621875
 30
0.0
  0
VERTEX
  8
CSLAYER1
  6
CONTINUOUS
 62
     7
 10
154.340468
 20
137.655967
 30
0.0
  0
VERTEX
  8
CSLAYER1
  6
CONTINUOUS
 62
     7
 10
154.448629
 20
137.703333
 30
0.0
  0
VERTEX
  8
CSLAYER1
  6
CONTINUOUS
 62
     7
 10
154.553407
 20
137.763611
 30
0.0
  0
VERTEX
  8
CSLAYER1
  6
CONTINUOUS
 62
     7
 10
154.654003
 20
137.836343
 30
0.0
  0
VERTEX
  8
CSLAYER1
  6
CONTINUOUS
 62
     7
 10
154.749652
 20
137.920975
 30
0.0
  0
VERTEX
  8
CSLAYER1
  6
CONTINUOUS
 62
     7
 10
154.839627
 20
138.016864
 30
0.0
  0
VERTEX
  8
CSLAYER1
  6
CONTINUOUS
 62
     7
 10
154.923242
 20
138.123279
 30
0.0
  0
VERTEX
  8
CSLAYER1
  6
CONTINUOUS
 62
     7
 10
154.999861
 20
138.239411
 30
0.0
  0
VERTEX
  8
CSLAYER1
  6
CONTINUOUS
 62
     7
 10
155.068901
 20
138.364376
 30
0.0
  0
VERTEX
  8
CSLAYER1
  6
CONTINUOUS
 62
     7
 10
155.129836
 20
138.497222
 30
0.0
  0
VERTEX
  8
CSLAYER1
  6
CONTINUOUS
 62
     7
 10
155.182203
 20
138.636939
 30
0.0
  0
VERTEX
  8
CSLAYER1
  6
CONTINUOUS
 62
     7
 10
155.225603
 20
138.782464
 30
0.0
  0
VERTEX
  8
CSLAYER1
  6
CONTINUOUS
 62
     7
 10
155.259706
 20
138.932688
 30
0.0
  0
VERTEX
  8
CSLAYER1
  6
CONTINUOUS
 62
     7
 10
155.284253
 20
139.086469
 30
0.0
  0
VERTEX
  8
CSLAYER1
  6
CONTINUOUS
 62
     7
 10
155.299056
 20
139.242635
 30
0.0
  0
VERTEX
  8
CSLAYER1
  6
CONTINUOUS
 62
     7
 10
155.304003
 20
139.400000
 30
0.0
  0
VERTEX
  8
CSLAYER1
  6
CONTINUOUS
 62
     7
 10
155.299056
 20
139.557365
 30
0.0
  0
VERTEX
  8
CSLAYER1
  6
CONTINUOUS
 62
     7
 10
155.284253
 20
139.713531
 30
0.0
  0
VERTEX
  8
CSLAYER1
  6
CONTINUOUS
 62
     7
 10
155.259706
 20
139.867312
 30
0.0
  0
VERTEX
  8
CSLAYER1
  6
CONTINUOUS
 62
     7
 10
155.225603
 20
140.017536
 30
0.0
  0
VERTEX
  8
CSLAYER1
  6
CONTINUOUS
 62
     7
 10
155.182203
 20
140.163061
 30
0.0
  0
VERTEX
  8
CSLAYER1
  6
CONTINUOUS
 62
     7
 10
155.129836
 20
140.302778
 30
0.0
  0
VERTEX
  8
CSLAYER1
  6
CONTINUOUS
 62
     7
 10
155.068901
 20
140.435624
 30
0.0
  0
VERTEX
  8
CSLAYER1
  6
CONTINUOUS
 62
     7
 10
154.999861
 20
140.560589
 30
0.0
  0
VERTEX
  8
CSLAYER1
  6
CONTINUOUS
 62
     7
 10
154.923242
 20
140.676721
 30
0.0
  0
VERTEX
  8
CSLAYER1
  6
CONTINUOUS
 62
     7
 10
154.839627
 20
140.783136
 30
0.0
  0
VERTEX
  8
CSLAYER1
  6
CONTINUOUS
 62
     7
 10
154.749652
 20
140.879025
 30
0.0
  0
VERTEX
  8
CSLAYER1
  6
CONTINUOUS
 62
     7
 10
154.654003
 20
140.963657
 30
0.0
  0
VERTEX
  8
CSLAYER1
  6
CONTINUOUS
 62
     7
 10
154.553407
 20
141.036389
 30
0.0
  0
VERTEX
  8
CSLAYER1
  6
CONTINUOUS
 62
     7
 10
154.448629
 20
141.096667
 30
0.0
  0
VERTEX
  8
CSLAYER1
  6
CONTINUOUS
 62
     7
 10
154.340468
 20
141.144033
 30
0.0
  0
VERTEX
  8
CSLAYER1
  6
CONTINUOUS
 62
     7
 10
154.229746
 20
141.178125
 30
0.0
  0
VERTEX
  8
CSLAYER1
  6
CONTINUOUS
 62
     7
 10
154.117305
 20
141.198685
 30
0.0
  0
VERTEX
  8
CSLAYER1
  6
CONTINUOUS
 62
     7
 10
154.004003
 20
141.205556
 30
0.0
  0
VERTEX
  8
CSLAYER1
  6
CONTINUOUS
 62
     7
 10
153.890700
 20
141.198685
 30
0.0
  0
VERTEX
  8
CSLAYER1
  6
CONTINUOUS
 62
     7
 10
153.778260
 20
141.178125
 30
0.0
  0
VERTEX
  8
CSLAYER1
  6
CONTINUOUS
 62
     7
 10
153.667538
 20
141.144033
 30
0.0
  0
VERTEX
  8
CSLAYER1
  6
CONTINUOUS
 62
     7
 10
153.559377
 20
141.096667
 30
0.0
  0
VERTEX
  8
CSLAYER1
  6
CONTINUOUS
 62
     7
 10
153.454599
 20
141.036389
 30
0.0
  0
VERTEX
  8
CSLAYER1
  6
CONTINUOUS
 62
     7
 10
153.354003
 20
140.963657
 30
0.0
  0
VERTEX
  8
CSLAYER1
  6
CONTINUOUS
 62
     7
 10
153.258354
 20
140.879025
 30
0.0
  0
VERTEX
  8
CSLAYER1
  6
CONTINUOUS
 62
     7
 10
153.168379
 20
140.783136
 30
0.0
  0
VERTEX
  8
CSLAYER1
  6
CONTINUOUS
 62
     7
 10
153.084764
 20
140.676721
 30
0.0
  0
VERTEX
  8
CSLAYER1
  6
CONTINUOUS
 62
     7
 10
153.008145
 20
140.560589
 30
0.0
  0
VERTEX
  8
CSLAYER1
  6
CONTINUOUS
 62
     7
 10
152.939105
 20
140.435624
 30
0.0
  0
VERTEX
  8
CSLAYER1
  6
CONTINUOUS
 62
     7
 10
152.878170
 20
140.302778
 30
0.0
  0
VERTEX
  8
CSLAYER1
  6
CONTINUOUS
 62
     7
 10
152.825803
 20
140.163061
 30
0.0
  0
VERTEX
  8
CSLAYER1
  6
CONTINUOUS
 62
     7
 10
152.782403
 20
140.017536
 30
0.0
  0
VERTEX
  8
CSLAYER1
  6
CONTINUOUS
 62
     7
 10
152.748299
 20
139.867312
 30
0.0
  0
VERTEX
  8
CSLAYER1
  6
CONTINUOUS
 62
     7
 10
152.723753
 20
139.713531
 30
0.0
  0
VERTEX
  8
CSLAYER1
  6
CONTINUOUS
 62
     7
 10
152.708950
 20
139.557365
 30
0.0
  0
VERTEX
  8
CSLAYER1
  6
CONTINUOUS
 62
     7
 10
152.704003
 20
139.400000
 30
0.0
  0
VERTEX
  8
CSLAYER1
  6
CONTINUOUS
 62
     7
 10
152.708950
 20
139.242635
 30
0.0
  0
VERTEX
  8
CSLAYER1
  6
CONTINUOUS
 62
     7
 10
152.723753
 20
139.086469
 30
0.0
  0
VERTEX
  8
CSLAYER1
  6
CONTINUOUS
 62
     7
 10
152.748299
 20
138.932688
 30
0.0
  0
VERTEX
  8
CSLAYER1
  6
CONTINUOUS
 62
     7
 10
152.782403
 20
138.782464
 30
0.0
  0
VERTEX
  8
CSLAYER1
  6
CONTINUOUS
 62
     7
 10
152.825803
 20
138.636939
 30
0.0
  0
VERTEX
  8
CSLAYER1
  6
CONTINUOUS
 62
     7
 10
152.878170
 20
138.497222
 30
0.0
  0
VERTEX
  8
CSLAYER1
  6
CONTINUOUS
 62
     7
 10
152.939105
 20
138.364376
 30
0.0
  0
VERTEX
  8
CSLAYER1
  6
CONTINUOUS
 62
     7
 10
153.008145
 20
138.239411
 30
0.0
  0
VERTEX
  8
CSLAYER1
  6
CONTINUOUS
 62
     7
 10
153.084764
 20
138.123279
 30
0.0
  0
VERTEX
  8
CSLAYER1
  6
CONTINUOUS
 62
     7
 10
153.168379
 20
138.016864
 30
0.0
  0
VERTEX
  8
CSLAYER1
  6
CONTINUOUS
 62
     7
 10
153.258354
 20
137.920975
 30
0.0
  0
VERTEX
  8
CSLAYER1
  6
CONTINUOUS
 62
     7
 10
153.354003
 20
137.836343
 30
0.0
  0
VERTEX
  8
CSLAYER1
  6
CONTINUOUS
 62
     7
 10
153.454599
 20
137.763611
 30
0.0
  0
VERTEX
  8
CSLAYER1
  6
CONTINUOUS
 62
     7
 10
153.559377
 20
137.703333
 30
0.0
  0
VERTEX
  8
CSLAYER1
  6
CONTINUOUS
 62
     7
 10
153.667538
 20
137.655967
 30
0.0
  0
VERTEX
  8
CSLAYER1
  6
CONTINUOUS
 62
     7
 10
153.778260
 20
137.621875
 30
0.0
  0
VERTEX
  8
CSLAYER1
  6
CONTINUOUS
 62
     7
 10
153.890700
 20
137.601315
 30
0.0
  0
VERTEX
  8
CSLAYER1
  6
CONTINUOUS
 62
     7
 10
154.004003
 20
137.594444
 30
0.0
  0
SEQEND
  0
ARC
  8
CSLAYER1
  6
CONTINUOUS
 62
     3
 10
152.992892
 20
134.000000
 40
1.805556
 50
-70.999198
 51
70.999198
  0
LINE
  8
CSLAYER1
  6
CONTINUOUS
 62
     3
 10
153.027337
 20
132.808366
 11
154.381565
 21
135.153957
  0
POLYLINE
  8
CSLAYER1
  6
CONTINUOUS
 62
     7
 66
     1
 10
0.0
 20
0.0
 30
0.0
  0
VERTEX
  8
CSLAYER1
  6
CONTINUOUS
 62
     7
 10
154.004003
 20
132.194444
 30
0.0
  0
VERTEX
  8
CSLAYER1
  6
CONTINUOUS
 62
     7
 10
154.117305
 20
132.201315
 30
0.0
  0
VERTEX
  8
CSLAYER1
  6
CONTINUOUS
 62
     7
 10
154.229746
 20
132.221875
 30
0.0
  0
VERTEX
  8
CSLAYER1
  6
CONTINUOUS
 62
     7
 10
154.340468
 20
132.255967
 30
0.0
  0
VERTEX
  8
CSLAYER1
  6
CONTINUOUS
 62
     7
 10
154.448629
 20
132.303333
 30
0.0
  0
VERTEX
  8
CSLAYER1
  6
CONTINUOUS
 62
     7
 10
154.553407
 20
132.363611
 30
0.0
  0
VERTEX
  8
CSLAYER1
  6
CONTINUOUS
 62
     7
 10
154.654003
 20
132.436343
 30
0.0
  0
VERTEX
  8
CSLAYER1
  6
CONTINUOUS
 62
     7
 10
154.749652
 20
132.520975
 30
0.0
  0
VERTEX
  8
CSLAYER1
  6
CONTINUOUS
 62
     7
 10
154.839627
 20
132.616864
 30
0.0
  0
VERTEX
  8
CSLAYER1
  6
CONTINUOUS
 62
     7
 10
154.923242
 20
132.723279
 30
0.0
  0
VERTEX
  8
CSLAYER1
  6
CONTINUOUS
 62
     7
 10
154.999861
 20
132.839411
 30
0.0
  0
VERTEX
  8
CSLAYER1
  6
CONTINUOUS
 62
     7
 10
155.068901
 20
132.964376
 30
0.0
  0
VERTEX
  8
CSLAYER1
  6
CONTINUOUS
 62
     7
 10
155.129836
 20
133.097222
 30
0.0
  0
VERTEX
  8
CSLAYER1
  6
CONTINUOUS
 62
     7
 10
155.182203
 20
133.236939
 30
0.0
  0
VERTEX
  8
CSLAYER1
  6
CONTINUOUS
 62
     7
 10
155.225603
 20
133.382464
 30
0.0
  0
VERTEX
  8
CSLAYER1
  6
CONTINUOUS
 62
     7
 10
155.259706
 20
133.532688
 30
0.0
  0
VERTEX
  8
CSLAYER1
  6
CONTINUOUS
 62
     7
 10
155.284253
 20
133.686469
 30
0.0
  0
VERTEX
  8
CSLAYER1
  6
CONTINUOUS
 62
     7
 10
155.299056
 20
133.842635
 30
0.0
  0
VERTEX
  8
CSLAYER1
  6
CONTINUOUS
 62
     7
 10
155.304003
 20
134.000000
 30
0.0
  0
VERTEX
  8
CSLAYER1
  6
CONTINUOUS
 62
     7
 10
155.299056
 20
134.157365
 30
0.0
  0
VERTEX
  8
CSLAYER1
  6
CONTINUOUS
 62
     7
 10
155.284253
 20
134.313531
 30
0.0
  0
VERTEX
  8
CSLAYER1
  6
CONTINUOUS
 62
     7
 10
155.259706
 20
134.467312
 30
0.0
  0
VERTEX
  8
CSLAYER1
  6
CONTINUOUS
 62
     7
 10
155.225603
 20
134.617536
 30
0.0
  0
VERTEX
  8
CSLAYER1
  6
CONTINUOUS
 62
     7
 10
155.182203
 20
134.763061
 30
0.0
  0
VERTEX
  8
CSLAYER1
  6
CONTINUOUS
 62
     7
 10
155.129836
 20
134.902778
 30
0.0
  0
VERTEX
  8
CSLAYER1
  6
CONTINUOUS
 62
     7
 10
155.068901
 20
135.035624
 30
0.0
  0
VERTEX
  8
CSLAYER1
  6
CONTINUOUS
 62
     7
 10
154.999861
 20
135.160589
 30
0.0
  0
VERTEX
  8
CSLAYER1
  6
CONTINUOUS
 62
     7
 10
154.923242
 20
135.276721
 30
0.0
  0
VERTEX
  8
CSLAYER1
  6
CONTINUOUS
 62
     7
 10
154.839627
 20
135.383136
 30
0.0
  0
VERTEX
  8
CSLAYER1
  6
CONTINUOUS
 62
     7
 10
154.749652
 20
135.479025
 30
0.0
  0
VERTEX
  8
CSLAYER1
  6
CONTINUOUS
 62
     7
 10
154.654003
 20
135.563657
 30
0.0
  0
VERTEX
  8
CSLAYER1
  6
CONTINUOUS
 62
     7
 10
154.553407
 20
135.636389
 30
0.0
  0
VERTEX
  8
CSLAYER1
  6
CONTINUOUS
 62
     7
 10
154.448629
 20
135.696667
 30
0.0
  0
VERTEX
  8
CSLAYER1
  6
CONTINUOUS
 62
     7
 10
154.340468
 20
135.744033
 30
0.0
  0
VERTEX
  8
CSLAYER1
  6
CONTINUOUS
 62
     7
 10
154.229746
 20
135.778125
 30
0.0
  0
VERTEX
  8
CSLAYER1
  6
CONTINUOUS
 62
     7
 10
154.117305
 20
135.798685
 30
0.0
  0
VERTEX
  8
CSLAYER1
  6
CONTINUOUS
 62
     7
 10
154.004003
 20
135.805556
 30
0.0
  0
VERTEX
  8
CSLAYER1
  6
CONTINUOUS
 62
     7
 10
153.890700
 20
135.798685
 30
0.0
  0
VERTEX
  8
CSLAYER1
  6
CONTINUOUS
 62
     7
 10
153.778260
 20
135.778125
 30
0.0
  0
VERTEX
  8
CSLAYER1
  6
CONTINUOUS
 62
     7
 10
153.667538
 20
135.744033
 30
0.0
  0
VERTEX
  8
CSLAYER1
  6
CONTINUOUS
 62
     7
 10
153.559377
 20
135.696667
 30
0.0
  0
VERTEX
  8
CSLAYER1
  6
CONTINUOUS
 62
     7
 10
153.454599
 20
135.636389
 30
0.0
  0
VERTEX
  8
CSLAYER1
  6
CONTINUOUS
 62
     7
 10
153.354003
 20
135.563657
 30
0.0
  0
VERTEX
  8
CSLAYER1
  6
CONTINUOUS
 62
     7
 10
153.258354
 20
135.479025
 30
0.0
  0
VERTEX
  8
CSLAYER1
  6
CONTINUOUS
 62
     7
 10
153.168379
 20
135.383136
 30
0.0
  0
VERTEX
  8
CSLAYER1
  6
CONTINUOUS
 62
     7
 10
153.084764
 20
135.276721
 30
0.0
  0
VERTEX
  8
CSLAYER1
  6
CONTINUOUS
 62
     7
 10
153.008145
 20
135.160589
 30
0.0
  0
VERTEX
  8
CSLAYER1
  6
CONTINUOUS
 62
     7
 10
152.939105
 20
135.035624
 30
0.0
  0
VERTEX
  8
CSLAYER1
  6
CONTINUOUS
 62
     7
 10
152.878170
 20
134.902778
 30
0.0
  0
VERTEX
  8
CSLAYER1
  6
CONTINUOUS
 62
     7
 10
152.825803
 20
134.763061
 30
0.0
  0
VERTEX
  8
CSLAYER1
  6
CONTINUOUS
 62
     7
 10
152.782403
 20
134.617536
 30
0.0
  0
VERTEX
  8
CSLAYER1
  6
CONTINUOUS
 62
     7
 10
152.748299
 20
134.467312
 30
0.0
  0
VERTEX
  8
CSLAYER1
  6
CONTINUOUS
 62
     7
 10
152.723753
 20
134.313531
 30
0.0
  0
VERTEX
  8
CSLAYER1
  6
CONTINUOUS
 62
     7
 10
152.708950
 20
134.157365
 30
0.0
  0
VERTEX
  8
CSLAYER1
  6
CONTINUOUS
 62
     7
 10
152.704003
 20
134.000000
 30
0.0
  0
VERTEX
  8
CSLAYER1
  6
CONTINUOUS
 62
     7
 10
152.708950
 20
133.842635
 30
0.0
  0
VERTEX
  8
CSLAYER1
  6
CONTINUOUS
 62
     7
 10
152.723753
 20
133.686469
 30
0.0
  0
VERTEX
  8
CSLAYER1
  6
CONTINUOUS
 62
     7
 10
152.748299
 20
133.532688
 30
0.0
  0
VERTEX
  8
CSLAYER1
  6
CONTINUOUS
 62
     7
 10
152.782403
 20
133.382464
 30
0.0
  0
VERTEX
  8
CSLAYER1
  6
CONTINUOUS
 62
     7
 10
152.825803
 20
133.236939
 30
0.0
  0
VERTEX
  8
CSLAYER1
  6
CONTINUOUS
 62
     7
 10
152.878170
 20
133.097222
 30
0.0
  0
VERTEX
  8
CSLAYER1
  6
CONTINUOUS
 62
     7
 10
152.939105
 20
132.964376
 30
0.0
  0
VERTEX
  8
CSLAYER1
  6
CONTINUOUS
 62
     7
 10
153.008145
 20
132.839411
 30
0.0
  0
VERTEX
  8
CSLAYER1
  6
CONTINUOUS
 62
     7
 10
153.084764
 20
132.723279
 30
0.0
  0
VERTEX
  8
CSLAYER1
  6
CONTINUOUS
 62
     7
 10
153.168379
 20
132.616864
 30
0.0
  0
VERTEX
  8
CSLAYER1
  6
CONTINUOUS
 62
     7
 10
153.258354
 20
132.520975
 30
0.0
  0
VERTEX
  8
CSLAYER1
  6
CONTINUOUS
 62
     7
 10
153.354003
 20
132.436343
 30
0.0
  0
VERTEX
  8
CSLAYER1
  6
CONTINUOUS
 62
     7
 10
153.454599
 20
132.363611
 30
0.0
  0
VERTEX
  8
CSLAYER1
  6
CONTINUOUS
 62
     7
 10
153.559377
 20
132.303333
 30
0.0
  0
VERTEX
  8
CSLAYER1
  6
CONTINUOUS
 62
     7
 10
153.667538
 20
132.255967
 30
0.0
  0
VERTEX
  8
CSLAYER1
  6
CONTINUOUS
 62
     7
 10
153.778260
 20
132.221875
 30
0.0
  0
VERTEX
  8
CSLAYER1
  6
CONTINUOUS
 62
     7
 10
153.890700
 20
132.201315
 30
0.0
  0
VERTEX
  8
CSLAYER1
  6
CONTINUOUS
 62
     7
 10
154.004003
 20
132.194444
 30
0.0
  0
SEQEND
  0
ARC
  8
CSLAYER1
  6
CONTINUOUS
 62
     3
 10
152.992892
 20
128.600000
 40
1.805556
 50
-70.999198
 51
70.999198
  0
LINE
  8
CSLAYER1
  6
CONTINUOUS
 62
     3
 10
153.027337
 20
127.408366
 11
154.381565
 21
129.753957
  0
POLYLINE
  8
CSLAYER1
  6
CONTINUOUS
 62
     7
 66
     1
 10
0.0
 20
0.0
 30
0.0
  0
VERTEX
  8
CSLAYER1
  6
CONTINUOUS
 62
     7
 10
154.004003
 20
126.794444
 30
0.0
  0
VERTEX
  8
CSLAYER1
  6
CONTINUOUS
 62
     7
 10
154.117305
 20
126.801315
 30
0.0
  0
VERTEX
  8
CSLAYER1
  6
CONTINUOUS
 62
     7
 10
154.229746
 20
126.821875
 30
0.0
  0
VERTEX
  8
CSLAYER1
  6
CONTINUOUS
 62
     7
 10
154.340468
 20
126.855967
 30
0.0
  0
VERTEX
  8
CSLAYER1
  6
CONTINUOUS
 62
     7
 10
154.448629
 20
126.903333
 30
0.0
  0
VERTEX
  8
CSLAYER1
  6
CONTINUOUS
 62
     7
 10
154.553407
 20
126.963611
 30
0.0
  0
VERTEX
  8
CSLAYER1
  6
CONTINUOUS
 62
     7
 10
154.654003
 20
127.036343
 30
0.0
  0
VERTEX
  8
CSLAYER1
  6
CONTINUOUS
 62
     7
 10
154.749652
 20
127.120975
 30
0.0
  0
VERTEX
  8
CSLAYER1
  6
CONTINUOUS
 62
     7
 10
154.839627
 20
127.216864
 30
0.0
  0
VERTEX
  8
CSLAYER1
  6
CONTINUOUS
 62
     7
 10
154.923242
 20
127.323279
 30
0.0
  0
VERTEX
  8
CSLAYER1
  6
CONTINUOUS
 62
     7
 10
154.999861
 20
127.439411
 30
0.0
  0
VERTEX
  8
CSLAYER1
  6
CONTINUOUS
 62
     7
 10
155.068901
 20
127.564376
 30
0.0
  0
VERTEX
  8
CSLAYER1
  6
CONTINUOUS
 62
     7
 10
155.129836
 20
127.697222
 30
0.0
  0
VERTEX
  8
CSLAYER1
  6
CONTINUOUS
 62
     7
 10
155.182203
 20
127.836939
 30
0.0
  0
VERTEX
  8
CSLAYER1
  6
CONTINUOUS
 62
     7
 10
155.225603
 20
127.982464
 30
0.0
  0
VERTEX
  8
CSLAYER1
  6
CONTINUOUS
 62
     7
 10
155.259706
 20
128.132688
 30
0.0
  0
VERTEX
  8
CSLAYER1
  6
CONTINUOUS
 62
     7
 10
155.284253
 20
128.286469
 30
0.0
  0
VERTEX
  8
CSLAYER1
  6
CONTINUOUS
 62
     7
 10
155.299056
 20
128.442635
 30
0.0
  0
VERTEX
  8
CSLAYER1
  6
CONTINUOUS
 62
     7
 10
155.304003
 20
128.600000
 30
0.0
  0
VERTEX
  8
CSLAYER1
  6
CONTINUOUS
 62
     7
 10
155.299056
 20
128.757365
 30
0.0
  0
VERTEX
  8
CSLAYER1
  6
CONTINUOUS
 62
     7
 10
155.284253
 20
128.913531
 30
0.0
  0
VERTEX
  8
CSLAYER1
  6
CONTINUOUS
 62
     7
 10
155.259706
 20
129.067312
 30
0.0
  0
VERTEX
  8
CSLAYER1
  6
CONTINUOUS
 62
     7
 10
155.225603
 20
129.217536
 30
0.0
  0
VERTEX
  8
CSLAYER1
  6
CONTINUOUS
 62
     7
 10
155.182203
 20
129.363061
 30
0.0
  0
VERTEX
  8
CSLAYER1
  6
CONTINUOUS
 62
     7
 10
155.129836
 20
129.502778
 30
0.0
  0
VERTEX
  8
CSLAYER1
  6
CONTINUOUS
 62
     7
 10
155.068901
 20
129.635624
 30
0.0
  0
VERTEX
  8
CSLAYER1
  6
CONTINUOUS
 62
     7
 10
154.999861
 20
129.760589
 30
0.0
  0
VERTEX
  8
CSLAYER1
  6
CONTINUOUS
 62
     7
 10
154.923242
 20
129.876721
 30
0.0
  0
VERTEX
  8
CSLAYER1
  6
CONTINUOUS
 62
     7
 10
154.839627
 20
129.983136
 30
0.0
  0
VERTEX
  8
CSLAYER1
  6
CONTINUOUS
 62
     7
 10
154.749652
 20
130.079025
 30
0.0
  0
VERTEX
  8
CSLAYER1
  6
CONTINUOUS
 62
     7
 10
154.654003
 20
130.163657
 30
0.0
  0
VERTEX
  8
CSLAYER1
  6
CONTINUOUS
 62
     7
 10
154.553407
 20
130.236389
 30
0.0
  0
VERTEX
  8
CSLAYER1
  6
CONTINUOUS
 62
     7
 10
154.448629
 20
130.296667
 30
0.0
  0
VERTEX
  8
CSLAYER1
  6
CONTINUOUS
 62
     7
 10
154.340468
 20
130.344033
 30
0.0
  0
VERTEX
  8
CSLAYER1
  6
CONTINUOUS
 62
     7
 10
154.229746
 20
130.378125
 30
0.0
  0
VERTEX
  8
CSLAYER1
  6
CONTINUOUS
 62
     7
 10
154.117305
 20
130.398685
 30
0.0
  0
VERTEX
  8
CSLAYER1
  6
CONTINUOUS
 62
     7
 10
154.004003
 20
130.405556
 30
0.0
  0
VERTEX
  8
CSLAYER1
  6
CONTINUOUS
 62
     7
 10
153.890700
 20
130.398685
 30
0.0
  0
VERTEX
  8
CSLAYER1
  6
CONTINUOUS
 62
     7
 10
153.778260
 20
130.378125
 30
0.0
  0
VERTEX
  8
CSLAYER1
  6
CONTINUOUS
 62
     7
 10
153.667538
 20
130.344033
 30
0.0
  0
VERTEX
  8
CSLAYER1
  6
CONTINUOUS
 62
     7
 10
153.559377
 20
130.296667
 30
0.0
  0
VERTEX
  8
CSLAYER1
  6
CONTINUOUS
 62
     7
 10
153.454599
 20
130.236389
 30
0.0
  0
VERTEX
  8
CSLAYER1
  6
CONTINUOUS
 62
     7
 10
153.354003
 20
130.163657
 30
0.0
  0
VERTEX
  8
CSLAYER1
  6
CONTINUOUS
 62
     7
 10
153.258354
 20
130.079025
 30
0.0
  0
VERTEX
  8
CSLAYER1
  6
CONTINUOUS
 62
     7
 10
153.168379
 20
129.983136
 30
0.0
  0
VERTEX
  8
CSLAYER1
  6
CONTINUOUS
 62
     7
 10
153.084764
 20
129.876721
 30
0.0
  0
VERTEX
  8
CSLAYER1
  6
CONTINUOUS
 62
     7
 10
153.008145
 20
129.760589
 30
0.0
  0
VERTEX
  8
CSLAYER1
  6
CONTINUOUS
 62
     7
 10
152.939105
 20
129.635624
 30
0.0
  0
VERTEX
  8
CSLAYER1
  6
CONTINUOUS
 62
     7
 10
152.878170
 20
129.502778
 30
0.0
  0
VERTEX
  8
CSLAYER1
  6
CONTINUOUS
 62
     7
 10
152.825803
 20
129.363061
 30
0.0
  0
VERTEX
  8
CSLAYER1
  6
CONTINUOUS
 62
     7
 10
152.782403
 20
129.217536
 30
0.0
  0
VERTEX
  8
CSLAYER1
  6
CONTINUOUS
 62
     7
 10
152.748299
 20
129.067312
 30
0.0
  0
VERTEX
  8
CSLAYER1
  6
CONTINUOUS
 62
     7
 10
152.723753
 20
128.913531
 30
0.0
  0
VERTEX
  8
CSLAYER1
  6
CONTINUOUS
 62
     7
 10
152.708950
 20
128.757365
 30
0.0
  0
VERTEX
  8
CSLAYER1
  6
CONTINUOUS
 62
     7
 10
152.704003
 20
128.600000
 30
0.0
  0
VERTEX
  8
CSLAYER1
  6
CONTINUOUS
 62
     7
 10
152.708950
 20
128.442635
 30
0.0
  0
VERTEX
  8
CSLAYER1
  6
CONTINUOUS
 62
     7
 10
152.723753
 20
128.286469
 30
0.0
  0
VERTEX
  8
CSLAYER1
  6
CONTINUOUS
 62
     7
 10
152.748299
 20
128.132688
 30
0.0
  0
VERTEX
  8
CSLAYER1
  6
CONTINUOUS
 62
     7
 10
152.782403
 20
127.982464
 30
0.0
  0
VERTEX
  8
CSLAYER1
  6
CONTINUOUS
 62
     7
 10
152.825803
 20
127.836939
 30
0.0
  0
VERTEX
  8
CSLAYER1
  6
CONTINUOUS
 62
     7
 10
152.878170
 20
127.697222
 30
0.0
  0
VERTEX
  8
CSLAYER1
  6
CONTINUOUS
 62
     7
 10
152.939105
 20
127.564376
 30
0.0
  0
VERTEX
  8
CSLAYER1
  6
CONTINUOUS
 62
     7
 10
153.008145
 20
127.439411
 30
0.0
  0
VERTEX
  8
CSLAYER1
  6
CONTINUOUS
 62
     7
 10
153.084764
 20
127.323279
 30
0.0
  0
VERTEX
  8
CSLAYER1
  6
CONTINUOUS
 62
     7
 10
153.168379
 20
127.216864
 30
0.0
  0
VERTEX
  8
CSLAYER1
  6
CONTINUOUS
 62
     7
 10
153.258354
 20
127.120975
 30
0.0
  0
VERTEX
  8
CSLAYER1
  6
CONTINUOUS
 62
     7
 10
153.354003
 20
127.036343
 30
0.0
  0
VERTEX
  8
CSLAYER1
  6
CONTINUOUS
 62
     7
 10
153.454599
 20
126.963611
 30
0.0
  0
VERTEX
  8
CSLAYER1
  6
CONTINUOUS
 62
     7
 10
153.559377
 20
126.903333
 30
0.0
  0
VERTEX
  8
CSLAYER1
  6
CONTINUOUS
 62
     7
 10
153.667538
 20
126.855967
 30
0.0
  0
VERTEX
  8
CSLAYER1
  6
CONTINUOUS
 62
     7
 10
153.778260
 20
126.821875
 30
0.0
  0
VERTEX
  8
CSLAYER1
  6
CONTINUOUS
 62
     7
 10
153.890700
 20
126.801315
 30
0.0
  0
VERTEX
  8
CSLAYER1
  6
CONTINUOUS
 62
     7
 10
154.004003
 20
126.794444
 30
0.0
  0
SEQEND
  0
ARC
  8
CSLAYER1
  6
CONTINUOUS
 62
     3
 10
152.992892
 20
123.200000
 40
1.805556
 50
-70.999198
 51
70.999198
  0
LINE
  8
CSLAYER1
  6
CONTINUOUS
 62
     3
 10
153.027337
 20
122.008366
 11
154.381565
 21
124.353957
  0
POLYLINE
  8
CSLAYER1
  6
CONTINUOUS
 62
     7
 66
     1
 10
0.0
 20
0.0
 30
0.0
  0
VERTEX
  8
CSLAYER1
  6
CONTINUOUS
 62
     7
 10
154.004003
 20
121.394444
 30
0.0
  0
VERTEX
  8
CSLAYER1
  6
CONTINUOUS
 62
     7
 10
154.117305
 20
121.401315
 30
0.0
  0
VERTEX
  8
CSLAYER1
  6
CONTINUOUS
 62
     7
 10
154.229746
 20
121.421875
 30
0.0
  0
VERTEX
  8
CSLAYER1
  6
CONTINUOUS
 62
     7
 10
154.340468
 20
121.455967
 30
0.0
  0
VERTEX
  8
CSLAYER1
  6
CONTINUOUS
 62
     7
 10
154.448629
 20
121.503333
 30
0.0
  0
VERTEX
  8
CSLAYER1
  6
CONTINUOUS
 62
     7
 10
154.553407
 20
121.563611
 30
0.0
  0
VERTEX
  8
CSLAYER1
  6
CONTINUOUS
 62
     7
 10
154.654003
 20
121.636343
 30
0.0
  0
VERTEX
  8
CSLAYER1
  6
CONTINUOUS
 62
     7
 10
154.749652
 20
121.720975
 30
0.0
  0
VERTEX
  8
CSLAYER1
  6
CONTINUOUS
 62
     7
 10
154.839627
 20
121.816864
 30
0.0
  0
VERTEX
  8
CSLAYER1
  6
CONTINUOUS
 62
     7
 10
154.923242
 20
121.923279
 30
0.0
  0
VERTEX
  8
CSLAYER1
  6
CONTINUOUS
 62
     7
 10
154.999861
 20
122.039411
 30
0.0
  0
VERTEX
  8
CSLAYER1
  6
CONTINUOUS
 62
     7
 10
155.068901
 20
122.164376
 30
0.0
  0
VERTEX
  8
CSLAYER1
  6
CONTINUOUS
 62
     7
 10
155.129836
 20
122.297222
 30
0.0
  0
VERTEX
  8
CSLAYER1
  6
CONTINUOUS
 62
     7
 10
155.182203
 20
122.436939
 30
0.0
  0
VERTEX
  8
CSLAYER1
  6
CONTINUOUS
 62
     7
 10
155.225603
 20
122.582464
 30
0.0
  0
VERTEX
  8
CSLAYER1
  6
CONTINUOUS
 62
     7
 10
155.259706
 20
122.732688
 30
0.0
  0
VERTEX
  8
CSLAYER1
  6
CONTINUOUS
 62
     7
 10
155.284253
 20
122.886469
 30
0.0
  0
VERTEX
  8
CSLAYER1
  6
CONTINUOUS
 62
     7
 10
155.299056
 20
123.042635
 30
0.0
  0
VERTEX
  8
CSLAYER1
  6
CONTINUOUS
 62
     7
 10
155.304003
 20
123.200000
 30
0.0
  0
VERTEX
  8
CSLAYER1
  6
CONTINUOUS
 62
     7
 10
155.299056
 20
123.357365
 30
0.0
  0
VERTEX
  8
CSLAYER1
  6
CONTINUOUS
 62
     7
 10
155.284253
 20
123.513531
 30
0.0
  0
VERTEX
  8
CSLAYER1
  6
CONTINUOUS
 62
     7
 10
155.259706
 20
123.667312
 30
0.0
  0
VERTEX
  8
CSLAYER1
  6
CONTINUOUS
 62
     7
 10
155.225603
 20
123.817536
 30
0.0
  0
VERTEX
  8
CSLAYER1
  6
CONTINUOUS
 62
     7
 10
155.182203
 20
123.963061
 30
0.0
  0
VERTEX
  8
CSLAYER1
  6
CONTINUOUS
 62
     7
 10
155.129836
 20
124.102778
 30
0.0
  0
VERTEX
  8
CSLAYER1
  6
CONTINUOUS
 62
     7
 10
155.068901
 20
124.235624
 30
0.0
  0
VERTEX
  8
CSLAYER1
  6
CONTINUOUS
 62
     7
 10
154.999861
 20
124.360589
 30
0.0
  0
VERTEX
  8
CSLAYER1
  6
CONTINUOUS
 62
     7
 10
154.923242
 20
124.476721
 30
0.0
  0
VERTEX
  8
CSLAYER1
  6
CONTINUOUS
 62
     7
 10
154.839627
 20
124.583136
 30
0.0
  0
VERTEX
  8
CSLAYER1
  6
CONTINUOUS
 62
     7
 10
154.749652
 20
124.679025
 30
0.0
  0
VERTEX
  8
CSLAYER1
  6
CONTINUOUS
 62
     7
 10
154.654003
 20
124.763657
 30
0.0
  0
VERTEX
  8
CSLAYER1
  6
CONTINUOUS
 62
     7
 10
154.553407
 20
124.836389
 30
0.0
  0
VERTEX
  8
CSLAYER1
  6
CONTINUOUS
 62
     7
 10
154.448629
 20
124.896667
 30
0.0
  0
VERTEX
  8
CSLAYER1
  6
CONTINUOUS
 62
     7
 10
154.340468
 20
124.944033
 30
0.0
  0
VERTEX
  8
CSLAYER1
  6
CONTINUOUS
 62
     7
 10
154.229746
 20
124.978125
 30
0.0
  0
VERTEX
  8
CSLAYER1
  6
CONTINUOUS
 62
     7
 10
154.117305
 20
124.998685
 30
0.0
  0
VERTEX
  8
CSLAYER1
  6
CONTINUOUS
 62
     7
 10
154.004003
 20
125.005556
 30
0.0
  0
VERTEX
  8
CSLAYER1
  6
CONTINUOUS
 62
     7
 10
153.890700
 20
124.998685
 30
0.0
  0
VERTEX
  8
CSLAYER1
  6
CONTINUOUS
 62
     7
 10
153.778260
 20
124.978125
 30
0.0
  0
VERTEX
  8
CSLAYER1
  6
CONTINUOUS
 62
     7
 10
153.667538
 20
124.944033
 30
0.0
  0
VERTEX
  8
CSLAYER1
  6
CONTINUOUS
 62
     7
 10
153.559377
 20
124.896667
 30
0.0
  0
VERTEX
  8
CSLAYER1
  6
CONTINUOUS
 62
     7
 10
153.454599
 20
124.836389
 30
0.0
  0
VERTEX
  8
CSLAYER1
  6
CONTINUOUS
 62
     7
 10
153.354003
 20
124.763657
 30
0.0
  0
VERTEX
  8
CSLAYER1
  6
CONTINUOUS
 62
     7
 10
153.258354
 20
124.679025
 30
0.0
  0
VERTEX
  8
CSLAYER1
  6
CONTINUOUS
 62
     7
 10
153.168379
 20
124.583136
 30
0.0
  0
VERTEX
  8
CSLAYER1
  6
CONTINUOUS
 62
     7
 10
153.084764
 20
124.476721
 30
0.0
  0
VERTEX
  8
CSLAYER1
  6
CONTINUOUS
 62
     7
 10
153.008145
 20
124.360589
 30
0.0
  0
VERTEX
  8
CSLAYER1
  6
CONTINUOUS
 62
     7
 10
152.939105
 20
124.235624
 30
0.0
  0
VERTEX
  8
CSLAYER1
  6
CONTINUOUS
 62
     7
 10
152.878170
 20
124.102778
 30
0.0
  0
VERTEX
  8
CSLAYER1
  6
CONTINUOUS
 62
     7
 10
152.825803
 20
123.963061
 30
0.0
  0
VERTEX
  8
CSLAYER1
  6
CONTINUOUS
 62
     7
 10
152.782403
 20
123.817536
 30
0.0
  0
VERTEX
  8
CSLAYER1
  6
CONTINUOUS
 62
     7
 10
152.748299
 20
123.667312
 30
0.0
  0
VERTEX
  8
CSLAYER1
  6
CONTINUOUS
 62
     7
 10
152.723753
 20
123.513531
 30
0.0
  0
VERTEX
  8
CSLAYER1
  6
CONTINUOUS
 62
     7
 10
152.708950
 20
123.357365
 30
0.0
  0
VERTEX
  8
CSLAYER1
  6
CONTINUOUS
 62
     7
 10
152.704003
 20
123.200000
 30
0.0
  0
VERTEX
  8
CSLAYER1
  6
CONTINUOUS
 62
     7
 10
152.708950
 20
123.042635
 30
0.0
  0
VERTEX
  8
CSLAYER1
  6
CONTINUOUS
 62
     7
 10
152.723753
 20
122.886469
 30
0.0
  0
VERTEX
  8
CSLAYER1
  6
CONTINUOUS
 62
     7
 10
152.748299
 20
122.732688
 30
0.0
  0
VERTEX
  8
CSLAYER1
  6
CONTINUOUS
 62
     7
 10
152.782403
 20
122.582464
 30
0.0
  0
VERTEX
  8
CSLAYER1
  6
CONTINUOUS
 62
     7
 10
152.825803
 20
122.436939
 30
0.0
  0
VERTEX
  8
CSLAYER1
  6
CONTINUOUS
 62
     7
 10
152.878170
 20
122.297222
 30
0.0
  0
VERTEX
  8
CSLAYER1
  6
CONTINUOUS
 62
     7
 10
152.939105
 20
122.164376
 30
0.0
  0
VERTEX
  8
CSLAYER1
  6
CONTINUOUS
 62
     7
 10
153.008145
 20
122.039411
 30
0.0
  0
VERTEX
  8
CSLAYER1
  6
CONTINUOUS
 62
     7
 10
153.084764
 20
121.923279
 30
0.0
  0
VERTEX
  8
CSLAYER1
  6
CONTINUOUS
 62
     7
 10
153.168379
 20
121.816864
 30
0.0
  0
VERTEX
  8
CSLAYER1
  6
CONTINUOUS
 62
     7
 10
153.258354
 20
121.720975
 30
0.0
  0
VERTEX
  8
CSLAYER1
  6
CONTINUOUS
 62
     7
 10
153.354003
 20
121.636343
 30
0.0
  0
VERTEX
  8
CSLAYER1
  6
CONTINUOUS
 62
     7
 10
153.454599
 20
121.563611
 30
0.0
  0
VERTEX
  8
CSLAYER1
  6
CONTINUOUS
 62
     7
 10
153.559377
 20
121.503333
 30
0.0
  0
VERTEX
  8
CSLAYER1
  6
CONTINUOUS
 62
     7
 10
153.667538
 20
121.455967
 30
0.0
  0
VERTEX
  8
CSLAYER1
  6
CONTINUOUS
 62
     7
 10
153.778260
 20
121.421875
 30
0.0
  0
VERTEX
  8
CSLAYER1
  6
CONTINUOUS
 62
     7
 10
153.890700
 20
121.401315
 30
0.0
  0
VERTEX
  8
CSLAYER1
  6
CONTINUOUS
 62
     7
 10
154.004003
 20
121.394444
 30
0.0
  0
SEQEND
  0
LINE
  8
CSLAYER1
  6
CONTINUOUS
 62
     6
 10
221.500000
 20
120.500000
 11
221.500000
 21
174.500000
  0
LINE
  8
CSLAYER1
  6
CONTINUOUS
 62
     6
 10
221.500000
 20
174.500000
 11
233.500000
 21
174.500000
  0
LINE
  8
CSLAYER1
  6
CONTINUOUS
 62
     6
 10
221.500000
 20
120.500000
 11
233.500000
 21
120.500000
  0
LINE
  8
CSLAYER1
  6
CONTINUOUS
 62
     3
 10
221.500000
 20
169.100000
 11
233.500000
 21
169.100000
  0
LINE
  8
CSLAYER1
  6
CONTINUOUS
 62
     3
 10
221.500000
 20
163.700000
 11
233.500000
 21
163.700000
  0
LINE
  8
CSLAYER1
  6
CONTINUOUS
 62
     3
 10
221.500000
 20
158.300000
 11
233.500000
 21
158.300000
  0
LINE
  8
CSLAYER1
  6
CONTINUOUS
 62
     3
 10
221.500000
 20
142.100000
 11
233.500000
 21
142.100000
  0
LINE
  8
CSLAYER1
  6
CONTINUOUS
 62
     3
 10
221.500000
 20
147.500000
 11
233.500000
 21
147.500000
  0
LINE
  8
CSLAYER1
  6
CONTINUOUS
 62
     3
 10
221.500000
 20
152.900000
 11
233.500000
 21
152.900000
  0
LINE
  8
CSLAYER1
  6
CONTINUOUS
 62
     3
 10
221.500000
 20
136.700000
 11
233.500000
 21
136.700000
  0
LINE
  8
CSLAYER1
  6
CONTINUOUS
 62
     3
 10
221.500000
 20
131.300000
 11
233.500000
 21
131.300000
  0
LINE
  8
CSLAYER1
  6
CONTINUOUS
 62
     3
 10
221.500000
 20
125.900000
 11
233.500000
 21
125.900000
  0
LINE
  8
CSLAYER1
  6
CONTINUOUS
 62
     3
 10
231.000000
 20
174.500000
 11
231.000000
 21
120.500000
  0
LINE
  8
CSLAYER1
  6
CONTINUOUS
 62
     3
 10
226.669873
 20
120.500000
 11
226.669873
 21
174.500000
  0
ARC
  8
CSLAYER1
  6
CONTINUOUS
 62
     3
 10
225.096048
 20
171.800000
 40
1.805556
 50
109.000802
 51
250.999198
  0
LINE
  8
CSLAYER1
  6
CONTINUOUS
 62
     3
 10
225.061602
 20
172.991634
 11
223.707374
 21
170.646043
  0
POLYLINE
  8
CSLAYER1
  6
CONTINUOUS
 62
     7
 66
     1
 10
0.0
 20
0.0
 30
0.0
  0
VERTEX
  8
CSLAYER1
  6
CONTINUOUS
 62
     7
 10
224.084936
 20
173.605556
 30
0.0
  0
VERTEX
  8
CSLAYER1
  6
CONTINUOUS
 62
     7
 10
223.971634
 20
173.598685
 30
0.0
  0
VERTEX
  8
CSLAYER1
  6
CONTINUOUS
 62
     7
 10
223.859194
 20
173.578125
 30
0.0
  0
VERTEX
  8
CSLAYER1
  6
CONTINUOUS
 62
     7
 10
223.748472
 20
173.544033
 30
0.0
  0
VERTEX
  8
CSLAYER1
  6
CONTINUOUS
 62
     7
 10
223.640310
 20
173.496667
 30
0.0
  0
VERTEX
  8
CSLAYER1
  6
CONTINUOUS
 62
     7
 10
223.535533
 20
173.436389
 30
0.0
  0
VERTEX
  8
CSLAYER1
  6
CONTINUOUS
 62
     7
 10
223.434936
 20
173.363657
 30
0.0
  0
VERTEX
  8
CSLAYER1
  6
CONTINUOUS
 62
     7
 10
223.339287
 20
173.279025
 30
0.0
  0
VERTEX
  8
CSLAYER1
  6
CONTINUOUS
 62
     7
 10
223.249313
 20
173.183136
 30
0.0
  0
VERTEX
  8
CSLAYER1
  6
CONTINUOUS
 62
     7
 10
223.165698
 20
173.076721
 30
0.0
  0
VERTEX
  8
CSLAYER1
  6
CONTINUOUS
 62
     7
 10
223.089079
 20
172.960589
 30
0.0
  0
VERTEX
  8
CSLAYER1
  6
CONTINUOUS
 62
     7
 10
223.020039
 20
172.835624
 30
0.0
  0
VERTEX
  8
CSLAYER1
  6
CONTINUOUS
 62
     7
 10
222.959103
 20
172.702778
 30
0.0
  0
VERTEX
  8
CSLAYER1
  6
CONTINUOUS
 62
     7
 10
222.906736
 20
172.563061
 30
0.0
  0
VERTEX
  8
CSLAYER1
  6
CONTINUOUS
 62
     7
 10
222.863336
 20
172.417536
 30
0.0
  0
VERTEX
  8
CSLAYER1
  6
CONTINUOUS
 62
     7
 10
222.829233
 20
172.267312
 30
0.0
  0
VERTEX
  8
CSLAYER1
  6
CONTINUOUS
 62
     7
 10
222.804686
 20
172.113531
 30
0.0
  0
VERTEX
  8
CSLAYER1
  6
CONTINUOUS
 62
     7
 10
222.789883
 20
171.957365
 30
0.0
  0
VERTEX
  8
CSLAYER1
  6
CONTINUOUS
 62
     7
 10
222.784936
 20
171.800000
 30
0.0
  0
VERTEX
  8
CSLAYER1
  6
CONTINUOUS
 62
     7
 10
222.789883
 20
171.642635
 30
0.0
  0
VERTEX
  8
CSLAYER1
  6
CONTINUOUS
 62
     7
 10
222.804686
 20
171.486469
 30
0.0
  0
VERTEX
  8
CSLAYER1
  6
CONTINUOUS
 62
     7
 10
222.829233
 20
171.332688
 30
0.0
  0
VERTEX
  8
CSLAYER1
  6
CONTINUOUS
 62
     7
 10
222.863336
 20
171.182464
 30
0.0
  0
VERTEX
  8
CSLAYER1
  6
CONTINUOUS
 62
     7
 10
222.906736
 20
171.036939
 30
0.0
  0
VERTEX
  8
CSLAYER1
  6
CONTINUOUS
 62
     7
 10
222.959103
 20
170.897222
 30
0.0
  0
VERTEX
  8
CSLAYER1
  6
CONTINUOUS
 62
     7
 10
223.020039
 20
170.764376
 30
0.0
  0
VERTEX
  8
CSLAYER1
  6
CONTINUOUS
 62
     7
 10
223.089079
 20
170.639411
 30
0.0
  0
VERTEX
  8
CSLAYER1
  6
CONTINUOUS
 62
     7
 10
223.165698
 20
170.523279
 30
0.0
  0
VERTEX
  8
CSLAYER1
  6
CONTINUOUS
 62
     7
 10
223.249313
 20
170.416864
 30
0.0
  0
VERTEX
  8
CSLAYER1
  6
CONTINUOUS
 62
     7
 10
223.339287
 20
170.320975
 30
0.0
  0
VERTEX
  8
CSLAYER1
  6
CONTINUOUS
 62
     7
 10
223.434936
 20
170.236343
 30
0.0
  0
VERTEX
  8
CSLAYER1
  6
CONTINUOUS
 62
     7
 10
223.535533
 20
170.163611
 30
0.0
  0
VERTEX
  8
CSLAYER1
  6
CONTINUOUS
 62
     7
 10
223.640310
 20
170.103333
 30
0.0
  0
VERTEX
  8
CSLAYER1
  6
CONTINUOUS
 62
     7
 10
223.748472
 20
170.055967
 30
0.0
  0
VERTEX
  8
CSLAYER1
  6
CONTINUOUS
 62
     7
 10
223.859194
 20
170.021875
 30
0.0
  0
VERTEX
  8
CSLAYER1
  6
CONTINUOUS
 62
     7
 10
223.971634
 20
170.001315
 30
0.0
  0
VERTEX
  8
CSLAYER1
  6
CONTINUOUS
 62
     7
 10
224.084936
 20
169.994444
 30
0.0
  0
VERTEX
  8
CSLAYER1
  6
CONTINUOUS
 62
     7
 10
224.198239
 20
170.001315
 30
0.0
  0
VERTEX
  8
CSLAYER1
  6
CONTINUOUS
 62
     7
 10
224.310679
 20
170.021875
 30
0.0
  0
VERTEX
  8
CSLAYER1
  6
CONTINUOUS
 62
     7
 10
224.421401
 20
170.055967
 30
0.0
  0
VERTEX
  8
CSLAYER1
  6
CONTINUOUS
 62
     7
 10
224.529563
 20
170.103333
 30
0.0
  0
VERTEX
  8
CSLAYER1
  6
CONTINUOUS
 62
     7
 10
224.634340
 20
170.163611
 30
0.0
  0
VERTEX
  8
CSLAYER1
  6
CONTINUOUS
 62
     7
 10
224.734936
 20
170.236343
 30
0.0
  0
VERTEX
  8
CSLAYER1
  6
CONTINUOUS
 62
     7
 10
224.830586
 20
170.320975
 30
0.0
  0
VERTEX
  8
CSLAYER1
  6
CONTINUOUS
 62
     7
 10
224.920560
 20
170.416864
 30
0.0
  0
VERTEX
  8
CSLAYER1
  6
CONTINUOUS
 62
     7
 10
225.004175
 20
170.523279
 30
0.0
  0
VERTEX
  8
CSLAYER1
  6
CONTINUOUS
 62
     7
 10
225.080794
 20
170.639411
 30
0.0
  0
VERTEX
  8
CSLAYER1
  6
CONTINUOUS
 62
     7
 10
225.149834
 20
170.764376
 30
0.0
  0
VERTEX
  8
CSLAYER1
  6
CONTINUOUS
 62
     7
 10
225.210770
 20
170.897222
 30
0.0
  0
VERTEX
  8
CSLAYER1
  6
CONTINUOUS
 62
     7
 10
225.263137
 20
171.036939
 30
0.0
  0
VERTEX
  8
CSLAYER1
  6
CONTINUOUS
 62
     7
 10
225.306537
 20
171.182464
 30
0.0
  0
VERTEX
  8
CSLAYER1
  6
CONTINUOUS
 62
     7
 10
225.340640
 20
171.332688
 30
0.0
  0
VERTEX
  8
CSLAYER1
  6
CONTINUOUS
 62
     7
 10
225.365187
 20
171.486469
 30
0.0
  0
VERTEX
  8
CSLAYER1
  6
CONTINUOUS
 62
     7
 10
225.379990
 20
171.642635
 30
0.0
  0
VERTEX
  8
CSLAYER1
  6
CONTINUOUS
 62
     7
 10
225.384936
 20
171.800000
 30
0.0
  0
VERTEX
  8
CSLAYER1
  6
CONTINUOUS
 62
     7
 10
225.379990
 20
171.957365
 30
0.0
  0
VERTEX
  8
CSLAYER1
  6
CONTINUOUS
 62
     7
 10
225.365187
 20
172.113531
 30
0.0
  0
VERTEX
  8
CSLAYER1
  6
CONTINUOUS
 62
     7
 10
225.340640
 20
172.267312
 30
0.0
  0
VERTEX
  8
CSLAYER1
  6
CONTINUOUS
 62
     7
 10
225.306537
 20
172.417536
 30
0.0
  0
VERTEX
  8
CSLAYER1
  6
CONTINUOUS
 62
     7
 10
225.263137
 20
172.563061
 30
0.0
  0
VERTEX
  8
CSLAYER1
  6
CONTINUOUS
 62
     7
 10
225.210770
 20
172.702778
 30
0.0
  0
VERTEX
  8
CSLAYER1
  6
CONTINUOUS
 62
     7
 10
225.149834
 20
172.835624
 30
0.0
  0
VERTEX
  8
CSLAYER1
  6
CONTINUOUS
 62
     7
 10
225.080794
 20
172.960589
 30
0.0
  0
VERTEX
  8
CSLAYER1
  6
CONTINUOUS
 62
     7
 10
225.004175
 20
173.076721
 30
0.0
  0
VERTEX
  8
CSLAYER1
  6
CONTINUOUS
 62
     7
 10
224.920560
 20
173.183136
 30
0.0
  0
VERTEX
  8
CSLAYER1
  6
CONTINUOUS
 62
     7
 10
224.830586
 20
173.279025
 30
0.0
  0
VERTEX
  8
CSLAYER1
  6
CONTINUOUS
 62
     7
 10
224.734936
 20
173.363657
 30
0.0
  0
VERTEX
  8
CSLAYER1
  6
CONTINUOUS
 62
     7
 10
224.634340
 20
173.436389
 30
0.0
  0
VERTEX
  8
CSLAYER1
  6
CONTINUOUS
 62
     7
 10
224.529563
 20
173.496667
 30
0.0
  0
VERTEX
  8
CSLAYER1
  6
CONTINUOUS
 62
     7
 10
224.421401
 20
173.544033
 30
0.0
  0
VERTEX
  8
CSLAYER1
  6
CONTINUOUS
 62
     7
 10
224.310679
 20
173.578125
 30
0.0
  0
VERTEX
  8
CSLAYER1
  6
CONTINUOUS
 62
     7
 10
224.198239
 20
173.598685
 30
0.0
  0
VERTEX
  8
CSLAYER1
  6
CONTINUOUS
 62
     7
 10
224.084936
 20
173.605556
 30
0.0
  0
SEQEND
  0
ARC
  8
CSLAYER1
  6
CONTINUOUS
 62
     3
 10
225.011111
 20
166.600000
 40
1.805556
 50
109.000802
 51
250.999198
  0
POLYLINE
  8
CSLAYER1
  6
CONTINUOUS
 62
     7
 66
     1
 10
0.0
 20
0.0
 30
0.0
  0
VERTEX
  8
CSLAYER1
  6
CONTINUOUS
 62
     7
 10
224.000000
 20
168.405556
 30
0.0
  0
VERTEX
  8
CSLAYER1
  6
CONTINUOUS
 62
     7
 10
223.886698
 20
168.398685
 30
0.0
  0
VERTEX
  8
CSLAYER1
  6
CONTINUOUS
 62
     7
 10
223.774257
 20
168.378125
 30
0.0
  0
VERTEX
  8
CSLAYER1
  6
CONTINUOUS
 62
     7
 10
223.663535
 20
168.344033
 30
0.0
  0
VERTEX
  8
CSLAYER1
  6
CONTINUOUS
 62
     7
 10
223.555374
 20
168.296667
 30
0.0
  0
VERTEX
  8
CSLAYER1
  6
CONTINUOUS
 62
     7
 10
223.450596
 20
168.236389
 30
0.0
  0
VERTEX
  8
CSLAYER1
  6
CONTINUOUS
 62
     7
 10
223.350000
 20
168.163657
 30
0.0
  0
VERTEX
  8
CSLAYER1
  6
CONTINUOUS
 62
     7
 10
223.254351
 20
168.079025
 30
0.0
  0
VERTEX
  8
CSLAYER1
  6
CONTINUOUS
 62
     7
 10
223.164376
 20
167.983136
 30
0.0
  0
VERTEX
  8
CSLAYER1
  6
CONTINUOUS
 62
     7
 10
223.080761
 20
167.876721
 30
0.0
  0
VERTEX
  8
CSLAYER1
  6
CONTINUOUS
 62
     7
 10
223.004142
 20
167.760589
 30
0.0
  0
VERTEX
  8
CSLAYER1
  6
CONTINUOUS
 62
     7
 10
222.935102
 20
167.635624
 30
0.0
  0
VERTEX
  8
CSLAYER1
  6
CONTINUOUS
 62
     7
 10
222.874167
 20
167.502778
 30
0.0
  0
VERTEX
  8
CSLAYER1
  6
CONTINUOUS
 62
     7
 10
222.821800
 20
167.363061
 30
0.0
  0
VERTEX
  8
CSLAYER1
  6
CONTINUOUS
 62
     7
 10
222.778400
 20
167.217536
 30
0.0
  0
VERTEX
  8
CSLAYER1
  6
CONTINUOUS
 62
     7
 10
222.744296
 20
167.067312
 30
0.0
  0
VERTEX
  8
CSLAYER1
  6
CONTINUOUS
 62
     7
 10
222.719750
 20
166.913531
 30
0.0
  0
VERTEX
  8
CSLAYER1
  6
CONTINUOUS
 62
     7
 10
222.704947
 20
166.757365
 30
0.0
  0
VERTEX
  8
CSLAYER1
  6
CONTINUOUS
 62
     7
 10
222.700000
 20
166.600000
 30
0.0
  0
VERTEX
  8
CSLAYER1
  6
CONTINUOUS
 62
     7
 10
222.704947
 20
166.442635
 30
0.0
  0
VERTEX
  8
CSLAYER1
  6
CONTINUOUS
 62
     7
 10
222.719750
 20
166.286469
 30
0.0
  0
VERTEX
  8
CSLAYER1
  6
CONTINUOUS
 62
     7
 10
222.744296
 20
166.132688
 30
0.0
  0
VERTEX
  8
CSLAYER1
  6
CONTINUOUS
 62
     7
 10
222.778400
 20
165.982464
 30
0.0
  0
VERTEX
  8
CSLAYER1
  6
CONTINUOUS
 62
     7
 10
222.821800
 20
165.836939
 30
0.0
  0
VERTEX
  8
CSLAYER1
  6
CONTINUOUS
 62
     7
 10
222.874167
 20
165.697222
 30
0.0
  0
VERTEX
  8
CSLAYER1
  6
CONTINUOUS
 62
     7
 10
222.935102
 20
165.564376
 30
0.0
  0
VERTEX
  8
CSLAYER1
  6
CONTINUOUS
 62
     7
 10
223.004142
 20
165.439411
 30
0.0
  0
VERTEX
  8
CSLAYER1
  6
CONTINUOUS
 62
     7
 10
223.080761
 20
165.323279
 30
0.0
  0
VERTEX
  8
CSLAYER1
  6
CONTINUOUS
 62
     7
 10
223.164376
 20
165.216864
 30
0.0
  0
VERTEX
  8
CSLAYER1
  6
CONTINUOUS
 62
     7
 10
223.254351
 20
165.120975
 30
0.0
  0
VERTEX
  8
CSLAYER1
  6
CONTINUOUS
 62
     7
 10
223.350000
 20
165.036343
 30
0.0
  0
VERTEX
  8
CSLAYER1
  6
CONTINUOUS
 62
     7
 10
223.450596
 20
164.963611
 30
0.0
  0
VERTEX
  8
CSLAYER1
  6
CONTINUOUS
 62
     7
 10
223.555374
 20
164.903333
 30
0.0
  0
VERTEX
  8
CSLAYER1
  6
CONTINUOUS
 62
     7
 10
223.663535
 20
164.855967
 30
0.0
  0
VERTEX
  8
CSLAYER1
  6
CONTINUOUS
 62
     7
 10
223.774257
 20
164.821875
 30
0.0
  0
VERTEX
  8
CSLAYER1
  6
CONTINUOUS
 62
     7
 10
223.886698
 20
164.801315
 30
0.0
  0
VERTEX
  8
CSLAYER1
  6
CONTINUOUS
 62
     7
 10
224.000000
 20
164.794444
 30
0.0
  0
VERTEX
  8
CSLAYER1
  6
CONTINUOUS
 62
     7
 10
224.113302
 20
164.801315
 30
0.0
  0
VERTEX
  8
CSLAYER1
  6
CONTINUOUS
 62
     7
 10
224.225743
 20
164.821875
 30
0.0
  0
VERTEX
  8
CSLAYER1
  6
CONTINUOUS
 62
     7
 10
224.336465
 20
164.855967
 30
0.0
  0
VERTEX
  8
CSLAYER1
  6
CONTINUOUS
 62
     7
 10
224.444626
 20
164.903333
 30
0.0
  0
VERTEX
  8
CSLAYER1
  6
CONTINUOUS
 62
     7
 10
224.549404
 20
164.963611
 30
0.0
  0
VERTEX
  8
CSLAYER1
  6
CONTINUOUS
 62
     7
 10
224.650000
 20
165.036343
 30
0.0
  0
VERTEX
  8
CSLAYER1
  6
CONTINUOUS
 62
     7
 10
224.745649
 20
165.120975
 30
0.0
  0
VERTEX
  8
CSLAYER1
  6
CONTINUOUS
 62
     7
 10
224.835624
 20
165.216864
 30
0.0
  0
VERTEX
  8
CSLAYER1
  6
CONTINUOUS
 62
     7
 10
224.919239
 20
165.323279
 30
0.0
  0
VERTEX
  8
CSLAYER1
  6
CONTINUOUS
 62
     7
 10
224.995858
 20
165.439411
 30
0.0
  0
VERTEX
  8
CSLAYER1
  6
CONTINUOUS
 62
     7
 10
225.064898
 20
165.564376
 30
0.0
  0
VERTEX
  8
CSLAYER1
  6
CONTINUOUS
 62
     7
 10
225.125833
 20
165.697222
 30
0.0
  0
VERTEX
  8
CSLAYER1
  6
CONTINUOUS
 62
     7
 10
225.178200
 20
165.836939
 30
0.0
  0
VERTEX
  8
CSLAYER1
  6
CONTINUOUS
 62
     7
 10
225.221600
 20
165.982464
 30
0.0
  0
VERTEX
  8
CSLAYER1
  6
CONTINUOUS
 62
     7
 10
225.255704
 20
166.132688
 30
0.0
  0
VERTEX
  8
CSLAYER1
  6
CONTINUOUS
 62
     7
 10
225.280250
 20
166.286469
 30
0.0
  0
VERTEX
  8
CSLAYER1
  6
CONTINUOUS
 62
     7
 10
225.295053
 20
166.442635
 30
0.0
  0
VERTEX
  8
CSLAYER1
  6
CONTINUOUS
 62
     7
 10
225.300000
 20
166.600000
 30
0.0
  0
VERTEX
  8
CSLAYER1
  6
CONTINUOUS
 62
     7
 10
225.295053
 20
166.757365
 30
0.0
  0
VERTEX
  8
CSLAYER1
  6
CONTINUOUS
 62
     7
 10
225.280250
 20
166.913531
 30
0.0
  0
VERTEX
  8
CSLAYER1
  6
CONTINUOUS
 62
     7
 10
225.255704
 20
167.067312
 30
0.0
  0
VERTEX
  8
CSLAYER1
  6
CONTINUOUS
 62
     7
 10
225.221600
 20
167.217536
 30
0.0
  0
VERTEX
  8
CSLAYER1
  6
CONTINUOUS
 62
     7
 10
225.178200
 20
167.363061
 30
0.0
  0
VERTEX
  8
CSLAYER1
  6
CONTINUOUS
 62
     7
 10
225.125833
 20
167.502778
 30
0.0
  0
VERTEX
  8
CSLAYER1
  6
CONTINUOUS
 62
     7
 10
225.064898
 20
167.635624
 30
0.0
  0
VERTEX
  8
CSLAYER1
  6
CONTINUOUS
 62
     7
 10
224.995858
 20
167.760589
 30
0.0
  0
VERTEX
  8
CSLAYER1
  6
CONTINUOUS
 62
     7
 10
224.919239
 20
167.876721
 30
0.0
  0
VERTEX
  8
CSLAYER1
  6
CONTINUOUS
 62
     7
 10
224.835624
 20
167.983136
 30
0.0
  0
VERTEX
  8
CSLAYER1
  6
CONTINUOUS
 62
     7
 10
224.745649
 20
168.079025
 30
0.0
  0
VERTEX
  8
CSLAYER1
  6
CONTINUOUS
 62
     7
 10
224.650000
 20
168.163657
 30
0.0
  0
VERTEX
  8
CSLAYER1
  6
CONTINUOUS
 62
     7
 10
224.549404
 20
168.236389
 30
0.0
  0
VERTEX
  8
CSLAYER1
  6
CONTINUOUS
 62
     7
 10
224.444626
 20
168.296667
 30
0.0
  0
VERTEX
  8
CSLAYER1
  6
CONTINUOUS
 62
     7
 10
224.336465
 20
168.344033
 30
0.0
  0
VERTEX
  8
CSLAYER1
  6
CONTINUOUS
 62
     7
 10
224.225743
 20
168.378125
 30
0.0
  0
VERTEX
  8
CSLAYER1
  6
CONTINUOUS
 62
     7
 10
224.113302
 20
168.398685
 30
0.0
  0
VERTEX
  8
CSLAYER1
  6
CONTINUOUS
 62
     7
 10
224.000000
 20
168.405556
 30
0.0
  0
SEQEND
  0
ARC
  8
CSLAYER1
  6
CONTINUOUS
 62
     3
 10
225.011111
 20
161.200000
 40
1.805556
 50
109.000802
 51
250.999198
  0
POLYLINE
  8
CSLAYER1
  6
CONTINUOUS
 62
     7
 66
     1
 10
0.0
 20
0.0
 30
0.0
  0
VERTEX
  8
CSLAYER1
  6
CONTINUOUS
 62
     7
 10
224.000000
 20
163.005556
 30
0.0
  0
VERTEX
  8
CSLAYER1
  6
CONTINUOUS
 62
     7
 10
223.886698
 20
162.998685
 30
0.0
  0
VERTEX
  8
CSLAYER1
  6
CONTINUOUS
 62
     7
 10
223.774257
 20
162.978125
 30
0.0
  0
VERTEX
  8
CSLAYER1
  6
CONTINUOUS
 62
     7
 10
223.663535
 20
162.944033
 30
0.0
  0
VERTEX
  8
CSLAYER1
  6
CONTINUOUS
 62
     7
 10
223.555374
 20
162.896667
 30
0.0
  0
VERTEX
  8
CSLAYER1
  6
CONTINUOUS
 62
     7
 10
223.450596
 20
162.836389
 30
0.0
  0
VERTEX
  8
CSLAYER1
  6
CONTINUOUS
 62
     7
 10
223.350000
 20
162.763657
 30
0.0
  0
VERTEX
  8
CSLAYER1
  6
CONTINUOUS
 62
     7
 10
223.254351
 20
162.679025
 30
0.0
  0
VERTEX
  8
CSLAYER1
  6
CONTINUOUS
 62
     7
 10
223.164376
 20
162.583136
 30
0.0
  0
VERTEX
  8
CSLAYER1
  6
CONTINUOUS
 62
     7
 10
223.080761
 20
162.476721
 30
0.0
  0
VERTEX
  8
CSLAYER1
  6
CONTINUOUS
 62
     7
 10
223.004142
 20
162.360589
 30
0.0
  0
VERTEX
  8
CSLAYER1
  6
CONTINUOUS
 62
     7
 10
222.935102
 20
162.235624
 30
0.0
  0
VERTEX
  8
CSLAYER1
  6
CONTINUOUS
 62
     7
 10
222.874167
 20
162.102778
 30
0.0
  0
VERTEX
  8
CSLAYER1
  6
CONTINUOUS
 62
     7
 10
222.821800
 20
161.963061
 30
0.0
  0
VERTEX
  8
CSLAYER1
  6
CONTINUOUS
 62
     7
 10
222.778400
 20
161.817536
 30
0.0
  0
VERTEX
  8
CSLAYER1
  6
CONTINUOUS
 62
     7
 10
222.744296
 20
161.667312
 30
0.0
  0
VERTEX
  8
CSLAYER1
  6
CONTINUOUS
 62
     7
 10
222.719750
 20
161.513531
 30
0.0
  0
VERTEX
  8
CSLAYER1
  6
CONTINUOUS
 62
     7
 10
222.704947
 20
161.357365
 30
0.0
  0
VERTEX
  8
CSLAYER1
  6
CONTINUOUS
 62
     7
 10
222.700000
 20
161.200000
 30
0.0
  0
VERTEX
  8
CSLAYER1
  6
CONTINUOUS
 62
     7
 10
222.704947
 20
161.042635
 30
0.0
  0
VERTEX
  8
CSLAYER1
  6
CONTINUOUS
 62
     7
 10
222.719750
 20
160.886469
 30
0.0
  0
VERTEX
  8
CSLAYER1
  6
CONTINUOUS
 62
     7
 10
222.744296
 20
160.732688
 30
0.0
  0
VERTEX
  8
CSLAYER1
  6
CONTINUOUS
 62
     7
 10
222.778400
 20
160.582464
 30
0.0
  0
VERTEX
  8
CSLAYER1
  6
CONTINUOUS
 62
     7
 10
222.821800
 20
160.436939
 30
0.0
  0
VERTEX
  8
CSLAYER1
  6
CONTINUOUS
 62
     7
 10
222.874167
 20
160.297222
 30
0.0
  0
VERTEX
  8
CSLAYER1
  6
CONTINUOUS
 62
     7
 10
222.935102
 20
160.164376
 30
0.0
  0
VERTEX
  8
CSLAYER1
  6
CONTINUOUS
 62
     7
 10
223.004142
 20
160.039411
 30
0.0
  0
VERTEX
  8
CSLAYER1
  6
CONTINUOUS
 62
     7
 10
223.080761
 20
159.923279
 30
0.0
  0
VERTEX
  8
CSLAYER1
  6
CONTINUOUS
 62
     7
 10
223.164376
 20
159.816864
 30
0.0
  0
VERTEX
  8
CSLAYER1
  6
CONTINUOUS
 62
     7
 10
223.254351
 20
159.720975
 30
0.0
  0
VERTEX
  8
CSLAYER1
  6
CONTINUOUS
 62
     7
 10
223.350000
 20
159.636343
 30
0.0
  0
VERTEX
  8
CSLAYER1
  6
CONTINUOUS
 62
     7
 10
223.450596
 20
159.563611
 30
0.0
  0
VERTEX
  8
CSLAYER1
  6
CONTINUOUS
 62
     7
 10
223.555374
 20
159.503333
 30
0.0
  0
VERTEX
  8
CSLAYER1
  6
CONTINUOUS
 62
     7
 10
223.663535
 20
159.455967
 30
0.0
  0
VERTEX
  8
CSLAYER1
  6
CONTINUOUS
 62
     7
 10
223.774257
 20
159.421875
 30
0.0
  0
VERTEX
  8
CSLAYER1
  6
CONTINUOUS
 62
     7
 10
223.886698
 20
159.401315
 30
0.0
  0
VERTEX
  8
CSLAYER1
  6
CONTINUOUS
 62
     7
 10
224.000000
 20
159.394444
 30
0.0
  0
VERTEX
  8
CSLAYER1
  6
CONTINUOUS
 62
     7
 10
224.113302
 20
159.401315
 30
0.0
  0
VERTEX
  8
CSLAYER1
  6
CONTINUOUS
 62
     7
 10
224.225743
 20
159.421875
 30
0.0
  0
VERTEX
  8
CSLAYER1
  6
CONTINUOUS
 62
     7
 10
224.336465
 20
159.455967
 30
0.0
  0
VERTEX
  8
CSLAYER1
  6
CONTINUOUS
 62
     7
 10
224.444626
 20
159.503333
 30
0.0
  0
VERTEX
  8
CSLAYER1
  6
CONTINUOUS
 62
     7
 10
224.549404
 20
159.563611
 30
0.0
  0
VERTEX
  8
CSLAYER1
  6
CONTINUOUS
 62
     7
 10
224.650000
 20
159.636343
 30
0.0
  0
VERTEX
  8
CSLAYER1
  6
CONTINUOUS
 62
     7
 10
224.745649
 20
159.720975
 30
0.0
  0
VERTEX
  8
CSLAYER1
  6
CONTINUOUS
 62
     7
 10
224.835624
 20
159.816864
 30
0.0
  0
VERTEX
  8
CSLAYER1
  6
CONTINUOUS
 62
     7
 10
224.919239
 20
159.923279
 30
0.0
  0
VERTEX
  8
CSLAYER1
  6
CONTINUOUS
 62
     7
 10
224.995858
 20
160.039411
 30
0.0
  0
VERTEX
  8
CSLAYER1
  6
CONTINUOUS
 62
     7
 10
225.064898
 20
160.164376
 30
0.0
  0
VERTEX
  8
CSLAYER1
  6
CONTINUOUS
 62
     7
 10
225.125833
 20
160.297222
 30
0.0
  0
VERTEX
  8
CSLAYER1
  6
CONTINUOUS
 62
     7
 10
225.178200
 20
160.436939
 30
0.0
  0
VERTEX
  8
CSLAYER1
  6
CONTINUOUS
 62
     7
 10
225.221600
 20
160.582464
 30
0.0
  0
VERTEX
  8
CSLAYER1
  6
CONTINUOUS
 62
     7
 10
225.255704
 20
160.732688
 30
0.0
  0
VERTEX
  8
CSLAYER1
  6
CONTINUOUS
 62
     7
 10
225.280250
 20
160.886469
 30
0.0
  0
VERTEX
  8
CSLAYER1
  6
CONTINUOUS
 62
     7
 10
225.295053
 20
161.042635
 30
0.0
  0
VERTEX
  8
CSLAYER1
  6
CONTINUOUS
 62
     7
 10
225.300000
 20
161.200000
 30
0.0
  0
VERTEX
  8
CSLAYER1
  6
CONTINUOUS
 62
     7
 10
225.295053
 20
161.357365
 30
0.0
  0
VERTEX
  8
CSLAYER1
  6
CONTINUOUS
 62
     7
 10
225.280250
 20
161.513531
 30
0.0
  0
VERTEX
  8
CSLAYER1
  6
CONTINUOUS
 62
     7
 10
225.255704
 20
161.667312
 30
0.0
  0
VERTEX
  8
CSLAYER1
  6
CONTINUOUS
 62
     7
 10
225.221600
 20
161.817536
 30
0.0
  0
VERTEX
  8
CSLAYER1
  6
CONTINUOUS
 62
     7
 10
225.178200
 20
161.963061
 30
0.0
  0
VERTEX
  8
CSLAYER1
  6
CONTINUOUS
 62
     7
 10
225.125833
 20
162.102778
 30
0.0
  0
VERTEX
  8
CSLAYER1
  6
CONTINUOUS
 62
     7
 10
225.064898
 20
162.235624
 30
0.0
  0
VERTEX
  8
CSLAYER1
  6
CONTINUOUS
 62
     7
 10
224.995858
 20
162.360589
 30
0.0
  0
VERTEX
  8
CSLAYER1
  6
CONTINUOUS
 62
     7
 10
224.919239
 20
162.476721
 30
0.0
  0
VERTEX
  8
CSLAYER1
  6
CONTINUOUS
 62
     7
 10
224.835624
 20
162.583136
 30
0.0
  0
VERTEX
  8
CSLAYER1
  6
CONTINUOUS
 62
     7
 10
224.745649
 20
162.679025
 30
0.0
  0
VERTEX
  8
CSLAYER1
  6
CONTINUOUS
 62
     7
 10
224.650000
 20
162.763657
 30
0.0
  0
VERTEX
  8
CSLAYER1
  6
CONTINUOUS
 62
     7
 10
224.549404
 20
162.836389
 30
0.0
  0
VERTEX
  8
CSLAYER1
  6
CONTINUOUS
 62
     7
 10
224.444626
 20
162.896667
 30
0.0
  0
VERTEX
  8
CSLAYER1
  6
CONTINUOUS
 62
     7
 10
224.336465
 20
162.944033
 30
0.0
  0
VERTEX
  8
CSLAYER1
  6
CONTINUOUS
 62
     7
 10
224.225743
 20
162.978125
 30
0.0
  0
VERTEX
  8
CSLAYER1
  6
CONTINUOUS
 62
     7
 10
224.113302
 20
162.998685
 30
0.0
  0
VERTEX
  8
CSLAYER1
  6
CONTINUOUS
 62
     7
 10
224.000000
 20
163.005556
 30
0.0
  0
SEQEND
  0
ARC
  8
CSLAYER1
  6
CONTINUOUS
 62
     3
 10
225.011111
 20
155.800000
 40
1.805556
 50
109.000802
 51
250.999198
  0
POLYLINE
  8
CSLAYER1
  6
CONTINUOUS
 62
     7
 66
     1
 10
0.0
 20
0.0
 30
0.0
  0
VERTEX
  8
CSLAYER1
  6
CONTINUOUS
 62
     7
 10
224.000000
 20
157.605556
 30
0.0
  0
VERTEX
  8
CSLAYER1
  6
CONTINUOUS
 62
     7
 10
223.886698
 20
157.598685
 30
0.0
  0
VERTEX
  8
CSLAYER1
  6
CONTINUOUS
 62
     7
 10
223.774257
 20
157.578125
 30
0.0
  0
VERTEX
  8
CSLAYER1
  6
CONTINUOUS
 62
     7
 10
223.663535
 20
157.544033
 30
0.0
  0
VERTEX
  8
CSLAYER1
  6
CONTINUOUS
 62
     7
 10
223.555374
 20
157.496667
 30
0.0
  0
VERTEX
  8
CSLAYER1
  6
CONTINUOUS
 62
     7
 10
223.450596
 20
157.436389
 30
0.0
  0
VERTEX
  8
CSLAYER1
  6
CONTINUOUS
 62
     7
 10
223.350000
 20
157.363657
 30
0.0
  0
VERTEX
  8
CSLAYER1
  6
CONTINUOUS
 62
     7
 10
223.254351
 20
157.279025
 30
0.0
  0
VERTEX
  8
CSLAYER1
  6
CONTINUOUS
 62
     7
 10
223.164376
 20
157.183136
 30
0.0
  0
VERTEX
  8
CSLAYER1
  6
CONTINUOUS
 62
     7
 10
223.080761
 20
157.076721
 30
0.0
  0
VERTEX
  8
CSLAYER1
  6
CONTINUOUS
 62
     7
 10
223.004142
 20
156.960589
 30
0.0
  0
VERTEX
  8
CSLAYER1
  6
CONTINUOUS
 62
     7
 10
222.935102
 20
156.835624
 30
0.0
  0
VERTEX
  8
CSLAYER1
  6
CONTINUOUS
 62
     7
 10
222.874167
 20
156.702778
 30
0.0
  0
VERTEX
  8
CSLAYER1
  6
CONTINUOUS
 62
     7
 10
222.821800
 20
156.563061
 30
0.0
  0
VERTEX
  8
CSLAYER1
  6
CONTINUOUS
 62
     7
 10
222.778400
 20
156.417536
 30
0.0
  0
VERTEX
  8
CSLAYER1
  6
CONTINUOUS
 62
     7
 10
222.744296
 20
156.267312
 30
0.0
  0
VERTEX
  8
CSLAYER1
  6
CONTINUOUS
 62
     7
 10
222.719750
 20
156.113531
 30
0.0
  0
VERTEX
  8
CSLAYER1
  6
CONTINUOUS
 62
     7
 10
222.704947
 20
155.957365
 30
0.0
  0
VERTEX
  8
CSLAYER1
  6
CONTINUOUS
 62
     7
 10
222.700000
 20
155.800000
 30
0.0
  0
VERTEX
  8
CSLAYER1
  6
CONTINUOUS
 62
     7
 10
222.704947
 20
155.642635
 30
0.0
  0
VERTEX
  8
CSLAYER1
  6
CONTINUOUS
 62
     7
 10
222.719750
 20
155.486469
 30
0.0
  0
VERTEX
  8
CSLAYER1
  6
CONTINUOUS
 62
     7
 10
222.744296
 20
155.332688
 30
0.0
  0
VERTEX
  8
CSLAYER1
  6
CONTINUOUS
 62
     7
 10
222.778400
 20
155.182464
 30
0.0
  0
VERTEX
  8
CSLAYER1
  6
CONTINUOUS
 62
     7
 10
222.821800
 20
155.036939
 30
0.0
  0
VERTEX
  8
CSLAYER1
  6
CONTINUOUS
 62
     7
 10
222.874167
 20
154.897222
 30
0.0
  0
VERTEX
  8
CSLAYER1
  6
CONTINUOUS
 62
     7
 10
222.935102
 20
154.764376
 30
0.0
  0
VERTEX
  8
CSLAYER1
  6
CONTINUOUS
 62
     7
 10
223.004142
 20
154.639411
 30
0.0
  0
VERTEX
  8
CSLAYER1
  6
CONTINUOUS
 62
     7
 10
223.080761
 20
154.523279
 30
0.0
  0
VERTEX
  8
CSLAYER1
  6
CONTINUOUS
 62
     7
 10
223.164376
 20
154.416864
 30
0.0
  0
VERTEX
  8
CSLAYER1
  6
CONTINUOUS
 62
     7
 10
223.254351
 20
154.320975
 30
0.0
  0
VERTEX
  8
CSLAYER1
  6
CONTINUOUS
 62
     7
 10
223.350000
 20
154.236343
 30
0.0
  0
VERTEX
  8
CSLAYER1
  6
CONTINUOUS
 62
     7
 10
223.450596
 20
154.163611
 30
0.0
  0
VERTEX
  8
CSLAYER1
  6
CONTINUOUS
 62
     7
 10
223.555374
 20
154.103333
 30
0.0
  0
VERTEX
  8
CSLAYER1
  6
CONTINUOUS
 62
     7
 10
223.663535
 20
154.055967
 30
0.0
  0
VERTEX
  8
CSLAYER1
  6
CONTINUOUS
 62
     7
 10
223.774257
 20
154.021875
 30
0.0
  0
VERTEX
  8
CSLAYER1
  6
CONTINUOUS
 62
     7
 10
223.886698
 20
154.001315
 30
0.0
  0
VERTEX
  8
CSLAYER1
  6
CONTINUOUS
 62
     7
 10
224.000000
 20
153.994444
 30
0.0
  0
VERTEX
  8
CSLAYER1
  6
CONTINUOUS
 62
     7
 10
224.113302
 20
154.001315
 30
0.0
  0
VERTEX
  8
CSLAYER1
  6
CONTINUOUS
 62
     7
 10
224.225743
 20
154.021875
 30
0.0
  0
VERTEX
  8
CSLAYER1
  6
CONTINUOUS
 62
     7
 10
224.336465
 20
154.055967
 30
0.0
  0
VERTEX
  8
CSLAYER1
  6
CONTINUOUS
 62
     7
 10
224.444626
 20
154.103333
 30
0.0
  0
VERTEX
  8
CSLAYER1
  6
CONTINUOUS
 62
     7
 10
224.549404
 20
154.163611
 30
0.0
  0
VERTEX
  8
CSLAYER1
  6
CONTINUOUS
 62
     7
 10
224.650000
 20
154.236343
 30
0.0
  0
VERTEX
  8
CSLAYER1
  6
CONTINUOUS
 62
     7
 10
224.745649
 20
154.320975
 30
0.0
  0
VERTEX
  8
CSLAYER1
  6
CONTINUOUS
 62
     7
 10
224.835624
 20
154.416864
 30
0.0
  0
VERTEX
  8
CSLAYER1
  6
CONTINUOUS
 62
     7
 10
224.919239
 20
154.523279
 30
0.0
  0
VERTEX
  8
CSLAYER1
  6
CONTINUOUS
 62
     7
 10
224.995858
 20
154.639411
 30
0.0
  0
VERTEX
  8
CSLAYER1
  6
CONTINUOUS
 62
     7
 10
225.064898
 20
154.764376
 30
0.0
  0
VERTEX
  8
CSLAYER1
  6
CONTINUOUS
 62
     7
 10
225.125833
 20
154.897222
 30
0.0
  0
VERTEX
  8
CSLAYER1
  6
CONTINUOUS
 62
     7
 10
225.178200
 20
155.036939
 30
0.0
  0
VERTEX
  8
CSLAYER1
  6
CONTINUOUS
 62
     7
 10
225.221600
 20
155.182464
 30
0.0
  0
VERTEX
  8
CSLAYER1
  6
CONTINUOUS
 62
     7
 10
225.255704
 20
155.332688
 30
0.0
  0
VERTEX
  8
CSLAYER1
  6
CONTINUOUS
 62
     7
 10
225.280250
 20
155.486469
 30
0.0
  0
VERTEX
  8
CSLAYER1
  6
CONTINUOUS
 62
     7
 10
225.295053
 20
155.642635
 30
0.0
  0
VERTEX
  8
CSLAYER1
  6
CONTINUOUS
 62
     7
 10
225.300000
 20
155.800000
 30
0.0
  0
VERTEX
  8
CSLAYER1
  6
CONTINUOUS
 62
     7
 10
225.295053
 20
155.957365
 30
0.0
  0
VERTEX
  8
CSLAYER1
  6
CONTINUOUS
 62
     7
 10
225.280250
 20
156.113531
 30
0.0
  0
VERTEX
  8
CSLAYER1
  6
CONTINUOUS
 62
     7
 10
225.255704
 20
156.267312
 30
0.0
  0
VERTEX
  8
CSLAYER1
  6
CONTINUOUS
 62
     7
 10
225.221600
 20
156.417536
 30
0.0
  0
VERTEX
  8
CSLAYER1
  6
CONTINUOUS
 62
     7
 10
225.178200
 20
156.563061
 30
0.0
  0
VERTEX
  8
CSLAYER1
  6
CONTINUOUS
 62
     7
 10
225.125833
 20
156.702778
 30
0.0
  0
VERTEX
  8
CSLAYER1
  6
CONTINUOUS
 62
     7
 10
225.064898
 20
156.835624
 30
0.0
  0
VERTEX
  8
CSLAYER1
  6
CONTINUOUS
 62
     7
 10
224.995858
 20
156.960589
 30
0.0
  0
VERTEX
  8
CSLAYER1
  6
CONTINUOUS
 62
     7
 10
224.919239
 20
157.076721
 30
0.0
  0
VERTEX
  8
CSLAYER1
  6
CONTINUOUS
 62
     7
 10
224.835624
 20
157.183136
 30
0.0
  0
VERTEX
  8
CSLAYER1
  6
CONTINUOUS
 62
     7
 10
224.745649
 20
157.279025
 30
0.0
  0
VERTEX
  8
CSLAYER1
  6
CONTINUOUS
 62
     7
 10
224.650000
 20
157.363657
 30
0.0
  0
VERTEX
  8
CSLAYER1
  6
CONTINUOUS
 62
     7
 10
224.549404
 20
157.436389
 30
0.0
  0
VERTEX
  8
CSLAYER1
  6
CONTINUOUS
 62
     7
 10
224.444626
 20
157.496667
 30
0.0
  0
VERTEX
  8
CSLAYER1
  6
CONTINUOUS
 62
     7
 10
224.336465
 20
157.544033
 30
0.0
  0
VERTEX
  8
CSLAYER1
  6
CONTINUOUS
 62
     7
 10
224.225743
 20
157.578125
 30
0.0
  0
VERTEX
  8
CSLAYER1
  6
CONTINUOUS
 62
     7
 10
224.113302
 20
157.598685
 30
0.0
  0
VERTEX
  8
CSLAYER1
  6
CONTINUOUS
 62
     7
 10
224.000000
 20
157.605556
 30
0.0
  0
SEQEND
  0
ARC
  8
CSLAYER1
  6
CONTINUOUS
 62
     3
 10
225.011111
 20
150.400000
 40
1.805556
 50
109.000802
 51
250.999198
  0
POLYLINE
  8
CSLAYER1
  6
CONTINUOUS
 62
     7
 66
     1
 10
0.0
 20
0.0
 30
0.0
  0
VERTEX
  8
CSLAYER1
  6
CONTINUOUS
 62
     7
 10
224.000000
 20
152.205556
 30
0.0
  0
VERTEX
  8
CSLAYER1
  6
CONTINUOUS
 62
     7
 10
223.886698
 20
152.198685
 30
0.0
  0
VERTEX
  8
CSLAYER1
  6
CONTINUOUS
 62
     7
 10
223.774257
 20
152.178125
 30
0.0
  0
VERTEX
  8
CSLAYER1
  6
CONTINUOUS
 62
     7
 10
223.663535
 20
152.144033
 30
0.0
  0
VERTEX
  8
CSLAYER1
  6
CONTINUOUS
 62
     7
 10
223.555374
 20
152.096667
 30
0.0
  0
VERTEX
  8
CSLAYER1
  6
CONTINUOUS
 62
     7
 10
223.450596
 20
152.036389
 30
0.0
  0
VERTEX
  8
CSLAYER1
  6
CONTINUOUS
 62
     7
 10
223.350000
 20
151.963657
 30
0.0
  0
VERTEX
  8
CSLAYER1
  6
CONTINUOUS
 62
     7
 10
223.254351
 20
151.879025
 30
0.0
  0
VERTEX
  8
CSLAYER1
  6
CONTINUOUS
 62
     7
 10
223.164376
 20
151.783136
 30
0.0
  0
VERTEX
  8
CSLAYER1
  6
CONTINUOUS
 62
     7
 10
223.080761
 20
151.676721
 30
0.0
  0
VERTEX
  8
CSLAYER1
  6
CONTINUOUS
 62
     7
 10
223.004142
 20
151.560589
 30
0.0
  0
VERTEX
  8
CSLAYER1
  6
CONTINUOUS
 62
     7
 10
222.935102
 20
151.435624
 30
0.0
  0
VERTEX
  8
CSLAYER1
  6
CONTINUOUS
 62
     7
 10
222.874167
 20
151.302778
 30
0.0
  0
VERTEX
  8
CSLAYER1
  6
CONTINUOUS
 62
     7
 10
222.821800
 20
151.163061
 30
0.0
  0
VERTEX
  8
CSLAYER1
  6
CONTINUOUS
 62
     7
 10
222.778400
 20
151.017536
 30
0.0
  0
VERTEX
  8
CSLAYER1
  6
CONTINUOUS
 62
     7
 10
222.744296
 20
150.867312
 30
0.0
  0
VERTEX
  8
CSLAYER1
  6
CONTINUOUS
 62
     7
 10
222.719750
 20
150.713531
 30
0.0
  0
VERTEX
  8
CSLAYER1
  6
CONTINUOUS
 62
     7
 10
222.704947
 20
150.557365
 30
0.0
  0
VERTEX
  8
CSLAYER1
  6
CONTINUOUS
 62
     7
 10
222.700000
 20
150.400000
 30
0.0
  0
VERTEX
  8
CSLAYER1
  6
CONTINUOUS
 62
     7
 10
222.704947
 20
150.242635
 30
0.0
  0
VERTEX
  8
CSLAYER1
  6
CONTINUOUS
 62
     7
 10
222.719750
 20
150.086469
 30
0.0
  0
VERTEX
  8
CSLAYER1
  6
CONTINUOUS
 62
     7
 10
222.744296
 20
149.932688
 30
0.0
  0
VERTEX
  8
CSLAYER1
  6
CONTINUOUS
 62
     7
 10
222.778400
 20
149.782464
 30
0.0
  0
VERTEX
  8
CSLAYER1
  6
CONTINUOUS
 62
     7
 10
222.821800
 20
149.636939
 30
0.0
  0
VERTEX
  8
CSLAYER1
  6
CONTINUOUS
 62
     7
 10
222.874167
 20
149.497222
 30
0.0
  0
VERTEX
  8
CSLAYER1
  6
CONTINUOUS
 62
     7
 10
222.935102
 20
149.364376
 30
0.0
  0
VERTEX
  8
CSLAYER1
  6
CONTINUOUS
 62
     7
 10
223.004142
 20
149.239411
 30
0.0
  0
VERTEX
  8
CSLAYER1
  6
CONTINUOUS
 62
     7
 10
223.080761
 20
149.123279
 30
0.0
  0
VERTEX
  8
CSLAYER1
  6
CONTINUOUS
 62
     7
 10
223.164376
 20
149.016864
 30
0.0
  0
VERTEX
  8
CSLAYER1
  6
CONTINUOUS
 62
     7
 10
223.254351
 20
148.920975
 30
0.0
  0
VERTEX
  8
CSLAYER1
  6
CONTINUOUS
 62
     7
 10
223.350000
 20
148.836343
 30
0.0
  0
VERTEX
  8
CSLAYER1
  6
CONTINUOUS
 62
     7
 10
223.450596
 20
148.763611
 30
0.0
  0
VERTEX
  8
CSLAYER1
  6
CONTINUOUS
 62
     7
 10
223.555374
 20
148.703333
 30
0.0
  0
VERTEX
  8
CSLAYER1
  6
CONTINUOUS
 62
     7
 10
223.663535
 20
148.655967
 30
0.0
  0
VERTEX
  8
CSLAYER1
  6
CONTINUOUS
 62
     7
 10
223.774257
 20
148.621875
 30
0.0
  0
VERTEX
  8
CSLAYER1
  6
CONTINUOUS
 62
     7
 10
223.886698
 20
148.601315
 30
0.0
  0
VERTEX
  8
CSLAYER1
  6
CONTINUOUS
 62
     7
 10
224.000000
 20
148.594444
 30
0.0
  0
VERTEX
  8
CSLAYER1
  6
CONTINUOUS
 62
     7
 10
224.113302
 20
148.601315
 30
0.0
  0
VERTEX
  8
CSLAYER1
  6
CONTINUOUS
 62
     7
 10
224.225743
 20
148.621875
 30
0.0
  0
VERTEX
  8
CSLAYER1
  6
CONTINUOUS
 62
     7
 10
224.336465
 20
148.655967
 30
0.0
  0
VERTEX
  8
CSLAYER1
  6
CONTINUOUS
 62
     7
 10
224.444626
 20
148.703333
 30
0.0
  0
VERTEX
  8
CSLAYER1
  6
CONTINUOUS
 62
     7
 10
224.549404
 20
148.763611
 30
0.0
  0
VERTEX
  8
CSLAYER1
  6
CONTINUOUS
 62
     7
 10
224.650000
 20
148.836343
 30
0.0
  0
VERTEX
  8
CSLAYER1
  6
CONTINUOUS
 62
     7
 10
224.745649
 20
148.920975
 30
0.0
  0
VERTEX
  8
CSLAYER1
  6
CONTINUOUS
 62
     7
 10
224.835624
 20
149.016864
 30
0.0
  0
VERTEX
  8
CSLAYER1
  6
CONTINUOUS
 62
     7
 10
224.919239
 20
149.123279
 30
0.0
  0
VERTEX
  8
CSLAYER1
  6
CONTINUOUS
 62
     7
 10
224.995858
 20
149.239411
 30
0.0
  0
VERTEX
  8
CSLAYER1
  6
CONTINUOUS
 62
     7
 10
225.064898
 20
149.364376
 30
0.0
  0
VERTEX
  8
CSLAYER1
  6
CONTINUOUS
 62
     7
 10
225.125833
 20
149.497222
 30
0.0
  0
VERTEX
  8
CSLAYER1
  6
CONTINUOUS
 62
     7
 10
225.178200
 20
149.636939
 30
0.0
  0
VERTEX
  8
CSLAYER1
  6
CONTINUOUS
 62
     7
 10
225.221600
 20
149.782464
 30
0.0
  0
VERTEX
  8
CSLAYER1
  6
CONTINUOUS
 62
     7
 10
225.255704
 20
149.932688
 30
0.0
  0
VERTEX
  8
CSLAYER1
  6
CONTINUOUS
 62
     7
 10
225.280250
 20
150.086469
 30
0.0
  0
VERTEX
  8
CSLAYER1
  6
CONTINUOUS
 62
     7
 10
225.295053
 20
150.242635
 30
0.0
  0
VERTEX
  8
CSLAYER1
  6
CONTINUOUS
 62
     7
 10
225.300000
 20
150.400000
 30
0.0
  0
VERTEX
  8
CSLAYER1
  6
CONTINUOUS
 62
     7
 10
225.295053
 20
150.557365
 30
0.0
  0
VERTEX
  8
CSLAYER1
  6
CONTINUOUS
 62
     7
 10
225.280250
 20
150.713531
 30
0.0
  0
VERTEX
  8
CSLAYER1
  6
CONTINUOUS
 62
     7
 10
225.255704
 20
150.867312
 30
0.0
  0
VERTEX
  8
CSLAYER1
  6
CONTINUOUS
 62
     7
 10
225.221600
 20
151.017536
 30
0.0
  0
VERTEX
  8
CSLAYER1
  6
CONTINUOUS
 62
     7
 10
225.178200
 20
151.163061
 30
0.0
  0
VERTEX
  8
CSLAYER1
  6
CONTINUOUS
 62
     7
 10
225.125833
 20
151.302778
 30
0.0
  0
VERTEX
  8
CSLAYER1
  6
CONTINUOUS
 62
     7
 10
225.064898
 20
151.435624
 30
0.0
  0
VERTEX
  8
CSLAYER1
  6
CONTINUOUS
 62
     7
 10
224.995858
 20
151.560589
 30
0.0
  0
VERTEX
  8
CSLAYER1
  6
CONTINUOUS
 62
     7
 10
224.919239
 20
151.676721
 30
0.0
  0
VERTEX
  8
CSLAYER1
  6
CONTINUOUS
 62
     7
 10
224.835624
 20
151.783136
 30
0.0
  0
VERTEX
  8
CSLAYER1
  6
CONTINUOUS
 62
     7
 10
224.745649
 20
151.879025
 30
0.0
  0
VERTEX
  8
CSLAYER1
  6
CONTINUOUS
 62
     7
 10
224.650000
 20
151.963657
 30
0.0
  0
VERTEX
  8
CSLAYER1
  6
CONTINUOUS
 62
     7
 10
224.549404
 20
152.036389
 30
0.0
  0
VERTEX
  8
CSLAYER1
  6
CONTINUOUS
 62
     7
 10
224.444626
 20
152.096667
 30
0.0
  0
VERTEX
  8
CSLAYER1
  6
CONTINUOUS
 62
     7
 10
224.336465
 20
152.144033
 30
0.0
  0
VERTEX
  8
CSLAYER1
  6
CONTINUOUS
 62
     7
 10
224.225743
 20
152.178125
 30
0.0
  0
VERTEX
  8
CSLAYER1
  6
CONTINUOUS
 62
     7
 10
224.113302
 20
152.198685
 30
0.0
  0
VERTEX
  8
CSLAYER1
  6
CONTINUOUS
 62
     7
 10
224.000000
 20
152.205556
 30
0.0
  0
SEQEND
  0
ARC
  8
CSLAYER1
  6
CONTINUOUS
 62
     3
 10
225.011111
 20
145.000000
 40
1.805556
 50
109.000802
 51
250.999198
  0
POLYLINE
  8
CSLAYER1
  6
CONTINUOUS
 62
     7
 66
     1
 10
0.0
 20
0.0
 30
0.0
  0
VERTEX
  8
CSLAYER1
  6
CONTINUOUS
 62
     7
 10
224.000000
 20
146.805556
 30
0.0
  0
VERTEX
  8
CSLAYER1
  6
CONTINUOUS
 62
     7
 10
223.886698
 20
146.798685
 30
0.0
  0
VERTEX
  8
CSLAYER1
  6
CONTINUOUS
 62
     7
 10
223.774257
 20
146.778125
 30
0.0
  0
VERTEX
  8
CSLAYER1
  6
CONTINUOUS
 62
     7
 10
223.663535
 20
146.744033
 30
0.0
  0
VERTEX
  8
CSLAYER1
  6
CONTINUOUS
 62
     7
 10
223.555374
 20
146.696667
 30
0.0
  0
VERTEX
  8
CSLAYER1
  6
CONTINUOUS
 62
     7
 10
223.450596
 20
146.636389
 30
0.0
  0
VERTEX
  8
CSLAYER1
  6
CONTINUOUS
 62
     7
 10
223.350000
 20
146.563657
 30
0.0
  0
VERTEX
  8
CSLAYER1
  6
CONTINUOUS
 62
     7
 10
223.254351
 20
146.479025
 30
0.0
  0
VERTEX
  8
CSLAYER1
  6
CONTINUOUS
 62
     7
 10
223.164376
 20
146.383136
 30
0.0
  0
VERTEX
  8
CSLAYER1
  6
CONTINUOUS
 62
     7
 10
223.080761
 20
146.276721
 30
0.0
  0
VERTEX
  8
CSLAYER1
  6
CONTINUOUS
 62
     7
 10
223.004142
 20
146.160589
 30
0.0
  0
VERTEX
  8
CSLAYER1
  6
CONTINUOUS
 62
     7
 10
222.935102
 20
146.035624
 30
0.0
  0
VERTEX
  8
CSLAYER1
  6
CONTINUOUS
 62
     7
 10
222.874167
 20
145.902778
 30
0.0
  0
VERTEX
  8
CSLAYER1
  6
CONTINUOUS
 62
     7
 10
222.821800
 20
145.763061
 30
0.0
  0
VERTEX
  8
CSLAYER1
  6
CONTINUOUS
 62
     7
 10
222.778400
 20
145.617536
 30
0.0
  0
VERTEX
  8
CSLAYER1
  6
CONTINUOUS
 62
     7
 10
222.744296
 20
145.467312
 30
0.0
  0
VERTEX
  8
CSLAYER1
  6
CONTINUOUS
 62
     7
 10
222.719750
 20
145.313531
 30
0.0
  0
VERTEX
  8
CSLAYER1
  6
CONTINUOUS
 62
     7
 10
222.704947
 20
145.157365
 30
0.0
  0
VERTEX
  8
CSLAYER1
  6
CONTINUOUS
 62
     7
 10
222.700000
 20
145.000000
 30
0.0
  0
VERTEX
  8
CSLAYER1
  6
CONTINUOUS
 62
     7
 10
222.704947
 20
144.842635
 30
0.0
  0
VERTEX
  8
CSLAYER1
  6
CONTINUOUS
 62
     7
 10
222.719750
 20
144.686469
 30
0.0
  0
VERTEX
  8
CSLAYER1
  6
CONTINUOUS
 62
     7
 10
222.744296
 20
144.532688
 30
0.0
  0
VERTEX
  8
CSLAYER1
  6
CONTINUOUS
 62
     7
 10
222.778400
 20
144.382464
 30
0.0
  0
VERTEX
  8
CSLAYER1
  6
CONTINUOUS
 62
     7
 10
222.821800
 20
144.236939
 30
0.0
  0
VERTEX
  8
CSLAYER1
  6
CONTINUOUS
 62
     7
 10
222.874167
 20
144.097222
 30
0.0
  0
VERTEX
  8
CSLAYER1
  6
CONTINUOUS
 62
     7
 10
222.935102
 20
143.964376
 30
0.0
  0
VERTEX
  8
CSLAYER1
  6
CONTINUOUS
 62
     7
 10
223.004142
 20
143.839411
 30
0.0
  0
VERTEX
  8
CSLAYER1
  6
CONTINUOUS
 62
     7
 10
223.080761
 20
143.723279
 30
0.0
  0
VERTEX
  8
CSLAYER1
  6
CONTINUOUS
 62
     7
 10
223.164376
 20
143.616864
 30
0.0
  0
VERTEX
  8
CSLAYER1
  6
CONTINUOUS
 62
     7
 10
223.254351
 20
143.520975
 30
0.0
  0
VERTEX
  8
CSLAYER1
  6
CONTINUOUS
 62
     7
 10
223.350000
 20
143.436343
 30
0.0
  0
VERTEX
  8
CSLAYER1
  6
CONTINUOUS
 62
     7
 10
223.450596
 20
143.363611
 30
0.0
  0
VERTEX
  8
CSLAYER1
  6
CONTINUOUS
 62
     7
 10
223.555374
 20
143.303333
 30
0.0
  0
VERTEX
  8
CSLAYER1
  6
CONTINUOUS
 62
     7
 10
223.663535
 20
143.255967
 30
0.0
  0
VERTEX
  8
CSLAYER1
  6
CONTINUOUS
 62
     7
 10
223.774257
 20
143.221875
 30
0.0
  0
VERTEX
  8
CSLAYER1
  6
CONTINUOUS
 62
     7
 10
223.886698
 20
143.201315
 30
0.0
  0
VERTEX
  8
CSLAYER1
  6
CONTINUOUS
 62
     7
 10
224.000000
 20
143.194444
 30
0.0
  0
VERTEX
  8
CSLAYER1
  6
CONTINUOUS
 62
     7
 10
224.113302
 20
143.201315
 30
0.0
  0
VERTEX
  8
CSLAYER1
  6
CONTINUOUS
 62
     7
 10
224.225743
 20
143.221875
 30
0.0
  0
VERTEX
  8
CSLAYER1
  6
CONTINUOUS
 62
     7
 10
224.336465
 20
143.255967
 30
0.0
  0
VERTEX
  8
CSLAYER1
  6
CONTINUOUS
 62
     7
 10
224.444626
 20
143.303333
 30
0.0
  0
VERTEX
  8
CSLAYER1
  6
CONTINUOUS
 62
     7
 10
224.549404
 20
143.363611
 30
0.0
  0
VERTEX
  8
CSLAYER1
  6
CONTINUOUS
 62
     7
 10
224.650000
 20
143.436343
 30
0.0
  0
VERTEX
  8
CSLAYER1
  6
CONTINUOUS
 62
     7
 10
224.745649
 20
143.520975
 30
0.0
  0
VERTEX
  8
CSLAYER1
  6
CONTINUOUS
 62
     7
 10
224.835624
 20
143.616864
 30
0.0
  0
VERTEX
  8
CSLAYER1
  6
CONTINUOUS
 62
     7
 10
224.919239
 20
143.723279
 30
0.0
  0
VERTEX
  8
CSLAYER1
  6
CONTINUOUS
 62
     7
 10
224.995858
 20
143.839411
 30
0.0
  0
VERTEX
  8
CSLAYER1
  6
CONTINUOUS
 62
     7
 10
225.064898
 20
143.964376
 30
0.0
  0
VERTEX
  8
CSLAYER1
  6
CONTINUOUS
 62
     7
 10
225.125833
 20
144.097222
 30
0.0
  0
VERTEX
  8
CSLAYER1
  6
CONTINUOUS
 62
     7
 10
225.178200
 20
144.236939
 30
0.0
  0
VERTEX
  8
CSLAYER1
  6
CONTINUOUS
 62
     7
 10
225.221600
 20
144.382464
 30
0.0
  0
VERTEX
  8
CSLAYER1
  6
CONTINUOUS
 62
     7
 10
225.255704
 20
144.532688
 30
0.0
  0
VERTEX
  8
CSLAYER1
  6
CONTINUOUS
 62
     7
 10
225.280250
 20
144.686469
 30
0.0
  0
VERTEX
  8
CSLAYER1
  6
CONTINUOUS
 62
     7
 10
225.295053
 20
144.842635
 30
0.0
  0
VERTEX
  8
CSLAYER1
  6
CONTINUOUS
 62
     7
 10
225.300000
 20
145.000000
 30
0.0
  0
VERTEX
  8
CSLAYER1
  6
CONTINUOUS
 62
     7
 10
225.295053
 20
145.157365
 30
0.0
  0
VERTEX
  8
CSLAYER1
  6
CONTINUOUS
 62
     7
 10
225.280250
 20
145.313531
 30
0.0
  0
VERTEX
  8
CSLAYER1
  6
CONTINUOUS
 62
     7
 10
225.255704
 20
145.467312
 30
0.0
  0
VERTEX
  8
CSLAYER1
  6
CONTINUOUS
 62
     7
 10
225.221600
 20
145.617536
 30
0.0
  0
VERTEX
  8
CSLAYER1
  6
CONTINUOUS
 62
     7
 10
225.178200
 20
145.763061
 30
0.0
  0
VERTEX
  8
CSLAYER1
  6
CONTINUOUS
 62
     7
 10
225.125833
 20
145.902778
 30
0.0
  0
VERTEX
  8
CSLAYER1
  6
CONTINUOUS
 62
     7
 10
225.064898
 20
146.035624
 30
0.0
  0
VERTEX
  8
CSLAYER1
  6
CONTINUOUS
 62
     7
 10
224.995858
 20
146.160589
 30
0.0
  0
VERTEX
  8
CSLAYER1
  6
CONTINUOUS
 62
     7
 10
224.919239
 20
146.276721
 30
0.0
  0
VERTEX
  8
CSLAYER1
  6
CONTINUOUS
 62
     7
 10
224.835624
 20
146.383136
 30
0.0
  0
VERTEX
  8
CSLAYER1
  6
CONTINUOUS
 62
     7
 10
224.745649
 20
146.479025
 30
0.0
  0
VERTEX
  8
CSLAYER1
  6
CONTINUOUS
 62
     7
 10
224.650000
 20
146.563657
 30
0.0
  0
VERTEX
  8
CSLAYER1
  6
CONTINUOUS
 62
     7
 10
224.549404
 20
146.636389
 30
0.0
  0
VERTEX
  8
CSLAYER1
  6
CONTINUOUS
 62
     7
 10
224.444626
 20
146.696667
 30
0.0
  0
VERTEX
  8
CSLAYER1
  6
CONTINUOUS
 62
     7
 10
224.336465
 20
146.744033
 30
0.0
  0
VERTEX
  8
CSLAYER1
  6
CONTINUOUS
 62
     7
 10
224.225743
 20
146.778125
 30
0.0
  0
VERTEX
  8
CSLAYER1
  6
CONTINUOUS
 62
     7
 10
224.113302
 20
146.798685
 30
0.0
  0
VERTEX
  8
CSLAYER1
  6
CONTINUOUS
 62
     7
 10
224.000000
 20
146.805556
 30
0.0
  0
SEQEND
  0
ARC
  8
CSLAYER1
  6
CONTINUOUS
 62
     3
 10
225.011111
 20
139.600000
 40
1.805556
 50
109.000802
 51
250.999198
  0
POLYLINE
  8
CSLAYER1
  6
CONTINUOUS
 62
     7
 66
     1
 10
0.0
 20
0.0
 30
0.0
  0
VERTEX
  8
CSLAYER1
  6
CONTINUOUS
 62
     7
 10
224.000000
 20
141.405556
 30
0.0
  0
VERTEX
  8
CSLAYER1
  6
CONTINUOUS
 62
     7
 10
223.886698
 20
141.398685
 30
0.0
  0
VERTEX
  8
CSLAYER1
  6
CONTINUOUS
 62
     7
 10
223.774257
 20
141.378125
 30
0.0
  0
VERTEX
  8
CSLAYER1
  6
CONTINUOUS
 62
     7
 10
223.663535
 20
141.344033
 30
0.0
  0
VERTEX
  8
CSLAYER1
  6
CONTINUOUS
 62
     7
 10
223.555374
 20
141.296667
 30
0.0
  0
VERTEX
  8
CSLAYER1
  6
CONTINUOUS
 62
     7
 10
223.450596
 20
141.236389
 30
0.0
  0
VERTEX
  8
CSLAYER1
  6
CONTINUOUS
 62
     7
 10
223.350000
 20
141.163657
 30
0.0
  0
VERTEX
  8
CSLAYER1
  6
CONTINUOUS
 62
     7
 10
223.254351
 20
141.079025
 30
0.0
  0
VERTEX
  8
CSLAYER1
  6
CONTINUOUS
 62
     7
 10
223.164376
 20
140.983136
 30
0.0
  0
VERTEX
  8
CSLAYER1
  6
CONTINUOUS
 62
     7
 10
223.080761
 20
140.876721
 30
0.0
  0
VERTEX
  8
CSLAYER1
  6
CONTINUOUS
 62
     7
 10
223.004142
 20
140.760589
 30
0.0
  0
VERTEX
  8
CSLAYER1
  6
CONTINUOUS
 62
     7
 10
222.935102
 20
140.635624
 30
0.0
  0
VERTEX
  8
CSLAYER1
  6
CONTINUOUS
 62
     7
 10
222.874167
 20
140.502778
 30
0.0
  0
VERTEX
  8
CSLAYER1
  6
CONTINUOUS
 62
     7
 10
222.821800
 20
140.363061
 30
0.0
  0
VERTEX
  8
CSLAYER1
  6
CONTINUOUS
 62
     7
 10
222.778400
 20
140.217536
 30
0.0
  0
VERTEX
  8
CSLAYER1
  6
CONTINUOUS
 62
     7
 10
222.744296
 20
140.067312
 30
0.0
  0
VERTEX
  8
CSLAYER1
  6
CONTINUOUS
 62
     7
 10
222.719750
 20
139.913531
 30
0.0
  0
VERTEX
  8
CSLAYER1
  6
CONTINUOUS
 62
     7
 10
222.704947
 20
139.757365
 30
0.0
  0
VERTEX
  8
CSLAYER1
  6
CONTINUOUS
 62
     7
 10
222.700000
 20
139.600000
 30
0.0
  0
VERTEX
  8
CSLAYER1
  6
CONTINUOUS
 62
     7
 10
222.704947
 20
139.442635
 30
0.0
  0
VERTEX
  8
CSLAYER1
  6
CONTINUOUS
 62
     7
 10
222.719750
 20
139.286469
 30
0.0
  0
VERTEX
  8
CSLAYER1
  6
CONTINUOUS
 62
     7
 10
222.744296
 20
139.132688
 30
0.0
  0
VERTEX
  8
CSLAYER1
  6
CONTINUOUS
 62
     7
 10
222.778400
 20
138.982464
 30
0.0
  0
VERTEX
  8
CSLAYER1
  6
CONTINUOUS
 62
     7
 10
222.821800
 20
138.836939
 30
0.0
  0
VERTEX
  8
CSLAYER1
  6
CONTINUOUS
 62
     7
 10
222.874167
 20
138.697222
 30
0.0
  0
VERTEX
  8
CSLAYER1
  6
CONTINUOUS
 62
     7
 10
222.935102
 20
138.564376
 30
0.0
  0
VERTEX
  8
CSLAYER1
  6
CONTINUOUS
 62
     7
 10
223.004142
 20
138.439411
 30
0.0
  0
VERTEX
  8
CSLAYER1
  6
CONTINUOUS
 62
     7
 10
223.080761
 20
138.323279
 30
0.0
  0
VERTEX
  8
CSLAYER1
  6
CONTINUOUS
 62
     7
 10
223.164376
 20
138.216864
 30
0.0
  0
VERTEX
  8
CSLAYER1
  6
CONTINUOUS
 62
     7
 10
223.254351
 20
138.120975
 30
0.0
  0
VERTEX
  8
CSLAYER1
  6
CONTINUOUS
 62
     7
 10
223.350000
 20
138.036343
 30
0.0
  0
VERTEX
  8
CSLAYER1
  6
CONTINUOUS
 62
     7
 10
223.450596
 20
137.963611
 30
0.0
  0
VERTEX
  8
CSLAYER1
  6
CONTINUOUS
 62
     7
 10
223.555374
 20
137.903333
 30
0.0
  0
VERTEX
  8
CSLAYER1
  6
CONTINUOUS
 62
     7
 10
223.663535
 20
137.855967
 30
0.0
  0
VERTEX
  8
CSLAYER1
  6
CONTINUOUS
 62
     7
 10
223.774257
 20
137.821875
 30
0.0
  0
VERTEX
  8
CSLAYER1
  6
CONTINUOUS
 62
     7
 10
223.886698
 20
137.801315
 30
0.0
  0
VERTEX
  8
CSLAYER1
  6
CONTINUOUS
 62
     7
 10
224.000000
 20
137.794444
 30
0.0
  0
VERTEX
  8
CSLAYER1
  6
CONTINUOUS
 62
     7
 10
224.113302
 20
137.801315
 30
0.0
  0
VERTEX
  8
CSLAYER1
  6
CONTINUOUS
 62
     7
 10
224.225743
 20
137.821875
 30
0.0
  0
VERTEX
  8
CSLAYER1
  6
CONTINUOUS
 62
     7
 10
224.336465
 20
137.855967
 30
0.0
  0
VERTEX
  8
CSLAYER1
  6
CONTINUOUS
 62
     7
 10
224.444626
 20
137.903333
 30
0.0
  0
VERTEX
  8
CSLAYER1
  6
CONTINUOUS
 62
     7
 10
224.549404
 20
137.963611
 30
0.0
  0
VERTEX
  8
CSLAYER1
  6
CONTINUOUS
 62
     7
 10
224.650000
 20
138.036343
 30
0.0
  0
VERTEX
  8
CSLAYER1
  6
CONTINUOUS
 62
     7
 10
224.745649
 20
138.120975
 30
0.0
  0
VERTEX
  8
CSLAYER1
  6
CONTINUOUS
 62
     7
 10
224.835624
 20
138.216864
 30
0.0
  0
VERTEX
  8
CSLAYER1
  6
CONTINUOUS
 62
     7
 10
224.919239
 20
138.323279
 30
0.0
  0
VERTEX
  8
CSLAYER1
  6
CONTINUOUS
 62
     7
 10
224.995858
 20
138.439411
 30
0.0
  0
VERTEX
  8
CSLAYER1
  6
CONTINUOUS
 62
     7
 10
225.064898
 20
138.564376
 30
0.0
  0
VERTEX
  8
CSLAYER1
  6
CONTINUOUS
 62
     7
 10
225.125833
 20
138.697222
 30
0.0
  0
VERTEX
  8
CSLAYER1
  6
CONTINUOUS
 62
     7
 10
225.178200
 20
138.836939
 30
0.0
  0
VERTEX
  8
CSLAYER1
  6
CONTINUOUS
 62
     7
 10
225.221600
 20
138.982464
 30
0.0
  0
VERTEX
  8
CSLAYER1
  6
CONTINUOUS
 62
     7
 10
225.255704
 20
139.132688
 30
0.0
  0
VERTEX
  8
CSLAYER1
  6
CONTINUOUS
 62
     7
 10
225.280250
 20
139.286469
 30
0.0
  0
VERTEX
  8
CSLAYER1
  6
CONTINUOUS
 62
     7
 10
225.295053
 20
139.442635
 30
0.0
  0
VERTEX
  8
CSLAYER1
  6
CONTINUOUS
 62
     7
 10
225.300000
 20
139.600000
 30
0.0
  0
VERTEX
  8
CSLAYER1
  6
CONTINUOUS
 62
     7
 10
225.295053
 20
139.757365
 30
0.0
  0
VERTEX
  8
CSLAYER1
  6
CONTINUOUS
 62
     7
 10
225.280250
 20
139.913531
 30
0.0
  0
VERTEX
  8
CSLAYER1
  6
CONTINUOUS
 62
     7
 10
225.255704
 20
140.067312
 30
0.0
  0
VERTEX
  8
CSLAYER1
  6
CONTINUOUS
 62
     7
 10
225.221600
 20
140.217536
 30
0.0
  0
VERTEX
  8
CSLAYER1
  6
CONTINUOUS
 62
     7
 10
225.178200
 20
140.363061
 30
0.0
  0
VERTEX
  8
CSLAYER1
  6
CONTINUOUS
 62
     7
 10
225.125833
 20
140.502778
 30
0.0
  0
VERTEX
  8
CSLAYER1
  6
CONTINUOUS
 62
     7
 10
225.064898
 20
140.635624
 30
0.0
  0
VERTEX
  8
CSLAYER1
  6
CONTINUOUS
 62
     7
 10
224.995858
 20
140.760589
 30
0.0
  0
VERTEX
  8
CSLAYER1
  6
CONTINUOUS
 62
     7
 10
224.919239
 20
140.876721
 30
0.0
  0
VERTEX
  8
CSLAYER1
  6
CONTINUOUS
 62
     7
 10
224.835624
 20
140.983136
 30
0.0
  0
VERTEX
  8
CSLAYER1
  6
CONTINUOUS
 62
     7
 10
224.745649
 20
141.079025
 30
0.0
  0
VERTEX
  8
CSLAYER1
  6
CONTINUOUS
 62
     7
 10
224.650000
 20
141.163657
 30
0.0
  0
VERTEX
  8
CSLAYER1
  6
CONTINUOUS
 62
     7
 10
224.549404
 20
141.236389
 30
0.0
  0
VERTEX
  8
CSLAYER1
  6
CONTINUOUS
 62
     7
 10
224.444626
 20
141.296667
 30
0.0
  0
VERTEX
  8
CSLAYER1
  6
CONTINUOUS
 62
     7
 10
224.336465
 20
141.344033
 30
0.0
  0
VERTEX
  8
CSLAYER1
  6
CONTINUOUS
 62
     7
 10
224.225743
 20
141.378125
 30
0.0
  0
VERTEX
  8
CSLAYER1
  6
CONTINUOUS
 62
     7
 10
224.113302
 20
141.398685
 30
0.0
  0
VERTEX
  8
CSLAYER1
  6
CONTINUOUS
 62
     7
 10
224.000000
 20
141.405556
 30
0.0
  0
SEQEND
  0
ARC
  8
CSLAYER1
  6
CONTINUOUS
 62
     3
 10
225.011111
 20
134.200000
 40
1.805556
 50
109.000802
 51
250.999198
  0
POLYLINE
  8
CSLAYER1
  6
CONTINUOUS
 62
     7
 66
     1
 10
0.0
 20
0.0
 30
0.0
  0
VERTEX
  8
CSLAYER1
  6
CONTINUOUS
 62
     7
 10
224.000000
 20
136.005556
 30
0.0
  0
VERTEX
  8
CSLAYER1
  6
CONTINUOUS
 62
     7
 10
223.886698
 20
135.998685
 30
0.0
  0
VERTEX
  8
CSLAYER1
  6
CONTINUOUS
 62
     7
 10
223.774257
 20
135.978125
 30
0.0
  0
VERTEX
  8
CSLAYER1
  6
CONTINUOUS
 62
     7
 10
223.663535
 20
135.944033
 30
0.0
  0
VERTEX
  8
CSLAYER1
  6
CONTINUOUS
 62
     7
 10
223.555374
 20
135.896667
 30
0.0
  0
VERTEX
  8
CSLAYER1
  6
CONTINUOUS
 62
     7
 10
223.450596
 20
135.836389
 30
0.0
  0
VERTEX
  8
CSLAYER1
  6
CONTINUOUS
 62
     7
 10
223.350000
 20
135.763657
 30
0.0
  0
VERTEX
  8
CSLAYER1
  6
CONTINUOUS
 62
     7
 10
223.254351
 20
135.679025
 30
0.0
  0
VERTEX
  8
CSLAYER1
  6
CONTINUOUS
 62
     7
 10
223.164376
 20
135.583136
 30
0.0
  0
VERTEX
  8
CSLAYER1
  6
CONTINUOUS
 62
     7
 10
223.080761
 20
135.476721
 30
0.0
  0
VERTEX
  8
CSLAYER1
  6
CONTINUOUS
 62
     7
 10
223.004142
 20
135.360589
 30
0.0
  0
VERTEX
  8
CSLAYER1
  6
CONTINUOUS
 62
     7
 10
222.935102
 20
135.235624
 30
0.0
  0
VERTEX
  8
CSLAYER1
  6
CONTINUOUS
 62
     7
 10
222.874167
 20
135.102778
 30
0.0
  0
VERTEX
  8
CSLAYER1
  6
CONTINUOUS
 62
     7
 10
222.821800
 20
134.963061
 30
0.0
  0
VERTEX
  8
CSLAYER1
  6
CONTINUOUS
 62
     7
 10
222.778400
 20
134.817536
 30
0.0
  0
VERTEX
  8
CSLAYER1
  6
CONTINUOUS
 62
     7
 10
222.744296
 20
134.667312
 30
0.0
  0
VERTEX
  8
CSLAYER1
  6
CONTINUOUS
 62
     7
 10
222.719750
 20
134.513531
 30
0.0
  0
VERTEX
  8
CSLAYER1
  6
CONTINUOUS
 62
     7
 10
222.704947
 20
134.357365
 30
0.0
  0
VERTEX
  8
CSLAYER1
  6
CONTINUOUS
 62
     7
 10
222.700000
 20
134.200000
 30
0.0
  0
VERTEX
  8
CSLAYER1
  6
CONTINUOUS
 62
     7
 10
222.704947
 20
134.042635
 30
0.0
  0
VERTEX
  8
CSLAYER1
  6
CONTINUOUS
 62
     7
 10
222.719750
 20
133.886469
 30
0.0
  0
VERTEX
  8
CSLAYER1
  6
CONTINUOUS
 62
     7
 10
222.744296
 20
133.732688
 30
0.0
  0
VERTEX
  8
CSLAYER1
  6
CONTINUOUS
 62
     7
 10
222.778400
 20
133.582464
 30
0.0
  0
VERTEX
  8
CSLAYER1
  6
CONTINUOUS
 62
     7
 10
222.821800
 20
133.436939
 30
0.0
  0
VERTEX
  8
CSLAYER1
  6
CONTINUOUS
 62
     7
 10
222.874167
 20
133.297222
 30
0.0
  0
VERTEX
  8
CSLAYER1
  6
CONTINUOUS
 62
     7
 10
222.935102
 20
133.164376
 30
0.0
  0
VERTEX
  8
CSLAYER1
  6
CONTINUOUS
 62
     7
 10
223.004142
 20
133.039411
 30
0.0
  0
VERTEX
  8
CSLAYER1
  6
CONTINUOUS
 62
     7
 10
223.080761
 20
132.923279
 30
0.0
  0
VERTEX
  8
CSLAYER1
  6
CONTINUOUS
 62
     7
 10
223.164376
 20
132.816864
 30
0.0
  0
VERTEX
  8
CSLAYER1
  6
CONTINUOUS
 62
     7
 10
223.254351
 20
132.720975
 30
0.0
  0
VERTEX
  8
CSLAYER1
  6
CONTINUOUS
 62
     7
 10
223.350000
 20
132.636343
 30
0.0
  0
VERTEX
  8
CSLAYER1
  6
CONTINUOUS
 62
     7
 10
223.450596
 20
132.563611
 30
0.0
  0
VERTEX
  8
CSLAYER1
  6
CONTINUOUS
 62
     7
 10
223.555374
 20
132.503333
 30
0.0
  0
VERTEX
  8
CSLAYER1
  6
CONTINUOUS
 62
     7
 10
223.663535
 20
132.455967
 30
0.0
  0
VERTEX
  8
CSLAYER1
  6
CONTINUOUS
 62
     7
 10
223.774257
 20
132.421875
 30
0.0
  0
VERTEX
  8
CSLAYER1
  6
CONTINUOUS
 62
     7
 10
223.886698
 20
132.401315
 30
0.0
  0
VERTEX
  8
CSLAYER1
  6
CONTINUOUS
 62
     7
 10
224.000000
 20
132.394444
 30
0.0
  0
VERTEX
  8
CSLAYER1
  6
CONTINUOUS
 62
     7
 10
224.113302
 20
132.401315
 30
0.0
  0
VERTEX
  8
CSLAYER1
  6
CONTINUOUS
 62
     7
 10
224.225743
 20
132.421875
 30
0.0
  0
VERTEX
  8
CSLAYER1
  6
CONTINUOUS
 62
     7
 10
224.336465
 20
132.455967
 30
0.0
  0
VERTEX
  8
CSLAYER1
  6
CONTINUOUS
 62
     7
 10
224.444626
 20
132.503333
 30
0.0
  0
VERTEX
  8
CSLAYER1
  6
CONTINUOUS
 62
     7
 10
224.549404
 20
132.563611
 30
0.0
  0
VERTEX
  8
CSLAYER1
  6
CONTINUOUS
 62
     7
 10
224.650000
 20
132.636343
 30
0.0
  0
VERTEX
  8
CSLAYER1
  6
CONTINUOUS
 62
     7
 10
224.745649
 20
132.720975
 30
0.0
  0
VERTEX
  8
CSLAYER1
  6
CONTINUOUS
 62
     7
 10
224.835624
 20
132.816864
 30
0.0
  0
VERTEX
  8
CSLAYER1
  6
CONTINUOUS
 62
     7
 10
224.919239
 20
132.923279
 30
0.0
  0
VERTEX
  8
CSLAYER1
  6
CONTINUOUS
 62
     7
 10
224.995858
 20
133.039411
 30
0.0
  0
VERTEX
  8
CSLAYER1
  6
CONTINUOUS
 62
     7
 10
225.064898
 20
133.164376
 30
0.0
  0
VERTEX
  8
CSLAYER1
  6
CONTINUOUS
 62
     7
 10
225.125833
 20
133.297222
 30
0.0
  0
VERTEX
  8
CSLAYER1
  6
CONTINUOUS
 62
     7
 10
225.178200
 20
133.436939
 30
0.0
  0
VERTEX
  8
CSLAYER1
  6
CONTINUOUS
 62
     7
 10
225.221600
 20
133.582464
 30
0.0
  0
VERTEX
  8
CSLAYER1
  6
CONTINUOUS
 62
     7
 10
225.255704
 20
133.732688
 30
0.0
  0
VERTEX
  8
CSLAYER1
  6
CONTINUOUS
 62
     7
 10
225.280250
 20
133.886469
 30
0.0
  0
VERTEX
  8
CSLAYER1
  6
CONTINUOUS
 62
     7
 10
225.295053
 20
134.042635
 30
0.0
  0
VERTEX
  8
CSLAYER1
  6
CONTINUOUS
 62
     7
 10
225.300000
 20
134.200000
 30
0.0
  0
VERTEX
  8
CSLAYER1
  6
CONTINUOUS
 62
     7
 10
225.295053
 20
134.357365
 30
0.0
  0
VERTEX
  8
CSLAYER1
  6
CONTINUOUS
 62
     7
 10
225.280250
 20
134.513531
 30
0.0
  0
VERTEX
  8
CSLAYER1
  6
CONTINUOUS
 62
     7
 10
225.255704
 20
134.667312
 30
0.0
  0
VERTEX
  8
CSLAYER1
  6
CONTINUOUS
 62
     7
 10
225.221600
 20
134.817536
 30
0.0
  0
VERTEX
  8
CSLAYER1
  6
CONTINUOUS
 62
     7
 10
225.178200
 20
134.963061
 30
0.0
  0
VERTEX
  8
CSLAYER1
  6
CONTINUOUS
 62
     7
 10
225.125833
 20
135.102778
 30
0.0
  0
VERTEX
  8
CSLAYER1
  6
CONTINUOUS
 62
     7
 10
225.064898
 20
135.235624
 30
0.0
  0
VERTEX
  8
CSLAYER1
  6
CONTINUOUS
 62
     7
 10
224.995858
 20
135.360589
 30
0.0
  0
VERTEX
  8
CSLAYER1
  6
CONTINUOUS
 62
     7
 10
224.919239
 20
135.476721
 30
0.0
  0
VERTEX
  8
CSLAYER1
  6
CONTINUOUS
 62
     7
 10
224.835624
 20
135.583136
 30
0.0
  0
VERTEX
  8
CSLAYER1
  6
CONTINUOUS
 62
     7
 10
224.745649
 20
135.679025
 30
0.0
  0
VERTEX
  8
CSLAYER1
  6
CONTINUOUS
 62
     7
 10
224.650000
 20
135.763657
 30
0.0
  0
VERTEX
  8
CSLAYER1
  6
CONTINUOUS
 62
     7
 10
224.549404
 20
135.836389
 30
0.0
  0
VERTEX
  8
CSLAYER1
  6
CONTINUOUS
 62
     7
 10
224.444626
 20
135.896667
 30
0.0
  0
VERTEX
  8
CSLAYER1
  6
CONTINUOUS
 62
     7
 10
224.336465
 20
135.944033
 30
0.0
  0
VERTEX
  8
CSLAYER1
  6
CONTINUOUS
 62
     7
 10
224.225743
 20
135.978125
 30
0.0
  0
VERTEX
  8
CSLAYER1
  6
CONTINUOUS
 62
     7
 10
224.113302
 20
135.998685
 30
0.0
  0
VERTEX
  8
CSLAYER1
  6
CONTINUOUS
 62
     7
 10
224.000000
 20
136.005556
 30
0.0
  0
SEQEND
  0
ARC
  8
CSLAYER1
  6
CONTINUOUS
 62
     3
 10
225.011111
 20
128.800000
 40
1.805556
 50
109.000802
 51
250.999198
  0
POLYLINE
  8
CSLAYER1
  6
CONTINUOUS
 62
     7
 66
     1
 10
0.0
 20
0.0
 30
0.0
  0
VERTEX
  8
CSLAYER1
  6
CONTINUOUS
 62
     7
 10
224.000000
 20
130.605556
 30
0.0
  0
VERTEX
  8
CSLAYER1
  6
CONTINUOUS
 62
     7
 10
223.886698
 20
130.598685
 30
0.0
  0
VERTEX
  8
CSLAYER1
  6
CONTINUOUS
 62
     7
 10
223.774257
 20
130.578125
 30
0.0
  0
VERTEX
  8
CSLAYER1
  6
CONTINUOUS
 62
     7
 10
223.663535
 20
130.544033
 30
0.0
  0
VERTEX
  8
CSLAYER1
  6
CONTINUOUS
 62
     7
 10
223.555374
 20
130.496667
 30
0.0
  0
VERTEX
  8
CSLAYER1
  6
CONTINUOUS
 62
     7
 10
223.450596
 20
130.436389
 30
0.0
  0
VERTEX
  8
CSLAYER1
  6
CONTINUOUS
 62
     7
 10
223.350000
 20
130.363657
 30
0.0
  0
VERTEX
  8
CSLAYER1
  6
CONTINUOUS
 62
     7
 10
223.254351
 20
130.279025
 30
0.0
  0
VERTEX
  8
CSLAYER1
  6
CONTINUOUS
 62
     7
 10
223.164376
 20
130.183136
 30
0.0
  0
VERTEX
  8
CSLAYER1
  6
CONTINUOUS
 62
     7
 10
223.080761
 20
130.076721
 30
0.0
  0
VERTEX
  8
CSLAYER1
  6
CONTINUOUS
 62
     7
 10
223.004142
 20
129.960589
 30
0.0
  0
VERTEX
  8
CSLAYER1
  6
CONTINUOUS
 62
     7
 10
222.935102
 20
129.835624
 30
0.0
  0
VERTEX
  8
CSLAYER1
  6
CONTINUOUS
 62
     7
 10
222.874167
 20
129.702778
 30
0.0
  0
VERTEX
  8
CSLAYER1
  6
CONTINUOUS
 62
     7
 10
222.821800
 20
129.563061
 30
0.0
  0
VERTEX
  8
CSLAYER1
  6
CONTINUOUS
 62
     7
 10
222.778400
 20
129.417536
 30
0.0
  0
VERTEX
  8
CSLAYER1
  6
CONTINUOUS
 62
     7
 10
222.744296
 20
129.267312
 30
0.0
  0
VERTEX
  8
CSLAYER1
  6
CONTINUOUS
 62
     7
 10
222.719750
 20
129.113531
 30
0.0
  0
VERTEX
  8
CSLAYER1
  6
CONTINUOUS
 62
     7
 10
222.704947
 20
128.957365
 30
0.0
  0
VERTEX
  8
CSLAYER1
  6
CONTINUOUS
 62
     7
 10
222.700000
 20
128.800000
 30
0.0
  0
VERTEX
  8
CSLAYER1
  6
CONTINUOUS
 62
     7
 10
222.704947
 20
128.642635
 30
0.0
  0
VERTEX
  8
CSLAYER1
  6
CONTINUOUS
 62
     7
 10
222.719750
 20
128.486469
 30
0.0
  0
VERTEX
  8
CSLAYER1
  6
CONTINUOUS
 62
     7
 10
222.744296
 20
128.332688
 30
0.0
  0
VERTEX
  8
CSLAYER1
  6
CONTINUOUS
 62
     7
 10
222.778400
 20
128.182464
 30
0.0
  0
VERTEX
  8
CSLAYER1
  6
CONTINUOUS
 62
     7
 10
222.821800
 20
128.036939
 30
0.0
  0
VERTEX
  8
CSLAYER1
  6
CONTINUOUS
 62
     7
 10
222.874167
 20
127.897222
 30
0.0
  0
VERTEX
  8
CSLAYER1
  6
CONTINUOUS
 62
     7
 10
222.935102
 20
127.764376
 30
0.0
  0
VERTEX
  8
CSLAYER1
  6
CONTINUOUS
 62
     7
 10
223.004142
 20
127.639411
 30
0.0
  0
VERTEX
  8
CSLAYER1
  6
CONTINUOUS
 62
     7
 10
223.080761
 20
127.523279
 30
0.0
  0
VERTEX
  8
CSLAYER1
  6
CONTINUOUS
 62
     7
 10
223.164376
 20
127.416864
 30
0.0
  0
VERTEX
  8
CSLAYER1
  6
CONTINUOUS
 62
     7
 10
223.254351
 20
127.320975
 30
0.0
  0
VERTEX
  8
CSLAYER1
  6
CONTINUOUS
 62
     7
 10
223.350000
 20
127.236343
 30
0.0
  0
VERTEX
  8
CSLAYER1
  6
CONTINUOUS
 62
     7
 10
223.450596
 20
127.163611
 30
0.0
  0
VERTEX
  8
CSLAYER1
  6
CONTINUOUS
 62
     7
 10
223.555374
 20
127.103333
 30
0.0
  0
VERTEX
  8
CSLAYER1
  6
CONTINUOUS
 62
     7
 10
223.663535
 20
127.055967
 30
0.0
  0
VERTEX
  8
CSLAYER1
  6
CONTINUOUS
 62
     7
 10
223.774257
 20
127.021875
 30
0.0
  0
VERTEX
  8
CSLAYER1
  6
CONTINUOUS
 62
     7
 10
223.886698
 20
127.001315
 30
0.0
  0
VERTEX
  8
CSLAYER1
  6
CONTINUOUS
 62
     7
 10
224.000000
 20
126.994444
 30
0.0
  0
VERTEX
  8
CSLAYER1
  6
CONTINUOUS
 62
     7
 10
224.113302
 20
127.001315
 30
0.0
  0
VERTEX
  8
CSLAYER1
  6
CONTINUOUS
 62
     7
 10
224.225743
 20
127.021875
 30
0.0
  0
VERTEX
  8
CSLAYER1
  6
CONTINUOUS
 62
     7
 10
224.336465
 20
127.055967
 30
0.0
  0
VERTEX
  8
CSLAYER1
  6
CONTINUOUS
 62
     7
 10
224.444626
 20
127.103333
 30
0.0
  0
VERTEX
  8
CSLAYER1
  6
CONTINUOUS
 62
     7
 10
224.549404
 20
127.163611
 30
0.0
  0
VERTEX
  8
CSLAYER1
  6
CONTINUOUS
 62
     7
 10
224.650000
 20
127.236343
 30
0.0
  0
VERTEX
  8
CSLAYER1
  6
CONTINUOUS
 62
     7
 10
224.745649
 20
127.320975
 30
0.0
  0
VERTEX
  8
CSLAYER1
  6
CONTINUOUS
 62
     7
 10
224.835624
 20
127.416864
 30
0.0
  0
VERTEX
  8
CSLAYER1
  6
CONTINUOUS
 62
     7
 10
224.919239
 20
127.523279
 30
0.0
  0
VERTEX
  8
CSLAYER1
  6
CONTINUOUS
 62
     7
 10
224.995858
 20
127.639411
 30
0.0
  0
VERTEX
  8
CSLAYER1
  6
CONTINUOUS
 62
     7
 10
225.064898
 20
127.764376
 30
0.0
  0
VERTEX
  8
CSLAYER1
  6
CONTINUOUS
 62
     7
 10
225.125833
 20
127.897222
 30
0.0
  0
VERTEX
  8
CSLAYER1
  6
CONTINUOUS
 62
     7
 10
225.178200
 20
128.036939
 30
0.0
  0
VERTEX
  8
CSLAYER1
  6
CONTINUOUS
 62
     7
 10
225.221600
 20
128.182464
 30
0.0
  0
VERTEX
  8
CSLAYER1
  6
CONTINUOUS
 62
     7
 10
225.255704
 20
128.332688
 30
0.0
  0
VERTEX
  8
CSLAYER1
  6
CONTINUOUS
 62
     7
 10
225.280250
 20
128.486469
 30
0.0
  0
VERTEX
  8
CSLAYER1
  6
CONTINUOUS
 62
     7
 10
225.295053
 20
128.642635
 30
0.0
  0
VERTEX
  8
CSLAYER1
  6
CONTINUOUS
 62
     7
 10
225.300000
 20
128.800000
 30
0.0
  0
VERTEX
  8
CSLAYER1
  6
CONTINUOUS
 62
     7
 10
225.295053
 20
128.957365
 30
0.0
  0
VERTEX
  8
CSLAYER1
  6
CONTINUOUS
 62
     7
 10
225.280250
 20
129.113531
 30
0.0
  0
VERTEX
  8
CSLAYER1
  6
CONTINUOUS
 62
     7
 10
225.255704
 20
129.267312
 30
0.0
  0
VERTEX
  8
CSLAYER1
  6
CONTINUOUS
 62
     7
 10
225.221600
 20
129.417536
 30
0.0
  0
VERTEX
  8
CSLAYER1
  6
CONTINUOUS
 62
     7
 10
225.178200
 20
129.563061
 30
0.0
  0
VERTEX
  8
CSLAYER1
  6
CONTINUOUS
 62
     7
 10
225.125833
 20
129.702778
 30
0.0
  0
VERTEX
  8
CSLAYER1
  6
CONTINUOUS
 62
     7
 10
225.064898
 20
129.835624
 30
0.0
  0
VERTEX
  8
CSLAYER1
  6
CONTINUOUS
 62
     7
 10
224.995858
 20
129.960589
 30
0.0
  0
VERTEX
  8
CSLAYER1
  6
CONTINUOUS
 62
     7
 10
224.919239
 20
130.076721
 30
0.0
  0
VERTEX
  8
CSLAYER1
  6
CONTINUOUS
 62
     7
 10
224.835624
 20
130.183136
 30
0.0
  0
VERTEX
  8
CSLAYER1
  6
CONTINUOUS
 62
     7
 10
224.745649
 20
130.279025
 30
0.0
  0
VERTEX
  8
CSLAYER1
  6
CONTINUOUS
 62
     7
 10
224.650000
 20
130.363657
 30
0.0
  0
VERTEX
  8
CSLAYER1
  6
CONTINUOUS
 62
     7
 10
224.549404
 20
130.436389
 30
0.0
  0
VERTEX
  8
CSLAYER1
  6
CONTINUOUS
 62
     7
 10
224.444626
 20
130.496667
 30
0.0
  0
VERTEX
  8
CSLAYER1
  6
CONTINUOUS
 62
     7
 10
224.336465
 20
130.544033
 30
0.0
  0
VERTEX
  8
CSLAYER1
  6
CONTINUOUS
 62
     7
 10
224.225743
 20
130.578125
 30
0.0
  0
VERTEX
  8
CSLAYER1
  6
CONTINUOUS
 62
     7
 10
224.113302
 20
130.598685
 30
0.0
  0
VERTEX
  8
CSLAYER1
  6
CONTINUOUS
 62
     7
 10
224.000000
 20
130.605556
 30
0.0
  0
SEQEND
  0
ARC
  8
CSLAYER1
  6
CONTINUOUS
 62
     3
 10
225.011111
 20
123.400000
 40
1.805556
 50
109.000802
 51
250.999198
  0
POLYLINE
  8
CSLAYER1
  6
CONTINUOUS
 62
     7
 66
     1
 10
0.0
 20
0.0
 30
0.0
  0
VERTEX
  8
CSLAYER1
  6
CONTINUOUS
 62
     7
 10
224.000000
 20
125.205556
 30
0.0
  0
VERTEX
  8
CSLAYER1
  6
CONTINUOUS
 62
     7
 10
223.886698
 20
125.198685
 30
0.0
  0
VERTEX
  8
CSLAYER1
  6
CONTINUOUS
 62
     7
 10
223.774257
 20
125.178125
 30
0.0
  0
VERTEX
  8
CSLAYER1
  6
CONTINUOUS
 62
     7
 10
223.663535
 20
125.144033
 30
0.0
  0
VERTEX
  8
CSLAYER1
  6
CONTINUOUS
 62
     7
 10
223.555374
 20
125.096667
 30
0.0
  0
VERTEX
  8
CSLAYER1
  6
CONTINUOUS
 62
     7
 10
223.450596
 20
125.036389
 30
0.0
  0
VERTEX
  8
CSLAYER1
  6
CONTINUOUS
 62
     7
 10
223.350000
 20
124.963657
 30
0.0
  0
VERTEX
  8
CSLAYER1
  6
CONTINUOUS
 62
     7
 10
223.254351
 20
124.879025
 30
0.0
  0
VERTEX
  8
CSLAYER1
  6
CONTINUOUS
 62
     7
 10
223.164376
 20
124.783136
 30
0.0
  0
VERTEX
  8
CSLAYER1
  6
CONTINUOUS
 62
     7
 10
223.080761
 20
124.676721
 30
0.0
  0
VERTEX
  8
CSLAYER1
  6
CONTINUOUS
 62
     7
 10
223.004142
 20
124.560589
 30
0.0
  0
VERTEX
  8
CSLAYER1
  6
CONTINUOUS
 62
     7
 10
222.935102
 20
124.435624
 30
0.0
  0
VERTEX
  8
CSLAYER1
  6
CONTINUOUS
 62
     7
 10
222.874167
 20
124.302778
 30
0.0
  0
VERTEX
  8
CSLAYER1
  6
CONTINUOUS
 62
     7
 10
222.821800
 20
124.163061
 30
0.0
  0
VERTEX
  8
CSLAYER1
  6
CONTINUOUS
 62
     7
 10
222.778400
 20
124.017536
 30
0.0
  0
VERTEX
  8
CSLAYER1
  6
CONTINUOUS
 62
     7
 10
222.744296
 20
123.867312
 30
0.0
  0
VERTEX
  8
CSLAYER1
  6
CONTINUOUS
 62
     7
 10
222.719750
 20
123.713531
 30
0.0
  0
VERTEX
  8
CSLAYER1
  6
CONTINUOUS
 62
     7
 10
222.704947
 20
123.557365
 30
0.0
  0
VERTEX
  8
CSLAYER1
  6
CONTINUOUS
 62
     7
 10
222.700000
 20
123.400000
 30
0.0
  0
VERTEX
  8
CSLAYER1
  6
CONTINUOUS
 62
     7
 10
222.704947
 20
123.242635
 30
0.0
  0
VERTEX
  8
CSLAYER1
  6
CONTINUOUS
 62
     7
 10
222.719750
 20
123.086469
 30
0.0
  0
VERTEX
  8
CSLAYER1
  6
CONTINUOUS
 62
     7
 10
222.744296
 20
122.932688
 30
0.0
  0
VERTEX
  8
CSLAYER1
  6
CONTINUOUS
 62
     7
 10
222.778400
 20
122.782464
 30
0.0
  0
VERTEX
  8
CSLAYER1
  6
CONTINUOUS
 62
     7
 10
222.821800
 20
122.636939
 30
0.0
  0
VERTEX
  8
CSLAYER1
  6
CONTINUOUS
 62
     7
 10
222.874167
 20
122.497222
 30
0.0
  0
VERTEX
  8
CSLAYER1
  6
CONTINUOUS
 62
     7
 10
222.935102
 20
122.364376
 30
0.0
  0
VERTEX
  8
CSLAYER1
  6
CONTINUOUS
 62
     7
 10
223.004142
 20
122.239411
 30
0.0
  0
VERTEX
  8
CSLAYER1
  6
CONTINUOUS
 62
     7
 10
223.080761
 20
122.123279
 30
0.0
  0
VERTEX
  8
CSLAYER1
  6
CONTINUOUS
 62
     7
 10
223.164376
 20
122.016864
 30
0.0
  0
VERTEX
  8
CSLAYER1
  6
CONTINUOUS
 62
     7
 10
223.254351
 20
121.920975
 30
0.0
  0
VERTEX
  8
CSLAYER1
  6
CONTINUOUS
 62
     7
 10
223.350000
 20
121.836343
 30
0.0
  0
VERTEX
  8
CSLAYER1
  6
CONTINUOUS
 62
     7
 10
223.450596
 20
121.763611
 30
0.0
  0
VERTEX
  8
CSLAYER1
  6
CONTINUOUS
 62
     7
 10
223.555374
 20
121.703333
 30
0.0
  0
VERTEX
  8
CSLAYER1
  6
CONTINUOUS
 62
     7
 10
223.663535
 20
121.655967
 30
0.0
  0
VERTEX
  8
CSLAYER1
  6
CONTINUOUS
 62
     7
 10
223.774257
 20
121.621875
 30
0.0
  0
VERTEX
  8
CSLAYER1
  6
CONTINUOUS
 62
     7
 10
223.886698
 20
121.601315
 30
0.0
  0
VERTEX
  8
CSLAYER1
  6
CONTINUOUS
 62
     7
 10
224.000000
 20
121.594444
 30
0.0
  0
VERTEX
  8
CSLAYER1
  6
CONTINUOUS
 62
     7
 10
224.113302
 20
121.601315
 30
0.0
  0
VERTEX
  8
CSLAYER1
  6
CONTINUOUS
 62
     7
 10
224.225743
 20
121.621875
 30
0.0
  0
VERTEX
  8
CSLAYER1
  6
CONTINUOUS
 62
     7
 10
224.336465
 20
121.655967
 30
0.0
  0
VERTEX
  8
CSLAYER1
  6
CONTINUOUS
 62
     7
 10
224.444626
 20
121.703333
 30
0.0
  0
VERTEX
  8
CSLAYER1
  6
CONTINUOUS
 62
     7
 10
224.549404
 20
121.763611
 30
0.0
  0
VERTEX
  8
CSLAYER1
  6
CONTINUOUS
 62
     7
 10
224.650000
 20
121.836343
 30
0.0
  0
VERTEX
  8
CSLAYER1
  6
CONTINUOUS
 62
     7
 10
224.745649
 20
121.920975
 30
0.0
  0
VERTEX
  8
CSLAYER1
  6
CONTINUOUS
 62
     7
 10
224.835624
 20
122.016864
 30
0.0
  0
VERTEX
  8
CSLAYER1
  6
CONTINUOUS
 62
     7
 10
224.919239
 20
122.123279
 30
0.0
  0
VERTEX
  8
CSLAYER1
  6
CONTINUOUS
 62
     7
 10
224.995858
 20
122.239411
 30
0.0
  0
VERTEX
  8
CSLAYER1
  6
CONTINUOUS
 62
     7
 10
225.064898
 20
122.364376
 30
0.0
  0
VERTEX
  8
CSLAYER1
  6
CONTINUOUS
 62
     7
 10
225.125833
 20
122.497222
 30
0.0
  0
VERTEX
  8
CSLAYER1
  6
CONTINUOUS
 62
     7
 10
225.178200
 20
122.636939
 30
0.0
  0
VERTEX
  8
CSLAYER1
  6
CONTINUOUS
 62
     7
 10
225.221600
 20
122.782464
 30
0.0
  0
VERTEX
  8
CSLAYER1
  6
CONTINUOUS
 62
     7
 10
225.255704
 20
122.932688
 30
0.0
  0
VERTEX
  8
CSLAYER1
  6
CONTINUOUS
 62
     7
 10
225.280250
 20
123.086469
 30
0.0
  0
VERTEX
  8
CSLAYER1
  6
CONTINUOUS
 62
     7
 10
225.295053
 20
123.242635
 30
0.0
  0
VERTEX
  8
CSLAYER1
  6
CONTINUOUS
 62
     7
 10
225.300000
 20
123.400000
 30
0.0
  0
VERTEX
  8
CSLAYER1
  6
CONTINUOUS
 62
     7
 10
225.295053
 20
123.557365
 30
0.0
  0
VERTEX
  8
CSLAYER1
  6
CONTINUOUS
 62
     7
 10
225.280250
 20
123.713531
 30
0.0
  0
VERTEX
  8
CSLAYER1
  6
CONTINUOUS
 62
     7
 10
225.255704
 20
123.867312
 30
0.0
  0
VERTEX
  8
CSLAYER1
  6
CONTINUOUS
 62
     7
 10
225.221600
 20
124.017536
 30
0.0
  0
VERTEX
  8
CSLAYER1
  6
CONTINUOUS
 62
     7
 10
225.178200
 20
124.163061
 30
0.0
  0
VERTEX
  8
CSLAYER1
  6
CONTINUOUS
 62
     7
 10
225.125833
 20
124.302778
 30
0.0
  0
VERTEX
  8
CSLAYER1
  6
CONTINUOUS
 62
     7
 10
225.064898
 20
124.435624
 30
0.0
  0
VERTEX
  8
CSLAYER1
  6
CONTINUOUS
 62
     7
 10
224.995858
 20
124.560589
 30
0.0
  0
VERTEX
  8
CSLAYER1
  6
CONTINUOUS
 62
     7
 10
224.919239
 20
124.676721
 30
0.0
  0
VERTEX
  8
CSLAYER1
  6
CONTINUOUS
 62
     7
 10
224.835624
 20
124.783136
 30
0.0
  0
VERTEX
  8
CSLAYER1
  6
CONTINUOUS
 62
     7
 10
224.745649
 20
124.879025
 30
0.0
  0
VERTEX
  8
CSLAYER1
  6
CONTINUOUS
 62
     7
 10
224.650000
 20
124.963657
 30
0.0
  0
VERTEX
  8
CSLAYER1
  6
CONTINUOUS
 62
     7
 10
224.549404
 20
125.036389
 30
0.0
  0
VERTEX
  8
CSLAYER1
  6
CONTINUOUS
 62
     7
 10
224.444626
 20
125.096667
 30
0.0
  0
VERTEX
  8
CSLAYER1
  6
CONTINUOUS
 62
     7
 10
224.336465
 20
125.144033
 30
0.0
  0
VERTEX
  8
CSLAYER1
  6
CONTINUOUS
 62
     7
 10
224.225743
 20
125.178125
 30
0.0
  0
VERTEX
  8
CSLAYER1
  6
CONTINUOUS
 62
     7
 10
224.113302
 20
125.198685
 30
0.0
  0
VERTEX
  8
CSLAYER1
  6
CONTINUOUS
 62
     7
 10
224.000000
 20
125.205556
 30
0.0
  0
SEQEND
  0
LINE
  8
CSLAYER1
  6
CONTINUOUS
 62
     3
 10
224.976666
 20
167.791634
 11
223.622438
 21
165.446043
  0
LINE
  8
CSLAYER1
  6
CONTINUOUS
 62
     3
 10
224.976666
 20
162.391634
 11
223.622438
 21
160.046043
  0
LINE
  8
CSLAYER1
  6
CONTINUOUS
 62
     3
 10
224.976666
 20
156.991634
 11
223.622438
 21
154.646043
  0
LINE
  8
CSLAYER1
  6
CONTINUOUS
 62
     3
 10
224.976666
 20
151.591634
 11
223.622438
 21
149.246043
  0
LINE
  8
CSLAYER1
  6
CONTINUOUS
 62
     3
 10
224.976666
 20
146.191634
 11
223.622438
 21
143.846043
  0
LINE
  8
CSLAYER1
  6
CONTINUOUS
 62
     3
 10
224.976666
 20
140.791634
 11
223.622438
 21
138.446043
  0
LINE
  8
CSLAYER1
  6
CONTINUOUS
 62
     3
 10
224.976666
 20
135.391634
 11
223.622438
 21
133.046043
  0
LINE
  8
CSLAYER1
  6
CONTINUOUS
 62
     3
 10
224.976666
 20
129.991634
 11
223.622438
 21
127.646043
  0
LINE
  8
CSLAYER1
  6
CONTINUOUS
 62
     3
 10
224.976666
 20
124.591634
 11
223.622438
 21
122.246043
  0
LINE
  8
CSLAYER1
  6
CONTINUOUS
 62
     7
 10
251.000000
 20
264.000000
 11
251.000000
 21
291.000000
  0
LINE
  8
CSLAYER1
  6
CONTINUOUS
 62
     7
 10
254.000000
 20
264.000000
 11
254.000000
 21
291.000000
  0
ARC
  8
CSLAYER1
  6
CONTINUOUS
 62
     7
 10
252.500000
 20
291.000000
 40
1.500000
 50
-0.000000
 51
180.000000
  0
ARC
  8
CSLAYER1
  6
CONTINUOUS
 62
     7
 10
252.500000
 20
264.000000
 40
1.500000
 50
180.000000
 51
360.000000
  0
LINE
  8
CSLAYER1
  6
CONTINUOUS
 62
     7
 10
257.000000
 20
264.000000
 11
257.000000
 21
291.000000
  0
LINE
  8
CSLAYER1
  6
CONTINUOUS
 62
     7
 10
260.000000
 20
264.000000
 11
260.000000
 21
291.000000
  0
ARC
  8
CSLAYER1
  6
CONTINUOUS
 62
     7
 10
258.500000
 20
291.000000
 40
1.500000
 50
-0.000000
 51
180.000000
  0
ARC
  8
CSLAYER1
  6
CONTINUOUS
 62
     7
 10
258.500000
 20
264.000000
 40
1.500000
 50
180.000000
 51
360.000000
  0
LINE
  8
CSLAYER1
  6
CONTINUOUS
 62
     7
 10
263.000000
 20
264.000000
 11
263.000000
 21
291.000000
  0
LINE
  8
CSLAYER1
  6
CONTINUOUS
 62
     7
 10
266.000000
 20
264.000000
 11
266.000000
 21
291.000000
  0
ARC
  8
CSLAYER1
  6
CONTINUOUS
 62
     7
 10
264.500000
 20
291.000000
 40
1.500000
 50
-0.000000
 51
180.000000
  0
ARC
  8
CSLAYER1
  6
CONTINUOUS
 62
     7
 10
264.500000
 20
264.000000
 40
1.500000
 50
180.000000
 51
360.000000
  0
LINE
  8
CSLAYER1
  6
CONTINUOUS
 62
     7
 10
269.000000
 20
264.000000
 11
269.000000
 21
291.000000
  0
LINE
  8
CSLAYER1
  6
CONTINUOUS
 62
     7
 10
272.000000
 20
264.000000
 11
272.000000
 21
291.000000
  0
ARC
  8
CSLAYER1
  6
CONTINUOUS
 62
     7
 10
270.500000
 20
291.000000
 40
1.500000
 50
-0.000000
 51
180.000000
  0
ARC
  8
CSLAYER1
  6
CONTINUOUS
 62
     7
 10
270.500000
 20
264.000000
 40
1.500000
 50
180.000000
 51
360.000000
  0
LINE
  8
CSLAYER1
  6
CONTINUOUS
 62
     7
 10
275.000000
 20
264.000000
 11
275.000000
 21
291.000000
  0
LINE
  8
CSLAYER1
  6
CONTINUOUS
 62
     7
 10
278.000000
 20
264.000000
 11
278.000000
 21
291.000000
  0
ARC
  8
CSLAYER1
  6
CONTINUOUS
 62
     7
 10
276.500000
 20
291.000000
 40
1.500000
 50
-0.000000
 51
180.000000
  0
ARC
  8
CSLAYER1
  6
CONTINUOUS
 62
     7
 10
276.500000
 20
264.000000
 40
1.500000
 50
180.000000
 51
360.000000
  0
LINE
  8
CSLAYER1
  6
CONTINUOUS
 62
     7
 10
281.000000
 20
264.000000
 11
281.000000
 21
291.000000
  0
LINE
  8
CSLAYER1
  6
CONTINUOUS
 62
     7
 10
284.000000
 20
264.000000
 11
284.000000
 21
291.000000
  0
ARC
  8
CSLAYER1
  6
CONTINUOUS
 62
     7
 10
282.500000
 20
291.000000
 40
1.500000
 50
-0.000000
 51
180.000000
  0
ARC
  8
CSLAYER1
  6
CONTINUOUS
 62
     7
 10
282.500000
 20
264.000000
 40
1.500000
 50
180.000000
 51
360.000000
  0
LINE
  8
CSLAYER1
  6
CONTINUOUS
 62
     7
 10
287.000000
 20
264.000000
 11
287.000000
 21
291.000000
  0
LINE
  8
CSLAYER1
  6
CONTINUOUS
 62
     7
 10
290.000000
 20
264.000000
 11
290.000000
 21
291.000000
  0
ARC
  8
CSLAYER1
  6
CONTINUOUS
 62
     7
 10
288.500000
 20
291.000000
 40
1.500000
 50
-0.000000
 51
180.000000
  0
ARC
  8
CSLAYER1
  6
CONTINUOUS
 62
     7
 10
288.500000
 20
264.000000
 40
1.500000
 50
180.000000
 51
360.000000
  0
LINE
  8
CSLAYER1
  6
CONTINUOUS
 62
     7
 10
293.000000
 20
264.000000
 11
293.000000
 21
291.000000
  0
LINE
  8
CSLAYER1
  6
CONTINUOUS
 62
     7
 10
296.000000
 20
264.000000
 11
296.000000
 21
291.000000
  0
ARC
  8
CSLAYER1
  6
CONTINUOUS
 62
     7
 10
294.500000
 20
291.000000
 40
1.500000
 50
-0.000000
 51
180.000000
  0
ARC
  8
CSLAYER1
  6
CONTINUOUS
 62
     7
 10
294.500000
 20
264.000000
 40
1.500000
 50
180.000000
 51
360.000000
  0
LINE
  8
CSLAYER1
  6
CONTINUOUS
 62
     7
 10
299.000000
 20
264.000000
 11
299.000000
 21
291.000000
  0
LINE
  8
CSLAYER1
  6
CONTINUOUS
 62
     7
 10
302.000000
 20
264.000000
 11
302.000000
 21
291.000000
  0
ARC
  8
CSLAYER1
  6
CONTINUOUS
 62
     7
 10
300.500000
 20
291.000000
 40
1.500000
 50
-0.000000
 51
180.000000
  0
ARC
  8
CSLAYER1
  6
CONTINUOUS
 62
     7
 10
300.500000
 20
264.000000
 40
1.500000
 50
180.000000
 51
360.000000
  0
LINE
  8
CSLAYER1
  6
CONTINUOUS
 62
     7
 10
305.000000
 20
264.000000
 11
305.000000
 21
291.000000
  0
LINE
  8
CSLAYER1
  6
CONTINUOUS
 62
     7
 10
308.000000
 20
264.000000
 11
308.000000
 21
291.000000
  0
ARC
  8
CSLAYER1
  6
CONTINUOUS
 62
     7
 10
306.500000
 20
291.000000
 40
1.500000
 50
-0.000000
 51
180.000000
  0
ARC
  8
CSLAYER1
  6
CONTINUOUS
 62
     7
 10
306.500000
 20
264.000000
 40
1.500000
 50
180.000000
 51
360.000000
  0
LINE
  8
CSLAYER1
  6
CONTINUOUS
 62
     7
 10
311.000000
 20
264.000000
 11
311.000000
 21
291.000000
  0
LINE
  8
CSLAYER1
  6
CONTINUOUS
 62
     7
 10
314.000000
 20
264.000000
 11
314.000000
 21
291.000000
  0
ARC
  8
CSLAYER1
  6
CONTINUOUS
 62
     7
 10
312.500000
 20
291.000000
 40
1.500000
 50
-0.000000
 51
180.000000
  0
ARC
  8
CSLAYER1
  6
CONTINUOUS
 62
     7
 10
312.500000
 20
264.000000
 40
1.500000
 50
180.000000
 51
360.000000
  0
LINE
  8
CSLAYER1
  6
CONTINUOUS
 62
     7
 10
317.000000
 20
264.000000
 11
317.000000
 21
291.000000
  0
LINE
  8
CSLAYER1
  6
CONTINUOUS
 62
     7
 10
320.000000
 20
264.000000
 11
320.000000
 21
291.000000
  0
ARC
  8
CSLAYER1
  6
CONTINUOUS
 62
     7
 10
318.500000
 20
291.000000
 40
1.500000
 50
-0.000000
 51
180.000000
  0
ARC
  8
CSLAYER1
  6
CONTINUOUS
 62
     7
 10
318.500000
 20
264.000000
 40
1.500000
 50
180.000000
 51
360.000000
  0
LINE
  8
CSLAYER1
  6
CONTINUOUS
 62
     7
 10
323.000000
 20
264.000000
 11
323.000000
 21
291.000000
  0
LINE
  8
CSLAYER1
  6
CONTINUOUS
 62
     7
 10
326.000000
 20
264.000000
 11
326.000000
 21
291.000000
  0
ARC
  8
CSLAYER1
  6
CONTINUOUS
 62
     7
 10
324.500000
 20
291.000000
 40
1.500000
 50
-0.000000
 51
180.000000
  0
ARC
  8
CSLAYER1
  6
CONTINUOUS
 62
     7
 10
324.500000
 20
264.000000
 40
1.500000
 50
180.000000
 51
360.000000
  0
LINE
  8
CSLAYER1
  6
CONTINUOUS
 62
     7
 10
329.000000
 20
264.000000
 11
329.000000
 21
291.000000
  0
LINE
  8
CSLAYER1
  6
CONTINUOUS
 62
     7
 10
332.000000
 20
264.000000
 11
332.000000
 21
291.000000
  0
ARC
  8
CSLAYER1
  6
CONTINUOUS
 62
     7
 10
330.500000
 20
291.000000
 40
1.500000
 50
-0.000000
 51
180.000000
  0
ARC
  8
CSLAYER1
  6
CONTINUOUS
 62
     7
 10
330.500000
 20
264.000000
 40
1.500000
 50
180.000000
 51
360.000000
  0
LINE
  8
CSLAYER1
  6
CONTINUOUS
 62
     7
 10
335.000000
 20
264.000000
 11
335.000000
 21
291.000000
  0
LINE
  8
CSLAYER1
  6
CONTINUOUS
 62
     7
 10
338.000000
 20
264.000000
 11
338.000000
 21
291.000000
  0
ARC
  8
CSLAYER1
  6
CONTINUOUS
 62
     7
 10
336.500000
 20
291.000000
 40
1.500000
 50
-0.000000
 51
180.000000
  0
ARC
  8
CSLAYER1
  6
CONTINUOUS
 62
     7
 10
336.500000
 20
264.000000
 40
1.500000
 50
180.000000
 51
360.000000
  0
LINE
  8
CSLAYER1
  6
CONTINUOUS
 62
     7
 10
341.000000
 20
264.000000
 11
341.000000
 21
291.000000
  0
LINE
  8
CSLAYER1
  6
CONTINUOUS
 62
     7
 10
344.000000
 20
264.000000
 11
344.000000
 21
291.000000
  0
ARC
  8
CSLAYER1
  6
CONTINUOUS
 62
     7
 10
342.500000
 20
291.000000
 40
1.500000
 50
-0.000000
 51
180.000000
  0
ARC
  8
CSLAYER1
  6
CONTINUOUS
 62
     7
 10
342.500000
 20
264.000000
 40
1.500000
 50
180.000000
 51
360.000000
  0
LINE
  8
CSLAYER1
  6
CONTINUOUS
 62
     7
 10
347.000000
 20
264.000000
 11
347.000000
 21
291.000000
  0
LINE
  8
CSLAYER1
  6
CONTINUOUS
 62
     7
 10
350.000000
 20
264.000000
 11
350.000000
 21
291.000000
  0
ARC
  8
CSLAYER1
  6
CONTINUOUS
 62
     7
 10
348.500000
 20
291.000000
 40
1.500000
 50
-0.000000
 51
180.000000
  0
ARC
  8
CSLAYER1
  6
CONTINUOUS
 62
     7
 10
348.500000
 20
264.000000
 40
1.500000
 50
180.000000
 51
360.000000
  0
LINE
  8
CSLAYER1
  6
CONTINUOUS
 62
     7
 10
353.000000
 20
264.000000
 11
353.000000
 21
291.000000
  0
LINE
  8
CSLAYER1
  6
CONTINUOUS
 62
     7
 10
356.000000
 20
264.000000
 11
356.000000
 21
291.000000
  0
ARC
  8
CSLAYER1
  6
CONTINUOUS
 62
     7
 10
354.500000
 20
291.000000
 40
1.500000
 50
-0.000000
 51
180.000000
  0
ARC
  8
CSLAYER1
  6
CONTINUOUS
 62
     7
 10
354.500000
 20
264.000000
 40
1.500000
 50
180.000000
 51
360.000000
  0
LINE
  8
CSLAYER1
  6
CONTINUOUS
 62
     7
 10
359.000000
 20
264.000000
 11
359.000000
 21
291.000000
  0
LINE
  8
CSLAYER1
  6
CONTINUOUS
 62
     7
 10
362.000000
 20
264.000000
 11
362.000000
 21
291.000000
  0
ARC
  8
CSLAYER1
  6
CONTINUOUS
 62
     7
 10
360.500000
 20
291.000000
 40
1.500000
 50
-0.000000
 51
180.000000
  0
ARC
  8
CSLAYER1
  6
CONTINUOUS
 62
     7
 10
360.500000
 20
264.000000
 40
1.500000
 50
180.000000
 51
360.000000
  0
LINE
  8
CSLAYER1
  6
CONTINUOUS
 62
     7
 10
365.000000
 20
264.000000
 11
365.000000
 21
291.000000
  0
LINE
  8
CSLAYER1
  6
CONTINUOUS
 62
     7
 10
368.000000
 20
264.000000
 11
368.000000
 21
291.000000
  0
ARC
  8
CSLAYER1
  6
CONTINUOUS
 62
     7
 10
366.500000
 20
291.000000
 40
1.500000
 50
-0.000000
 51
180.000000
  0
ARC
  8
CSLAYER1
  6
CONTINUOUS
 62
     7
 10
366.500000
 20
264.000000
 40
1.500000
 50
180.000000
 51
360.000000
  0
LINE
  8
CSLAYER1
  6
CONTINUOUS
 62
     7
 10
471.500000
 20
264.000000
 11
471.500000
 21
291.000000
  0
LINE
  8
CSLAYER1
  6
CONTINUOUS
 62
     7
 10
468.500000
 20
264.000000
 11
468.500000
 21
291.000000
  0
ARC
  8
CSLAYER1
  6
CONTINUOUS
 62
     7
 10
470.000000
 20
291.000000
 40
1.500000
 50
0.000000
 51
180.000000
  0
ARC
  8
CSLAYER1
  6
CONTINUOUS
 62
     7
 10
470.000000
 20
264.000000
 40
1.500000
 50
180.000000
 51
360.000000
  0
LINE
  8
CSLAYER1
  6
CONTINUOUS
 62
     7
 10
465.500000
 20
264.000000
 11
465.500000
 21
291.000000
  0
LINE
  8
CSLAYER1
  6
CONTINUOUS
 62
     7
 10
462.500000
 20
264.000000
 11
462.500000
 21
291.000000
  0
ARC
  8
CSLAYER1
  6
CONTINUOUS
 62
     7
 10
464.000000
 20
291.000000
 40
1.500000
 50
0.000000
 51
180.000000
  0
ARC
  8
CSLAYER1
  6
CONTINUOUS
 62
     7
 10
464.000000
 20
264.000000
 40
1.500000
 50
180.000000
 51
360.000000
  0
LINE
  8
CSLAYER1
  6
CONTINUOUS
 62
     7
 10
459.500000
 20
264.000000
 11
459.500000
 21
291.000000
  0
LINE
  8
CSLAYER1
  6
CONTINUOUS
 62
     7
 10
456.500000
 20
264.000000
 11
456.500000
 21
291.000000
  0
ARC
  8
CSLAYER1
  6
CONTINUOUS
 62
     7
 10
458.000000
 20
291.000000
 40
1.500000
 50
0.000000
 51
180.000000
  0
ARC
  8
CSLAYER1
  6
CONTINUOUS
 62
     7
 10
458.000000
 20
264.000000
 40
1.500000
 50
180.000000
 51
360.000000
  0
LINE
  8
CSLAYER1
  6
CONTINUOUS
 62
     7
 10
453.500000
 20
264.000000
 11
453.500000
 21
291.000000
  0
LINE
  8
CSLAYER1
  6
CONTINUOUS
 62
     7
 10
450.500000
 20
264.000000
 11
450.500000
 21
291.000000
  0
ARC
  8
CSLAYER1
  6
CONTINUOUS
 62
     7
 10
452.000000
 20
291.000000
 40
1.500000
 50
0.000000
 51
180.000000
  0
ARC
  8
CSLAYER1
  6
CONTINUOUS
 62
     7
 10
452.000000
 20
264.000000
 40
1.500000
 50
180.000000
 51
360.000000
  0
LINE
  8
CSLAYER1
  6
CONTINUOUS
 62
     7
 10
447.500000
 20
264.000000
 11
447.500000
 21
291.000000
  0
LINE
  8
CSLAYER1
  6
CONTINUOUS
 62
     7
 10
444.500000
 20
264.000000
 11
444.500000
 21
291.000000
  0
ARC
  8
CSLAYER1
  6
CONTINUOUS
 62
     7
 10
446.000000
 20
291.000000
 40
1.500000
 50
0.000000
 51
180.000000
  0
ARC
  8
CSLAYER1
  6
CONTINUOUS
 62
     7
 10
446.000000
 20
264.000000
 40
1.500000
 50
180.000000
 51
360.000000
  0
TEXT
  8
CSLAYER1
 62
     3
 10
130.465332
 20
285.500000
 40
5.000000
 41
0.675000
  1
PS+
 50
0.000000
 51
0.000000
  7
FX_FONT
 72
     5
 11
139.465332
 21
285.500000
  0
TEXT
  8
CSLAYER1
 62
     3
 10
130.465332
 20
272.500000
 40
5.000000
 41
0.675000
  1
PS-
 50
0.000000
 51
0.000000
  7
FX_FONT
 72
     5
 11
139.465332
 21
272.500000
  0
TEXT
  8
CSLAYER1
 62
     3
 10
130.465332
 20
259.500000
 40
5.000000
 41
0.720000
  1
FG
 50
0.000000
 51
0.000000
  7
FX_FONT
 72
     5
 11
136.465332
 21
259.500000
  0
TEXT
  8
CSLAYER1
 62
     3
 10
130.465332
 20
246.500000
 40
5.000000
 41
0.720000
  1
M+
 50
0.000000
 51
0.000000
  7
FX_FONT
 72
     5
 11
136.465332
 21
246.500000
  0
TEXT
  8
CSLAYER1
 62
     3
 10
130.465332
 20
233.500000
 40
5.000000
 41
0.720000
  1
M-
 50
0.000000
 51
0.000000
  7
FX_FONT
 72
     5
 11
136.465332
 21
233.500000
  0
LINE
  8
CSLAYER1
  6
CONTINUOUS
 62
     6
 10
140.000000
 20
226.500000
 11
160.000000
 21
226.500000
  0
LINE
  8
CSLAYER1
  6
CONTINUOUS
 62
     6
 10
160.000000
 20
226.500000
 11
160.000000
 21
297.500000
  0
LINE
  8
CSLAYER1
  6
CONTINUOUS
 62
     6
 10
160.000000
 20
297.500000
 11
140.000000
 21
297.500000
  0
LINE
  8
CSLAYER1
  6
CONTINUOUS
 62
     6
 10
140.000000
 20
297.500000
 11
140.000000
 21
226.500000
  0
LINE
  8
CSLAYER1
  6
CONTINUOUS
 62
     6
 10
160.000000
 20
295.500000
 11
140.000000
 21
295.500000
  0
LINE
  8
CSLAYER1
  6
CONTINUOUS
 62
     6
 10
140.000000
 20
228.500000
 11
160.000000
 21
228.500000
  0
LINE
  8
CSLAYER1
  6
CONTINUOUS
 62
     6
 10
160.000000
 20
283.700000
 11
140.000000
 21
283.700000
  0
LINE
  8
CSLAYER1
  6
CONTINUOUS
 62
     6
 10
160.000000
 20
281.700000
 11
140.000000
 21
281.700000
  0
LINE
  8
CSLAYER1
  6
CONTINUOUS
 62
     6
 10
160.000000
 20
269.900000
 11
140.000000
 21
269.900000
  0
LINE
  8
CSLAYER1
  6
CONTINUOUS
 62
     6
 10
160.000000
 20
267.900000
 11
140.000000
 21
267.900000
  0
LINE
  8
CSLAYER1
  6
CONTINUOUS
 62
     6
 10
160.000000
 20
256.100000
 11
140.000000
 21
256.100000
  0
LINE
  8
CSLAYER1
  6
CONTINUOUS
 62
     6
 10
160.000000
 20
254.100000
 11
140.000000
 21
254.100000
  0
LINE
  8
CSLAYER1
  6
CONTINUOUS
 62
     6
 10
160.000000
 20
242.300000
 11
140.000000
 21
242.300000
  0
LINE
  8
CSLAYER1
  6
CONTINUOUS
 62
     6
 10
160.000000
 20
240.300000
 11
140.000000
 21
240.300000
  0
CIRCLE
  8
CSLAYER1
  6
CONTINUOUS
 62
     6
 10
150.000011
 20
289.600019
 40
3.500000
  0
ARC
  8
CSLAYER1
  6
CONTINUOUS
 62
     6
 10
149.999998
 20
289.600020
 40
1.944444
 50
163.398416
 51
196.601577
  0
ARC
  8
CSLAYER1
  6
CONTINUOUS
 62
     6
 10
149.999998
 20
289.600020
 40
1.944444
 50
253.398422
 51
286.601583
  0
ARC
  8
CSLAYER1
  6
CONTINUOUS
 62
     6
 10
149.999998
 20
289.600020
 40
1.944444
 50
-16.601562
 51
16.601572
  0
ARC
  8
CSLAYER1
  6
CONTINUOUS
 62
     6
 10
149.999998
 20
289.600020
 40
1.944444
 50
73.398406
 51
106.601595
  0
LINE
  8
CSLAYER1
  6
CONTINUOUS
 62
     6
 10
151.111123
 20
289.044458
 11
151.863379
 21
289.044458
  0
LINE
  8
CSLAYER1
  6
CONTINUOUS
 62
     6
 10
148.888873
 20
289.044458
 11
148.136617
 21
289.044458
  0
LINE
  8
CSLAYER1
  6
CONTINUOUS
 62
     6
 10
151.111123
 20
290.155582
 11
151.863379
 21
290.155582
  0
LINE
  8
CSLAYER1
  6
CONTINUOUS
 62
     6
 10
148.888873
 20
290.155582
 11
148.136617
 21
290.155582
  0
LINE
  8
CSLAYER1
  6
CONTINUOUS
 62
     6
 10
149.444436
 20
288.488924
 11
149.444436
 21
287.736610
  0
LINE
  8
CSLAYER1
  6
CONTINUOUS
 62
     6
 10
149.444436
 20
290.711116
 11
149.444436
 21
291.463430
  0
LINE
  8
CSLAYER1
  6
CONTINUOUS
 62
     6
 10
150.555560
 20
288.488924
 11
150.555560
 21
287.736610
  0
LINE
  8
CSLAYER1
  6
CONTINUOUS
 62
     6
 10
150.555560
 20
290.711116
 11
150.555560
 21
291.463430
  0
ARC
  8
CSLAYER1
  6
CONTINUOUS
 62
     6
 10
151.111123
 20
288.488924
 40
0.555556
 50
90.000001
 51
179.942691
  0
ARC
  8
CSLAYER1
  6
CONTINUOUS
 62
     6
 10
151.111123
 20
290.711116
 40
0.555556
 50
180.000010
 51
270.000016
  0
ARC
  8
CSLAYER1
  6
CONTINUOUS
 62
     6
 10
148.888873
 20
290.711116
 40
0.555556
 50
-89.999984
 51
0.000005
  0
ARC
  8
CSLAYER1
  6
CONTINUOUS
 62
     6
 10
148.888873
 20
288.488924
 40
0.555556
 50
0.000005
 51
89.942654
  0
CIRCLE
  8
CSLAYER1
  6
CONTINUOUS
 62
     6
 10
150.000011
 20
275.800019
 40
3.500000
  0
ARC
  8
CSLAYER1
  6
CONTINUOUS
 62
     6
 10
149.999998
 20
275.800020
 40
1.944444
 50
163.398416
 51
196.601577
  0
ARC
  8
CSLAYER1
  6
CONTINUOUS
 62
     6
 10
149.999998
 20
275.800020
 40
1.944444
 50
253.398422
 51
286.601583
  0
ARC
  8
CSLAYER1
  6
CONTINUOUS
 62
     6
 10
149.999998
 20
275.800020
 40
1.944444
 50
-16.601562
 51
16.601572
  0
ARC
  8
CSLAYER1
  6
CONTINUOUS
 62
     6
 10
149.999998
 20
275.800020
 40
1.944444
 50
73.398406
 51
106.601595
  0
LINE
  8
CSLAYER1
  6
CONTINUOUS
 62
     6
 10
151.111123
 20
275.244458
 11
151.863379
 21
275.244458
  0
LINE
  8
CSLAYER1
  6
CONTINUOUS
 62
     6
 10
148.888873
 20
275.244458
 11
148.136617
 21
275.244458
  0
LINE
  8
CSLAYER1
  6
CONTINUOUS
 62
     6
 10
151.111123
 20
276.355582
 11
151.863379
 21
276.355582
  0
LINE
  8
CSLAYER1
  6
CONTINUOUS
 62
     6
 10
148.888873
 20
276.355582
 11
148.136617
 21
276.355582
  0
LINE
  8
CSLAYER1
  6
CONTINUOUS
 62
     6
 10
149.444436
 20
274.688924
 11
149.444436
 21
273.936610
  0
LINE
  8
CSLAYER1
  6
CONTINUOUS
 62
     6
 10
149.444436
 20
276.911116
 11
149.444436
 21
277.663430
  0
LINE
  8
CSLAYER1
  6
CONTINUOUS
 62
     6
 10
150.555560
 20
274.688924
 11
150.555560
 21
273.936610
  0
LINE
  8
CSLAYER1
  6
CONTINUOUS
 62
     6
 10
150.555560
 20
276.911116
 11
150.555560
 21
277.663430
  0
ARC
  8
CSLAYER1
  6
CONTINUOUS
 62
     6
 10
151.111123
 20
274.688924
 40
0.555556
 50
90.000001
 51
179.942691
  0
ARC
  8
CSLAYER1
  6
CONTINUOUS
 62
     6
 10
151.111123
 20
276.911116
 40
0.555556
 50
180.000010
 51
270.000016
  0
ARC
  8
CSLAYER1
  6
CONTINUOUS
 62
     6
 10
148.888873
 20
276.911116
 40
0.555556
 50
-89.999984
 51
0.000005
  0
ARC
  8
CSLAYER1
  6
CONTINUOUS
 62
     6
 10
148.888873
 20
274.688924
 40
0.555556
 50
0.000005
 51
89.942654
  0
CIRCLE
  8
CSLAYER1
  6
CONTINUOUS
 62
     6
 10
150.000011
 20
262.000019
 40
3.500000
  0
ARC
  8
CSLAYER1
  6
CONTINUOUS
 62
     6
 10
149.999998
 20
262.000020
 40
1.944444
 50
163.398416
 51
196.601577
  0
ARC
  8
CSLAYER1
  6
CONTINUOUS
 62
     6
 10
149.999998
 20
262.000020
 40
1.944444
 50
253.398422
 51
286.601583
  0
ARC
  8
CSLAYER1
  6
CONTINUOUS
 62
     6
 10
149.999998
 20
262.000020
 40
1.944444
 50
-16.601562
 51
16.601572
  0
ARC
  8
CSLAYER1
  6
CONTINUOUS
 62
     6
 10
149.999998
 20
262.000020
 40
1.944444
 50
73.398406
 51
106.601595
  0
LINE
  8
CSLAYER1
  6
CONTINUOUS
 62
     6
 10
151.111123
 20
261.444458
 11
151.863379
 21
261.444458
  0
LINE
  8
CSLAYER1
  6
CONTINUOUS
 62
     6
 10
148.888873
 20
261.444458
 11
148.136617
 21
261.444458
  0
LINE
  8
CSLAYER1
  6
CONTINUOUS
 62
     6
 10
151.111123
 20
262.555582
 11
151.863379
 21
262.555582
  0
LINE
  8
CSLAYER1
  6
CONTINUOUS
 62
     6
 10
148.888873
 20
262.555582
 11
148.136617
 21
262.555582
  0
LINE
  8
CSLAYER1
  6
CONTINUOUS
 62
     6
 10
149.444436
 20
260.888924
 11
149.444436
 21
260.136610
  0
LINE
  8
CSLAYER1
  6
CONTINUOUS
 62
     6
 10
149.444436
 20
263.111116
 11
149.444436
 21
263.863430
  0
LINE
  8
CSLAYER1
  6
CONTINUOUS
 62
     6
 10
150.555560
 20
260.888924
 11
150.555560
 21
260.136610
  0
LINE
  8
CSLAYER1
  6
CONTINUOUS
 62
     6
 10
150.555560
 20
263.111116
 11
150.555560
 21
263.863430
  0
ARC
  8
CSLAYER1
  6
CONTINUOUS
 62
     6
 10
151.111123
 20
260.888924
 40
0.555556
 50
90.000001
 51
179.942691
  0
ARC
  8
CSLAYER1
  6
CONTINUOUS
 62
     6
 10
151.111123
 20
263.111116
 40
0.555556
 50
180.000010
 51
270.000016
  0
ARC
  8
CSLAYER1
  6
CONTINUOUS
 62
     6
 10
148.888873
 20
263.111116
 40
0.555556
 50
-89.999984
 51
0.000005
  0
ARC
  8
CSLAYER1
  6
CONTINUOUS
 62
     6
 10
148.888873
 20
260.888924
 40
0.555556
 50
0.000005
 51
89.942654
  0
CIRCLE
  8
CSLAYER1
  6
CONTINUOUS
 62
     6
 10
150.000011
 20
248.200019
 40
3.500000
  0
ARC
  8
CSLAYER1
  6
CONTINUOUS
 62
     6
 10
149.999998
 20
248.200020
 40
1.944444
 50
163.398416
 51
196.601577
  0
ARC
  8
CSLAYER1
  6
CONTINUOUS
 62
     6
 10
149.999998
 20
248.200020
 40
1.944444
 50
253.398422
 51
286.601583
  0
ARC
  8
CSLAYER1
  6
CONTINUOUS
 62
     6
 10
149.999998
 20
248.200020
 40
1.944444
 50
-16.601562
 51
16.601572
  0
ARC
  8
CSLAYER1
  6
CONTINUOUS
 62
     6
 10
149.999998
 20
248.200020
 40
1.944444
 50
73.398406
 51
106.601595
  0
LINE
  8
CSLAYER1
  6
CONTINUOUS
 62
     6
 10
151.111123
 20
247.644458
 11
151.863379
 21
247.644458
  0
LINE
  8
CSLAYER1
  6
CONTINUOUS
 62
     6
 10
148.888873
 20
247.644458
 11
148.136617
 21
247.644458
  0
LINE
  8
CSLAYER1
  6
CONTINUOUS
 62
     6
 10
151.111123
 20
248.755582
 11
151.863379
 21
248.755582
  0
LINE
  8
CSLAYER1
  6
CONTINUOUS
 62
     6
 10
148.888873
 20
248.755582
 11
148.136617
 21
248.755582
  0
LINE
  8
CSLAYER1
  6
CONTINUOUS
 62
     6
 10
149.444436
 20
247.088924
 11
149.444436
 21
246.336610
  0
LINE
  8
CSLAYER1
  6
CONTINUOUS
 62
     6
 10
149.444436
 20
249.311116
 11
149.444436
 21
250.063430
  0
LINE
  8
CSLAYER1
  6
CONTINUOUS
 62
     6
 10
150.555560
 20
247.088924
 11
150.555560
 21
246.336610
  0
LINE
  8
CSLAYER1
  6
CONTINUOUS
 62
     6
 10
150.555560
 20
249.311116
 11
150.555560
 21
250.063430
  0
ARC
  8
CSLAYER1
  6
CONTINUOUS
 62
     6
 10
151.111123
 20
247.088924
 40
0.555556
 50
90.000001
 51
179.942691
  0
ARC
  8
CSLAYER1
  6
CONTINUOUS
 62
     6
 10
151.111123
 20
249.311116
 40
0.555556
 50
180.000010
 51
270.000016
  0
ARC
  8
CSLAYER1
  6
CONTINUOUS
 62
     6
 10
148.888873
 20
249.311116
 40
0.555556
 50
-89.999984
 51
0.000005
  0
ARC
  8
CSLAYER1
  6
CONTINUOUS
 62
     6
 10
148.888873
 20
247.088924
 40
0.555556
 50
0.000005
 51
89.942654
  0
CIRCLE
  8
CSLAYER1
  6
CONTINUOUS
 62
     6
 10
150.000011
 20
234.400019
 40
3.500000
  0
ARC
  8
CSLAYER1
  6
CONTINUOUS
 62
     6
 10
149.999998
 20
234.400020
 40
1.944444
 50
163.398416
 51
196.601577
  0
ARC
  8
CSLAYER1
  6
CONTINUOUS
 62
     6
 10
149.999998
 20
234.400020
 40
1.944444
 50
253.398422
 51
286.601583
  0
ARC
  8
CSLAYER1
  6
CONTINUOUS
 62
     6
 10
149.999998
 20
234.400020
 40
1.944444
 50
-16.601562
 51
16.601572
  0
ARC
  8
CSLAYER1
  6
CONTINUOUS
 62
     6
 10
149.999998
 20
234.400020
 40
1.944444
 50
73.398406
 51
106.601595
  0
LINE
  8
CSLAYER1
  6
CONTINUOUS
 62
     6
 10
151.111123
 20
233.844458
 11
151.863379
 21
233.844458
  0
LINE
  8
CSLAYER1
  6
CONTINUOUS
 62
     6
 10
148.888873
 20
233.844458
 11
148.136617
 21
233.844458
  0
LINE
  8
CSLAYER1
  6
CONTINUOUS
 62
     6
 10
151.111123
 20
234.955582
 11
151.863379
 21
234.955582
  0
LINE
  8
CSLAYER1
  6
CONTINUOUS
 62
     6
 10
148.888873
 20
234.955582
 11
148.136617
 21
234.955582
  0
LINE
  8
CSLAYER1
  6
CONTINUOUS
 62
     6
 10
149.444436
 20
233.288924
 11
149.444436
 21
232.536610
  0
LINE
  8
CSLAYER1
  6
CONTINUOUS
 62
     6
 10
149.444436
 20
235.511116
 11
149.444436
 21
236.263430
  0
LINE
  8
CSLAYER1
  6
CONTINUOUS
 62
     6
 10
150.555560
 20
233.288924
 11
150.555560
 21
232.536610
  0
LINE
  8
CSLAYER1
  6
CONTINUOUS
 62
     6
 10
150.555560
 20
235.511116
 11
150.555560
 21
236.263430
  0
ARC
  8
CSLAYER1
  6
CONTINUOUS
 62
     6
 10
151.111123
 20
233.288924
 40
0.555556
 50
90.000001
 51
179.942691
  0
ARC
  8
CSLAYER1
  6
CONTINUOUS
 62
     6
 10
151.111123
 20
235.511116
 40
0.555556
 50
180.000010
 51
270.000016
  0
ARC
  8
CSLAYER1
  6
CONTINUOUS
 62
     6
 10
148.888873
 20
235.511116
 40
0.555556
 50
-89.999984
 51
0.000005
  0
ARC
  8
CSLAYER1
  6
CONTINUOUS
 62
     6
 10
148.888873
 20
233.288924
 40
0.555556
 50
0.000005
 51
89.942654
  0
LINE
  8
CSLAYER1
  6
PHANTOM
 62
     3
 10
221.500000
 20
297.500000
 11
221.500000
 21
226.500000
  0
LINE
  8
CSLAYER1
  6
PHANTOM
 62
     3
 10
223.500000
 20
297.500000
 11
223.500000
 21
226.500000
  0
LINE
  8
CSLAYER1
  6
PHANTOM
 62
     3
 10
223.500000
 20
226.500000
 11
221.500000
 21
226.500000
  0
LINE
  8
CSLAYER1
  6
PHANTOM
 62
     3
 10
223.500000
 20
297.500000
 11
221.500000
 21
297.500000
  0
LINE
  8
CSLAYER1
  6
CONTINUOUS
 62
     6
 10
222.500000
 20
226.500000
 11
233.500000
 21
226.500000
  0
LINE
  8
CSLAYER1
  6
CONTINUOUS
 62
     6
 10
222.500000
 20
297.500000
 11
233.500000
 21
297.500000
  0
LINE
  8
CSLAYER1
  6
CONTINUOUS
 62
     6
 10
222.500000
 20
297.500000
 11
222.500000
 21
226.500000
  0
LINE
  8
CSLAYER1
  6
CONTINUOUS
 62
     6
 10
222.500000
 20
228.500000
 11
233.500000
 21
228.500000
  0
LINE
  8
CSLAYER1
  6
CONTINUOUS
 62
     6
 10
222.500000
 20
240.300000
 11
233.500000
 21
240.300000
  0
LINE
  8
CSLAYER1
  6
CONTINUOUS
 62
     6
 10
222.500000
 20
242.300000
 11
233.500000
 21
242.300000
  0
LINE
  8
CSLAYER1
  6
CONTINUOUS
 62
     6
 10
222.500000
 20
254.100000
 11
233.500000
 21
254.100000
  0
LINE
  8
CSLAYER1
  6
CONTINUOUS
 62
     6
 10
222.500000
 20
256.100000
 11
233.500000
 21
256.100000
  0
LINE
  8
CSLAYER1
  6
CONTINUOUS
 62
     6
 10
222.500000
 20
267.900000
 11
233.500000
 21
267.900000
  0
LINE
  8
CSLAYER1
  6
CONTINUOUS
 62
     6
 10
222.500000
 20
269.900000
 11
233.500000
 21
269.900000
  0
LINE
  8
CSLAYER1
  6
CONTINUOUS
 62
     6
 10
222.500000
 20
281.700000
 11
233.500000
 21
281.700000
  0
LINE
  8
CSLAYER1
  6
CONTINUOUS
 62
     6
 10
222.500000
 20
283.700000
 11
233.500000
 21
283.700000
  0
LINE
  8
CSLAYER1
  6
CONTINUOUS
 62
     6
 10
222.500000
 20
295.500000
 11
233.500000
 21
295.500000
  0
LINE
  8
CSLAYER1
  6
CONTINUOUS
 62
     3
 10
230.500000
 20
240.300000
 11
230.500000
 21
228.500000
  0
LINE
  8
CSLAYER1
  6
CONTINUOUS
 62
     3
 10
229.500000
 20
240.300000
 11
229.500000
 21
228.500000
  0
LINE
  8
CSLAYER1
  6
CONTINUOUS
 62
     3
 10
230.500000
 20
254.100000
 11
230.500000
 21
242.300000
  0
LINE
  8
CSLAYER1
  6
CONTINUOUS
 62
     3
 10
229.500000
 20
254.100000
 11
229.500000
 21
242.300000
  0
LINE
  8
CSLAYER1
  6
CONTINUOUS
 62
     3
 10
230.500000
 20
267.900000
 11
230.500000
 21
256.100000
  0
LINE
  8
CSLAYER1
  6
CONTINUOUS
 62
     3
 10
229.500000
 20
267.900000
 11
229.500000
 21
256.100000
  0
LINE
  8
CSLAYER1
  6
CONTINUOUS
 62
     3
 10
230.500000
 20
281.700000
 11
230.500000
 21
269.900000
  0
LINE
  8
CSLAYER1
  6
CONTINUOUS
 62
     3
 10
229.500000
 20
281.700000
 11
229.500000
 21
269.900000
  0
LINE
  8
CSLAYER1
  6
CONTINUOUS
 62
     3
 10
230.500000
 20
295.500000
 11
230.500000
 21
283.700000
  0
LINE
  8
CSLAYER1
  6
CONTINUOUS
 62
     3
 10
229.500000
 20
295.500000
 11
229.500000
 21
283.700000
  0
LINE
  8
CSLAYER1
  6
CONTINUOUS
 62
     3
 10
228.655200
 20
231.020716
 11
228.655200
 21
237.779321
  0
ARC
  8
CSLAYER1
  6
CONTINUOUS
 62
     6
 10
234.689696
 20
234.400018
 40
8.448294
 50
163.742994
 51
196.257016
  0
LINE
  8
CSLAYER1
  6
CONTINUOUS
 62
     6
 10
228.392738
 20
237.696026
 11
227.632607
 21
237.629527
  0
ARC
  8
CSLAYER1
  6
CONTINUOUS
 62
     6
 10
227.737798
 20
236.427213
 40
1.206899
 50
95.000111
 51
163.742611
  0
ARC
  8
CSLAYER1
  6
CONTINUOUS
 62
     6
 10
228.413806
 20
237.455571
 40
0.241380
 50
0.000000
 51
95.000152
  0
LINE
  8
CSLAYER1
  6
CONTINUOUS
 62
     3
 10
228.775861
 20
237.900018
 11
229.379310
 21
237.900018
  0
ARC
  8
CSLAYER1
  6
CONTINUOUS
 62
     3
 10
228.775861
 20
237.779321
 40
0.120690
 50
90.000003
 51
180.000005
  0
ARC
  8
CSLAYER1
  6
CONTINUOUS
 62
     3
 10
229.379310
 20
237.779321
 40
0.120690
 50
0.000000
 51
90.000003
  0
LINE
  8
CSLAYER1
  6
CONTINUOUS
 62
     6
 10
228.392738
 20
231.104010
 11
227.632607
 21
231.170510
  0
ARC
  8
CSLAYER1
  6
CONTINUOUS
 62
     6
 10
227.737798
 20
232.372824
 40
1.206899
 50
196.257399
 51
264.999892
  0
ARC
  8
CSLAYER1
  6
CONTINUOUS
 62
     6
 10
228.413806
 20
231.344466
 40
0.241380
 50
264.999865
 51
359.942691
  0
ARC
  8
CSLAYER1
  6
CONTINUOUS
 62
     3
 10
228.775861
 20
231.020716
 40
0.120690
 50
180.000005
 51
270.000001
  0
LINE
  8
CSLAYER1
  6
CONTINUOUS
 62
     3
 10
228.775861
 20
230.900018
 11
229.379310
 21
230.900018
  0
ARC
  8
CSLAYER1
  6
CONTINUOUS
 62
     3
 10
229.379310
 20
231.020716
 40
0.120690
 50
270.000001
 51
359.942691
  0
LINE
  8
CSLAYER1
  6
CONTINUOUS
 62
     3
 10
228.655200
 20
233.680789
 11
229.500007
 21
234.216486
  0
LINE
  8
CSLAYER1
  6
CONTINUOUS
 62
     3
 10
228.655200
 20
234.284238
 11
229.500007
 21
234.819936
  0
LINE
  8
CSLAYER1
  6
CONTINUOUS
 62
     3
 10
228.655200
 20
244.820716
 11
228.655200
 21
251.579321
  0
ARC
  8
CSLAYER1
  6
CONTINUOUS
 62
     6
 10
234.689696
 20
248.200018
 40
8.448294
 50
163.742994
 51
196.257016
  0
LINE
  8
CSLAYER1
  6
CONTINUOUS
 62
     6
 10
228.392738
 20
251.496026
 11
227.632607
 21
251.429527
  0
ARC
  8
CSLAYER1
  6
CONTINUOUS
 62
     6
 10
227.737798
 20
250.227213
 40
1.206899
 50
95.000111
 51
163.742611
  0
ARC
  8
CSLAYER1
  6
CONTINUOUS
 62
     6
 10
228.413806
 20
251.255571
 40
0.241380
 50
0.000000
 51
95.000152
  0
LINE
  8
CSLAYER1
  6
CONTINUOUS
 62
     3
 10
228.775861
 20
251.700018
 11
229.379310
 21
251.700018
  0
ARC
  8
CSLAYER1
  6
CONTINUOUS
 62
     3
 10
228.775861
 20
251.579321
 40
0.120690
 50
90.000003
 51
180.000005
  0
ARC
  8
CSLAYER1
  6
CONTINUOUS
 62
     3
 10
229.379310
 20
251.579321
 40
0.120690
 50
0.000000
 51
90.000003
  0
LINE
  8
CSLAYER1
  6
CONTINUOUS
 62
     6
 10
228.392738
 20
244.904010
 11
227.632607
 21
244.970510
  0
ARC
  8
CSLAYER1
  6
CONTINUOUS
 62
     6
 10
227.737798
 20
246.172824
 40
1.206899
 50
196.257399
 51
264.999892
  0
ARC
  8
CSLAYER1
  6
CONTINUOUS
 62
     6
 10
228.413806
 20
245.144466
 40
0.241380
 50
264.999865
 51
359.942691
  0
ARC
  8
CSLAYER1
  6
CONTINUOUS
 62
     3
 10
228.775861
 20
244.820716
 40
0.120690
 50
180.000005
 51
270.000001
  0
LINE
  8
CSLAYER1
  6
CONTINUOUS
 62
     3
 10
228.775861
 20
244.700018
 11
229.379310
 21
244.700018
  0
ARC
  8
CSLAYER1
  6
CONTINUOUS
 62
     3
 10
229.379310
 20
244.820716
 40
0.120690
 50
270.000001
 51
359.942691
  0
LINE
  8
CSLAYER1
  6
CONTINUOUS
 62
     3
 10
228.655200
 20
247.480789
 11
229.500007
 21
248.016486
  0
LINE
  8
CSLAYER1
  6
CONTINUOUS
 62
     3
 10
228.655200
 20
248.084238
 11
229.500007
 21
248.619936
  0
LINE
  8
CSLAYER1
  6
CONTINUOUS
 62
     3
 10
228.655200
 20
258.620716
 11
228.655200
 21
265.379321
  0
ARC
  8
CSLAYER1
  6
CONTINUOUS
 62
     6
 10
234.689696
 20
262.000018
 40
8.448294
 50
163.742994
 51
196.257016
  0
LINE
  8
CSLAYER1
  6
CONTINUOUS
 62
     6
 10
228.392738
 20
265.296026
 11
227.632607
 21
265.229527
  0
ARC
  8
CSLAYER1
  6
CONTINUOUS
 62
     6
 10
227.737798
 20
264.027213
 40
1.206899
 50
95.000111
 51
163.742611
  0
ARC
  8
CSLAYER1
  6
CONTINUOUS
 62
     6
 10
228.413806
 20
265.055571
 40
0.241380
 50
0.000000
 51
95.000152
  0
LINE
  8
CSLAYER1
  6
CONTINUOUS
 62
     3
 10
228.775861
 20
265.500018
 11
229.379310
 21
265.500018
  0
ARC
  8
CSLAYER1
  6
CONTINUOUS
 62
     3
 10
228.775861
 20
265.379321
 40
0.120690
 50
90.000003
 51
180.000005
  0
ARC
  8
CSLAYER1
  6
CONTINUOUS
 62
     3
 10
229.379310
 20
265.379321
 40
0.120690
 50
0.000000
 51
90.000003
  0
LINE
  8
CSLAYER1
  6
CONTINUOUS
 62
     6
 10
228.392738
 20
258.704010
 11
227.632607
 21
258.770510
  0
ARC
  8
CSLAYER1
  6
CONTINUOUS
 62
     6
 10
227.737798
 20
259.972824
 40
1.206899
 50
196.257399
 51
264.999892
  0
ARC
  8
CSLAYER1
  6
CONTINUOUS
 62
     6
 10
228.413806
 20
258.944466
 40
0.241380
 50
264.999865
 51
359.942691
  0
ARC
  8
CSLAYER1
  6
CONTINUOUS
 62
     3
 10
228.775861
 20
258.620716
 40
0.120690
 50
180.000005
 51
270.000001
  0
LINE
  8
CSLAYER1
  6
CONTINUOUS
 62
     3
 10
228.775861
 20
258.500018
 11
229.379310
 21
258.500018
  0
ARC
  8
CSLAYER1
  6
CONTINUOUS
 62
     3
 10
229.379310
 20
258.620716
 40
0.120690
 50
270.000001
 51
359.942691
  0
LINE
  8
CSLAYER1
  6
CONTINUOUS
 62
     3
 10
228.655200
 20
261.280789
 11
229.500007
 21
261.816486
  0
LINE
  8
CSLAYER1
  6
CONTINUOUS
 62
     3
 10
228.655200
 20
261.884238
 11
229.500007
 21
262.419936
  0
LINE
  8
CSLAYER1
  6
CONTINUOUS
 62
     3
 10
228.655200
 20
272.420716
 11
228.655200
 21
279.179321
  0
ARC
  8
CSLAYER1
  6
CONTINUOUS
 62
     6
 10
234.689696
 20
275.800018
 40
8.448294
 50
163.742994
 51
196.257016
  0
LINE
  8
CSLAYER1
  6
CONTINUOUS
 62
     6
 10
228.392738
 20
279.096026
 11
227.632607
 21
279.029527
  0
ARC
  8
CSLAYER1
  6
CONTINUOUS
 62
     6
 10
227.737798
 20
277.827213
 40
1.206899
 50
95.000111
 51
163.742611
  0
ARC
  8
CSLAYER1
  6
CONTINUOUS
 62
     6
 10
228.413806
 20
278.855571
 40
0.241380
 50
0.000000
 51
95.000152
  0
LINE
  8
CSLAYER1
  6
CONTINUOUS
 62
     3
 10
228.775861
 20
279.300018
 11
229.379310
 21
279.300018
  0
ARC
  8
CSLAYER1
  6
CONTINUOUS
 62
     3
 10
228.775861
 20
279.179321
 40
0.120690
 50
90.000003
 51
180.000005
  0
ARC
  8
CSLAYER1
  6
CONTINUOUS
 62
     3
 10
229.379310
 20
279.179321
 40
0.120690
 50
0.000000
 51
90.000003
  0
LINE
  8
CSLAYER1
  6
CONTINUOUS
 62
     6
 10
228.392738
 20
272.504010
 11
227.632607
 21
272.570510
  0
ARC
  8
CSLAYER1
  6
CONTINUOUS
 62
     6
 10
227.737798
 20
273.772824
 40
1.206899
 50
196.257399
 51
264.999892
  0
ARC
  8
CSLAYER1
  6
CONTINUOUS
 62
     6
 10
228.413806
 20
272.744466
 40
0.241380
 50
264.999865
 51
359.942691
  0
ARC
  8
CSLAYER1
  6
CONTINUOUS
 62
     3
 10
228.775861
 20
272.420716
 40
0.120690
 50
180.000005
 51
270.000001
  0
LINE
  8
CSLAYER1
  6
CONTINUOUS
 62
     3
 10
228.775861
 20
272.300018
 11
229.379310
 21
272.300018
  0
ARC
  8
CSLAYER1
  6
CONTINUOUS
 62
     3
 10
229.379310
 20
272.420716
 40
0.120690
 50
270.000001
 51
359.942691
  0
LINE
  8
CSLAYER1
  6
CONTINUOUS
 62
     3
 10
228.655200
 20
275.080789
 11
229.500007
 21
275.616486
  0
LINE
  8
CSLAYER1
  6
CONTINUOUS
 62
     3
 10
228.655200
 20
275.684238
 11
229.500007
 21
276.219936
  0
LINE
  8
CSLAYER1
  6
CONTINUOUS
 62
     3
 10
228.655200
 20
286.220716
 11
228.655200
 21
292.979321
  0
ARC
  8
CSLAYER1
  6
CONTINUOUS
 62
     6
 10
234.689696
 20
289.600018
 40
8.448294
 50
163.742994
 51
196.257016
  0
LINE
  8
CSLAYER1
  6
CONTINUOUS
 62
     6
 10
228.392738
 20
292.896026
 11
227.632607
 21
292.829527
  0
ARC
  8
CSLAYER1
  6
CONTINUOUS
 62
     6
 10
227.737798
 20
291.627213
 40
1.206899
 50
95.000111
 51
163.742611
  0
ARC
  8
CSLAYER1
  6
CONTINUOUS
 62
     6
 10
228.413806
 20
292.655571
 40
0.241380
 50
0.000000
 51
95.000152
  0
LINE
  8
CSLAYER1
  6
CONTINUOUS
 62
     3
 10
228.775861
 20
293.100018
 11
229.379310
 21
293.100018
  0
ARC
  8
CSLAYER1
  6
CONTINUOUS
 62
     3
 10
228.775861
 20
292.979321
 40
0.120690
 50
90.000003
 51
180.000005
  0
ARC
  8
CSLAYER1
  6
CONTINUOUS
 62
     3
 10
229.379310
 20
292.979321
 40
0.120690
 50
0.000000
 51
90.000003
  0
LINE
  8
CSLAYER1
  6
CONTINUOUS
 62
     6
 10
228.392738
 20
286.304010
 11
227.632607
 21
286.370510
  0
ARC
  8
CSLAYER1
  6
CONTINUOUS
 62
     6
 10
227.737798
 20
287.572824
 40
1.206899
 50
196.257399
 51
264.999892
  0
ARC
  8
CSLAYER1
  6
CONTINUOUS
 62
     6
 10
228.413806
 20
286.544466
 40
0.241380
 50
264.999865
 51
359.942691
  0
ARC
  8
CSLAYER1
  6
CONTINUOUS
 62
     3
 10
228.775861
 20
286.220716
 40
0.120690
 50
180.000005
 51
270.000001
  0
LINE
  8
CSLAYER1
  6
CONTINUOUS
 62
     3
 10
228.775861
 20
286.100018
 11
229.379310
 21
286.100018
  0
ARC
  8
CSLAYER1
  6
CONTINUOUS
 62
     3
 10
229.379310
 20
286.220716
 40
0.120690
 50
270.000001
 51
359.942691
  0
LINE
  8
CSLAYER1
  6
CONTINUOUS
 62
     3
 10
228.655200
 20
288.880789
 11
229.500007
 21
289.416486
  0
LINE
  8
CSLAYER1
  6
CONTINUOUS
 62
     3
 10
228.655200
 20
289.484238
 11
229.500007
 21
290.019936
  0
LINE
  8
CSLAYER1
  6
CONTINUOUS
 62
     6
 10
233.500000
 20
381.500000
 11
222.500000
 21
381.500000
  0
LINE
  8
CSLAYER1
  6
CONTINUOUS
 62
     6
 10
233.500000
 20
361.500000
 11
222.500000
 21
361.500000
  0
LINE
  8
CSLAYER1
  6
PHANTOM
 62
     3
 10
221.500000
 20
382.500000
 11
221.500000
 21
360.500000
  0
LINE
  8
CSLAYER1
  6
PHANTOM
 62
     3
 10
223.500000
 20
382.500000
 11
223.500000
 21
360.500000
  0
LINE
  8
CSLAYER1
  6
PHANTOM
 62
     3
 10
223.500000
 20
382.500000
 11
221.500000
 21
382.500000
  0
LINE
  8
CSLAYER1
  6
PHANTOM
 62
     3
 10
221.500000
 20
360.500000
 11
223.500000
 21
360.500000
  0
LINE
  8
CSLAYER1
  6
CONTINUOUS
 62
     6
 10
222.500000
 20
381.500000
 11
222.500000
 21
361.500000
  0
LINE
  8
CSLAYER1
  6
CONTINUOUS
 62
     6
 10
233.500000
 20
43.000000
 11
221.500000
 21
49.928203
  0
LINE
  8
CSLAYER1
  6
CONTINUOUS
 62
     6
 10
221.500000
 20
54.928203
 11
221.500000
 21
49.928203
  0
LINE
  8
CSLAYER1
  6
CONTINUOUS
 62
     6
 10
231.000000
 20
56.669873
 11
226.825879
 21
59.079803
  0
LINE
  8
CSLAYER1
  6
CONTINUOUS
 62
     6
 10
231.000000
 20
56.669873
 11
233.500000
 21
61.000000
  0
LINE
  8
CSLAYER1
  6
CONTINUOUS
 62
     6
 10
221.500000
 20
54.928203
 11
223.896927
 21
59.079803
  0
LINE
  8
CSLAYER1
  6
CONTINUOUS
 62
     6
 10
226.825879
 20
59.079803
 11
223.896927
 21
59.079803
  0
LINE
  8
CSLAYER1
  6
CONTINUOUS
 62
     6
 10
233.500000
 20
43.000000
 11
222.500000
 21
43.000000
  0
LINE
  8
CSLAYER1
  6
CONTINUOUS
 62
     6
 10
233.500000
 20
63.000000
 11
222.500000
 21
63.000000
  0
LINE
  8
CSLAYER1
  6
PHANTOM
 62
     3
 10
221.500000
 20
42.000000
 11
221.500000
 21
64.000000
  0
LINE
  8
CSLAYER1
  6
PHANTOM
 62
     3
 10
223.500000
 20
42.000000
 11
223.500000
 21
48.773503
  0
LINE
  8
CSLAYER1
  6
PHANTOM
 62
     3
 10
223.500000
 20
42.000000
 11
221.500000
 21
42.000000
  0
LINE
  8
CSLAYER1
  6
PHANTOM
 62
     3
 10
221.500000
 20
64.000000
 11
223.500000
 21
64.000000
  0
LINE
  8
CSLAYER1
  6
CONTINUOUS
 62
     6
 10
222.500000
 20
43.000000
 11
222.500000
 21
49.350853
  0
LINE
  8
CSLAYER1
  6
CONTINUOUS
 62
     6
 10
222.500000
 20
56.660254
 11
222.500000
 21
63.000000
  0
LINE
  8
CSLAYER1
  6
PHANTOM
 62
     3
 10
223.500000
 20
58.392305
 11
223.500000
 21
64.000000
  0
CIRCLE
  8
CSLAYER1
  6
CONTINUOUS
 62
     7
 10
262.500000
 20
387.500000
 40
1.500000
  0
CIRCLE
  8
CSLAYER1
  6
CONTINUOUS
 62
     7
 10
262.500000
 20
113.500000
 40
1.500000
  0
CIRCLE
  8
CSLAYER1
  6
CONTINUOUS
 62
     7
 10
342.500000
 20
113.500000
 40
1.500000
  0
CIRCLE
  8
CSLAYER1
  6
CONTINUOUS
 62
     7
 10
459.500000
 20
113.500000
 40
1.500000
  0
LINE
  8
CSLAYER1
  6
DOT
 62
     3
 10
342.500000
 20
392.000000
 11
342.500000
 21
383.000000
  0
LINE
  8
CSLAYER1
  6
DOT
 62
     3
 10
338.000000
 20
387.500000
 11
347.000000
 21
387.500000
  0
LINE
  8
CSLAYER1
  6
DOT
 62
     3
 10
252.500000
 20
178.383775
 11
252.500000
 21
295.646758
  0
LINE
  8
CSLAYER1
  6
DOT
 62
     3
 10
292.500000
 20
142.256825
 11
292.500000
 21
156.295870
  0
LINE
  8
CSLAYER1
  6
DOT
 62
     3
 10
282.500000
 20
142.256825
 11
282.500000
 21
156.295870
  0
LINE
  8
CSLAYER1
  6
DOT
 62
     3
 10
272.500000
 20
142.256825
 11
272.500000
 21
156.295870
  0
LINE
  8
CSLAYER1
  6
DOT
 62
     3
 10
299.523584
 20
149.000000
 11
267.535885
 21
149.000000
  0
LINE
  8
CSLAYER1
  6
DOT
 62
     3
 10
256.500000
 20
126.256825
 11
256.500000
 21
140.295870
  0
LINE
  8
CSLAYER1
  6
DOT
 62
     3
 10
260.776776
 20
132.500000
 11
251.535885
 21
132.500000
  0
LINE
  8
CSLAYER1
  6
DOT
 62
     3
 10
280.500000
 20
119.865435
 11
280.500000
 21
133.549062
  0
LINE
  8
CSLAYER1
  6
DOT
 62
     3
 10
286.550795
 20
126.500000
 11
274.466554
 21
126.500000
  0
LINE
  8
CSLAYER1
  6
DOT
 62
     3
 10
293.500000
 20
124.308171
 11
293.500000
 21
137.458670
  0
LINE
  8
CSLAYER1
  6
DOT
 62
     3
 10
302.500000
 20
124.308171
 11
302.500000
 21
137.458670
  0
LINE
  8
CSLAYER1
  6
DOT
 62
     3
 10
309.830732
 20
130.500000
 11
286.373086
 21
130.500000
  0
LINE
  8
CSLAYER1
  6
DOT
 62
     3
 10
258.500000
 20
178.383775
 11
258.500000
 21
295.646758
  0
LINE
  8
CSLAYER1
  6
DOT
 62
     3
 10
262.500000
 20
392.000000
 11
262.500000
 21
383.000000
  0
LINE
  8
CSLAYER1
  6
DOT
 62
     3
 10
258.000000
 20
387.500000
 11
267.000000
 21
387.500000
  0
LINE
  8
CSLAYER1
  6
DOT
 62
     3
 10
262.500000
 20
118.000000
 11
262.500000
 21
109.000000
  0
LINE
  8
CSLAYER1
  6
DOT
 62
     3
 10
258.000000
 20
113.500000
 11
267.000000
 21
113.500000
  0
LINE
  8
CSLAYER1
  6
DOT
 62
     3
 10
342.500000
 20
118.000000
 11
342.500000
 21
109.000000
  0
LINE
  8
CSLAYER1
  6
DOT
 62
     3
 10
338.000000
 20
113.500000
 11
347.000000
 21
113.500000
  0
LINE
  8
CSLAYER1
  6
DOT
 62
     3
 10
459.500000
 20
118.000000
 11
459.500000
 21
109.000000
  0
LINE
  8
CSLAYER1
  6
DOT
 62
     3
 10
455.000000
 20
113.500000
 11
464.000000
 21
113.500000
  0
ENDSEC
  0
EOF
