  0
SECTION
  2
HEADER
  9
$ACADVER
  1
AC1006
  9
$INSBASE
 10
0.000000
 20
0.000000
 30
0.0
  9
$EXTMIN
 10
0.000000
 20
0.000000
  9
$EXTMAX
 10
594.000000
 20
420.000000
  9
$LIMMIN
 10
0.000000
 20
0.000000
  9
$LIMMAX
 10
594.000000
 20
420.000000
  9
$VIEWCTR
 10
297.000000
 20
210.000000
  9
$VIEWSIZE
 40
420.000000
  9
$SNAPMODE
 70
     0
  9
$SNAPUNIT
 10
1.0
 20
1.0
  9
$SNAPBASE
 10
0.0
 20
0.0
  9
$SNAPANG
 50
0.0
  9
$SNAPSTYLE
 70
     0
  9
$SNAPISOPAIR
 70
     0
  9
$GRIDMODE
 70
     0
  9
$GRIDUNIT
 10
0.0
 20
0.0
  9
$ORTHOMODE
 70
     0
  9
$REGENMODE
 70
     1
  9
$FILLMODE
 70
     1
  9
$QTEXTMODE
 70
     0
  9
$DRAGMODE
 70
     2
  9
$LTSCALE
 40
15.000000
  9
$OSMODE
 70
     0
  9
$ATTMODE
 70
     1
  9
$TEXTSIZE
 40
0.2
  9
$TRACEWID
 40
0.05
  9
$TEXTSTYLE
  7
STANDARD
  9
$CLAYER
  8
CSLAYER1
  9
$CELTYPE
  6
BYLAYER
  9
$CECOLOR
 62
   256
  9
$DIMSCALE
 40
1.0
  9
$DIMASZ
 40
0.18
  9
$DIMEXO
 40
0.0625
  9
$DIMDLI
 40
0.38
  9
$DIMRND
 40
0.0
  9
$DIMDLE
 40
0.0
  9
$DIMEXE
 40
0.18
  9
$DIMTP
 40
0.0
  9
$DIMTM
 40
0.0
  9
$DIMTXT
 40
0.18
  9
$DIMCEN
 40
0.09
  9
$DIMTSZ
 40
0.0
  9
$DIMTOL
 70
     0
  9
$DIMLIM
 70
     0
  9
$DIMTIH
 70
     1
  9
$DIMTOH
 70
     1
  9
$DIMSE1
 70
     0
  9
$DIMSE2
 70
     0
  9
$DIMTAD
 70
     0
  9
$DIMZIN
 70
     0
  9
$DIMBLK
  1

  9
$LUNITS
 70
     2
  9
$LUPREC
 70
     4
  9
$AXISMODE
 70
     0
  9
$AXISUNIT
 10
0.0
 20
0.0
  9
$SKETCHINC
 40
0.1
  9
$FILLETRAD
 40
0.0
  9
$AUNITS
 70
     0
  9
$AUPREC
 70
     0
  9
$MENU
  1
ACAD
  9
$ELEVATION
 40
0.0
  9
$THICKNESS
 40
0.0
  9
$VIEWDIR
 10
0.0
 20
0.0
 30
1.0
  9
$LIMCHECK
 70
     0
  9
$BLIPMODE
 70
     1
  9
$CHAMFERA
 40
0.0
  9
$CHAMFERB
 40
0.0
  9
$FASTZOOM
 70
     1
  9
$SKPOLY
 70
     0
  9
$TDCREATE
 40
2454235.000000
  9
$TDUPDATE
 40
2454237.000000
  9
$TDINDWG
 40
0.0
  9
$TDUSRTIMER
 40
0.0
  9
$USRTIMER
 70
     1
  9
$ANGBASE
 50
0.0
  9
$ANGDIR
 70
     0
  9
$PDMODE
 70
     0
  9
$PDSIZE
 40
0.0
  9
$PLINEWID
 40
0.0
  9
$COORDS
 70
     0
  9
$USERI1
 70
     0
  9
$USERI2
 70
     0
  9
$USERI3
 70
     0
  9
$USERI4
 70
     0
  9
$USERI5
 70
     0
  9
$USERR1
 40
0.0
  9
$USERR2
 40
0.0
  9
$USERR3
 40
0.0
  9
$USERR4
 40
0.0
  9
$USERR5
 40
0.0
  0
ENDSEC
  0
SECTION
  2
TABLES
  0
TABLE
  2
LTYPE
 70
     9
  0
LTYPE
  2
CONTINUOUS
 70
    64
  3
Solid line
 72
    65
 73
     0
 40
0.0
  0
LTYPE
  2
DASHED
 70
    64
  3
__ __ __ __ __ __ __ __ __ __ __ __ __ __ __
 72
    65
 73
     2
 40
0.75
 49
0.5
 49
-0.25
  0
LTYPE
  2
HIDDEN
 70
    64
  3
_ _ _ _ _ _ _ _ _ _ _ _ _ _ _ _ _ _ _ _ _ _ _
 72
    65
 73
     2
 40
0.375
 49
0.25
 49
-0.125
  0
LTYPE
  2
DOT
 70
    64
  3
...............................................
 72
    65
 73
     2
 40
0.25
 49
0.0
 49
-0.25
  0
LTYPE
  2
DASHDOT
 70
    64
  3
__ . __ . __ . __ . __ . __ . __ . __ . __ . __
 72
    65
 73
     4
 40
1.0
 49
0.5
 49
-0.25
 49
0.0
 49
-0.25
  0
LTYPE
  2
DIVIDE
 70
    64
  3
__ . . __ . . __ . . __ . . __ . . __ . . __
 72
    65
 73
     6
 40
1.25
 49
0.5
 49
-0.25
 49
0.0
 49
-0.25
 49
0.0
 49
-0.25
  0
LTYPE
  2
CENTER
 70
    64
  3
____ _ ____ _ ____ _ ____ _ ____ _ ____ _ ____ 
 72
    65
 73
     4
 40
2.0
 49
1.25
 49
-0.25
 49
0.25
 49
-0.25
  0
LTYPE
  2
PHANTOM
 70
    64
  3
______  __  __  ______  __  __  ______  __  __ 
 72
    65
 73
     6
 40
2.5
 49
1.25
 49
-0.25
 49
0.25
 49
-0.25
 49
0.25
 49
-0.25
  0
LTYPE
  2
BORDER
 70
    64
  3
__ __ . __ __ . __ __ . __ __ . __ __ . __ __ .
 72
    65
 73
     6
 40
1.75
 49
0.5
 49
-0.25
 49
0.5
 49
-0.25
 49
0.0
 49
-0.25
  0
ENDTAB
  0
TABLE
  2
LAYER
 70
    16
  0
LAYER
  2
CSLAYER1
 70
    64
 62
     7
  6
CONTINUOUS
  0
LAYER
  2
CSLAYER2
 70
    64
 62
     7
  6
CONTINUOUS
  0
LAYER
  2
CSLAYER3
 70
    64
 62
     7
  6
CONTINUOUS
  0
LAYER
  2
CSLAYER4
 70
    64
 62
     7
  6
CONTINUOUS
  0
LAYER
  2
CSLAYER5
 70
    64
 62
     7
  6
CONTINUOUS
  0
LAYER
  2
CSLAYER6
 70
    64
 62
     7
  6
CONTINUOUS
  0
LAYER
  2
CSLAYER7
 70
    64
 62
     7
  6
CONTINUOUS
  0
LAYER
  2
CSLAYER8
 70
    64
 62
     7
  6
CONTINUOUS
  0
LAYER
  2
CSLAYER9
 70
    64
 62
     7
  6
CONTINUOUS
  0
LAYER
  2
CSLAYER10
 70
    64
 62
     7
  6
CONTINUOUS
  0
LAYER
  2
CSLAYER11
 70
    64
 62
     7
  6
CONTINUOUS
  0
LAYER
  2
CSLAYER12
 70
    64
 62
     7
  6
CONTINUOUS
  0
LAYER
  2
CSLAYER13
 70
    64
 62
     7
  6
CONTINUOUS
  0
LAYER
  2
CSLAYER14
 70
    64
 62
     7
  6
CONTINUOUS
  0
LAYER
  2
CSLAYER15
 70
    64
 62
     7
  6
CONTINUOUS
  0
LAYER
  2
CSLAYER16
 70
    64
 62
     7
  6
CONTINUOUS
  0
ENDTAB
  0
TABLE
  2
STYLE
 70
     1
  0
STYLE
  2
FX_FONT
 70
     0
 40
1.0
 41
1.0
 50
0.0
 71
     0
 42
1.0
  3
monotxt
  4
bigfont
  0
ENDTAB
  0
TABLE
  2
VIEW
 70
     0
  0
ENDTAB
  0
ENDSEC
  0
SECTION
  2
BLOCKS
  0
ENDSEC
  0
SECTION
  2
ENTITIES
  0
TEXT
  8
CSLAYER1
 62
     3
 10
459.983337
 20
46.193451
 40
4.000000
 41
1.038462
  1
MS-100□15
 50
0.000000
 51
10.000000
  7
FX_FONT
 72
     5
 11
495.983337
 21
46.193451
  0
TEXT
  8
CSLAYER1
 62
     4
 10
459.983337
 20
40.193451
 40
3.500000
 41
1.071429
  1
尺度1：1
 50
0.000000
 51
10.000000
  7
FX_FONT
 72
     5
 11
477.483337
 21
40.193451
  0
TEXT
  8
CSLAYER1
 62
     3
 10
459.983337
 20
52.193451
 40
4.000000
 41
1.038462
  1
DCモータドライバ
 50
0.000000
 51
10.000000
  7
FX_FONT
 72
     5
 11
495.983337
 21
52.193451
  0
LINE
  8
CSLAYER1
  6
CONTINUOUS
 62
     7
 10
376.500000
 20
379.500000
 11
235.500000
 21
379.500000
  0
LINE
  8
CSLAYER1
  6
CONTINUOUS
 62
     7
 10
233.500000
 20
377.500000
 11
233.500000
 21
329.500000
  0
LINE
  8
CSLAYER1
  6
CONTINUOUS
 62
     7
 10
233.500000
 20
329.500000
 11
234.500000
 21
329.500000
  0
LINE
  8
CSLAYER1
  6
CONTINUOUS
 62
     7
 10
349.500000
 20
378.500000
 11
349.500000
 21
379.500000
  0
LINE
  8
CSLAYER1
  6
CONTINUOUS
 62
     7
 10
347.500000
 20
378.500000
 11
347.500000
 21
379.500000
  0
LINE
  8
CSLAYER1
  6
CONTINUOUS
 62
     7
 10
335.500000
 20
378.500000
 11
335.500000
 21
379.500000
  0
LINE
  8
CSLAYER1
  6
CONTINUOUS
 62
     7
 10
337.500000
 20
378.500000
 11
337.500000
 21
379.500000
  0
LINE
  8
CSLAYER1
  6
CONTINUOUS
 62
     7
 10
269.500000
 20
378.500000
 11
269.500000
 21
379.500000
  0
LINE
  8
CSLAYER1
  6
CONTINUOUS
 62
     7
 10
267.500000
 20
378.500000
 11
267.500000
 21
379.500000
  0
LINE
  8
CSLAYER1
  6
CONTINUOUS
 62
     7
 10
255.500000
 20
378.500000
 11
255.500000
 21
379.500000
  0
LINE
  8
CSLAYER1
  6
CONTINUOUS
 62
     7
 10
257.500000
 20
378.500000
 11
257.500000
 21
379.500000
  0
LINE
  8
CSLAYER1
  6
CONTINUOUS
 62
     7
 10
376.500000
 20
377.500000
 11
376.500000
 21
379.500000
  0
LINE
  8
CSLAYER1
  6
CONTINUOUS
 62
     6
 10
235.500000
 20
112.500000
 11
235.500000
 21
111.500000
  0
LINE
  8
CSLAYER1
  6
CONTINUOUS
 62
     6
 10
234.500000
 20
113.500000
 11
233.500000
 21
113.500000
  0
LINE
  8
CSLAYER1
  6
CONTINUOUS
 62
     6
 10
376.500000
 20
111.500000
 11
235.500000
 21
111.500000
  0
LINE
  8
CSLAYER1
  6
CONTINUOUS
 62
     6
 10
233.500000
 20
113.500000
 11
233.500000
 21
296.500000
  0
CIRCLE
  8
CSLAYER1
  6
DOT
 62
     3
 10
252.500000
 20
291.500000
 40
2.000000
  0
CIRCLE
  8
CSLAYER1
  6
DOT
 62
     3
 10
252.500000
 20
291.500000
 40
1.600000
  0
LINE
  8
CSLAYER1
  6
DOT
 62
     3
 10
242.500000
 20
290.000000
 11
242.500000
 21
283.000000
  0
LINE
  8
CSLAYER1
  6
DOT
 62
     3
 10
246.000000
 20
286.500000
 11
239.000000
 21
286.500000
  0
CIRCLE
  8
CSLAYER1
  6
DOT
 62
     3
 10
242.500000
 20
286.500000
 40
1.500000
  0
CIRCLE
  8
CSLAYER1
  6
DOT
 62
     3
 10
357.500000
 20
291.500000
 40
2.000000
  0
CIRCLE
  8
CSLAYER1
  6
DOT
 62
     3
 10
357.500000
 20
291.500000
 40
1.600000
  0
LINE
  8
CSLAYER1
  6
DOT
 62
     3
 10
367.500000
 20
290.000000
 11
367.500000
 21
283.000000
  0
LINE
  8
CSLAYER1
  6
DOT
 62
     3
 10
371.000000
 20
286.500000
 11
364.000000
 21
286.500000
  0
CIRCLE
  8
CSLAYER1
  6
DOT
 62
     3
 10
367.500000
 20
286.500000
 40
1.500000
  0
LINE
  8
CSLAYER1
  6
DOT
 62
     3
 10
371.000000
 20
121.500000
 11
353.000000
 21
121.500000
  0
CIRCLE
  8
CSLAYER1
  6
DOT
 62
     3
 10
357.500000
 20
121.500000
 40
2.000000
  0
CIRCLE
  8
CSLAYER1
  6
DOT
 62
     3
 10
357.500000
 20
121.500000
 40
1.600000
  0
LINE
  8
CSLAYER1
  6
DOT
 62
     3
 10
367.500000
 20
125.000000
 11
367.500000
 21
118.000000
  0
CIRCLE
  8
CSLAYER1
  6
DOT
 62
     3
 10
367.500000
 20
121.500000
 40
1.500000
  0
LINE
  8
CSLAYER1
  6
DOT
 62
     3
 10
239.000000
 20
121.500000
 11
257.000000
 21
121.500000
  0
CIRCLE
  8
CSLAYER1
  6
DOT
 62
     3
 10
252.500000
 20
121.500000
 40
2.000000
  0
CIRCLE
  8
CSLAYER1
  6
DOT
 62
     3
 10
252.500000
 20
121.500000
 40
1.600000
  0
LINE
  8
CSLAYER1
  6
DOT
 62
     3
 10
242.500000
 20
125.000000
 11
242.500000
 21
118.000000
  0
CIRCLE
  8
CSLAYER1
  6
DOT
 62
     3
 10
242.500000
 20
121.500000
 40
1.500000
  0
LINE
  8
CSLAYER1
  6
DOT
 62
     3
 10
357.500000
 20
296.000000
 11
357.500000
 21
287.000000
  0
LINE
  8
CSLAYER1
  6
DOT
 62
     3
 10
362.000000
 20
291.500000
 11
353.000000
 21
291.500000
  0
LINE
  8
CSLAYER1
  6
DOT
 62
     3
 10
252.500000
 20
296.000000
 11
252.500000
 21
287.000000
  0
LINE
  8
CSLAYER1
  6
DOT
 62
     3
 10
257.000000
 20
291.500000
 11
248.000000
 21
291.500000
  0
LINE
  8
CSLAYER1
  6
DOT
 62
     3
 10
357.500000
 20
126.000000
 11
357.500000
 21
117.000000
  0
LINE
  8
CSLAYER1
  6
DOT
 62
     3
 10
252.500000
 20
126.000000
 11
252.500000
 21
117.000000
  0
LINE
  8
CSLAYER1
  6
CONTINUOUS
 62
     7
 10
255.500000
 20
112.500000
 11
255.500000
 21
111.500000
  0
LINE
  8
CSLAYER1
  6
CONTINUOUS
 62
     7
 10
257.500000
 20
112.500000
 11
257.500000
 21
111.500000
  0
LINE
  8
CSLAYER1
  6
CONTINUOUS
 62
     7
 10
269.500000
 20
112.500000
 11
269.500000
 21
111.500000
  0
LINE
  8
CSLAYER1
  6
CONTINUOUS
 62
     7
 10
267.500000
 20
112.500000
 11
267.500000
 21
111.500000
  0
LINE
  8
CSLAYER1
  6
CONTINUOUS
 62
     7
 10
335.500000
 20
112.500000
 11
335.500000
 21
111.500000
  0
LINE
  8
CSLAYER1
  6
CONTINUOUS
 62
     7
 10
337.500000
 20
112.500000
 11
337.500000
 21
111.500000
  0
LINE
  8
CSLAYER1
  6
CONTINUOUS
 62
     7
 10
349.500000
 20
112.500000
 11
349.500000
 21
111.500000
  0
LINE
  8
CSLAYER1
  6
CONTINUOUS
 62
     7
 10
347.500000
 20
112.500000
 11
347.500000
 21
111.500000
  0
LINE
  8
CSLAYER1
  6
CONTINUOUS
 62
     7
 10
376.500000
 20
112.500000
 11
376.500000
 21
111.500000
  0
LINE
  8
CSLAYER1
  6
CONTINUOUS
 62
     7
 10
233.500000
 20
296.500000
 11
234.500000
 21
296.500000
  0
LINE
  8
CSLAYER1
  6
CONTINUOUS
 62
     6
 10
378.000000
 20
31.000000
 11
378.000000
 21
79.500000
  0
LINE
  8
CSLAYER1
  6
CONTINUOUS
 62
     6
 10
376.500000
 20
31.000000
 11
376.500000
 21
81.436492
  0
LINE
  8
CSLAYER1
  6
CONTINUOUS
 62
     6
 10
234.500000
 20
80.000000
 11
234.500000
 21
81.500000
  0
LINE
  8
CSLAYER1
  6
CONTINUOUS
 62
     6
 10
234.500000
 20
81.500000
 11
376.000000
 21
81.500000
  0
ARC
  8
CSLAYER1
  6
CONTINUOUS
 62
     6
 10
376.000000
 20
79.500000
 40
2.000000
 50
0.000000
 51
90.000000
  0
LINE
  8
CSLAYER1
  6
CONTINUOUS
 62
     7
 10
234.500000
 20
80.000000
 11
378.000000
 21
80.000000
  0
LINE
  8
CSLAYER1
  6
CONTINUOUS
 62
     7
 10
376.500000
 20
31.000000
 11
378.000000
 21
31.000000
  0
LINE
  8
CSLAYER1
  6
CONTINUOUS
 62
     6
 10
429.500000
 20
112.500000
 11
429.500000
 21
111.500000
  0
LINE
  8
CSLAYER1
  6
CONTINUOUS
 62
     6
 10
479.500000
 20
296.500000
 11
479.500000
 21
113.500000
  0
LINE
  8
CSLAYER1
  6
CONTINUOUS
 62
     6
 10
477.500000
 20
111.500000
 11
429.500000
 21
111.500000
  0
ARC
  8
CSLAYER1
  6
CONTINUOUS
 62
     7
 10
477.500000
 20
113.500000
 40
2.000000
 50
270.000000
 51
360.000000
  0
LINE
  8
CSLAYER1
  6
CONTINUOUS
 62
     7
 10
452.500000
 20
112.500000
 11
452.500000
 21
111.500000
  0
LINE
  8
CSLAYER1
  6
CONTINUOUS
 62
     7
 10
454.500000
 20
112.500000
 11
454.500000
 21
111.500000
  0
LINE
  8
CSLAYER1
  6
CONTINUOUS
 62
     7
 10
466.500000
 20
112.500000
 11
466.500000
 21
111.500000
  0
LINE
  8
CSLAYER1
  6
CONTINUOUS
 62
     7
 10
464.500000
 20
112.500000
 11
464.500000
 21
111.500000
  0
TEXT
  8
CSLAYER1
 62
     3
 10
125.000000
 20
269.250000
 40
4.500000
 41
0.750000
  1
PS+
 50
0.000000
 51
0.000000
  7
FX_FONT
 72
     5
 11
134.000000
 21
269.250000
  0
TEXT
  8
CSLAYER1
 62
     3
 10
125.000000
 20
259.250000
 40
4.500000
 41
0.750000
  1
PS-
 50
0.000000
 51
0.000000
  7
FX_FONT
 72
     5
 11
134.000000
 21
259.250000
  0
TEXT
  8
CSLAYER1
 62
     3
 10
125.000000
 20
249.250000
 40
4.500000
 41
0.800000
  1
FG
 50
0.000000
 51
0.000000
  7
FX_FONT
 72
     5
 11
131.000000
 21
249.250000
  0
TEXT
  8
CSLAYER1
 62
     3
 10
125.000000
 20
239.250000
 40
4.500000
 41
0.800000
  1
M+
 50
0.000000
 51
0.000000
  7
FX_FONT
 72
     5
 11
131.000000
 21
239.250000
  0
TEXT
  8
CSLAYER1
 62
     3
 10
125.000000
 20
229.250000
 40
4.500000
 41
0.800000
  1
M-
 50
0.000000
 51
0.000000
  7
FX_FONT
 72
     5
 11
131.000000
 21
229.250000
  0
TEXT
  8
CSLAYER1
 62
     3
 10
135.301147
 20
120.339554
 40
3.500000
 41
0.834783
  1
SAWAMURA
 50
0.000000
 51
0.000000
  7
FX_FONT
 72
     5
 11
157.701147
 21
120.339554
  0
TEXT
  8
CSLAYER1
 62
     3
 10
135.301147
 20
116.159561
 40
3.500000
 41
0.857143
  1
DENKI
 50
0.000000
 51
0.000000
  7
FX_FONT
 72
     5
 11
149.301147
 21
116.159561
  0
LINE
  8
CSLAYER1
  6
DASHED
 62
     3
 10
124.000000
 20
296.500000
 11
124.000000
 21
113.500000
  0
LINE
  8
CSLAYER1
  6
CONTINUOUS
 62
     6
 10
171.000000
 20
296.500000
 11
122.000000
 21
296.500000
  0
LINE
  8
CSLAYER1
  6
CONTINUOUS
 62
     6
 10
172.000000
 20
295.500000
 11
172.000000
 21
111.500000
  0
LINE
  8
CSLAYER1
  6
CONTINUOUS
 62
     6
 10
122.000000
 20
113.500000
 11
172.000000
 21
113.500000
  0
LINE
  8
CSLAYER1
  6
CONTINUOUS
 62
     6
 10
122.000000
 20
296.500000
 11
122.000000
 21
113.500000
  0
LINE
  8
CSLAYER1
  6
CONTINUOUS
 62
     6
 10
124.000000
 20
111.500000
 11
172.000000
 21
111.500000
  0
LINE
  8
CSLAYER1
  6
CONTINUOUS
 62
     6
 10
172.000000
 20
295.500000
 11
171.000000
 21
296.500000
  0
LINE
  8
CSLAYER1
  6
CENTER
 62
     3
 10
167.000000
 20
295.500000
 11
167.000000
 21
287.500000
  0
LINE
  8
CSLAYER1
  6
CENTER
 62
     3
 10
132.000000
 20
295.500000
 11
132.000000
 21
287.500000
  0
LINE
  8
CSLAYER1
  6
CENTER
 62
     3
 10
171.000000
 20
291.500000
 11
163.000000
 21
291.500000
  0
LINE
  8
CSLAYER1
  6
CENTER
 62
     3
 10
171.000000
 20
116.500000
 11
163.000000
 21
116.500000
  0
LINE
  8
CSLAYER1
  6
CENTER
 62
     3
 10
136.000000
 20
291.500000
 11
128.000000
 21
291.500000
  0
LINE
  8
CSLAYER1
  6
CENTER
 62
     3
 10
167.000000
 20
120.215305
 11
167.000000
 21
112.500000
  0
LINE
  8
CSLAYER1
  6
CENTER
 62
     3
 10
132.000000
 20
120.500000
 11
132.000000
 21
112.500000
  0
LINE
  8
CSLAYER1
  6
CENTER
 62
     3
 10
134.977284
 20
116.500000
 11
127.000000
 21
116.500000
  0
LINE
  8
CSLAYER1
  6
CONTINUOUS
 62
     3
 10
130.275862
 20
122.063691
 11
131.137931
 21
122.063691
  0
LINE
  8
CSLAYER1
  6
CONTINUOUS
 62
     3
 10
131.137931
 20
122.063691
 11
131.137931
 21
122.925760
  0
LINE
  8
CSLAYER1
  6
CONTINUOUS
 62
     3
 10
131.137931
 20
122.925760
 11
133.724138
 21
122.063691
  0
LINE
  8
CSLAYER1
  6
CONTINUOUS
 62
     3
 10
133.724138
 20
122.063691
 11
132.862069
 21
122.063691
  0
LINE
  8
CSLAYER1
  6
CONTINUOUS
 62
     3
 10
132.862069
 20
122.063691
 11
132.862069
 21
121.201622
  0
LINE
  8
CSLAYER1
  6
CONTINUOUS
 62
     3
 10
132.862069
 20
121.201622
 11
130.275862
 21
122.063691
  0
CIRCLE
  8
CSLAYER1
  6
CONTINUOUS
 62
     3
 10
132.000000
 20
122.063691
 40
1.724138
  0
CIRCLE
  8
CSLAYER1
  6
CONTINUOUS
 62
     3
 10
132.000000
 20
122.063691
 40
2.000000
  0
CIRCLE
  8
CSLAYER1
  6
CONTINUOUS
 62
     3
 10
167.000000
 20
116.500000
 40
2.000000
  0
CIRCLE
  8
CSLAYER1
  6
CONTINUOUS
 62
     6
 10
167.000000
 20
116.500000
 40
1.600000
  0
CIRCLE
  8
CSLAYER1
  6
CONTINUOUS
 62
     3
 10
132.000000
 20
116.500000
 40
2.000000
  0
CIRCLE
  8
CSLAYER1
  6
CONTINUOUS
 62
     6
 10
132.000000
 20
116.500000
 40
1.600000
  0
CIRCLE
  8
CSLAYER1
  6
CONTINUOUS
 62
     3
 10
167.000000
 20
291.500000
 40
2.000000
  0
CIRCLE
  8
CSLAYER1
  6
CONTINUOUS
 62
     6
 10
167.000000
 20
291.500000
 40
1.600000
  0
CIRCLE
  8
CSLAYER1
  6
CONTINUOUS
 62
     3
 10
132.000000
 20
291.500000
 40
2.000000
  0
CIRCLE
  8
CSLAYER1
  6
CONTINUOUS
 62
     6
 10
132.000000
 20
291.500000
 40
1.600000
  0
ARC
  8
CSLAYER1
  6
CONTINUOUS
 62
     7
 10
124.000000
 20
113.500000
 40
2.000000
 50
180.000000
 51
270.000000
  0
LINE
  8
CSLAYER1
  6
CONTINUOUS
 62
     6
 10
233.500000
 20
43.000000
 11
221.500000
 21
49.928203
  0
LINE
  8
CSLAYER1
  6
CONTINUOUS
 62
     6
 10
221.500000
 20
54.928203
 11
221.500000
 21
49.928203
  0
LINE
  8
CSLAYER1
  6
CONTINUOUS
 62
     6
 10
231.000000
 20
56.669873
 11
226.669873
 21
59.169873
  0
LINE
  8
CSLAYER1
  6
CONTINUOUS
 62
     6
 10
231.000000
 20
56.669873
 11
233.500000
 21
61.000000
  0
LINE
  8
CSLAYER1
  6
CONTINUOUS
 62
     6
 10
221.500000
 20
54.928203
 11
223.948929
 21
59.169873
  0
LINE
  8
CSLAYER1
  6
CONTINUOUS
 62
     6
 10
226.669873
 20
59.169873
 11
223.948929
 21
59.169873
  0
LINE
  8
CSLAYER1
  6
CONTINUOUS
 62
     6
 10
233.500000
 20
43.000000
 11
222.490000
 21
43.000000
  0
LINE
  8
CSLAYER1
  6
CONTINUOUS
 62
     6
 10
231.767949
 20
58.000000
 11
228.696152
 21
58.000000
  0
LINE
  8
CSLAYER1
  6
PHANTOM
 62
     3
 10
223.480000
 20
42.010000
 11
223.480000
 21
48.785050
  0
LINE
  8
CSLAYER1
  6
PHANTOM
 62
     3
 10
223.480000
 20
42.010000
 11
221.500000
 21
42.010000
  0
LINE
  8
CSLAYER1
  6
CONTINUOUS
 62
     6
 10
222.490000
 20
43.000000
 11
222.490000
 21
49.356626
  0
LINE
  8
CSLAYER1
  6
PHANTOM
 62
     3
 10
221.500000
 20
42.010000
 11
221.500000
 21
58.990000
  0
LINE
  8
CSLAYER1
  6
CONTINUOUS
 62
     6
 10
228.696152
 20
351.500000
 11
226.669873
 21
350.330127
  0
LINE
  8
CSLAYER1
  6
CONTINUOUS
 62
     6
 10
231.767949
 20
351.500000
 11
233.500000
 21
348.500000
  0
LINE
  8
CSLAYER1
  6
CONTINUOUS
 62
     6
 10
223.480000
 20
351.142336
 11
223.948929
 21
350.330127
  0
LINE
  8
CSLAYER1
  6
CONTINUOUS
 62
     6
 10
226.669873
 20
350.330127
 11
223.948929
 21
350.330127
  0
LINE
  8
CSLAYER1
  6
CONTINUOUS
 62
     6
 10
233.500000
 20
366.500000
 11
222.490000
 21
366.500000
  0
LINE
  8
CSLAYER1
  6
CONTINUOUS
 62
     6
 10
233.500000
 20
351.500000
 11
222.490000
 21
351.500000
  0
LINE
  8
CSLAYER1
  6
PHANTOM
 62
     3
 10
223.480000
 20
367.490000
 11
223.480000
 21
350.510000
  0
LINE
  8
CSLAYER1
  6
PHANTOM
 62
     3
 10
223.480000
 20
367.490000
 11
221.500000
 21
367.490000
  0
LINE
  8
CSLAYER1
  6
CONTINUOUS
 62
     6
 10
222.490000
 20
366.500000
 11
222.490000
 21
351.500000
  0
LINE
  8
CSLAYER1
  6
PHANTOM
 62
     3
 10
221.500000
 20
367.490000
 11
221.500000
 21
350.510000
  0
LINE
  8
CSLAYER1
  6
PHANTOM
 62
     3
 10
223.480000
 20
350.510000
 11
221.500000
 21
350.510000
  0
LINE
  8
CSLAYER1
  6
CONTINUOUS
 62
     6
 10
378.000000
 20
378.500000
 11
378.000000
 21
330.000000
  0
LINE
  8
CSLAYER1
  6
CONTINUOUS
 62
     6
 10
376.500000
 20
378.500000
 11
376.500000
 21
328.063508
  0
LINE
  8
CSLAYER1
  6
CONTINUOUS
 62
     6
 10
234.500000
 20
377.500000
 11
234.500000
 21
328.000000
  0
LINE
  8
CSLAYER1
  6
CONTINUOUS
 62
     6
 10
234.500000
 20
328.000000
 11
376.000000
 21
328.000000
  0
ARC
  8
CSLAYER1
  6
CONTINUOUS
 62
     6
 10
376.000000
 20
330.000000
 40
2.000000
 50
270.000000
 51
360.000000
  0
CIRCLE
  8
CSLAYER1
  6
CONTINUOUS
 62
     7
 10
262.500000
 20
372.500000
 40
1.500000
  0
LINE
  8
CSLAYER1
  6
CONTINUOUS
 62
     7
 10
269.000000
 20
341.000000
 11
269.000000
 21
368.000000
  0
LINE
  8
CSLAYER1
  6
CONTINUOUS
 62
     7
 10
272.000000
 20
341.000000
 11
272.000000
 21
368.000000
  0
ARC
  8
CSLAYER1
  6
CONTINUOUS
 62
     7
 10
270.500000
 20
368.000000
 40
1.500000
 50
-0.000000
 51
180.000000
  0
ARC
  8
CSLAYER1
  6
CONTINUOUS
 62
     7
 10
270.500000
 20
341.000000
 40
1.500000
 50
180.000000
 51
360.000000
  0
LINE
  8
CSLAYER1
  6
CONTINUOUS
 62
     7
 10
275.000000
 20
341.000000
 11
275.000000
 21
368.000000
  0
LINE
  8
CSLAYER1
  6
CONTINUOUS
 62
     7
 10
278.000000
 20
341.000000
 11
278.000000
 21
368.000000
  0
ARC
  8
CSLAYER1
  6
CONTINUOUS
 62
     7
 10
276.500000
 20
368.000000
 40
1.500000
 50
-0.000000
 51
180.000000
  0
ARC
  8
CSLAYER1
  6
CONTINUOUS
 62
     7
 10
276.500000
 20
341.000000
 40
1.500000
 50
180.000000
 51
360.000000
  0
LINE
  8
CSLAYER1
  6
CONTINUOUS
 62
     7
 10
281.000000
 20
341.000000
 11
281.000000
 21
368.000000
  0
LINE
  8
CSLAYER1
  6
CONTINUOUS
 62
     7
 10
284.000000
 20
341.000000
 11
284.000000
 21
368.000000
  0
ARC
  8
CSLAYER1
  6
CONTINUOUS
 62
     7
 10
282.500000
 20
368.000000
 40
1.500000
 50
-0.000000
 51
180.000000
  0
ARC
  8
CSLAYER1
  6
CONTINUOUS
 62
     7
 10
282.500000
 20
341.000000
 40
1.500000
 50
180.000000
 51
360.000000
  0
LINE
  8
CSLAYER1
  6
CONTINUOUS
 62
     7
 10
287.000000
 20
341.000000
 11
287.000000
 21
368.000000
  0
LINE
  8
CSLAYER1
  6
CONTINUOUS
 62
     7
 10
290.000000
 20
341.000000
 11
290.000000
 21
368.000000
  0
ARC
  8
CSLAYER1
  6
CONTINUOUS
 62
     7
 10
288.500000
 20
368.000000
 40
1.500000
 50
-0.000000
 51
180.000000
  0
ARC
  8
CSLAYER1
  6
CONTINUOUS
 62
     7
 10
288.500000
 20
341.000000
 40
1.500000
 50
180.000000
 51
360.000000
  0
LINE
  8
CSLAYER1
  6
CONTINUOUS
 62
     7
 10
293.000000
 20
341.000000
 11
293.000000
 21
368.000000
  0
LINE
  8
CSLAYER1
  6
CONTINUOUS
 62
     7
 10
296.000000
 20
341.000000
 11
296.000000
 21
368.000000
  0
ARC
  8
CSLAYER1
  6
CONTINUOUS
 62
     7
 10
294.500000
 20
368.000000
 40
1.500000
 50
-0.000000
 51
180.000000
  0
ARC
  8
CSLAYER1
  6
CONTINUOUS
 62
     7
 10
294.500000
 20
341.000000
 40
1.500000
 50
180.000000
 51
360.000000
  0
LINE
  8
CSLAYER1
  6
CONTINUOUS
 62
     7
 10
299.000000
 20
341.000000
 11
299.000000
 21
368.000000
  0
LINE
  8
CSLAYER1
  6
CONTINUOUS
 62
     7
 10
302.000000
 20
341.000000
 11
302.000000
 21
368.000000
  0
ARC
  8
CSLAYER1
  6
CONTINUOUS
 62
     7
 10
300.500000
 20
368.000000
 40
1.500000
 50
-0.000000
 51
180.000000
  0
ARC
  8
CSLAYER1
  6
CONTINUOUS
 62
     7
 10
300.500000
 20
341.000000
 40
1.500000
 50
180.000000
 51
360.000000
  0
LINE
  8
CSLAYER1
  6
CONTINUOUS
 62
     7
 10
305.000000
 20
341.000000
 11
305.000000
 21
368.000000
  0
LINE
  8
CSLAYER1
  6
CONTINUOUS
 62
     7
 10
308.000000
 20
341.000000
 11
308.000000
 21
368.000000
  0
ARC
  8
CSLAYER1
  6
CONTINUOUS
 62
     7
 10
306.500000
 20
368.000000
 40
1.500000
 50
-0.000000
 51
180.000000
  0
ARC
  8
CSLAYER1
  6
CONTINUOUS
 62
     7
 10
306.500000
 20
341.000000
 40
1.500000
 50
180.000000
 51
360.000000
  0
LINE
  8
CSLAYER1
  6
CONTINUOUS
 62
     7
 10
311.000000
 20
341.000000
 11
311.000000
 21
368.000000
  0
LINE
  8
CSLAYER1
  6
CONTINUOUS
 62
     7
 10
314.000000
 20
341.000000
 11
314.000000
 21
368.000000
  0
ARC
  8
CSLAYER1
  6
CONTINUOUS
 62
     7
 10
312.500000
 20
368.000000
 40
1.500000
 50
-0.000000
 51
180.000000
  0
ARC
  8
CSLAYER1
  6
CONTINUOUS
 62
     7
 10
312.500000
 20
341.000000
 40
1.500000
 50
180.000000
 51
360.000000
  0
LINE
  8
CSLAYER1
  6
CONTINUOUS
 62
     7
 10
317.000000
 20
341.000000
 11
317.000000
 21
368.000000
  0
LINE
  8
CSLAYER1
  6
CONTINUOUS
 62
     7
 10
320.000000
 20
341.000000
 11
320.000000
 21
368.000000
  0
ARC
  8
CSLAYER1
  6
CONTINUOUS
 62
     7
 10
318.500000
 20
368.000000
 40
1.500000
 50
-0.000000
 51
180.000000
  0
ARC
  8
CSLAYER1
  6
CONTINUOUS
 62
     7
 10
318.500000
 20
341.000000
 40
1.500000
 50
180.000000
 51
360.000000
  0
LINE
  8
CSLAYER1
  6
CONTINUOUS
 62
     7
 10
323.000000
 20
341.000000
 11
323.000000
 21
368.000000
  0
LINE
  8
CSLAYER1
  6
CONTINUOUS
 62
     7
 10
326.000000
 20
341.000000
 11
326.000000
 21
368.000000
  0
ARC
  8
CSLAYER1
  6
CONTINUOUS
 62
     7
 10
324.500000
 20
368.000000
 40
1.500000
 50
-0.000000
 51
180.000000
  0
ARC
  8
CSLAYER1
  6
CONTINUOUS
 62
     7
 10
324.500000
 20
341.000000
 40
1.500000
 50
180.000000
 51
360.000000
  0
LINE
  8
CSLAYER1
  6
CONTINUOUS
 62
     7
 10
329.000000
 20
341.000000
 11
329.000000
 21
368.000000
  0
LINE
  8
CSLAYER1
  6
CONTINUOUS
 62
     7
 10
332.000000
 20
341.000000
 11
332.000000
 21
368.000000
  0
ARC
  8
CSLAYER1
  6
CONTINUOUS
 62
     7
 10
330.500000
 20
368.000000
 40
1.500000
 50
-0.000000
 51
180.000000
  0
ARC
  8
CSLAYER1
  6
CONTINUOUS
 62
     7
 10
330.500000
 20
341.000000
 40
1.500000
 50
180.000000
 51
360.000000
  0
LINE
  8
CSLAYER1
  6
CONTINUOUS
 62
     7
 10
335.000000
 20
341.000000
 11
335.000000
 21
368.000000
  0
LINE
  8
CSLAYER1
  6
CONTINUOUS
 62
     7
 10
338.000000
 20
341.000000
 11
338.000000
 21
368.000000
  0
ARC
  8
CSLAYER1
  6
CONTINUOUS
 62
     7
 10
336.500000
 20
368.000000
 40
1.500000
 50
-0.000000
 51
180.000000
  0
ARC
  8
CSLAYER1
  6
CONTINUOUS
 62
     7
 10
336.500000
 20
341.000000
 40
1.500000
 50
180.000000
 51
360.000000
  0
LINE
  8
CSLAYER1
  6
CONTINUOUS
 62
     7
 10
235.500000
 20
378.500000
 11
376.500000
 21
378.500000
  0
LINE
  8
CSLAYER1
  6
DASHED
 62
     3
 10
234.500000
 20
329.500000
 11
376.500000
 21
329.500000
  0
LINE
  8
CSLAYER1
  6
CONTINUOUS
 62
     7
 10
375.500000
 20
378.500000
 11
376.500000
 21
377.500000
  0
LINE
  8
CSLAYER1
  6
CONTINUOUS
 62
     7
 10
376.500000
 20
378.500000
 11
378.000000
 21
378.500000
  0
LINE
  8
CSLAYER1
  6
CONTINUOUS
 62
     7
 10
235.500000
 20
378.500000
 11
234.500000
 21
377.500000
  0
LINE
  8
CSLAYER1
  6
CONTINUOUS
 62
     6
 10
378.000000
 20
296.500000
 11
378.000000
 21
112.500000
  0
LINE
  8
CSLAYER1
  6
CONTINUOUS
 62
     6
 10
234.500000
 20
298.000000
 11
376.500000
 21
298.000000
  0
LINE
  8
CSLAYER1
  6
CONTINUOUS
 62
     7
 10
234.500000
 20
113.500000
 11
234.500000
 21
298.000000
  0
LINE
  8
CSLAYER1
  6
CONTINUOUS
 62
     7
 10
378.000000
 20
112.500000
 11
235.500000
 21
112.500000
  0
LINE
  8
CSLAYER1
  6
CONTINUOUS
 62
     7
 10
376.500000
 20
298.000000
 11
376.500000
 21
296.500000
  0
LINE
  8
CSLAYER1
  6
CONTINUOUS
 62
     7
 10
378.000000
 20
296.500000
 11
376.500000
 21
296.500000
  0
LINE
  8
CSLAYER1
  6
DASHED
 62
     3
 10
376.500000
 20
296.500000
 11
376.500000
 21
112.500000
  0
LINE
  8
CSLAYER1
  6
DASHED
 62
     3
 10
376.500000
 20
296.500000
 11
234.500000
 21
296.500000
  0
LINE
  8
CSLAYER1
  6
CONTINUOUS
 62
     7
 10
251.000000
 20
189.000000
 11
251.000000
 21
216.000000
  0
LINE
  8
CSLAYER1
  6
CONTINUOUS
 62
     7
 10
254.000000
 20
189.000000
 11
254.000000
 21
216.000000
  0
ARC
  8
CSLAYER1
  6
CONTINUOUS
 62
     7
 10
252.500000
 20
216.000000
 40
1.500000
 50
-0.000000
 51
180.000000
  0
ARC
  8
CSLAYER1
  6
CONTINUOUS
 62
     7
 10
252.500000
 20
189.000000
 40
1.500000
 50
180.000000
 51
360.000000
  0
LINE
  8
CSLAYER1
  6
CONTINUOUS
 62
     7
 10
257.000000
 20
189.000000
 11
257.000000
 21
216.000000
  0
LINE
  8
CSLAYER1
  6
CONTINUOUS
 62
     7
 10
260.000000
 20
189.000000
 11
260.000000
 21
216.000000
  0
ARC
  8
CSLAYER1
  6
CONTINUOUS
 62
     7
 10
258.500000
 20
216.000000
 40
1.500000
 50
-0.000000
 51
180.000000
  0
ARC
  8
CSLAYER1
  6
CONTINUOUS
 62
     7
 10
258.500000
 20
189.000000
 40
1.500000
 50
180.000000
 51
360.000000
  0
LINE
  8
CSLAYER1
  6
CONTINUOUS
 62
     7
 10
263.000000
 20
189.000000
 11
263.000000
 21
216.000000
  0
LINE
  8
CSLAYER1
  6
CONTINUOUS
 62
     7
 10
266.000000
 20
189.000000
 11
266.000000
 21
216.000000
  0
ARC
  8
CSLAYER1
  6
CONTINUOUS
 62
     7
 10
264.500000
 20
216.000000
 40
1.500000
 50
-0.000000
 51
180.000000
  0
ARC
  8
CSLAYER1
  6
CONTINUOUS
 62
     7
 10
264.500000
 20
189.000000
 40
1.500000
 50
180.000000
 51
360.000000
  0
LINE
  8
CSLAYER1
  6
CONTINUOUS
 62
     7
 10
269.000000
 20
189.000000
 11
269.000000
 21
216.000000
  0
LINE
  8
CSLAYER1
  6
CONTINUOUS
 62
     7
 10
272.000000
 20
189.000000
 11
272.000000
 21
216.000000
  0
ARC
  8
CSLAYER1
  6
CONTINUOUS
 62
     7
 10
270.500000
 20
216.000000
 40
1.500000
 50
-0.000000
 51
180.000000
  0
ARC
  8
CSLAYER1
  6
CONTINUOUS
 62
     7
 10
270.500000
 20
189.000000
 40
1.500000
 50
180.000000
 51
360.000000
  0
LINE
  8
CSLAYER1
  6
CONTINUOUS
 62
     7
 10
275.000000
 20
189.000000
 11
275.000000
 21
216.000000
  0
LINE
  8
CSLAYER1
  6
CONTINUOUS
 62
     7
 10
278.000000
 20
189.000000
 11
278.000000
 21
216.000000
  0
ARC
  8
CSLAYER1
  6
CONTINUOUS
 62
     7
 10
276.500000
 20
216.000000
 40
1.500000
 50
-0.000000
 51
180.000000
  0
ARC
  8
CSLAYER1
  6
CONTINUOUS
 62
     7
 10
276.500000
 20
189.000000
 40
1.500000
 50
180.000000
 51
360.000000
  0
LINE
  8
CSLAYER1
  6
CONTINUOUS
 62
     7
 10
281.000000
 20
189.000000
 11
281.000000
 21
216.000000
  0
LINE
  8
CSLAYER1
  6
CONTINUOUS
 62
     7
 10
284.000000
 20
189.000000
 11
284.000000
 21
216.000000
  0
ARC
  8
CSLAYER1
  6
CONTINUOUS
 62
     7
 10
282.500000
 20
216.000000
 40
1.500000
 50
-0.000000
 51
180.000000
  0
ARC
  8
CSLAYER1
  6
CONTINUOUS
 62
     7
 10
282.500000
 20
189.000000
 40
1.500000
 50
180.000000
 51
360.000000
  0
LINE
  8
CSLAYER1
  6
CONTINUOUS
 62
     7
 10
287.000000
 20
189.000000
 11
287.000000
 21
216.000000
  0
LINE
  8
CSLAYER1
  6
CONTINUOUS
 62
     7
 10
290.000000
 20
189.000000
 11
290.000000
 21
216.000000
  0
ARC
  8
CSLAYER1
  6
CONTINUOUS
 62
     7
 10
288.500000
 20
216.000000
 40
1.500000
 50
-0.000000
 51
180.000000
  0
ARC
  8
CSLAYER1
  6
CONTINUOUS
 62
     7
 10
288.500000
 20
189.000000
 40
1.500000
 50
180.000000
 51
360.000000
  0
LINE
  8
CSLAYER1
  6
CONTINUOUS
 62
     7
 10
293.000000
 20
189.000000
 11
293.000000
 21
216.000000
  0
LINE
  8
CSLAYER1
  6
CONTINUOUS
 62
     7
 10
296.000000
 20
189.000000
 11
296.000000
 21
216.000000
  0
ARC
  8
CSLAYER1
  6
CONTINUOUS
 62
     7
 10
294.500000
 20
216.000000
 40
1.500000
 50
-0.000000
 51
180.000000
  0
ARC
  8
CSLAYER1
  6
CONTINUOUS
 62
     7
 10
294.500000
 20
189.000000
 40
1.500000
 50
180.000000
 51
360.000000
  0
LINE
  8
CSLAYER1
  6
CONTINUOUS
 62
     7
 10
299.000000
 20
189.000000
 11
299.000000
 21
216.000000
  0
LINE
  8
CSLAYER1
  6
CONTINUOUS
 62
     7
 10
302.000000
 20
189.000000
 11
302.000000
 21
216.000000
  0
ARC
  8
CSLAYER1
  6
CONTINUOUS
 62
     7
 10
300.500000
 20
216.000000
 40
1.500000
 50
-0.000000
 51
180.000000
  0
ARC
  8
CSLAYER1
  6
CONTINUOUS
 62
     7
 10
300.500000
 20
189.000000
 40
1.500000
 50
180.000000
 51
360.000000
  0
LINE
  8
CSLAYER1
  6
CONTINUOUS
 62
     7
 10
305.000000
 20
189.000000
 11
305.000000
 21
216.000000
  0
LINE
  8
CSLAYER1
  6
CONTINUOUS
 62
     7
 10
308.000000
 20
189.000000
 11
308.000000
 21
216.000000
  0
ARC
  8
CSLAYER1
  6
CONTINUOUS
 62
     7
 10
306.500000
 20
216.000000
 40
1.500000
 50
-0.000000
 51
180.000000
  0
ARC
  8
CSLAYER1
  6
CONTINUOUS
 62
     7
 10
306.500000
 20
189.000000
 40
1.500000
 50
180.000000
 51
360.000000
  0
LINE
  8
CSLAYER1
  6
CONTINUOUS
 62
     7
 10
311.000000
 20
189.000000
 11
311.000000
 21
216.000000
  0
LINE
  8
CSLAYER1
  6
CONTINUOUS
 62
     7
 10
314.000000
 20
189.000000
 11
314.000000
 21
216.000000
  0
ARC
  8
CSLAYER1
  6
CONTINUOUS
 62
     7
 10
312.500000
 20
216.000000
 40
1.500000
 50
-0.000000
 51
180.000000
  0
ARC
  8
CSLAYER1
  6
CONTINUOUS
 62
     7
 10
312.500000
 20
189.000000
 40
1.500000
 50
180.000000
 51
360.000000
  0
LINE
  8
CSLAYER1
  6
CONTINUOUS
 62
     7
 10
317.000000
 20
189.000000
 11
317.000000
 21
216.000000
  0
LINE
  8
CSLAYER1
  6
CONTINUOUS
 62
     7
 10
320.000000
 20
189.000000
 11
320.000000
 21
216.000000
  0
ARC
  8
CSLAYER1
  6
CONTINUOUS
 62
     7
 10
318.500000
 20
216.000000
 40
1.500000
 50
-0.000000
 51
180.000000
  0
ARC
  8
CSLAYER1
  6
CONTINUOUS
 62
     7
 10
318.500000
 20
189.000000
 40
1.500000
 50
180.000000
 51
360.000000
  0
LINE
  8
CSLAYER1
  6
CONTINUOUS
 62
     7
 10
323.000000
 20
189.000000
 11
323.000000
 21
216.000000
  0
LINE
  8
CSLAYER1
  6
CONTINUOUS
 62
     7
 10
326.000000
 20
189.000000
 11
326.000000
 21
216.000000
  0
ARC
  8
CSLAYER1
  6
CONTINUOUS
 62
     7
 10
324.500000
 20
216.000000
 40
1.500000
 50
-0.000000
 51
180.000000
  0
ARC
  8
CSLAYER1
  6
CONTINUOUS
 62
     7
 10
324.500000
 20
189.000000
 40
1.500000
 50
180.000000
 51
360.000000
  0
LINE
  8
CSLAYER1
  6
CONTINUOUS
 62
     7
 10
329.000000
 20
189.000000
 11
329.000000
 21
216.000000
  0
LINE
  8
CSLAYER1
  6
CONTINUOUS
 62
     7
 10
332.000000
 20
189.000000
 11
332.000000
 21
216.000000
  0
ARC
  8
CSLAYER1
  6
CONTINUOUS
 62
     7
 10
330.500000
 20
216.000000
 40
1.500000
 50
-0.000000
 51
180.000000
  0
ARC
  8
CSLAYER1
  6
CONTINUOUS
 62
     7
 10
330.500000
 20
189.000000
 40
1.500000
 50
180.000000
 51
360.000000
  0
LINE
  8
CSLAYER1
  6
CONTINUOUS
 62
     7
 10
335.000000
 20
189.000000
 11
335.000000
 21
216.000000
  0
LINE
  8
CSLAYER1
  6
CONTINUOUS
 62
     7
 10
338.000000
 20
189.000000
 11
338.000000
 21
216.000000
  0
ARC
  8
CSLAYER1
  6
CONTINUOUS
 62
     7
 10
336.500000
 20
216.000000
 40
1.500000
 50
-0.000000
 51
180.000000
  0
ARC
  8
CSLAYER1
  6
CONTINUOUS
 62
     7
 10
336.500000
 20
189.000000
 40
1.500000
 50
180.000000
 51
360.000000
  0
LINE
  8
CSLAYER1
  6
CONTINUOUS
 62
     7
 10
341.000000
 20
189.000000
 11
341.000000
 21
216.000000
  0
LINE
  8
CSLAYER1
  6
CONTINUOUS
 62
     7
 10
344.000000
 20
189.000000
 11
344.000000
 21
216.000000
  0
ARC
  8
CSLAYER1
  6
CONTINUOUS
 62
     7
 10
342.500000
 20
216.000000
 40
1.500000
 50
-0.000000
 51
180.000000
  0
ARC
  8
CSLAYER1
  6
CONTINUOUS
 62
     7
 10
342.500000
 20
189.000000
 40
1.500000
 50
180.000000
 51
360.000000
  0
LINE
  8
CSLAYER1
  6
CONTINUOUS
 62
     7
 10
347.000000
 20
189.000000
 11
347.000000
 21
216.000000
  0
LINE
  8
CSLAYER1
  6
CONTINUOUS
 62
     7
 10
350.000000
 20
189.000000
 11
350.000000
 21
216.000000
  0
ARC
  8
CSLAYER1
  6
CONTINUOUS
 62
     7
 10
348.500000
 20
216.000000
 40
1.500000
 50
-0.000000
 51
180.000000
  0
ARC
  8
CSLAYER1
  6
CONTINUOUS
 62
     7
 10
348.500000
 20
189.000000
 40
1.500000
 50
180.000000
 51
360.000000
  0
LINE
  8
CSLAYER1
  6
CONTINUOUS
 62
     7
 10
353.000000
 20
189.000000
 11
353.000000
 21
216.000000
  0
LINE
  8
CSLAYER1
  6
CONTINUOUS
 62
     7
 10
356.000000
 20
189.000000
 11
356.000000
 21
216.000000
  0
ARC
  8
CSLAYER1
  6
CONTINUOUS
 62
     7
 10
354.500000
 20
216.000000
 40
1.500000
 50
-0.000000
 51
180.000000
  0
ARC
  8
CSLAYER1
  6
CONTINUOUS
 62
     7
 10
354.500000
 20
189.000000
 40
1.500000
 50
180.000000
 51
360.000000
  0
LINE
  8
CSLAYER1
  6
CONTINUOUS
 62
     7
 10
359.000000
 20
189.000000
 11
359.000000
 21
216.000000
  0
LINE
  8
CSLAYER1
  6
CONTINUOUS
 62
     7
 10
362.000000
 20
189.000000
 11
362.000000
 21
216.000000
  0
ARC
  8
CSLAYER1
  6
CONTINUOUS
 62
     7
 10
360.500000
 20
216.000000
 40
1.500000
 50
-0.000000
 51
180.000000
  0
ARC
  8
CSLAYER1
  6
CONTINUOUS
 62
     7
 10
360.500000
 20
189.000000
 40
1.500000
 50
180.000000
 51
360.000000
  0
LINE
  8
CSLAYER1
  6
CONTINUOUS
 62
     7
 10
365.000000
 20
189.000000
 11
365.000000
 21
216.000000
  0
LINE
  8
CSLAYER1
  6
CONTINUOUS
 62
     7
 10
368.000000
 20
189.000000
 11
368.000000
 21
216.000000
  0
ARC
  8
CSLAYER1
  6
CONTINUOUS
 62
     7
 10
366.500000
 20
216.000000
 40
1.500000
 50
-0.000000
 51
180.000000
  0
ARC
  8
CSLAYER1
  6
CONTINUOUS
 62
     7
 10
366.500000
 20
189.000000
 40
1.500000
 50
180.000000
 51
360.000000
  0
LINE
  8
CSLAYER1
  6
CONTINUOUS
 62
     7
 10
341.000000
 20
176.000000
 11
341.000000
 21
149.000000
  0
LINE
  8
CSLAYER1
  6
CONTINUOUS
 62
     7
 10
344.000000
 20
176.000000
 11
344.000000
 21
149.000000
  0
ARC
  8
CSLAYER1
  6
CONTINUOUS
 62
     7
 10
342.500000
 20
149.000000
 40
1.500000
 50
180.000000
 51
360.000000
  0
ARC
  8
CSLAYER1
  6
CONTINUOUS
 62
     7
 10
342.500000
 20
176.000000
 40
1.500000
 50
0.000000
 51
180.000000
  0
LINE
  8
CSLAYER1
  6
CONTINUOUS
 62
     7
 10
347.000000
 20
176.000000
 11
347.000000
 21
149.000000
  0
LINE
  8
CSLAYER1
  6
CONTINUOUS
 62
     7
 10
350.000000
 20
176.000000
 11
350.000000
 21
149.000000
  0
ARC
  8
CSLAYER1
  6
CONTINUOUS
 62
     7
 10
348.500000
 20
149.000000
 40
1.500000
 50
180.000000
 51
360.000000
  0
ARC
  8
CSLAYER1
  6
CONTINUOUS
 62
     7
 10
348.500000
 20
176.000000
 40
1.500000
 50
0.000000
 51
180.000000
  0
LINE
  8
CSLAYER1
  6
CONTINUOUS
 62
     7
 10
353.000000
 20
176.000000
 11
353.000000
 21
149.000000
  0
LINE
  8
CSLAYER1
  6
CONTINUOUS
 62
     7
 10
356.000000
 20
176.000000
 11
356.000000
 21
149.000000
  0
ARC
  8
CSLAYER1
  6
CONTINUOUS
 62
     7
 10
354.500000
 20
149.000000
 40
1.500000
 50
-180.000000
 51
0.000000
  0
ARC
  8
CSLAYER1
  6
CONTINUOUS
 62
     7
 10
354.500000
 20
176.000000
 40
1.500000
 50
0.000000
 51
180.000000
  0
LINE
  8
CSLAYER1
  6
CONTINUOUS
 62
     7
 10
359.000000
 20
176.000000
 11
359.000000
 21
149.000000
  0
LINE
  8
CSLAYER1
  6
CONTINUOUS
 62
     7
 10
362.000000
 20
176.000000
 11
362.000000
 21
149.000000
  0
ARC
  8
CSLAYER1
  6
CONTINUOUS
 62
     7
 10
360.500000
 20
149.000000
 40
1.500000
 50
-180.000000
 51
0.000000
  0
ARC
  8
CSLAYER1
  6
CONTINUOUS
 62
     7
 10
360.500000
 20
176.000000
 40
1.500000
 50
0.000000
 51
180.000000
  0
LINE
  8
CSLAYER1
  6
CONTINUOUS
 62
     7
 10
365.000000
 20
176.000000
 11
365.000000
 21
149.000000
  0
LINE
  8
CSLAYER1
  6
CONTINUOUS
 62
     7
 10
368.000000
 20
176.000000
 11
368.000000
 21
149.000000
  0
ARC
  8
CSLAYER1
  6
CONTINUOUS
 62
     7
 10
366.500000
 20
149.000000
 40
1.500000
 50
-180.000000
 51
0.000000
  0
ARC
  8
CSLAYER1
  6
CONTINUOUS
 62
     7
 10
366.500000
 20
176.000000
 40
1.500000
 50
0.000000
 51
180.000000
  0
CIRCLE
  8
CSLAYER1
  6
CONTINUOUS
 62
     7
 10
292.500000
 20
154.000000
 40
3.000000
  0
CIRCLE
  8
CSLAYER1
  6
CONTINUOUS
 62
     7
 10
282.500000
 20
154.000000
 40
3.000000
  0
CIRCLE
  8
CSLAYER1
  6
CONTINUOUS
 62
     7
 10
272.500000
 20
154.000000
 40
3.000000
  0
CIRCLE
  8
CSLAYER1
  6
CONTINUOUS
 62
     7
 10
256.500000
 20
137.500000
 40
3.000000
  0
CIRCLE
  8
CSLAYER1
  6
CONTINUOUS
 62
     7
 10
280.500000
 20
131.500000
 40
3.000000
  0
CIRCLE
  8
CSLAYER1
  6
CONTINUOUS
 62
     7
 10
293.500000
 20
135.500000
 40
3.000000
  0
CIRCLE
  8
CSLAYER1
  6
CONTINUOUS
 62
     7
 10
302.500000
 20
135.500000
 40
3.000000
  0
TEXT
  8
CSLAYER1
 62
     3
 10
270.000000
 20
157.499985
 40
3.500000
 41
0.857143
  1
CL
 50
0.000000
 51
0.000000
  7
FX_FONT
 72
     5
 11
275.000000
 21
157.499985
  0
TEXT
  8
CSLAYER1
 62
     3
 10
278.767944
 20
157.499985
 40
3.500000
 41
0.803571
  1
OFS
 50
0.000000
 51
0.000000
  7
FX_FONT
 72
     5
 11
286.267944
 21
157.499985
  0
TEXT
  8
CSLAYER1
 62
     3
 10
288.767944
 20
157.499985
 40
3.500000
 41
0.803571
  1
SPD
 50
0.000000
 51
0.000000
  7
FX_FONT
 72
     5
 11
296.267944
 21
157.499985
  0
TEXT
  8
CSLAYER1
 62
     3
 10
254.000000
 20
140.999969
 40
3.500000
 41
0.857143
  1
SS
 50
0.000000
 51
0.000000
  7
FX_FONT
 72
     5
 11
259.000000
 21
140.999969
  0
TEXT
  8
CSLAYER1
 62
     3
 10
278.000000
 20
134.999969
 40
3.500000
 41
0.857143
  1
SW
 50
0.000000
 51
0.000000
  7
FX_FONT
 72
     5
 11
283.000000
 21
134.999969
  0
TEXT
  8
CSLAYER1
 62
     3
 10
291.000000
 20
138.999969
 40
3.500000
 41
0.857143
  1
PH
 50
0.000000
 51
0.000000
  7
FX_FONT
 72
     5
 11
296.000000
 21
138.999969
  0
TEXT
  8
CSLAYER1
 62
     3
 10
300.000000
 20
138.999969
 40
3.500000
 41
0.857143
  1
GA
 50
0.000000
 51
0.000000
  7
FX_FONT
 72
     5
 11
305.000000
 21
138.999969
  0
LINE
  8
CSLAYER1
  6
CONTINUOUS
 62
     7
 10
234.500000
 20
113.500000
 11
235.500000
 21
112.500000
  0
LINE
  8
CSLAYER1
  6
CONTINUOUS
 62
     7
 10
376.500000
 20
30.000000
 11
235.500000
 21
30.000000
  0
LINE
  8
CSLAYER1
  6
CONTINUOUS
 62
     7
 10
233.500000
 20
32.000000
 11
233.500000
 21
80.000000
  0
LINE
  8
CSLAYER1
  6
CONTINUOUS
 62
     7
 10
233.500000
 20
80.000000
 11
255.500000
 21
80.000000
  0
LINE
  8
CSLAYER1
  6
CONTINUOUS
 62
     7
 10
376.500000
 20
79.000000
 11
376.500000
 21
67.000000
  0
LINE
  8
CSLAYER1
  6
CONTINUOUS
 62
     7
 10
235.500000
 20
80.000000
 11
235.500000
 21
30.000000
  0
LINE
  8
CSLAYER1
  6
CONTINUOUS
 62
     7
 10
376.500000
 20
79.000000
 11
375.500000
 21
80.000000
  0
LINE
  8
CSLAYER1
  6
CENTER
 62
     3
 10
368.500000
 20
35.500000
 11
368.500000
 21
44.500000
  0
LINE
  8
CSLAYER1
  6
CENTER
 62
     3
 10
373.000000
 20
40.000000
 11
364.000000
 21
40.000000
  0
CIRCLE
  8
CSLAYER1
  6
CONTINUOUS
 62
     3
 10
368.500000
 20
40.000000
 40
2.000000
  0
CIRCLE
  8
CSLAYER1
  6
CONTINUOUS
 62
     6
 10
368.500000
 20
40.000000
 40
1.600000
  0
LINE
  8
CSLAYER1
  6
CENTER
 62
     3
 10
368.500000
 20
70.500000
 11
368.500000
 21
79.500000
  0
LINE
  8
CSLAYER1
  6
CENTER
 62
     3
 10
373.000000
 20
75.000000
 11
364.000000
 21
75.000000
  0
CIRCLE
  8
CSLAYER1
  6
CONTINUOUS
 62
     3
 10
368.500000
 20
75.000000
 40
2.000000
  0
CIRCLE
  8
CSLAYER1
  6
CONTINUOUS
 62
     6
 10
368.500000
 20
75.000000
 40
1.600000
  0
LINE
  8
CSLAYER1
  6
CENTER
 62
     3
 10
243.500000
 20
70.500000
 11
243.500000
 21
79.500000
  0
LINE
  8
CSLAYER1
  6
CENTER
 62
     3
 10
248.000000
 20
75.000000
 11
239.000000
 21
75.000000
  0
CIRCLE
  8
CSLAYER1
  6
CONTINUOUS
 62
     3
 10
243.500000
 20
75.000000
 40
2.000000
  0
CIRCLE
  8
CSLAYER1
  6
CONTINUOUS
 62
     6
 10
243.500000
 20
75.000000
 40
1.600000
  0
LINE
  8
CSLAYER1
  6
CENTER
 62
     3
 10
243.500000
 20
35.500000
 11
243.500000
 21
44.500000
  0
LINE
  8
CSLAYER1
  6
CENTER
 62
     3
 10
248.000000
 20
40.000000
 11
239.000000
 21
40.000000
  0
CIRCLE
  8
CSLAYER1
  6
CONTINUOUS
 62
     3
 10
243.500000
 20
40.000000
 40
2.000000
  0
CIRCLE
  8
CSLAYER1
  6
CONTINUOUS
 62
     6
 10
243.500000
 20
40.000000
 40
1.600000
  0
LINE
  8
CSLAYER1
  6
DASHED
 62
     3
 10
376.500000
 20
32.000000
 11
235.500000
 21
32.000000
  0
LINE
  8
CSLAYER1
  6
CONTINUOUS
 62
     7
 10
255.500000
 20
78.000000
 11
257.500000
 21
78.000000
  0
LINE
  8
CSLAYER1
  6
CONTINUOUS
 62
     7
 10
349.500000
 20
78.000000
 11
349.500000
 21
80.000000
  0
LINE
  8
CSLAYER1
  6
CONTINUOUS
 62
     7
 10
347.500000
 20
78.000000
 11
347.500000
 21
80.000000
  0
LINE
  8
CSLAYER1
  6
CONTINUOUS
 62
     7
 10
335.500000
 20
78.000000
 11
335.500000
 21
80.000000
  0
LINE
  8
CSLAYER1
  6
CONTINUOUS
 62
     7
 10
337.500000
 20
78.000000
 11
337.500000
 21
80.000000
  0
LINE
  8
CSLAYER1
  6
CONTINUOUS
 62
     7
 10
269.500000
 20
78.000000
 11
269.500000
 21
80.000000
  0
LINE
  8
CSLAYER1
  6
CONTINUOUS
 62
     7
 10
267.500000
 20
78.000000
 11
267.500000
 21
80.000000
  0
LINE
  8
CSLAYER1
  6
CONTINUOUS
 62
     7
 10
255.500000
 20
78.000000
 11
255.500000
 21
80.000000
  0
LINE
  8
CSLAYER1
  6
CONTINUOUS
 62
     7
 10
257.500000
 20
78.000000
 11
257.500000
 21
80.000000
  0
LINE
  8
CSLAYER1
  6
CONTINUOUS
 62
     7
 10
349.500000
 20
80.000000
 11
375.500000
 21
80.000000
  0
LINE
  8
CSLAYER1
  6
CONTINUOUS
 62
     7
 10
337.500000
 20
80.000000
 11
347.500000
 21
80.000000
  0
LINE
  8
CSLAYER1
  6
CONTINUOUS
 62
     7
 10
269.500000
 20
80.000000
 11
335.500000
 21
80.000000
  0
LINE
  8
CSLAYER1
  6
CONTINUOUS
 62
     7
 10
257.500000
 20
80.000000
 11
267.500000
 21
80.000000
  0
LINE
  8
CSLAYER1
  6
CONTINUOUS
 62
     7
 10
374.500000
 20
43.000000
 11
376.500000
 21
43.000000
  0
LINE
  8
CSLAYER1
  6
CONTINUOUS
 62
     7
 10
374.500000
 20
45.000000
 11
376.500000
 21
45.000000
  0
LINE
  8
CSLAYER1
  6
CONTINUOUS
 62
     7
 10
374.500000
 20
57.000000
 11
376.500000
 21
57.000000
  0
LINE
  8
CSLAYER1
  6
CONTINUOUS
 62
     7
 10
374.500000
 20
55.000000
 11
376.500000
 21
55.000000
  0
LINE
  8
CSLAYER1
  6
CONTINUOUS
 62
     7
 10
376.500000
 20
55.000000
 11
376.500000
 21
45.000000
  0
LINE
  8
CSLAYER1
  6
CONTINUOUS
 62
     7
 10
376.500000
 20
53.000000
 11
376.500000
 21
30.000000
  0
LINE
  8
CSLAYER1
  6
CONTINUOUS
 62
     7
 10
376.500000
 20
55.000000
 11
376.500000
 21
45.000000
  0
LINE
  8
CSLAYER1
  6
CONTINUOUS
 62
     7
 10
267.500000
 20
78.000000
 11
269.500000
 21
78.000000
  0
LINE
  8
CSLAYER1
  6
CONTINUOUS
 62
     3
 10
259.500000
 20
78.000000
 11
265.500000
 21
78.000000
  0
LINE
  8
CSLAYER1
  6
CONTINUOUS
 62
     7
 10
335.500000
 20
78.000000
 11
337.500000
 21
78.000000
  0
LINE
  8
CSLAYER1
  6
CONTINUOUS
 62
     7
 10
347.500000
 20
78.000000
 11
349.500000
 21
78.000000
  0
LINE
  8
CSLAYER1
  6
CONTINUOUS
 62
     3
 10
339.500000
 20
78.000000
 11
345.500000
 21
78.000000
  0
ARC
  8
CSLAYER1
  6
CONTINUOUS
 62
     7
 10
235.500000
 20
32.000000
 40
2.000000
 50
180.000000
 51
270.000000
  0
LINE
  8
CSLAYER1
  6
CONTINUOUS
 62
     7
 10
235.500000
 20
32.000000
 11
233.500000
 21
32.000000
  0
LINE
  8
CSLAYER1
  6
CONTINUOUS
 62
     7
 10
374.500000
 20
57.000000
 11
374.500000
 21
55.000000
  0
LINE
  8
CSLAYER1
  6
CONTINUOUS
 62
     7
 10
374.500000
 20
45.000000
 11
374.500000
 21
43.000000
  0
LINE
  8
CSLAYER1
  6
CONTINUOUS
 62
     3
 10
374.500000
 20
53.000000
 11
374.500000
 21
47.000000
  0
LINE
  8
CSLAYER1
  6
CONTINUOUS
 62
     6
 10
428.000000
 20
112.500000
 11
428.000000
 21
296.000000
  0
LINE
  8
CSLAYER1
  6
CONTINUOUS
 62
     6
 10
430.000000
 20
298.000000
 11
478.500000
 21
298.000000
  0
LINE
  8
CSLAYER1
  6
CONTINUOUS
 62
     6
 10
478.500000
 20
298.000000
 11
478.500000
 21
296.500000
  0
LINE
  8
CSLAYER1
  6
CONTINUOUS
 62
     7
 10
428.000000
 20
296.500000
 11
479.500000
 21
296.500000
  0
LINE
  8
CSLAYER1
  6
DASHED
 62
     3
 10
429.500000
 20
296.500000
 11
429.500000
 21
112.500000
  0
LINE
  8
CSLAYER1
  6
CONTINUOUS
 62
     6
 10
477.500000
 20
112.500000
 11
428.000000
 21
112.500000
  0
ARC
  8
CSLAYER1
  6
CONTINUOUS
 62
     7
 10
430.000000
 20
296.000000
 40
2.000000
 50
90.000000
 51
180.000000
  0
LINE
  8
CSLAYER1
  6
CONTINUOUS
 62
     7
 10
478.500000
 20
113.500000
 11
477.500000
 21
112.500000
  0
LINE
  8
CSLAYER1
  6
CONTINUOUS
 62
     7
 10
477.500000
 20
296.500000
 11
478.500000
 21
295.500000
  0
LINE
  8
CSLAYER1
  6
CONTINUOUS
 62
     6
 10
478.500000
 20
296.500000
 11
478.500000
 21
113.500000
  0
CIRCLE
  8
CSLAYER1
  6
CONTINUOUS
 62
     7
 10
459.500000
 20
118.500000
 40
1.500000
  0
LINE
  8
CSLAYER1
  6
CONTINUOUS
 62
     7
 10
471.500000
 20
176.000000
 11
471.500000
 21
149.000000
  0
LINE
  8
CSLAYER1
  6
CONTINUOUS
 62
     7
 10
468.500000
 20
176.000000
 11
468.500000
 21
149.000000
  0
ARC
  8
CSLAYER1
  6
CONTINUOUS
 62
     7
 10
470.000000
 20
149.000000
 40
1.500000
 50
180.000000
 51
360.000000
  0
ARC
  8
CSLAYER1
  6
CONTINUOUS
 62
     7
 10
470.000000
 20
176.000000
 40
1.500000
 50
0.000000
 51
180.000000
  0
LINE
  8
CSLAYER1
  6
CONTINUOUS
 62
     7
 10
465.500000
 20
176.000000
 11
465.500000
 21
149.000000
  0
LINE
  8
CSLAYER1
  6
CONTINUOUS
 62
     7
 10
462.500000
 20
176.000000
 11
462.500000
 21
149.000000
  0
ARC
  8
CSLAYER1
  6
CONTINUOUS
 62
     7
 10
464.000000
 20
149.000000
 40
1.500000
 50
180.000000
 51
360.000000
  0
ARC
  8
CSLAYER1
  6
CONTINUOUS
 62
     7
 10
464.000000
 20
176.000000
 40
1.500000
 50
0.000000
 51
180.000000
  0
LINE
  8
CSLAYER1
  6
CONTINUOUS
 62
     7
 10
459.500000
 20
176.000000
 11
459.500000
 21
149.000000
  0
LINE
  8
CSLAYER1
  6
CONTINUOUS
 62
     7
 10
456.500000
 20
176.000000
 11
456.500000
 21
149.000000
  0
ARC
  8
CSLAYER1
  6
CONTINUOUS
 62
     7
 10
458.000000
 20
149.000000
 40
1.500000
 50
-180.000000
 51
0.000000
  0
ARC
  8
CSLAYER1
  6
CONTINUOUS
 62
     7
 10
458.000000
 20
176.000000
 40
1.500000
 50
0.000000
 51
180.000000
  0
LINE
  8
CSLAYER1
  6
CONTINUOUS
 62
     7
 10
453.500000
 20
176.000000
 11
453.500000
 21
149.000000
  0
LINE
  8
CSLAYER1
  6
CONTINUOUS
 62
     7
 10
450.500000
 20
176.000000
 11
450.500000
 21
149.000000
  0
ARC
  8
CSLAYER1
  6
CONTINUOUS
 62
     7
 10
452.000000
 20
149.000000
 40
1.500000
 50
-180.000000
 51
0.000000
  0
ARC
  8
CSLAYER1
  6
CONTINUOUS
 62
     7
 10
452.000000
 20
176.000000
 40
1.500000
 50
0.000000
 51
180.000000
  0
LINE
  8
CSLAYER1
  6
CONTINUOUS
 62
     7
 10
447.500000
 20
176.000000
 11
447.500000
 21
149.000000
  0
LINE
  8
CSLAYER1
  6
CONTINUOUS
 62
     7
 10
444.500000
 20
176.000000
 11
444.500000
 21
149.000000
  0
ARC
  8
CSLAYER1
  6
CONTINUOUS
 62
     7
 10
446.000000
 20
149.000000
 40
1.500000
 50
-180.000000
 51
0.000000
  0
ARC
  8
CSLAYER1
  6
CONTINUOUS
 62
     7
 10
446.000000
 20
176.000000
 40
1.500000
 50
0.000000
 51
180.000000
  0
LINE
  8
CSLAYER1
  6
CONTINUOUS
 62
     7
 10
471.500000
 20
189.000000
 11
471.500000
 21
216.000000
  0
LINE
  8
CSLAYER1
  6
CONTINUOUS
 62
     7
 10
468.500000
 20
189.000000
 11
468.500000
 21
216.000000
  0
ARC
  8
CSLAYER1
  6
CONTINUOUS
 62
     7
 10
470.000000
 20
216.000000
 40
1.500000
 50
0.000000
 51
180.000000
  0
ARC
  8
CSLAYER1
  6
CONTINUOUS
 62
     7
 10
470.000000
 20
189.000000
 40
1.500000
 50
180.000000
 51
360.000000
  0
LINE
  8
CSLAYER1
  6
CONTINUOUS
 62
     7
 10
465.500000
 20
189.000000
 11
465.500000
 21
216.000000
  0
LINE
  8
CSLAYER1
  6
CONTINUOUS
 62
     7
 10
462.500000
 20
189.000000
 11
462.500000
 21
216.000000
  0
ARC
  8
CSLAYER1
  6
CONTINUOUS
 62
     7
 10
464.000000
 20
216.000000
 40
1.500000
 50
0.000000
 51
180.000000
  0
ARC
  8
CSLAYER1
  6
CONTINUOUS
 62
     7
 10
464.000000
 20
189.000000
 40
1.500000
 50
180.000000
 51
360.000000
  0
LINE
  8
CSLAYER1
  6
CONTINUOUS
 62
     7
 10
459.500000
 20
189.000000
 11
459.500000
 21
216.000000
  0
LINE
  8
CSLAYER1
  6
CONTINUOUS
 62
     7
 10
456.500000
 20
189.000000
 11
456.500000
 21
216.000000
  0
ARC
  8
CSLAYER1
  6
CONTINUOUS
 62
     7
 10
458.000000
 20
216.000000
 40
1.500000
 50
0.000000
 51
180.000000
  0
ARC
  8
CSLAYER1
  6
CONTINUOUS
 62
     7
 10
458.000000
 20
189.000000
 40
1.500000
 50
180.000000
 51
360.000000
  0
LINE
  8
CSLAYER1
  6
CONTINUOUS
 62
     7
 10
453.500000
 20
189.000000
 11
453.500000
 21
216.000000
  0
LINE
  8
CSLAYER1
  6
CONTINUOUS
 62
     7
 10
450.500000
 20
189.000000
 11
450.500000
 21
216.000000
  0
ARC
  8
CSLAYER1
  6
CONTINUOUS
 62
     7
 10
452.000000
 20
216.000000
 40
1.500000
 50
0.000000
 51
180.000000
  0
ARC
  8
CSLAYER1
  6
CONTINUOUS
 62
     7
 10
452.000000
 20
189.000000
 40
1.500000
 50
180.000000
 51
360.000000
  0
LINE
  8
CSLAYER1
  6
CONTINUOUS
 62
     7
 10
447.500000
 20
189.000000
 11
447.500000
 21
216.000000
  0
LINE
  8
CSLAYER1
  6
CONTINUOUS
 62
     7
 10
444.500000
 20
189.000000
 11
444.500000
 21
216.000000
  0
ARC
  8
CSLAYER1
  6
CONTINUOUS
 62
     7
 10
446.000000
 20
216.000000
 40
1.500000
 50
0.000000
 51
180.000000
  0
ARC
  8
CSLAYER1
  6
CONTINUOUS
 62
     7
 10
446.000000
 20
189.000000
 40
1.500000
 50
180.000000
 51
360.000000
  0
LINE
  8
CSLAYER1
  6
CONTINUOUS
 62
     6
 10
173.500000
 20
112.500000
 11
173.500000
 21
296.000000
  0
LINE
  8
CSLAYER1
  6
CONTINUOUS
 62
     6
 10
171.500000
 20
298.000000
 11
123.000000
 21
298.000000
  0
LINE
  8
CSLAYER1
  6
CONTINUOUS
 62
     6
 10
123.000000
 20
298.000000
 11
123.000000
 21
296.500000
  0
LINE
  8
CSLAYER1
  6
CONTINUOUS
 62
     6
 10
172.000000
 20
296.500000
 11
123.000000
 21
296.500000
  0
LINE
  8
CSLAYER1
  6
CONTINUOUS
 62
     6
 10
172.000000
 20
296.500000
 11
172.000000
 21
112.500000
  0
LINE
  8
CSLAYER1
  6
CONTINUOUS
 62
     6
 10
172.000000
 20
112.500000
 11
173.500000
 21
112.500000
  0
ARC
  8
CSLAYER1
  6
CONTINUOUS
 62
     7
 10
171.500000
 20
296.000000
 40
2.000000
 50
0.000000
 51
90.000000
  0
ARC
  8
CSLAYER1
  6
CONTINUOUS
 62
     7
 10
235.500000
 20
377.500000
 40
2.000000
 50
90.000000
 51
180.000000
  0
LINE
  8
CSLAYER1
  6
CONTINUOUS
 62
     7
 10
251.000000
 20
229.000000
 11
251.000000
 21
256.000000
  0
LINE
  8
CSLAYER1
  6
CONTINUOUS
 62
     7
 10
254.000000
 20
229.000000
 11
254.000000
 21
256.000000
  0
ARC
  8
CSLAYER1
  6
CONTINUOUS
 62
     7
 10
252.500000
 20
256.000000
 40
1.500000
 50
-0.000000
 51
180.000000
  0
ARC
  8
CSLAYER1
  6
CONTINUOUS
 62
     7
 10
252.500000
 20
229.000000
 40
1.500000
 50
180.000000
 51
360.000000
  0
LINE
  8
CSLAYER1
  6
CONTINUOUS
 62
     7
 10
257.000000
 20
229.000000
 11
257.000000
 21
256.000000
  0
LINE
  8
CSLAYER1
  6
CONTINUOUS
 62
     7
 10
260.000000
 20
229.000000
 11
260.000000
 21
256.000000
  0
ARC
  8
CSLAYER1
  6
CONTINUOUS
 62
     7
 10
258.500000
 20
256.000000
 40
1.500000
 50
-0.000000
 51
180.000000
  0
ARC
  8
CSLAYER1
  6
CONTINUOUS
 62
     7
 10
258.500000
 20
229.000000
 40
1.500000
 50
180.000000
 51
360.000000
  0
LINE
  8
CSLAYER1
  6
CONTINUOUS
 62
     7
 10
263.000000
 20
229.000000
 11
263.000000
 21
256.000000
  0
LINE
  8
CSLAYER1
  6
CONTINUOUS
 62
     7
 10
266.000000
 20
229.000000
 11
266.000000
 21
256.000000
  0
ARC
  8
CSLAYER1
  6
CONTINUOUS
 62
     7
 10
264.500000
 20
256.000000
 40
1.500000
 50
-0.000000
 51
180.000000
  0
ARC
  8
CSLAYER1
  6
CONTINUOUS
 62
     7
 10
264.500000
 20
229.000000
 40
1.500000
 50
180.000000
 51
360.000000
  0
LINE
  8
CSLAYER1
  6
CONTINUOUS
 62
     7
 10
269.000000
 20
229.000000
 11
269.000000
 21
256.000000
  0
LINE
  8
CSLAYER1
  6
CONTINUOUS
 62
     7
 10
272.000000
 20
229.000000
 11
272.000000
 21
256.000000
  0
ARC
  8
CSLAYER1
  6
CONTINUOUS
 62
     7
 10
270.500000
 20
256.000000
 40
1.500000
 50
-0.000000
 51
180.000000
  0
ARC
  8
CSLAYER1
  6
CONTINUOUS
 62
     7
 10
270.500000
 20
229.000000
 40
1.500000
 50
180.000000
 51
360.000000
  0
LINE
  8
CSLAYER1
  6
CONTINUOUS
 62
     7
 10
275.000000
 20
229.000000
 11
275.000000
 21
256.000000
  0
LINE
  8
CSLAYER1
  6
CONTINUOUS
 62
     7
 10
278.000000
 20
229.000000
 11
278.000000
 21
256.000000
  0
ARC
  8
CSLAYER1
  6
CONTINUOUS
 62
     7
 10
276.500000
 20
256.000000
 40
1.500000
 50
-0.000000
 51
180.000000
  0
ARC
  8
CSLAYER1
  6
CONTINUOUS
 62
     7
 10
276.500000
 20
229.000000
 40
1.500000
 50
180.000000
 51
360.000000
  0
LINE
  8
CSLAYER1
  6
CONTINUOUS
 62
     7
 10
281.000000
 20
229.000000
 11
281.000000
 21
256.000000
  0
LINE
  8
CSLAYER1
  6
CONTINUOUS
 62
     7
 10
284.000000
 20
229.000000
 11
284.000000
 21
256.000000
  0
ARC
  8
CSLAYER1
  6
CONTINUOUS
 62
     7
 10
282.500000
 20
256.000000
 40
1.500000
 50
-0.000000
 51
180.000000
  0
ARC
  8
CSLAYER1
  6
CONTINUOUS
 62
     7
 10
282.500000
 20
229.000000
 40
1.500000
 50
180.000000
 51
360.000000
  0
LINE
  8
CSLAYER1
  6
CONTINUOUS
 62
     7
 10
287.000000
 20
229.000000
 11
287.000000
 21
256.000000
  0
LINE
  8
CSLAYER1
  6
CONTINUOUS
 62
     7
 10
290.000000
 20
229.000000
 11
290.000000
 21
256.000000
  0
ARC
  8
CSLAYER1
  6
CONTINUOUS
 62
     7
 10
288.500000
 20
256.000000
 40
1.500000
 50
-0.000000
 51
180.000000
  0
ARC
  8
CSLAYER1
  6
CONTINUOUS
 62
     7
 10
288.500000
 20
229.000000
 40
1.500000
 50
180.000000
 51
360.000000
  0
LINE
  8
CSLAYER1
  6
CONTINUOUS
 62
     7
 10
293.000000
 20
229.000000
 11
293.000000
 21
256.000000
  0
LINE
  8
CSLAYER1
  6
CONTINUOUS
 62
     7
 10
296.000000
 20
229.000000
 11
296.000000
 21
256.000000
  0
ARC
  8
CSLAYER1
  6
CONTINUOUS
 62
     7
 10
294.500000
 20
256.000000
 40
1.500000
 50
-0.000000
 51
180.000000
  0
ARC
  8
CSLAYER1
  6
CONTINUOUS
 62
     7
 10
294.500000
 20
229.000000
 40
1.500000
 50
180.000000
 51
360.000000
  0
LINE
  8
CSLAYER1
  6
CONTINUOUS
 62
     7
 10
299.000000
 20
229.000000
 11
299.000000
 21
256.000000
  0
LINE
  8
CSLAYER1
  6
CONTINUOUS
 62
     7
 10
302.000000
 20
229.000000
 11
302.000000
 21
256.000000
  0
ARC
  8
CSLAYER1
  6
CONTINUOUS
 62
     7
 10
300.500000
 20
256.000000
 40
1.500000
 50
-0.000000
 51
180.000000
  0
ARC
  8
CSLAYER1
  6
CONTINUOUS
 62
     7
 10
300.500000
 20
229.000000
 40
1.500000
 50
180.000000
 51
360.000000
  0
LINE
  8
CSLAYER1
  6
CONTINUOUS
 62
     7
 10
305.000000
 20
229.000000
 11
305.000000
 21
256.000000
  0
LINE
  8
CSLAYER1
  6
CONTINUOUS
 62
     7
 10
308.000000
 20
229.000000
 11
308.000000
 21
256.000000
  0
ARC
  8
CSLAYER1
  6
CONTINUOUS
 62
     7
 10
306.500000
 20
256.000000
 40
1.500000
 50
-0.000000
 51
180.000000
  0
ARC
  8
CSLAYER1
  6
CONTINUOUS
 62
     7
 10
306.500000
 20
229.000000
 40
1.500000
 50
180.000000
 51
360.000000
  0
LINE
  8
CSLAYER1
  6
CONTINUOUS
 62
     7
 10
311.000000
 20
229.000000
 11
311.000000
 21
256.000000
  0
LINE
  8
CSLAYER1
  6
CONTINUOUS
 62
     7
 10
314.000000
 20
229.000000
 11
314.000000
 21
256.000000
  0
ARC
  8
CSLAYER1
  6
CONTINUOUS
 62
     7
 10
312.500000
 20
256.000000
 40
1.500000
 50
-0.000000
 51
180.000000
  0
ARC
  8
CSLAYER1
  6
CONTINUOUS
 62
     7
 10
312.500000
 20
229.000000
 40
1.500000
 50
180.000000
 51
360.000000
  0
LINE
  8
CSLAYER1
  6
CONTINUOUS
 62
     7
 10
317.000000
 20
229.000000
 11
317.000000
 21
256.000000
  0
LINE
  8
CSLAYER1
  6
CONTINUOUS
 62
     7
 10
320.000000
 20
229.000000
 11
320.000000
 21
256.000000
  0
ARC
  8
CSLAYER1
  6
CONTINUOUS
 62
     7
 10
318.500000
 20
256.000000
 40
1.500000
 50
-0.000000
 51
180.000000
  0
ARC
  8
CSLAYER1
  6
CONTINUOUS
 62
     7
 10
318.500000
 20
229.000000
 40
1.500000
 50
180.000000
 51
360.000000
  0
LINE
  8
CSLAYER1
  6
CONTINUOUS
 62
     7
 10
323.000000
 20
229.000000
 11
323.000000
 21
256.000000
  0
LINE
  8
CSLAYER1
  6
CONTINUOUS
 62
     7
 10
326.000000
 20
229.000000
 11
326.000000
 21
256.000000
  0
ARC
  8
CSLAYER1
  6
CONTINUOUS
 62
     7
 10
324.500000
 20
256.000000
 40
1.500000
 50
-0.000000
 51
180.000000
  0
ARC
  8
CSLAYER1
  6
CONTINUOUS
 62
     7
 10
324.500000
 20
229.000000
 40
1.500000
 50
180.000000
 51
360.000000
  0
LINE
  8
CSLAYER1
  6
CONTINUOUS
 62
     7
 10
329.000000
 20
229.000000
 11
329.000000
 21
256.000000
  0
LINE
  8
CSLAYER1
  6
CONTINUOUS
 62
     7
 10
332.000000
 20
229.000000
 11
332.000000
 21
256.000000
  0
ARC
  8
CSLAYER1
  6
CONTINUOUS
 62
     7
 10
330.500000
 20
256.000000
 40
1.500000
 50
-0.000000
 51
180.000000
  0
ARC
  8
CSLAYER1
  6
CONTINUOUS
 62
     7
 10
330.500000
 20
229.000000
 40
1.500000
 50
180.000000
 51
360.000000
  0
LINE
  8
CSLAYER1
  6
CONTINUOUS
 62
     7
 10
335.000000
 20
229.000000
 11
335.000000
 21
256.000000
  0
LINE
  8
CSLAYER1
  6
CONTINUOUS
 62
     7
 10
338.000000
 20
229.000000
 11
338.000000
 21
256.000000
  0
ARC
  8
CSLAYER1
  6
CONTINUOUS
 62
     7
 10
336.500000
 20
256.000000
 40
1.500000
 50
-0.000000
 51
180.000000
  0
ARC
  8
CSLAYER1
  6
CONTINUOUS
 62
     7
 10
336.500000
 20
229.000000
 40
1.500000
 50
180.000000
 51
360.000000
  0
LINE
  8
CSLAYER1
  6
CONTINUOUS
 62
     7
 10
341.000000
 20
229.000000
 11
341.000000
 21
256.000000
  0
LINE
  8
CSLAYER1
  6
CONTINUOUS
 62
     7
 10
344.000000
 20
229.000000
 11
344.000000
 21
256.000000
  0
ARC
  8
CSLAYER1
  6
CONTINUOUS
 62
     7
 10
342.500000
 20
256.000000
 40
1.500000
 50
-0.000000
 51
180.000000
  0
ARC
  8
CSLAYER1
  6
CONTINUOUS
 62
     7
 10
342.500000
 20
229.000000
 40
1.500000
 50
180.000000
 51
360.000000
  0
LINE
  8
CSLAYER1
  6
CONTINUOUS
 62
     7
 10
347.000000
 20
229.000000
 11
347.000000
 21
256.000000
  0
LINE
  8
CSLAYER1
  6
CONTINUOUS
 62
     7
 10
350.000000
 20
229.000000
 11
350.000000
 21
256.000000
  0
ARC
  8
CSLAYER1
  6
CONTINUOUS
 62
     7
 10
348.500000
 20
256.000000
 40
1.500000
 50
-0.000000
 51
180.000000
  0
ARC
  8
CSLAYER1
  6
CONTINUOUS
 62
     7
 10
348.500000
 20
229.000000
 40
1.500000
 50
180.000000
 51
360.000000
  0
LINE
  8
CSLAYER1
  6
CONTINUOUS
 62
     7
 10
353.000000
 20
229.000000
 11
353.000000
 21
256.000000
  0
LINE
  8
CSLAYER1
  6
CONTINUOUS
 62
     7
 10
356.000000
 20
229.000000
 11
356.000000
 21
256.000000
  0
ARC
  8
CSLAYER1
  6
CONTINUOUS
 62
     7
 10
354.500000
 20
256.000000
 40
1.500000
 50
-0.000000
 51
180.000000
  0
ARC
  8
CSLAYER1
  6
CONTINUOUS
 62
     7
 10
354.500000
 20
229.000000
 40
1.500000
 50
180.000000
 51
360.000000
  0
LINE
  8
CSLAYER1
  6
CONTINUOUS
 62
     7
 10
359.000000
 20
229.000000
 11
359.000000
 21
256.000000
  0
LINE
  8
CSLAYER1
  6
CONTINUOUS
 62
     7
 10
362.000000
 20
229.000000
 11
362.000000
 21
256.000000
  0
ARC
  8
CSLAYER1
  6
CONTINUOUS
 62
     7
 10
360.500000
 20
256.000000
 40
1.500000
 50
-0.000000
 51
180.000000
  0
ARC
  8
CSLAYER1
  6
CONTINUOUS
 62
     7
 10
360.500000
 20
229.000000
 40
1.500000
 50
180.000000
 51
360.000000
  0
LINE
  8
CSLAYER1
  6
CONTINUOUS
 62
     7
 10
365.000000
 20
229.000000
 11
365.000000
 21
256.000000
  0
LINE
  8
CSLAYER1
  6
CONTINUOUS
 62
     7
 10
368.000000
 20
229.000000
 11
368.000000
 21
256.000000
  0
ARC
  8
CSLAYER1
  6
CONTINUOUS
 62
     7
 10
366.500000
 20
256.000000
 40
1.500000
 50
-0.000000
 51
180.000000
  0
ARC
  8
CSLAYER1
  6
CONTINUOUS
 62
     7
 10
366.500000
 20
229.000000
 40
1.500000
 50
180.000000
 51
360.000000
  0
LINE
  8
CSLAYER1
  6
CONTINUOUS
 62
     7
 10
471.500000
 20
229.000000
 11
471.500000
 21
256.000000
  0
LINE
  8
CSLAYER1
  6
CONTINUOUS
 62
     7
 10
468.500000
 20
229.000000
 11
468.500000
 21
256.000000
  0
ARC
  8
CSLAYER1
  6
CONTINUOUS
 62
     7
 10
470.000000
 20
256.000000
 40
1.500000
 50
0.000000
 51
180.000000
  0
ARC
  8
CSLAYER1
  6
CONTINUOUS
 62
     7
 10
470.000000
 20
229.000000
 40
1.500000
 50
180.000000
 51
360.000000
  0
LINE
  8
CSLAYER1
  6
CONTINUOUS
 62
     7
 10
465.500000
 20
229.000000
 11
465.500000
 21
256.000000
  0
LINE
  8
CSLAYER1
  6
CONTINUOUS
 62
     7
 10
462.500000
 20
229.000000
 11
462.500000
 21
256.000000
  0
ARC
  8
CSLAYER1
  6
CONTINUOUS
 62
     7
 10
464.000000
 20
256.000000
 40
1.500000
 50
0.000000
 51
180.000000
  0
ARC
  8
CSLAYER1
  6
CONTINUOUS
 62
     7
 10
464.000000
 20
229.000000
 40
1.500000
 50
180.000000
 51
360.000000
  0
LINE
  8
CSLAYER1
  6
CONTINUOUS
 62
     7
 10
459.500000
 20
229.000000
 11
459.500000
 21
256.000000
  0
LINE
  8
CSLAYER1
  6
CONTINUOUS
 62
     7
 10
456.500000
 20
229.000000
 11
456.500000
 21
256.000000
  0
ARC
  8
CSLAYER1
  6
CONTINUOUS
 62
     7
 10
458.000000
 20
256.000000
 40
1.500000
 50
0.000000
 51
180.000000
  0
ARC
  8
CSLAYER1
  6
CONTINUOUS
 62
     7
 10
458.000000
 20
229.000000
 40
1.500000
 50
180.000000
 51
360.000000
  0
LINE
  8
CSLAYER1
  6
CONTINUOUS
 62
     7
 10
453.500000
 20
229.000000
 11
453.500000
 21
256.000000
  0
LINE
  8
CSLAYER1
  6
CONTINUOUS
 62
     7
 10
450.500000
 20
229.000000
 11
450.500000
 21
256.000000
  0
ARC
  8
CSLAYER1
  6
CONTINUOUS
 62
     7
 10
452.000000
 20
256.000000
 40
1.500000
 50
0.000000
 51
180.000000
  0
ARC
  8
CSLAYER1
  6
CONTINUOUS
 62
     7
 10
452.000000
 20
229.000000
 40
1.500000
 50
180.000000
 51
360.000000
  0
LINE
  8
CSLAYER1
  6
CONTINUOUS
 62
     7
 10
447.500000
 20
229.000000
 11
447.500000
 21
256.000000
  0
LINE
  8
CSLAYER1
  6
CONTINUOUS
 62
     7
 10
444.500000
 20
229.000000
 11
444.500000
 21
256.000000
  0
ARC
  8
CSLAYER1
  6
CONTINUOUS
 62
     7
 10
446.000000
 20
256.000000
 40
1.500000
 50
0.000000
 51
180.000000
  0
ARC
  8
CSLAYER1
  6
CONTINUOUS
 62
     7
 10
446.000000
 20
229.000000
 40
1.500000
 50
180.000000
 51
360.000000
  0
LINE
  8
CSLAYER1
  6
CONTINUOUS
 62
     6
 10
150.000000
 20
223.500000
 11
150.000000
 21
278.500000
  0
LINE
  8
CSLAYER1
  6
CONTINUOUS
 62
     6
 10
150.000000
 20
277.100000
 11
135.000000
 21
277.100000
  0
LINE
  8
CSLAYER1
  6
CONTINUOUS
 62
     6
 10
135.000000
 20
278.500000
 11
135.000000
 21
223.500000
  0
LINE
  8
CSLAYER1
  6
CONTINUOUS
 62
     6
 10
150.000000
 20
278.500000
 11
135.000000
 21
278.500000
  0
LINE
  8
CSLAYER1
  6
CONTINUOUS
 62
     6
 10
150.000000
 20
266.380000
 11
135.000000
 21
266.380000
  0
LINE
  8
CSLAYER1
  6
CONTINUOUS
 62
     6
 10
150.000000
 20
267.780000
 11
135.000000
 21
267.780000
  0
CIRCLE
  8
CSLAYER1
  6
CONTINUOUS
 62
     6
 10
142.500000
 20
272.440000
 40
3.500000
  0
ARC
  8
CSLAYER1
  6
CONTINUOUS
 62
     6
 10
142.499987
 20
272.440001
 40
1.944444
 50
163.398416
 51
196.601577
  0
ARC
  8
CSLAYER1
  6
CONTINUOUS
 62
     6
 10
142.499987
 20
272.440001
 40
1.944444
 50
253.398422
 51
286.601583
  0
ARC
  8
CSLAYER1
  6
CONTINUOUS
 62
     6
 10
142.499987
 20
272.440001
 40
1.944444
 50
-16.601562
 51
16.601572
  0
ARC
  8
CSLAYER1
  6
CONTINUOUS
 62
     6
 10
142.499987
 20
272.440001
 40
1.944444
 50
73.398406
 51
106.601595
  0
LINE
  8
CSLAYER1
  6
CONTINUOUS
 62
     6
 10
143.611112
 20
271.884438
 11
144.363369
 21
271.884438
  0
LINE
  8
CSLAYER1
  6
CONTINUOUS
 62
     6
 10
141.388862
 20
271.884438
 11
140.636606
 21
271.884438
  0
LINE
  8
CSLAYER1
  6
CONTINUOUS
 62
     6
 10
143.611112
 20
272.995563
 11
144.363369
 21
272.995563
  0
LINE
  8
CSLAYER1
  6
CONTINUOUS
 62
     6
 10
141.388862
 20
272.995563
 11
140.636606
 21
272.995563
  0
LINE
  8
CSLAYER1
  6
CONTINUOUS
 62
     6
 10
141.944425
 20
271.328905
 11
141.944425
 21
270.576590
  0
LINE
  8
CSLAYER1
  6
CONTINUOUS
 62
     6
 10
141.944425
 20
273.551097
 11
141.944425
 21
274.303411
  0
LINE
  8
CSLAYER1
  6
CONTINUOUS
 62
     6
 10
143.055550
 20
271.328905
 11
143.055550
 21
270.576590
  0
LINE
  8
CSLAYER1
  6
CONTINUOUS
 62
     6
 10
143.055550
 20
273.551097
 11
143.055550
 21
274.303411
  0
ARC
  8
CSLAYER1
  6
CONTINUOUS
 62
     6
 10
143.611112
 20
271.328905
 40
0.555556
 50
90.000001
 51
179.942691
  0
ARC
  8
CSLAYER1
  6
CONTINUOUS
 62
     6
 10
143.611112
 20
273.551097
 40
0.555556
 50
180.000010
 51
270.000016
  0
ARC
  8
CSLAYER1
  6
CONTINUOUS
 62
     6
 10
141.388862
 20
273.551097
 40
0.555556
 50
-89.999984
 51
0.000005
  0
ARC
  8
CSLAYER1
  6
CONTINUOUS
 62
     6
 10
141.388862
 20
271.328905
 40
0.555556
 50
0.000005
 51
89.942654
  0
TEXT
  8
CSLAYER1
 62
     3
 10
138.500000
 20
291.282227
 40
4.000000
 41
0.652174
  1
DC MOTOR
 50
0.000000
 51
0.000000
  7
FX_FONT
 72
     5
 11
158.500000
 21
291.282227
  0
TEXT
  8
CSLAYER1
 62
     3
 10
141.000000
 20
286.991150
 40
4.000000
 41
0.661765
  1
DRIVER
 50
0.000000
 51
0.000000
  7
FX_FONT
 72
     5
 11
156.000000
 21
286.991150
  0
TEXT
  8
CSLAYER1
 62
     3
 10
137.250000
 20
282.420959
 40
4.000000
 41
0.649038
  1
MS-100 15
 50
0.000000
 51
0.000000
  7
FX_FONT
 72
     5
 11
159.750000
 21
282.420959
  0
LINE
  8
CSLAYER1
  6
CONTINUOUS
 62
     6
 10
135.000000
 20
179.500000
 11
153.000000
 21
179.500000
  0
LINE
  8
CSLAYER1
  6
CONTINUOUS
 62
     6
 10
153.000000
 20
179.500000
 11
153.000000
 21
125.500000
  0
LINE
  8
CSLAYER1
  6
CONTINUOUS
 62
     6
 10
153.000000
 20
125.500000
 11
135.000000
 21
125.500000
  0
LINE
  8
CSLAYER1
  6
CONTINUOUS
 62
     6
 10
135.000000
 20
125.500000
 11
135.000000
 21
179.500000
  0
LINE
  8
CSLAYER1
  6
CONTINUOUS
 62
     3
 10
135.000000
 20
174.100000
 11
153.000000
 21
174.100000
  0
LINE
  8
CSLAYER1
  6
CONTINUOUS
 62
     3
 10
135.000000
 20
168.700000
 11
153.000000
 21
168.700000
  0
LINE
  8
CSLAYER1
  6
CONTINUOUS
 62
     3
 10
135.000000
 20
163.300000
 11
153.000000
 21
163.300000
  0
LINE
  8
CSLAYER1
  6
CONTINUOUS
 62
     3
 10
135.000000
 20
157.900000
 11
153.000000
 21
157.900000
  0
LINE
  8
CSLAYER1
  6
CONTINUOUS
 62
     3
 10
135.000000
 20
152.500000
 11
153.000000
 21
152.500000
  0
LINE
  8
CSLAYER1
  6
CONTINUOUS
 62
     3
 10
135.000000
 20
147.100000
 11
153.000000
 21
147.100000
  0
LINE
  8
CSLAYER1
  6
CONTINUOUS
 62
     3
 10
135.000000
 20
141.700000
 11
153.000000
 21
141.700000
  0
LINE
  8
CSLAYER1
  6
CONTINUOUS
 62
     3
 10
135.000000
 20
136.300000
 11
153.000000
 21
136.300000
  0
LINE
  8
CSLAYER1
  6
CONTINUOUS
 62
     3
 10
135.000000
 20
130.900000
 11
153.000000
 21
130.900000
  0
LINE
  8
CSLAYER1
  6
CONTINUOUS
 62
     3
 10
141.928203
 20
179.500000
 11
141.928203
 21
125.500000
  0
LINE
  8
CSLAYER1
  6
CONTINUOUS
 62
     3
 10
151.079803
 20
179.500000
 11
151.079803
 21
125.500000
  0
TEXT
  8
CSLAYER1
 62
     3
 10
125.708679
 20
174.100021
 40
4.500000
 41
0.700000
  1
TG+
 50
0.000000
 51
0.000000
  7
FX_FONT
 72
     5
 11
134.108679
 21
174.100021
  0
TEXT
  8
CSLAYER1
 62
     3
 10
125.708679
 20
168.699997
 40
4.500000
 41
0.700000
  1
TG-
 50
0.000000
 51
0.000000
  7
FX_FONT
 72
     5
 11
134.108679
 21
168.699997
  0
TEXT
  8
CSLAYER1
 62
     3
 10
125.708679
 20
163.300003
 40
4.500000
 41
0.700000
  1
VR1
 50
0.000000
 51
0.000000
  7
FX_FONT
 72
     5
 11
134.108679
 21
163.300003
  0
TEXT
  8
CSLAYER1
 62
     3
 10
125.708679
 20
157.900009
 40
4.500000
 41
0.700000
  1
VR2
 50
0.000000
 51
0.000000
  7
FX_FONT
 72
     5
 11
134.108679
 21
157.900009
  0
TEXT
  8
CSLAYER1
 62
     3
 10
125.708679
 20
152.499985
 40
4.500000
 41
0.700000
  1
VR3
 50
0.000000
 51
0.000000
  7
FX_FONT
 72
     5
 11
134.108679
 21
152.499985
  0
TEXT
  8
CSLAYER1
 62
     3
 10
125.708679
 20
147.099991
 40
4.500000
 41
0.700000
  1
COM
 50
0.000000
 51
0.000000
  7
FX_FONT
 72
     5
 11
134.108679
 21
147.099991
  0
TEXT
  8
CSLAYER1
 62
     3
 10
125.708679
 20
141.699997
 40
4.500000
 41
0.700000
  1
CWP
 50
0.000000
 51
0.000000
  7
FX_FONT
 72
     5
 11
134.108679
 21
141.699997
  0
TEXT
  8
CSLAYER1
 62
     3
 10
125.708679
 20
136.300003
 40
4.500000
 41
0.700000
  1
CCP
 50
0.000000
 51
0.000000
  7
FX_FONT
 72
     5
 11
134.108679
 21
136.300003
  0
TEXT
  8
CSLAYER1
 62
     3
 10
125.708679
 20
130.900009
 40
4.500000
 41
0.700000
  1
INH
 50
0.000000
 51
0.000000
  7
FX_FONT
 72
     5
 11
134.108679
 21
130.900009
  0
TEXT
  8
CSLAYER1
 62
     3
 10
125.708679
 20
125.499985
 40
4.500000
 41
0.700000
  1
COM
 50
0.000000
 51
0.000000
  7
FX_FONT
 72
     5
 11
134.108679
 21
125.499985
  0
LINE
  8
CSLAYER1
  6
CONTINUOUS
 62
     3
 10
146.928203
 20
179.500000
 11
146.928203
 21
125.500000
  0
ARC
  8
CSLAYER1
  6
CONTINUOUS
 62
     3
 10
147.992892
 20
176.800000
 40
1.805556
 50
-70.999198
 51
70.999198
  0
LINE
  8
CSLAYER1
  6
CONTINUOUS
 62
     3
 10
148.027337
 20
175.608366
 11
149.381565
 21
177.953957
  0
POLYLINE
  8
CSLAYER1
  6
CONTINUOUS
 62
     7
 66
     1
 10
0.0
 20
0.0
 30
0.0
  0
VERTEX
  8
CSLAYER1
  6
CONTINUOUS
 62
     7
 10
149.004003
 20
174.994444
 30
0.0
  0
VERTEX
  8
CSLAYER1
  6
CONTINUOUS
 62
     7
 10
149.117305
 20
175.001315
 30
0.0
  0
VERTEX
  8
CSLAYER1
  6
CONTINUOUS
 62
     7
 10
149.229746
 20
175.021875
 30
0.0
  0
VERTEX
  8
CSLAYER1
  6
CONTINUOUS
 62
     7
 10
149.340468
 20
175.055967
 30
0.0
  0
VERTEX
  8
CSLAYER1
  6
CONTINUOUS
 62
     7
 10
149.448629
 20
175.103333
 30
0.0
  0
VERTEX
  8
CSLAYER1
  6
CONTINUOUS
 62
     7
 10
149.553407
 20
175.163611
 30
0.0
  0
VERTEX
  8
CSLAYER1
  6
CONTINUOUS
 62
     7
 10
149.654003
 20
175.236343
 30
0.0
  0
VERTEX
  8
CSLAYER1
  6
CONTINUOUS
 62
     7
 10
149.749652
 20
175.320975
 30
0.0
  0
VERTEX
  8
CSLAYER1
  6
CONTINUOUS
 62
     7
 10
149.839627
 20
175.416864
 30
0.0
  0
VERTEX
  8
CSLAYER1
  6
CONTINUOUS
 62
     7
 10
149.923242
 20
175.523279
 30
0.0
  0
VERTEX
  8
CSLAYER1
  6
CONTINUOUS
 62
     7
 10
149.999861
 20
175.639411
 30
0.0
  0
VERTEX
  8
CSLAYER1
  6
CONTINUOUS
 62
     7
 10
150.068901
 20
175.764376
 30
0.0
  0
VERTEX
  8
CSLAYER1
  6
CONTINUOUS
 62
     7
 10
150.129836
 20
175.897222
 30
0.0
  0
VERTEX
  8
CSLAYER1
  6
CONTINUOUS
 62
     7
 10
150.182203
 20
176.036939
 30
0.0
  0
VERTEX
  8
CSLAYER1
  6
CONTINUOUS
 62
     7
 10
150.225603
 20
176.182464
 30
0.0
  0
VERTEX
  8
CSLAYER1
  6
CONTINUOUS
 62
     7
 10
150.259706
 20
176.332688
 30
0.0
  0
VERTEX
  8
CSLAYER1
  6
CONTINUOUS
 62
     7
 10
150.284253
 20
176.486469
 30
0.0
  0
VERTEX
  8
CSLAYER1
  6
CONTINUOUS
 62
     7
 10
150.299056
 20
176.642635
 30
0.0
  0
VERTEX
  8
CSLAYER1
  6
CONTINUOUS
 62
     7
 10
150.304003
 20
176.800000
 30
0.0
  0
VERTEX
  8
CSLAYER1
  6
CONTINUOUS
 62
     7
 10
150.299056
 20
176.957365
 30
0.0
  0
VERTEX
  8
CSLAYER1
  6
CONTINUOUS
 62
     7
 10
150.284253
 20
177.113531
 30
0.0
  0
VERTEX
  8
CSLAYER1
  6
CONTINUOUS
 62
     7
 10
150.259706
 20
177.267312
 30
0.0
  0
VERTEX
  8
CSLAYER1
  6
CONTINUOUS
 62
     7
 10
150.225603
 20
177.417536
 30
0.0
  0
VERTEX
  8
CSLAYER1
  6
CONTINUOUS
 62
     7
 10
150.182203
 20
177.563061
 30
0.0
  0
VERTEX
  8
CSLAYER1
  6
CONTINUOUS
 62
     7
 10
150.129836
 20
177.702778
 30
0.0
  0
VERTEX
  8
CSLAYER1
  6
CONTINUOUS
 62
     7
 10
150.068901
 20
177.835624
 30
0.0
  0
VERTEX
  8
CSLAYER1
  6
CONTINUOUS
 62
     7
 10
149.999861
 20
177.960589
 30
0.0
  0
VERTEX
  8
CSLAYER1
  6
CONTINUOUS
 62
     7
 10
149.923242
 20
178.076721
 30
0.0
  0
VERTEX
  8
CSLAYER1
  6
CONTINUOUS
 62
     7
 10
149.839627
 20
178.183136
 30
0.0
  0
VERTEX
  8
CSLAYER1
  6
CONTINUOUS
 62
     7
 10
149.749652
 20
178.279025
 30
0.0
  0
VERTEX
  8
CSLAYER1
  6
CONTINUOUS
 62
     7
 10
149.654003
 20
178.363657
 30
0.0
  0
VERTEX
  8
CSLAYER1
  6
CONTINUOUS
 62
     7
 10
149.553407
 20
178.436389
 30
0.0
  0
VERTEX
  8
CSLAYER1
  6
CONTINUOUS
 62
     7
 10
149.448629
 20
178.496667
 30
0.0
  0
VERTEX
  8
CSLAYER1
  6
CONTINUOUS
 62
     7
 10
149.340468
 20
178.544033
 30
0.0
  0
VERTEX
  8
CSLAYER1
  6
CONTINUOUS
 62
     7
 10
149.229746
 20
178.578125
 30
0.0
  0
VERTEX
  8
CSLAYER1
  6
CONTINUOUS
 62
     7
 10
149.117305
 20
178.598685
 30
0.0
  0
VERTEX
  8
CSLAYER1
  6
CONTINUOUS
 62
     7
 10
149.004003
 20
178.605556
 30
0.0
  0
VERTEX
  8
CSLAYER1
  6
CONTINUOUS
 62
     7
 10
148.890700
 20
178.598685
 30
0.0
  0
VERTEX
  8
CSLAYER1
  6
CONTINUOUS
 62
     7
 10
148.778260
 20
178.578125
 30
0.0
  0
VERTEX
  8
CSLAYER1
  6
CONTINUOUS
 62
     7
 10
148.667538
 20
178.544033
 30
0.0
  0
VERTEX
  8
CSLAYER1
  6
CONTINUOUS
 62
     7
 10
148.559377
 20
178.496667
 30
0.0
  0
VERTEX
  8
CSLAYER1
  6
CONTINUOUS
 62
     7
 10
148.454599
 20
178.436389
 30
0.0
  0
VERTEX
  8
CSLAYER1
  6
CONTINUOUS
 62
     7
 10
148.354003
 20
178.363657
 30
0.0
  0
VERTEX
  8
CSLAYER1
  6
CONTINUOUS
 62
     7
 10
148.258354
 20
178.279025
 30
0.0
  0
VERTEX
  8
CSLAYER1
  6
CONTINUOUS
 62
     7
 10
148.168379
 20
178.183136
 30
0.0
  0
VERTEX
  8
CSLAYER1
  6
CONTINUOUS
 62
     7
 10
148.084764
 20
178.076721
 30
0.0
  0
VERTEX
  8
CSLAYER1
  6
CONTINUOUS
 62
     7
 10
148.008145
 20
177.960589
 30
0.0
  0
VERTEX
  8
CSLAYER1
  6
CONTINUOUS
 62
     7
 10
147.939105
 20
177.835624
 30
0.0
  0
VERTEX
  8
CSLAYER1
  6
CONTINUOUS
 62
     7
 10
147.878170
 20
177.702778
 30
0.0
  0
VERTEX
  8
CSLAYER1
  6
CONTINUOUS
 62
     7
 10
147.825803
 20
177.563061
 30
0.0
  0
VERTEX
  8
CSLAYER1
  6
CONTINUOUS
 62
     7
 10
147.782403
 20
177.417536
 30
0.0
  0
VERTEX
  8
CSLAYER1
  6
CONTINUOUS
 62
     7
 10
147.748299
 20
177.267312
 30
0.0
  0
VERTEX
  8
CSLAYER1
  6
CONTINUOUS
 62
     7
 10
147.723753
 20
177.113531
 30
0.0
  0
VERTEX
  8
CSLAYER1
  6
CONTINUOUS
 62
     7
 10
147.708950
 20
176.957365
 30
0.0
  0
VERTEX
  8
CSLAYER1
  6
CONTINUOUS
 62
     7
 10
147.704003
 20
176.800000
 30
0.0
  0
VERTEX
  8
CSLAYER1
  6
CONTINUOUS
 62
     7
 10
147.708950
 20
176.642635
 30
0.0
  0
VERTEX
  8
CSLAYER1
  6
CONTINUOUS
 62
     7
 10
147.723753
 20
176.486469
 30
0.0
  0
VERTEX
  8
CSLAYER1
  6
CONTINUOUS
 62
     7
 10
147.748299
 20
176.332688
 30
0.0
  0
VERTEX
  8
CSLAYER1
  6
CONTINUOUS
 62
     7
 10
147.782403
 20
176.182464
 30
0.0
  0
VERTEX
  8
CSLAYER1
  6
CONTINUOUS
 62
     7
 10
147.825803
 20
176.036939
 30
0.0
  0
VERTEX
  8
CSLAYER1
  6
CONTINUOUS
 62
     7
 10
147.878170
 20
175.897222
 30
0.0
  0
VERTEX
  8
CSLAYER1
  6
CONTINUOUS
 62
     7
 10
147.939105
 20
175.764376
 30
0.0
  0
VERTEX
  8
CSLAYER1
  6
CONTINUOUS
 62
     7
 10
148.008145
 20
175.639411
 30
0.0
  0
VERTEX
  8
CSLAYER1
  6
CONTINUOUS
 62
     7
 10
148.084764
 20
175.523279
 30
0.0
  0
VERTEX
  8
CSLAYER1
  6
CONTINUOUS
 62
     7
 10
148.168379
 20
175.416864
 30
0.0
  0
VERTEX
  8
CSLAYER1
  6
CONTINUOUS
 62
     7
 10
148.258354
 20
175.320975
 30
0.0
  0
VERTEX
  8
CSLAYER1
  6
CONTINUOUS
 62
     7
 10
148.354003
 20
175.236343
 30
0.0
  0
VERTEX
  8
CSLAYER1
  6
CONTINUOUS
 62
     7
 10
148.454599
 20
175.163611
 30
0.0
  0
VERTEX
  8
CSLAYER1
  6
CONTINUOUS
 62
     7
 10
148.559377
 20
175.103333
 30
0.0
  0
VERTEX
  8
CSLAYER1
  6
CONTINUOUS
 62
     7
 10
148.667538
 20
175.055967
 30
0.0
  0
VERTEX
  8
CSLAYER1
  6
CONTINUOUS
 62
     7
 10
148.778260
 20
175.021875
 30
0.0
  0
VERTEX
  8
CSLAYER1
  6
CONTINUOUS
 62
     7
 10
148.890700
 20
175.001315
 30
0.0
  0
VERTEX
  8
CSLAYER1
  6
CONTINUOUS
 62
     7
 10
149.004003
 20
174.994444
 30
0.0
  0
SEQEND
  0
LINE
  8
CSLAYER1
  6
CONTINUOUS
 62
     6
 10
136.500000
 20
175.100000
 11
136.500000
 21
178.500000
  0
LINE
  8
CSLAYER1
  6
CONTINUOUS
 62
     6
 10
140.000000
 20
175.100000
 11
136.500000
 21
175.100000
  0
LINE
  8
CSLAYER1
  6
CONTINUOUS
 62
     6
 10
140.000000
 20
178.500000
 11
136.500000
 21
178.500000
  0
LINE
  8
CSLAYER1
  6
CONTINUOUS
 62
     6
 10
140.000000
 20
175.100000
 11
140.000000
 21
178.500000
  0
LINE
  8
CSLAYER1
  6
CONTINUOUS
 62
     6
 10
138.600000
 20
178.500000
 11
138.600000
 21
175.100000
  0
LINE
  8
CSLAYER1
  6
CONTINUOUS
 62
     6
 10
136.500000
 20
169.700000
 11
136.500000
 21
173.100000
  0
LINE
  8
CSLAYER1
  6
CONTINUOUS
 62
     6
 10
140.000000
 20
169.700000
 11
136.500000
 21
169.700000
  0
LINE
  8
CSLAYER1
  6
CONTINUOUS
 62
     6
 10
140.000000
 20
173.100000
 11
136.500000
 21
173.100000
  0
LINE
  8
CSLAYER1
  6
CONTINUOUS
 62
     6
 10
140.000000
 20
169.700000
 11
140.000000
 21
173.100000
  0
LINE
  8
CSLAYER1
  6
CONTINUOUS
 62
     6
 10
138.600000
 20
173.100000
 11
138.600000
 21
169.700000
  0
LINE
  8
CSLAYER1
  6
CONTINUOUS
 62
     6
 10
136.500000
 20
164.300000
 11
136.500000
 21
167.700000
  0
LINE
  8
CSLAYER1
  6
CONTINUOUS
 62
     6
 10
140.000000
 20
164.300000
 11
136.500000
 21
164.300000
  0
LINE
  8
CSLAYER1
  6
CONTINUOUS
 62
     6
 10
140.000000
 20
167.700000
 11
136.500000
 21
167.700000
  0
LINE
  8
CSLAYER1
  6
CONTINUOUS
 62
     6
 10
140.000000
 20
164.300000
 11
140.000000
 21
167.700000
  0
LINE
  8
CSLAYER1
  6
CONTINUOUS
 62
     6
 10
138.600000
 20
167.700000
 11
138.600000
 21
164.300000
  0
LINE
  8
CSLAYER1
  6
CONTINUOUS
 62
     6
 10
136.500000
 20
158.900000
 11
136.500000
 21
162.300000
  0
LINE
  8
CSLAYER1
  6
CONTINUOUS
 62
     6
 10
140.000000
 20
158.900000
 11
136.500000
 21
158.900000
  0
LINE
  8
CSLAYER1
  6
CONTINUOUS
 62
     6
 10
140.000000
 20
162.300000
 11
136.500000
 21
162.300000
  0
LINE
  8
CSLAYER1
  6
CONTINUOUS
 62
     6
 10
140.000000
 20
158.900000
 11
140.000000
 21
162.300000
  0
LINE
  8
CSLAYER1
  6
CONTINUOUS
 62
     6
 10
138.600000
 20
162.300000
 11
138.600000
 21
158.900000
  0
LINE
  8
CSLAYER1
  6
CONTINUOUS
 62
     6
 10
136.500000
 20
153.500000
 11
136.500000
 21
156.900000
  0
LINE
  8
CSLAYER1
  6
CONTINUOUS
 62
     6
 10
140.000000
 20
153.500000
 11
136.500000
 21
153.500000
  0
LINE
  8
CSLAYER1
  6
CONTINUOUS
 62
     6
 10
140.000000
 20
156.900000
 11
136.500000
 21
156.900000
  0
LINE
  8
CSLAYER1
  6
CONTINUOUS
 62
     6
 10
140.000000
 20
153.500000
 11
140.000000
 21
156.900000
  0
LINE
  8
CSLAYER1
  6
CONTINUOUS
 62
     6
 10
138.600000
 20
156.900000
 11
138.600000
 21
153.500000
  0
LINE
  8
CSLAYER1
  6
CONTINUOUS
 62
     6
 10
136.500000
 20
148.100000
 11
136.500000
 21
151.500000
  0
LINE
  8
CSLAYER1
  6
CONTINUOUS
 62
     6
 10
140.000000
 20
148.100000
 11
136.500000
 21
148.100000
  0
LINE
  8
CSLAYER1
  6
CONTINUOUS
 62
     6
 10
140.000000
 20
151.500000
 11
136.500000
 21
151.500000
  0
LINE
  8
CSLAYER1
  6
CONTINUOUS
 62
     6
 10
140.000000
 20
148.100000
 11
140.000000
 21
151.500000
  0
LINE
  8
CSLAYER1
  6
CONTINUOUS
 62
     6
 10
138.600000
 20
151.500000
 11
138.600000
 21
148.100000
  0
LINE
  8
CSLAYER1
  6
CONTINUOUS
 62
     6
 10
136.500000
 20
142.700000
 11
136.500000
 21
146.100000
  0
LINE
  8
CSLAYER1
  6
CONTINUOUS
 62
     6
 10
140.000000
 20
142.700000
 11
136.500000
 21
142.700000
  0
LINE
  8
CSLAYER1
  6
CONTINUOUS
 62
     6
 10
140.000000
 20
146.100000
 11
136.500000
 21
146.100000
  0
LINE
  8
CSLAYER1
  6
CONTINUOUS
 62
     6
 10
140.000000
 20
142.700000
 11
140.000000
 21
146.100000
  0
LINE
  8
CSLAYER1
  6
CONTINUOUS
 62
     6
 10
138.600000
 20
146.100000
 11
138.600000
 21
142.700000
  0
LINE
  8
CSLAYER1
  6
CONTINUOUS
 62
     6
 10
136.500000
 20
137.300000
 11
136.500000
 21
140.700000
  0
LINE
  8
CSLAYER1
  6
CONTINUOUS
 62
     6
 10
140.000000
 20
137.300000
 11
136.500000
 21
137.300000
  0
LINE
  8
CSLAYER1
  6
CONTINUOUS
 62
     6
 10
140.000000
 20
140.700000
 11
136.500000
 21
140.700000
  0
LINE
  8
CSLAYER1
  6
CONTINUOUS
 62
     6
 10
140.000000
 20
137.300000
 11
140.000000
 21
140.700000
  0
LINE
  8
CSLAYER1
  6
CONTINUOUS
 62
     6
 10
138.600000
 20
140.700000
 11
138.600000
 21
137.300000
  0
LINE
  8
CSLAYER1
  6
CONTINUOUS
 62
     6
 10
136.500000
 20
131.900000
 11
136.500000
 21
135.300000
  0
LINE
  8
CSLAYER1
  6
CONTINUOUS
 62
     6
 10
140.000000
 20
131.900000
 11
136.500000
 21
131.900000
  0
LINE
  8
CSLAYER1
  6
CONTINUOUS
 62
     6
 10
140.000000
 20
135.300000
 11
136.500000
 21
135.300000
  0
LINE
  8
CSLAYER1
  6
CONTINUOUS
 62
     6
 10
140.000000
 20
131.900000
 11
140.000000
 21
135.300000
  0
LINE
  8
CSLAYER1
  6
CONTINUOUS
 62
     6
 10
138.600000
 20
135.300000
 11
138.600000
 21
131.900000
  0
LINE
  8
CSLAYER1
  6
CONTINUOUS
 62
     6
 10
136.500000
 20
126.500000
 11
136.500000
 21
129.900000
  0
LINE
  8
CSLAYER1
  6
CONTINUOUS
 62
     6
 10
140.000000
 20
126.500000
 11
136.500000
 21
126.500000
  0
LINE
  8
CSLAYER1
  6
CONTINUOUS
 62
     6
 10
140.000000
 20
129.900000
 11
136.500000
 21
129.900000
  0
LINE
  8
CSLAYER1
  6
CONTINUOUS
 62
     6
 10
140.000000
 20
126.500000
 11
140.000000
 21
129.900000
  0
LINE
  8
CSLAYER1
  6
CONTINUOUS
 62
     6
 10
138.600000
 20
129.900000
 11
138.600000
 21
126.500000
  0
ARC
  8
CSLAYER1
  6
CONTINUOUS
 62
     3
 10
147.992892
 20
171.400000
 40
1.805556
 50
-70.999198
 51
70.999198
  0
LINE
  8
CSLAYER1
  6
CONTINUOUS
 62
     3
 10
148.027337
 20
170.208366
 11
149.381565
 21
172.553957
  0
POLYLINE
  8
CSLAYER1
  6
CONTINUOUS
 62
     7
 66
     1
 10
0.0
 20
0.0
 30
0.0
  0
VERTEX
  8
CSLAYER1
  6
CONTINUOUS
 62
     7
 10
149.004003
 20
169.594444
 30
0.0
  0
VERTEX
  8
CSLAYER1
  6
CONTINUOUS
 62
     7
 10
149.117305
 20
169.601315
 30
0.0
  0
VERTEX
  8
CSLAYER1
  6
CONTINUOUS
 62
     7
 10
149.229746
 20
169.621875
 30
0.0
  0
VERTEX
  8
CSLAYER1
  6
CONTINUOUS
 62
     7
 10
149.340468
 20
169.655967
 30
0.0
  0
VERTEX
  8
CSLAYER1
  6
CONTINUOUS
 62
     7
 10
149.448629
 20
169.703333
 30
0.0
  0
VERTEX
  8
CSLAYER1
  6
CONTINUOUS
 62
     7
 10
149.553407
 20
169.763611
 30
0.0
  0
VERTEX
  8
CSLAYER1
  6
CONTINUOUS
 62
     7
 10
149.654003
 20
169.836343
 30
0.0
  0
VERTEX
  8
CSLAYER1
  6
CONTINUOUS
 62
     7
 10
149.749652
 20
169.920975
 30
0.0
  0
VERTEX
  8
CSLAYER1
  6
CONTINUOUS
 62
     7
 10
149.839627
 20
170.016864
 30
0.0
  0
VERTEX
  8
CSLAYER1
  6
CONTINUOUS
 62
     7
 10
149.923242
 20
170.123279
 30
0.0
  0
VERTEX
  8
CSLAYER1
  6
CONTINUOUS
 62
     7
 10
149.999861
 20
170.239411
 30
0.0
  0
VERTEX
  8
CSLAYER1
  6
CONTINUOUS
 62
     7
 10
150.068901
 20
170.364376
 30
0.0
  0
VERTEX
  8
CSLAYER1
  6
CONTINUOUS
 62
     7
 10
150.129836
 20
170.497222
 30
0.0
  0
VERTEX
  8
CSLAYER1
  6
CONTINUOUS
 62
     7
 10
150.182203
 20
170.636939
 30
0.0
  0
VERTEX
  8
CSLAYER1
  6
CONTINUOUS
 62
     7
 10
150.225603
 20
170.782464
 30
0.0
  0
VERTEX
  8
CSLAYER1
  6
CONTINUOUS
 62
     7
 10
150.259706
 20
170.932688
 30
0.0
  0
VERTEX
  8
CSLAYER1
  6
CONTINUOUS
 62
     7
 10
150.284253
 20
171.086469
 30
0.0
  0
VERTEX
  8
CSLAYER1
  6
CONTINUOUS
 62
     7
 10
150.299056
 20
171.242635
 30
0.0
  0
VERTEX
  8
CSLAYER1
  6
CONTINUOUS
 62
     7
 10
150.304003
 20
171.400000
 30
0.0
  0
VERTEX
  8
CSLAYER1
  6
CONTINUOUS
 62
     7
 10
150.299056
 20
171.557365
 30
0.0
  0
VERTEX
  8
CSLAYER1
  6
CONTINUOUS
 62
     7
 10
150.284253
 20
171.713531
 30
0.0
  0
VERTEX
  8
CSLAYER1
  6
CONTINUOUS
 62
     7
 10
150.259706
 20
171.867312
 30
0.0
  0
VERTEX
  8
CSLAYER1
  6
CONTINUOUS
 62
     7
 10
150.225603
 20
172.017536
 30
0.0
  0
VERTEX
  8
CSLAYER1
  6
CONTINUOUS
 62
     7
 10
150.182203
 20
172.163061
 30
0.0
  0
VERTEX
  8
CSLAYER1
  6
CONTINUOUS
 62
     7
 10
150.129836
 20
172.302778
 30
0.0
  0
VERTEX
  8
CSLAYER1
  6
CONTINUOUS
 62
     7
 10
150.068901
 20
172.435624
 30
0.0
  0
VERTEX
  8
CSLAYER1
  6
CONTINUOUS
 62
     7
 10
149.999861
 20
172.560589
 30
0.0
  0
VERTEX
  8
CSLAYER1
  6
CONTINUOUS
 62
     7
 10
149.923242
 20
172.676721
 30
0.0
  0
VERTEX
  8
CSLAYER1
  6
CONTINUOUS
 62
     7
 10
149.839627
 20
172.783136
 30
0.0
  0
VERTEX
  8
CSLAYER1
  6
CONTINUOUS
 62
     7
 10
149.749652
 20
172.879025
 30
0.0
  0
VERTEX
  8
CSLAYER1
  6
CONTINUOUS
 62
     7
 10
149.654003
 20
172.963657
 30
0.0
  0
VERTEX
  8
CSLAYER1
  6
CONTINUOUS
 62
     7
 10
149.553407
 20
173.036389
 30
0.0
  0
VERTEX
  8
CSLAYER1
  6
CONTINUOUS
 62
     7
 10
149.448629
 20
173.096667
 30
0.0
  0
VERTEX
  8
CSLAYER1
  6
CONTINUOUS
 62
     7
 10
149.340468
 20
173.144033
 30
0.0
  0
VERTEX
  8
CSLAYER1
  6
CONTINUOUS
 62
     7
 10
149.229746
 20
173.178125
 30
0.0
  0
VERTEX
  8
CSLAYER1
  6
CONTINUOUS
 62
     7
 10
149.117305
 20
173.198685
 30
0.0
  0
VERTEX
  8
CSLAYER1
  6
CONTINUOUS
 62
     7
 10
149.004003
 20
173.205556
 30
0.0
  0
VERTEX
  8
CSLAYER1
  6
CONTINUOUS
 62
     7
 10
148.890700
 20
173.198685
 30
0.0
  0
VERTEX
  8
CSLAYER1
  6
CONTINUOUS
 62
     7
 10
148.778260
 20
173.178125
 30
0.0
  0
VERTEX
  8
CSLAYER1
  6
CONTINUOUS
 62
     7
 10
148.667538
 20
173.144033
 30
0.0
  0
VERTEX
  8
CSLAYER1
  6
CONTINUOUS
 62
     7
 10
148.559377
 20
173.096667
 30
0.0
  0
VERTEX
  8
CSLAYER1
  6
CONTINUOUS
 62
     7
 10
148.454599
 20
173.036389
 30
0.0
  0
VERTEX
  8
CSLAYER1
  6
CONTINUOUS
 62
     7
 10
148.354003
 20
172.963657
 30
0.0
  0
VERTEX
  8
CSLAYER1
  6
CONTINUOUS
 62
     7
 10
148.258354
 20
172.879025
 30
0.0
  0
VERTEX
  8
CSLAYER1
  6
CONTINUOUS
 62
     7
 10
148.168379
 20
172.783136
 30
0.0
  0
VERTEX
  8
CSLAYER1
  6
CONTINUOUS
 62
     7
 10
148.084764
 20
172.676721
 30
0.0
  0
VERTEX
  8
CSLAYER1
  6
CONTINUOUS
 62
     7
 10
148.008145
 20
172.560589
 30
0.0
  0
VERTEX
  8
CSLAYER1
  6
CONTINUOUS
 62
     7
 10
147.939105
 20
172.435624
 30
0.0
  0
VERTEX
  8
CSLAYER1
  6
CONTINUOUS
 62
     7
 10
147.878170
 20
172.302778
 30
0.0
  0
VERTEX
  8
CSLAYER1
  6
CONTINUOUS
 62
     7
 10
147.825803
 20
172.163061
 30
0.0
  0
VERTEX
  8
CSLAYER1
  6
CONTINUOUS
 62
     7
 10
147.782403
 20
172.017536
 30
0.0
  0
VERTEX
  8
CSLAYER1
  6
CONTINUOUS
 62
     7
 10
147.748299
 20
171.867312
 30
0.0
  0
VERTEX
  8
CSLAYER1
  6
CONTINUOUS
 62
     7
 10
147.723753
 20
171.713531
 30
0.0
  0
VERTEX
  8
CSLAYER1
  6
CONTINUOUS
 62
     7
 10
147.708950
 20
171.557365
 30
0.0
  0
VERTEX
  8
CSLAYER1
  6
CONTINUOUS
 62
     7
 10
147.704003
 20
171.400000
 30
0.0
  0
VERTEX
  8
CSLAYER1
  6
CONTINUOUS
 62
     7
 10
147.708950
 20
171.242635
 30
0.0
  0
VERTEX
  8
CSLAYER1
  6
CONTINUOUS
 62
     7
 10
147.723753
 20
171.086469
 30
0.0
  0
VERTEX
  8
CSLAYER1
  6
CONTINUOUS
 62
     7
 10
147.748299
 20
170.932688
 30
0.0
  0
VERTEX
  8
CSLAYER1
  6
CONTINUOUS
 62
     7
 10
147.782403
 20
170.782464
 30
0.0
  0
VERTEX
  8
CSLAYER1
  6
CONTINUOUS
 62
     7
 10
147.825803
 20
170.636939
 30
0.0
  0
VERTEX
  8
CSLAYER1
  6
CONTINUOUS
 62
     7
 10
147.878170
 20
170.497222
 30
0.0
  0
VERTEX
  8
CSLAYER1
  6
CONTINUOUS
 62
     7
 10
147.939105
 20
170.364376
 30
0.0
  0
VERTEX
  8
CSLAYER1
  6
CONTINUOUS
 62
     7
 10
148.008145
 20
170.239411
 30
0.0
  0
VERTEX
  8
CSLAYER1
  6
CONTINUOUS
 62
     7
 10
148.084764
 20
170.123279
 30
0.0
  0
VERTEX
  8
CSLAYER1
  6
CONTINUOUS
 62
     7
 10
148.168379
 20
170.016864
 30
0.0
  0
VERTEX
  8
CSLAYER1
  6
CONTINUOUS
 62
     7
 10
148.258354
 20
169.920975
 30
0.0
  0
VERTEX
  8
CSLAYER1
  6
CONTINUOUS
 62
     7
 10
148.354003
 20
169.836343
 30
0.0
  0
VERTEX
  8
CSLAYER1
  6
CONTINUOUS
 62
     7
 10
148.454599
 20
169.763611
 30
0.0
  0
VERTEX
  8
CSLAYER1
  6
CONTINUOUS
 62
     7
 10
148.559377
 20
169.703333
 30
0.0
  0
VERTEX
  8
CSLAYER1
  6
CONTINUOUS
 62
     7
 10
148.667538
 20
169.655967
 30
0.0
  0
VERTEX
  8
CSLAYER1
  6
CONTINUOUS
 62
     7
 10
148.778260
 20
169.621875
 30
0.0
  0
VERTEX
  8
CSLAYER1
  6
CONTINUOUS
 62
     7
 10
148.890700
 20
169.601315
 30
0.0
  0
VERTEX
  8
CSLAYER1
  6
CONTINUOUS
 62
     7
 10
149.004003
 20
169.594444
 30
0.0
  0
SEQEND
  0
ARC
  8
CSLAYER1
  6
CONTINUOUS
 62
     3
 10
147.992892
 20
166.000000
 40
1.805556
 50
-70.999198
 51
70.999198
  0
LINE
  8
CSLAYER1
  6
CONTINUOUS
 62
     3
 10
148.027337
 20
164.808366
 11
149.381565
 21
167.153957
  0
POLYLINE
  8
CSLAYER1
  6
CONTINUOUS
 62
     7
 66
     1
 10
0.0
 20
0.0
 30
0.0
  0
VERTEX
  8
CSLAYER1
  6
CONTINUOUS
 62
     7
 10
149.004003
 20
164.194444
 30
0.0
  0
VERTEX
  8
CSLAYER1
  6
CONTINUOUS
 62
     7
 10
149.117305
 20
164.201315
 30
0.0
  0
VERTEX
  8
CSLAYER1
  6
CONTINUOUS
 62
     7
 10
149.229746
 20
164.221875
 30
0.0
  0
VERTEX
  8
CSLAYER1
  6
CONTINUOUS
 62
     7
 10
149.340468
 20
164.255967
 30
0.0
  0
VERTEX
  8
CSLAYER1
  6
CONTINUOUS
 62
     7
 10
149.448629
 20
164.303333
 30
0.0
  0
VERTEX
  8
CSLAYER1
  6
CONTINUOUS
 62
     7
 10
149.553407
 20
164.363611
 30
0.0
  0
VERTEX
  8
CSLAYER1
  6
CONTINUOUS
 62
     7
 10
149.654003
 20
164.436343
 30
0.0
  0
VERTEX
  8
CSLAYER1
  6
CONTINUOUS
 62
     7
 10
149.749652
 20
164.520975
 30
0.0
  0
VERTEX
  8
CSLAYER1
  6
CONTINUOUS
 62
     7
 10
149.839627
 20
164.616864
 30
0.0
  0
VERTEX
  8
CSLAYER1
  6
CONTINUOUS
 62
     7
 10
149.923242
 20
164.723279
 30
0.0
  0
VERTEX
  8
CSLAYER1
  6
CONTINUOUS
 62
     7
 10
149.999861
 20
164.839411
 30
0.0
  0
VERTEX
  8
CSLAYER1
  6
CONTINUOUS
 62
     7
 10
150.068901
 20
164.964376
 30
0.0
  0
VERTEX
  8
CSLAYER1
  6
CONTINUOUS
 62
     7
 10
150.129836
 20
165.097222
 30
0.0
  0
VERTEX
  8
CSLAYER1
  6
CONTINUOUS
 62
     7
 10
150.182203
 20
165.236939
 30
0.0
  0
VERTEX
  8
CSLAYER1
  6
CONTINUOUS
 62
     7
 10
150.225603
 20
165.382464
 30
0.0
  0
VERTEX
  8
CSLAYER1
  6
CONTINUOUS
 62
     7
 10
150.259706
 20
165.532688
 30
0.0
  0
VERTEX
  8
CSLAYER1
  6
CONTINUOUS
 62
     7
 10
150.284253
 20
165.686469
 30
0.0
  0
VERTEX
  8
CSLAYER1
  6
CONTINUOUS
 62
     7
 10
150.299056
 20
165.842635
 30
0.0
  0
VERTEX
  8
CSLAYER1
  6
CONTINUOUS
 62
     7
 10
150.304003
 20
166.000000
 30
0.0
  0
VERTEX
  8
CSLAYER1
  6
CONTINUOUS
 62
     7
 10
150.299056
 20
166.157365
 30
0.0
  0
VERTEX
  8
CSLAYER1
  6
CONTINUOUS
 62
     7
 10
150.284253
 20
166.313531
 30
0.0
  0
VERTEX
  8
CSLAYER1
  6
CONTINUOUS
 62
     7
 10
150.259706
 20
166.467312
 30
0.0
  0
VERTEX
  8
CSLAYER1
  6
CONTINUOUS
 62
     7
 10
150.225603
 20
166.617536
 30
0.0
  0
VERTEX
  8
CSLAYER1
  6
CONTINUOUS
 62
     7
 10
150.182203
 20
166.763061
 30
0.0
  0
VERTEX
  8
CSLAYER1
  6
CONTINUOUS
 62
     7
 10
150.129836
 20
166.902778
 30
0.0
  0
VERTEX
  8
CSLAYER1
  6
CONTINUOUS
 62
     7
 10
150.068901
 20
167.035624
 30
0.0
  0
VERTEX
  8
CSLAYER1
  6
CONTINUOUS
 62
     7
 10
149.999861
 20
167.160589
 30
0.0
  0
VERTEX
  8
CSLAYER1
  6
CONTINUOUS
 62
     7
 10
149.923242
 20
167.276721
 30
0.0
  0
VERTEX
  8
CSLAYER1
  6
CONTINUOUS
 62
     7
 10
149.839627
 20
167.383136
 30
0.0
  0
VERTEX
  8
CSLAYER1
  6
CONTINUOUS
 62
     7
 10
149.749652
 20
167.479025
 30
0.0
  0
VERTEX
  8
CSLAYER1
  6
CONTINUOUS
 62
     7
 10
149.654003
 20
167.563657
 30
0.0
  0
VERTEX
  8
CSLAYER1
  6
CONTINUOUS
 62
     7
 10
149.553407
 20
167.636389
 30
0.0
  0
VERTEX
  8
CSLAYER1
  6
CONTINUOUS
 62
     7
 10
149.448629
 20
167.696667
 30
0.0
  0
VERTEX
  8
CSLAYER1
  6
CONTINUOUS
 62
     7
 10
149.340468
 20
167.744033
 30
0.0
  0
VERTEX
  8
CSLAYER1
  6
CONTINUOUS
 62
     7
 10
149.229746
 20
167.778125
 30
0.0
  0
VERTEX
  8
CSLAYER1
  6
CONTINUOUS
 62
     7
 10
149.117305
 20
167.798685
 30
0.0
  0
VERTEX
  8
CSLAYER1
  6
CONTINUOUS
 62
     7
 10
149.004003
 20
167.805556
 30
0.0
  0
VERTEX
  8
CSLAYER1
  6
CONTINUOUS
 62
     7
 10
148.890700
 20
167.798685
 30
0.0
  0
VERTEX
  8
CSLAYER1
  6
CONTINUOUS
 62
     7
 10
148.778260
 20
167.778125
 30
0.0
  0
VERTEX
  8
CSLAYER1
  6
CONTINUOUS
 62
     7
 10
148.667538
 20
167.744033
 30
0.0
  0
VERTEX
  8
CSLAYER1
  6
CONTINUOUS
 62
     7
 10
148.559377
 20
167.696667
 30
0.0
  0
VERTEX
  8
CSLAYER1
  6
CONTINUOUS
 62
     7
 10
148.454599
 20
167.636389
 30
0.0
  0
VERTEX
  8
CSLAYER1
  6
CONTINUOUS
 62
     7
 10
148.354003
 20
167.563657
 30
0.0
  0
VERTEX
  8
CSLAYER1
  6
CONTINUOUS
 62
     7
 10
148.258354
 20
167.479025
 30
0.0
  0
VERTEX
  8
CSLAYER1
  6
CONTINUOUS
 62
     7
 10
148.168379
 20
167.383136
 30
0.0
  0
VERTEX
  8
CSLAYER1
  6
CONTINUOUS
 62
     7
 10
148.084764
 20
167.276721
 30
0.0
  0
VERTEX
  8
CSLAYER1
  6
CONTINUOUS
 62
     7
 10
148.008145
 20
167.160589
 30
0.0
  0
VERTEX
  8
CSLAYER1
  6
CONTINUOUS
 62
     7
 10
147.939105
 20
167.035624
 30
0.0
  0
VERTEX
  8
CSLAYER1
  6
CONTINUOUS
 62
     7
 10
147.878170
 20
166.902778
 30
0.0
  0
VERTEX
  8
CSLAYER1
  6
CONTINUOUS
 62
     7
 10
147.825803
 20
166.763061
 30
0.0
  0
VERTEX
  8
CSLAYER1
  6
CONTINUOUS
 62
     7
 10
147.782403
 20
166.617536
 30
0.0
  0
VERTEX
  8
CSLAYER1
  6
CONTINUOUS
 62
     7
 10
147.748299
 20
166.467312
 30
0.0
  0
VERTEX
  8
CSLAYER1
  6
CONTINUOUS
 62
     7
 10
147.723753
 20
166.313531
 30
0.0
  0
VERTEX
  8
CSLAYER1
  6
CONTINUOUS
 62
     7
 10
147.708950
 20
166.157365
 30
0.0
  0
VERTEX
  8
CSLAYER1
  6
CONTINUOUS
 62
     7
 10
147.704003
 20
166.000000
 30
0.0
  0
VERTEX
  8
CSLAYER1
  6
CONTINUOUS
 62
     7
 10
147.708950
 20
165.842635
 30
0.0
  0
VERTEX
  8
CSLAYER1
  6
CONTINUOUS
 62
     7
 10
147.723753
 20
165.686469
 30
0.0
  0
VERTEX
  8
CSLAYER1
  6
CONTINUOUS
 62
     7
 10
147.748299
 20
165.532688
 30
0.0
  0
VERTEX
  8
CSLAYER1
  6
CONTINUOUS
 62
     7
 10
147.782403
 20
165.382464
 30
0.0
  0
VERTEX
  8
CSLAYER1
  6
CONTINUOUS
 62
     7
 10
147.825803
 20
165.236939
 30
0.0
  0
VERTEX
  8
CSLAYER1
  6
CONTINUOUS
 62
     7
 10
147.878170
 20
165.097222
 30
0.0
  0
VERTEX
  8
CSLAYER1
  6
CONTINUOUS
 62
     7
 10
147.939105
 20
164.964376
 30
0.0
  0
VERTEX
  8
CSLAYER1
  6
CONTINUOUS
 62
     7
 10
148.008145
 20
164.839411
 30
0.0
  0
VERTEX
  8
CSLAYER1
  6
CONTINUOUS
 62
     7
 10
148.084764
 20
164.723279
 30
0.0
  0
VERTEX
  8
CSLAYER1
  6
CONTINUOUS
 62
     7
 10
148.168379
 20
164.616864
 30
0.0
  0
VERTEX
  8
CSLAYER1
  6
CONTINUOUS
 62
     7
 10
148.258354
 20
164.520975
 30
0.0
  0
VERTEX
  8
CSLAYER1
  6
CONTINUOUS
 62
     7
 10
148.354003
 20
164.436343
 30
0.0
  0
VERTEX
  8
CSLAYER1
  6
CONTINUOUS
 62
     7
 10
148.454599
 20
164.363611
 30
0.0
  0
VERTEX
  8
CSLAYER1
  6
CONTINUOUS
 62
     7
 10
148.559377
 20
164.303333
 30
0.0
  0
VERTEX
  8
CSLAYER1
  6
CONTINUOUS
 62
     7
 10
148.667538
 20
164.255967
 30
0.0
  0
VERTEX
  8
CSLAYER1
  6
CONTINUOUS
 62
     7
 10
148.778260
 20
164.221875
 30
0.0
  0
VERTEX
  8
CSLAYER1
  6
CONTINUOUS
 62
     7
 10
148.890700
 20
164.201315
 30
0.0
  0
VERTEX
  8
CSLAYER1
  6
CONTINUOUS
 62
     7
 10
149.004003
 20
164.194444
 30
0.0
  0
SEQEND
  0
ARC
  8
CSLAYER1
  6
CONTINUOUS
 62
     3
 10
147.992892
 20
160.600000
 40
1.805556
 50
-70.999198
 51
70.999198
  0
LINE
  8
CSLAYER1
  6
CONTINUOUS
 62
     3
 10
148.027337
 20
159.408366
 11
149.381565
 21
161.753957
  0
POLYLINE
  8
CSLAYER1
  6
CONTINUOUS
 62
     7
 66
     1
 10
0.0
 20
0.0
 30
0.0
  0
VERTEX
  8
CSLAYER1
  6
CONTINUOUS
 62
     7
 10
149.004003
 20
158.794444
 30
0.0
  0
VERTEX
  8
CSLAYER1
  6
CONTINUOUS
 62
     7
 10
149.117305
 20
158.801315
 30
0.0
  0
VERTEX
  8
CSLAYER1
  6
CONTINUOUS
 62
     7
 10
149.229746
 20
158.821875
 30
0.0
  0
VERTEX
  8
CSLAYER1
  6
CONTINUOUS
 62
     7
 10
149.340468
 20
158.855967
 30
0.0
  0
VERTEX
  8
CSLAYER1
  6
CONTINUOUS
 62
     7
 10
149.448629
 20
158.903333
 30
0.0
  0
VERTEX
  8
CSLAYER1
  6
CONTINUOUS
 62
     7
 10
149.553407
 20
158.963611
 30
0.0
  0
VERTEX
  8
CSLAYER1
  6
CONTINUOUS
 62
     7
 10
149.654003
 20
159.036343
 30
0.0
  0
VERTEX
  8
CSLAYER1
  6
CONTINUOUS
 62
     7
 10
149.749652
 20
159.120975
 30
0.0
  0
VERTEX
  8
CSLAYER1
  6
CONTINUOUS
 62
     7
 10
149.839627
 20
159.216864
 30
0.0
  0
VERTEX
  8
CSLAYER1
  6
CONTINUOUS
 62
     7
 10
149.923242
 20
159.323279
 30
0.0
  0
VERTEX
  8
CSLAYER1
  6
CONTINUOUS
 62
     7
 10
149.999861
 20
159.439411
 30
0.0
  0
VERTEX
  8
CSLAYER1
  6
CONTINUOUS
 62
     7
 10
150.068901
 20
159.564376
 30
0.0
  0
VERTEX
  8
CSLAYER1
  6
CONTINUOUS
 62
     7
 10
150.129836
 20
159.697222
 30
0.0
  0
VERTEX
  8
CSLAYER1
  6
CONTINUOUS
 62
     7
 10
150.182203
 20
159.836939
 30
0.0
  0
VERTEX
  8
CSLAYER1
  6
CONTINUOUS
 62
     7
 10
150.225603
 20
159.982464
 30
0.0
  0
VERTEX
  8
CSLAYER1
  6
CONTINUOUS
 62
     7
 10
150.259706
 20
160.132688
 30
0.0
  0
VERTEX
  8
CSLAYER1
  6
CONTINUOUS
 62
     7
 10
150.284253
 20
160.286469
 30
0.0
  0
VERTEX
  8
CSLAYER1
  6
CONTINUOUS
 62
     7
 10
150.299056
 20
160.442635
 30
0.0
  0
VERTEX
  8
CSLAYER1
  6
CONTINUOUS
 62
     7
 10
150.304003
 20
160.600000
 30
0.0
  0
VERTEX
  8
CSLAYER1
  6
CONTINUOUS
 62
     7
 10
150.299056
 20
160.757365
 30
0.0
  0
VERTEX
  8
CSLAYER1
  6
CONTINUOUS
 62
     7
 10
150.284253
 20
160.913531
 30
0.0
  0
VERTEX
  8
CSLAYER1
  6
CONTINUOUS
 62
     7
 10
150.259706
 20
161.067312
 30
0.0
  0
VERTEX
  8
CSLAYER1
  6
CONTINUOUS
 62
     7
 10
150.225603
 20
161.217536
 30
0.0
  0
VERTEX
  8
CSLAYER1
  6
CONTINUOUS
 62
     7
 10
150.182203
 20
161.363061
 30
0.0
  0
VERTEX
  8
CSLAYER1
  6
CONTINUOUS
 62
     7
 10
150.129836
 20
161.502778
 30
0.0
  0
VERTEX
  8
CSLAYER1
  6
CONTINUOUS
 62
     7
 10
150.068901
 20
161.635624
 30
0.0
  0
VERTEX
  8
CSLAYER1
  6
CONTINUOUS
 62
     7
 10
149.999861
 20
161.760589
 30
0.0
  0
VERTEX
  8
CSLAYER1
  6
CONTINUOUS
 62
     7
 10
149.923242
 20
161.876721
 30
0.0
  0
VERTEX
  8
CSLAYER1
  6
CONTINUOUS
 62
     7
 10
149.839627
 20
161.983136
 30
0.0
  0
VERTEX
  8
CSLAYER1
  6
CONTINUOUS
 62
     7
 10
149.749652
 20
162.079025
 30
0.0
  0
VERTEX
  8
CSLAYER1
  6
CONTINUOUS
 62
     7
 10
149.654003
 20
162.163657
 30
0.0
  0
VERTEX
  8
CSLAYER1
  6
CONTINUOUS
 62
     7
 10
149.553407
 20
162.236389
 30
0.0
  0
VERTEX
  8
CSLAYER1
  6
CONTINUOUS
 62
     7
 10
149.448629
 20
162.296667
 30
0.0
  0
VERTEX
  8
CSLAYER1
  6
CONTINUOUS
 62
     7
 10
149.340468
 20
162.344033
 30
0.0
  0
VERTEX
  8
CSLAYER1
  6
CONTINUOUS
 62
     7
 10
149.229746
 20
162.378125
 30
0.0
  0
VERTEX
  8
CSLAYER1
  6
CONTINUOUS
 62
     7
 10
149.117305
 20
162.398685
 30
0.0
  0
VERTEX
  8
CSLAYER1
  6
CONTINUOUS
 62
     7
 10
149.004003
 20
162.405556
 30
0.0
  0
VERTEX
  8
CSLAYER1
  6
CONTINUOUS
 62
     7
 10
148.890700
 20
162.398685
 30
0.0
  0
VERTEX
  8
CSLAYER1
  6
CONTINUOUS
 62
     7
 10
148.778260
 20
162.378125
 30
0.0
  0
VERTEX
  8
CSLAYER1
  6
CONTINUOUS
 62
     7
 10
148.667538
 20
162.344033
 30
0.0
  0
VERTEX
  8
CSLAYER1
  6
CONTINUOUS
 62
     7
 10
148.559377
 20
162.296667
 30
0.0
  0
VERTEX
  8
CSLAYER1
  6
CONTINUOUS
 62
     7
 10
148.454599
 20
162.236389
 30
0.0
  0
VERTEX
  8
CSLAYER1
  6
CONTINUOUS
 62
     7
 10
148.354003
 20
162.163657
 30
0.0
  0
VERTEX
  8
CSLAYER1
  6
CONTINUOUS
 62
     7
 10
148.258354
 20
162.079025
 30
0.0
  0
VERTEX
  8
CSLAYER1
  6
CONTINUOUS
 62
     7
 10
148.168379
 20
161.983136
 30
0.0
  0
VERTEX
  8
CSLAYER1
  6
CONTINUOUS
 62
     7
 10
148.084764
 20
161.876721
 30
0.0
  0
VERTEX
  8
CSLAYER1
  6
CONTINUOUS
 62
     7
 10
148.008145
 20
161.760589
 30
0.0
  0
VERTEX
  8
CSLAYER1
  6
CONTINUOUS
 62
     7
 10
147.939105
 20
161.635624
 30
0.0
  0
VERTEX
  8
CSLAYER1
  6
CONTINUOUS
 62
     7
 10
147.878170
 20
161.502778
 30
0.0
  0
VERTEX
  8
CSLAYER1
  6
CONTINUOUS
 62
     7
 10
147.825803
 20
161.363061
 30
0.0
  0
VERTEX
  8
CSLAYER1
  6
CONTINUOUS
 62
     7
 10
147.782403
 20
161.217536
 30
0.0
  0
VERTEX
  8
CSLAYER1
  6
CONTINUOUS
 62
     7
 10
147.748299
 20
161.067312
 30
0.0
  0
VERTEX
  8
CSLAYER1
  6
CONTINUOUS
 62
     7
 10
147.723753
 20
160.913531
 30
0.0
  0
VERTEX
  8
CSLAYER1
  6
CONTINUOUS
 62
     7
 10
147.708950
 20
160.757365
 30
0.0
  0
VERTEX
  8
CSLAYER1
  6
CONTINUOUS
 62
     7
 10
147.704003
 20
160.600000
 30
0.0
  0
VERTEX
  8
CSLAYER1
  6
CONTINUOUS
 62
     7
 10
147.708950
 20
160.442635
 30
0.0
  0
VERTEX
  8
CSLAYER1
  6
CONTINUOUS
 62
     7
 10
147.723753
 20
160.286469
 30
0.0
  0
VERTEX
  8
CSLAYER1
  6
CONTINUOUS
 62
     7
 10
147.748299
 20
160.132688
 30
0.0
  0
VERTEX
  8
CSLAYER1
  6
CONTINUOUS
 62
     7
 10
147.782403
 20
159.982464
 30
0.0
  0
VERTEX
  8
CSLAYER1
  6
CONTINUOUS
 62
     7
 10
147.825803
 20
159.836939
 30
0.0
  0
VERTEX
  8
CSLAYER1
  6
CONTINUOUS
 62
     7
 10
147.878170
 20
159.697222
 30
0.0
  0
VERTEX
  8
CSLAYER1
  6
CONTINUOUS
 62
     7
 10
147.939105
 20
159.564376
 30
0.0
  0
VERTEX
  8
CSLAYER1
  6
CONTINUOUS
 62
     7
 10
148.008145
 20
159.439411
 30
0.0
  0
VERTEX
  8
CSLAYER1
  6
CONTINUOUS
 62
     7
 10
148.084764
 20
159.323279
 30
0.0
  0
VERTEX
  8
CSLAYER1
  6
CONTINUOUS
 62
     7
 10
148.168379
 20
159.216864
 30
0.0
  0
VERTEX
  8
CSLAYER1
  6
CONTINUOUS
 62
     7
 10
148.258354
 20
159.120975
 30
0.0
  0
VERTEX
  8
CSLAYER1
  6
CONTINUOUS
 62
     7
 10
148.354003
 20
159.036343
 30
0.0
  0
VERTEX
  8
CSLAYER1
  6
CONTINUOUS
 62
     7
 10
148.454599
 20
158.963611
 30
0.0
  0
VERTEX
  8
CSLAYER1
  6
CONTINUOUS
 62
     7
 10
148.559377
 20
158.903333
 30
0.0
  0
VERTEX
  8
CSLAYER1
  6
CONTINUOUS
 62
     7
 10
148.667538
 20
158.855967
 30
0.0
  0
VERTEX
  8
CSLAYER1
  6
CONTINUOUS
 62
     7
 10
148.778260
 20
158.821875
 30
0.0
  0
VERTEX
  8
CSLAYER1
  6
CONTINUOUS
 62
     7
 10
148.890700
 20
158.801315
 30
0.0
  0
VERTEX
  8
CSLAYER1
  6
CONTINUOUS
 62
     7
 10
149.004003
 20
158.794444
 30
0.0
  0
SEQEND
  0
ARC
  8
CSLAYER1
  6
CONTINUOUS
 62
     3
 10
147.992892
 20
155.200000
 40
1.805556
 50
-70.999198
 51
70.999198
  0
LINE
  8
CSLAYER1
  6
CONTINUOUS
 62
     3
 10
148.027337
 20
154.008366
 11
149.381565
 21
156.353957
  0
POLYLINE
  8
CSLAYER1
  6
CONTINUOUS
 62
     7
 66
     1
 10
0.0
 20
0.0
 30
0.0
  0
VERTEX
  8
CSLAYER1
  6
CONTINUOUS
 62
     7
 10
149.004003
 20
153.394444
 30
0.0
  0
VERTEX
  8
CSLAYER1
  6
CONTINUOUS
 62
     7
 10
149.117305
 20
153.401315
 30
0.0
  0
VERTEX
  8
CSLAYER1
  6
CONTINUOUS
 62
     7
 10
149.229746
 20
153.421875
 30
0.0
  0
VERTEX
  8
CSLAYER1
  6
CONTINUOUS
 62
     7
 10
149.340468
 20
153.455967
 30
0.0
  0
VERTEX
  8
CSLAYER1
  6
CONTINUOUS
 62
     7
 10
149.448629
 20
153.503333
 30
0.0
  0
VERTEX
  8
CSLAYER1
  6
CONTINUOUS
 62
     7
 10
149.553407
 20
153.563611
 30
0.0
  0
VERTEX
  8
CSLAYER1
  6
CONTINUOUS
 62
     7
 10
149.654003
 20
153.636343
 30
0.0
  0
VERTEX
  8
CSLAYER1
  6
CONTINUOUS
 62
     7
 10
149.749652
 20
153.720975
 30
0.0
  0
VERTEX
  8
CSLAYER1
  6
CONTINUOUS
 62
     7
 10
149.839627
 20
153.816864
 30
0.0
  0
VERTEX
  8
CSLAYER1
  6
CONTINUOUS
 62
     7
 10
149.923242
 20
153.923279
 30
0.0
  0
VERTEX
  8
CSLAYER1
  6
CONTINUOUS
 62
     7
 10
149.999861
 20
154.039411
 30
0.0
  0
VERTEX
  8
CSLAYER1
  6
CONTINUOUS
 62
     7
 10
150.068901
 20
154.164376
 30
0.0
  0
VERTEX
  8
CSLAYER1
  6
CONTINUOUS
 62
     7
 10
150.129836
 20
154.297222
 30
0.0
  0
VERTEX
  8
CSLAYER1
  6
CONTINUOUS
 62
     7
 10
150.182203
 20
154.436939
 30
0.0
  0
VERTEX
  8
CSLAYER1
  6
CONTINUOUS
 62
     7
 10
150.225603
 20
154.582464
 30
0.0
  0
VERTEX
  8
CSLAYER1
  6
CONTINUOUS
 62
     7
 10
150.259706
 20
154.732688
 30
0.0
  0
VERTEX
  8
CSLAYER1
  6
CONTINUOUS
 62
     7
 10
150.284253
 20
154.886469
 30
0.0
  0
VERTEX
  8
CSLAYER1
  6
CONTINUOUS
 62
     7
 10
150.299056
 20
155.042635
 30
0.0
  0
VERTEX
  8
CSLAYER1
  6
CONTINUOUS
 62
     7
 10
150.304003
 20
155.200000
 30
0.0
  0
VERTEX
  8
CSLAYER1
  6
CONTINUOUS
 62
     7
 10
150.299056
 20
155.357365
 30
0.0
  0
VERTEX
  8
CSLAYER1
  6
CONTINUOUS
 62
     7
 10
150.284253
 20
155.513531
 30
0.0
  0
VERTEX
  8
CSLAYER1
  6
CONTINUOUS
 62
     7
 10
150.259706
 20
155.667312
 30
0.0
  0
VERTEX
  8
CSLAYER1
  6
CONTINUOUS
 62
     7
 10
150.225603
 20
155.817536
 30
0.0
  0
VERTEX
  8
CSLAYER1
  6
CONTINUOUS
 62
     7
 10
150.182203
 20
155.963061
 30
0.0
  0
VERTEX
  8
CSLAYER1
  6
CONTINUOUS
 62
     7
 10
150.129836
 20
156.102778
 30
0.0
  0
VERTEX
  8
CSLAYER1
  6
CONTINUOUS
 62
     7
 10
150.068901
 20
156.235624
 30
0.0
  0
VERTEX
  8
CSLAYER1
  6
CONTINUOUS
 62
     7
 10
149.999861
 20
156.360589
 30
0.0
  0
VERTEX
  8
CSLAYER1
  6
CONTINUOUS
 62
     7
 10
149.923242
 20
156.476721
 30
0.0
  0
VERTEX
  8
CSLAYER1
  6
CONTINUOUS
 62
     7
 10
149.839627
 20
156.583136
 30
0.0
  0
VERTEX
  8
CSLAYER1
  6
CONTINUOUS
 62
     7
 10
149.749652
 20
156.679025
 30
0.0
  0
VERTEX
  8
CSLAYER1
  6
CONTINUOUS
 62
     7
 10
149.654003
 20
156.763657
 30
0.0
  0
VERTEX
  8
CSLAYER1
  6
CONTINUOUS
 62
     7
 10
149.553407
 20
156.836389
 30
0.0
  0
VERTEX
  8
CSLAYER1
  6
CONTINUOUS
 62
     7
 10
149.448629
 20
156.896667
 30
0.0
  0
VERTEX
  8
CSLAYER1
  6
CONTINUOUS
 62
     7
 10
149.340468
 20
156.944033
 30
0.0
  0
VERTEX
  8
CSLAYER1
  6
CONTINUOUS
 62
     7
 10
149.229746
 20
156.978125
 30
0.0
  0
VERTEX
  8
CSLAYER1
  6
CONTINUOUS
 62
     7
 10
149.117305
 20
156.998685
 30
0.0
  0
VERTEX
  8
CSLAYER1
  6
CONTINUOUS
 62
     7
 10
149.004003
 20
157.005556
 30
0.0
  0
VERTEX
  8
CSLAYER1
  6
CONTINUOUS
 62
     7
 10
148.890700
 20
156.998685
 30
0.0
  0
VERTEX
  8
CSLAYER1
  6
CONTINUOUS
 62
     7
 10
148.778260
 20
156.978125
 30
0.0
  0
VERTEX
  8
CSLAYER1
  6
CONTINUOUS
 62
     7
 10
148.667538
 20
156.944033
 30
0.0
  0
VERTEX
  8
CSLAYER1
  6
CONTINUOUS
 62
     7
 10
148.559377
 20
156.896667
 30
0.0
  0
VERTEX
  8
CSLAYER1
  6
CONTINUOUS
 62
     7
 10
148.454599
 20
156.836389
 30
0.0
  0
VERTEX
  8
CSLAYER1
  6
CONTINUOUS
 62
     7
 10
148.354003
 20
156.763657
 30
0.0
  0
VERTEX
  8
CSLAYER1
  6
CONTINUOUS
 62
     7
 10
148.258354
 20
156.679025
 30
0.0
  0
VERTEX
  8
CSLAYER1
  6
CONTINUOUS
 62
     7
 10
148.168379
 20
156.583136
 30
0.0
  0
VERTEX
  8
CSLAYER1
  6
CONTINUOUS
 62
     7
 10
148.084764
 20
156.476721
 30
0.0
  0
VERTEX
  8
CSLAYER1
  6
CONTINUOUS
 62
     7
 10
148.008145
 20
156.360589
 30
0.0
  0
VERTEX
  8
CSLAYER1
  6
CONTINUOUS
 62
     7
 10
147.939105
 20
156.235624
 30
0.0
  0
VERTEX
  8
CSLAYER1
  6
CONTINUOUS
 62
     7
 10
147.878170
 20
156.102778
 30
0.0
  0
VERTEX
  8
CSLAYER1
  6
CONTINUOUS
 62
     7
 10
147.825803
 20
155.963061
 30
0.0
  0
VERTEX
  8
CSLAYER1
  6
CONTINUOUS
 62
     7
 10
147.782403
 20
155.817536
 30
0.0
  0
VERTEX
  8
CSLAYER1
  6
CONTINUOUS
 62
     7
 10
147.748299
 20
155.667312
 30
0.0
  0
VERTEX
  8
CSLAYER1
  6
CONTINUOUS
 62
     7
 10
147.723753
 20
155.513531
 30
0.0
  0
VERTEX
  8
CSLAYER1
  6
CONTINUOUS
 62
     7
 10
147.708950
 20
155.357365
 30
0.0
  0
VERTEX
  8
CSLAYER1
  6
CONTINUOUS
 62
     7
 10
147.704003
 20
155.200000
 30
0.0
  0
VERTEX
  8
CSLAYER1
  6
CONTINUOUS
 62
     7
 10
147.708950
 20
155.042635
 30
0.0
  0
VERTEX
  8
CSLAYER1
  6
CONTINUOUS
 62
     7
 10
147.723753
 20
154.886469
 30
0.0
  0
VERTEX
  8
CSLAYER1
  6
CONTINUOUS
 62
     7
 10
147.748299
 20
154.732688
 30
0.0
  0
VERTEX
  8
CSLAYER1
  6
CONTINUOUS
 62
     7
 10
147.782403
 20
154.582464
 30
0.0
  0
VERTEX
  8
CSLAYER1
  6
CONTINUOUS
 62
     7
 10
147.825803
 20
154.436939
 30
0.0
  0
VERTEX
  8
CSLAYER1
  6
CONTINUOUS
 62
     7
 10
147.878170
 20
154.297222
 30
0.0
  0
VERTEX
  8
CSLAYER1
  6
CONTINUOUS
 62
     7
 10
147.939105
 20
154.164376
 30
0.0
  0
VERTEX
  8
CSLAYER1
  6
CONTINUOUS
 62
     7
 10
148.008145
 20
154.039411
 30
0.0
  0
VERTEX
  8
CSLAYER1
  6
CONTINUOUS
 62
     7
 10
148.084764
 20
153.923279
 30
0.0
  0
VERTEX
  8
CSLAYER1
  6
CONTINUOUS
 62
     7
 10
148.168379
 20
153.816864
 30
0.0
  0
VERTEX
  8
CSLAYER1
  6
CONTINUOUS
 62
     7
 10
148.258354
 20
153.720975
 30
0.0
  0
VERTEX
  8
CSLAYER1
  6
CONTINUOUS
 62
     7
 10
148.354003
 20
153.636343
 30
0.0
  0
VERTEX
  8
CSLAYER1
  6
CONTINUOUS
 62
     7
 10
148.454599
 20
153.563611
 30
0.0
  0
VERTEX
  8
CSLAYER1
  6
CONTINUOUS
 62
     7
 10
148.559377
 20
153.503333
 30
0.0
  0
VERTEX
  8
CSLAYER1
  6
CONTINUOUS
 62
     7
 10
148.667538
 20
153.455967
 30
0.0
  0
VERTEX
  8
CSLAYER1
  6
CONTINUOUS
 62
     7
 10
148.778260
 20
153.421875
 30
0.0
  0
VERTEX
  8
CSLAYER1
  6
CONTINUOUS
 62
     7
 10
148.890700
 20
153.401315
 30
0.0
  0
VERTEX
  8
CSLAYER1
  6
CONTINUOUS
 62
     7
 10
149.004003
 20
153.394444
 30
0.0
  0
SEQEND
  0
ARC
  8
CSLAYER1
  6
CONTINUOUS
 62
     3
 10
147.992892
 20
149.800000
 40
1.805556
 50
-70.999198
 51
70.999198
  0
LINE
  8
CSLAYER1
  6
CONTINUOUS
 62
     3
 10
148.027337
 20
148.608366
 11
149.381565
 21
150.953957
  0
POLYLINE
  8
CSLAYER1
  6
CONTINUOUS
 62
     7
 66
     1
 10
0.0
 20
0.0
 30
0.0
  0
VERTEX
  8
CSLAYER1
  6
CONTINUOUS
 62
     7
 10
149.004003
 20
147.994444
 30
0.0
  0
VERTEX
  8
CSLAYER1
  6
CONTINUOUS
 62
     7
 10
149.117305
 20
148.001315
 30
0.0
  0
VERTEX
  8
CSLAYER1
  6
CONTINUOUS
 62
     7
 10
149.229746
 20
148.021875
 30
0.0
  0
VERTEX
  8
CSLAYER1
  6
CONTINUOUS
 62
     7
 10
149.340468
 20
148.055967
 30
0.0
  0
VERTEX
  8
CSLAYER1
  6
CONTINUOUS
 62
     7
 10
149.448629
 20
148.103333
 30
0.0
  0
VERTEX
  8
CSLAYER1
  6
CONTINUOUS
 62
     7
 10
149.553407
 20
148.163611
 30
0.0
  0
VERTEX
  8
CSLAYER1
  6
CONTINUOUS
 62
     7
 10
149.654003
 20
148.236343
 30
0.0
  0
VERTEX
  8
CSLAYER1
  6
CONTINUOUS
 62
     7
 10
149.749652
 20
148.320975
 30
0.0
  0
VERTEX
  8
CSLAYER1
  6
CONTINUOUS
 62
     7
 10
149.839627
 20
148.416864
 30
0.0
  0
VERTEX
  8
CSLAYER1
  6
CONTINUOUS
 62
     7
 10
149.923242
 20
148.523279
 30
0.0
  0
VERTEX
  8
CSLAYER1
  6
CONTINUOUS
 62
     7
 10
149.999861
 20
148.639411
 30
0.0
  0
VERTEX
  8
CSLAYER1
  6
CONTINUOUS
 62
     7
 10
150.068901
 20
148.764376
 30
0.0
  0
VERTEX
  8
CSLAYER1
  6
CONTINUOUS
 62
     7
 10
150.129836
 20
148.897222
 30
0.0
  0
VERTEX
  8
CSLAYER1
  6
CONTINUOUS
 62
     7
 10
150.182203
 20
149.036939
 30
0.0
  0
VERTEX
  8
CSLAYER1
  6
CONTINUOUS
 62
     7
 10
150.225603
 20
149.182464
 30
0.0
  0
VERTEX
  8
CSLAYER1
  6
CONTINUOUS
 62
     7
 10
150.259706
 20
149.332688
 30
0.0
  0
VERTEX
  8
CSLAYER1
  6
CONTINUOUS
 62
     7
 10
150.284253
 20
149.486469
 30
0.0
  0
VERTEX
  8
CSLAYER1
  6
CONTINUOUS
 62
     7
 10
150.299056
 20
149.642635
 30
0.0
  0
VERTEX
  8
CSLAYER1
  6
CONTINUOUS
 62
     7
 10
150.304003
 20
149.800000
 30
0.0
  0
VERTEX
  8
CSLAYER1
  6
CONTINUOUS
 62
     7
 10
150.299056
 20
149.957365
 30
0.0
  0
VERTEX
  8
CSLAYER1
  6
CONTINUOUS
 62
     7
 10
150.284253
 20
150.113531
 30
0.0
  0
VERTEX
  8
CSLAYER1
  6
CONTINUOUS
 62
     7
 10
150.259706
 20
150.267312
 30
0.0
  0
VERTEX
  8
CSLAYER1
  6
CONTINUOUS
 62
     7
 10
150.225603
 20
150.417536
 30
0.0
  0
VERTEX
  8
CSLAYER1
  6
CONTINUOUS
 62
     7
 10
150.182203
 20
150.563061
 30
0.0
  0
VERTEX
  8
CSLAYER1
  6
CONTINUOUS
 62
     7
 10
150.129836
 20
150.702778
 30
0.0
  0
VERTEX
  8
CSLAYER1
  6
CONTINUOUS
 62
     7
 10
150.068901
 20
150.835624
 30
0.0
  0
VERTEX
  8
CSLAYER1
  6
CONTINUOUS
 62
     7
 10
149.999861
 20
150.960589
 30
0.0
  0
VERTEX
  8
CSLAYER1
  6
CONTINUOUS
 62
     7
 10
149.923242
 20
151.076721
 30
0.0
  0
VERTEX
  8
CSLAYER1
  6
CONTINUOUS
 62
     7
 10
149.839627
 20
151.183136
 30
0.0
  0
VERTEX
  8
CSLAYER1
  6
CONTINUOUS
 62
     7
 10
149.749652
 20
151.279025
 30
0.0
  0
VERTEX
  8
CSLAYER1
  6
CONTINUOUS
 62
     7
 10
149.654003
 20
151.363657
 30
0.0
  0
VERTEX
  8
CSLAYER1
  6
CONTINUOUS
 62
     7
 10
149.553407
 20
151.436389
 30
0.0
  0
VERTEX
  8
CSLAYER1
  6
CONTINUOUS
 62
     7
 10
149.448629
 20
151.496667
 30
0.0
  0
VERTEX
  8
CSLAYER1
  6
CONTINUOUS
 62
     7
 10
149.340468
 20
151.544033
 30
0.0
  0
VERTEX
  8
CSLAYER1
  6
CONTINUOUS
 62
     7
 10
149.229746
 20
151.578125
 30
0.0
  0
VERTEX
  8
CSLAYER1
  6
CONTINUOUS
 62
     7
 10
149.117305
 20
151.598685
 30
0.0
  0
VERTEX
  8
CSLAYER1
  6
CONTINUOUS
 62
     7
 10
149.004003
 20
151.605556
 30
0.0
  0
VERTEX
  8
CSLAYER1
  6
CONTINUOUS
 62
     7
 10
148.890700
 20
151.598685
 30
0.0
  0
VERTEX
  8
CSLAYER1
  6
CONTINUOUS
 62
     7
 10
148.778260
 20
151.578125
 30
0.0
  0
VERTEX
  8
CSLAYER1
  6
CONTINUOUS
 62
     7
 10
148.667538
 20
151.544033
 30
0.0
  0
VERTEX
  8
CSLAYER1
  6
CONTINUOUS
 62
     7
 10
148.559377
 20
151.496667
 30
0.0
  0
VERTEX
  8
CSLAYER1
  6
CONTINUOUS
 62
     7
 10
148.454599
 20
151.436389
 30
0.0
  0
VERTEX
  8
CSLAYER1
  6
CONTINUOUS
 62
     7
 10
148.354003
 20
151.363657
 30
0.0
  0
VERTEX
  8
CSLAYER1
  6
CONTINUOUS
 62
     7
 10
148.258354
 20
151.279025
 30
0.0
  0
VERTEX
  8
CSLAYER1
  6
CONTINUOUS
 62
     7
 10
148.168379
 20
151.183136
 30
0.0
  0
VERTEX
  8
CSLAYER1
  6
CONTINUOUS
 62
     7
 10
148.084764
 20
151.076721
 30
0.0
  0
VERTEX
  8
CSLAYER1
  6
CONTINUOUS
 62
     7
 10
148.008145
 20
150.960589
 30
0.0
  0
VERTEX
  8
CSLAYER1
  6
CONTINUOUS
 62
     7
 10
147.939105
 20
150.835624
 30
0.0
  0
VERTEX
  8
CSLAYER1
  6
CONTINUOUS
 62
     7
 10
147.878170
 20
150.702778
 30
0.0
  0
VERTEX
  8
CSLAYER1
  6
CONTINUOUS
 62
     7
 10
147.825803
 20
150.563061
 30
0.0
  0
VERTEX
  8
CSLAYER1
  6
CONTINUOUS
 62
     7
 10
147.782403
 20
150.417536
 30
0.0
  0
VERTEX
  8
CSLAYER1
  6
CONTINUOUS
 62
     7
 10
147.748299
 20
150.267312
 30
0.0
  0
VERTEX
  8
CSLAYER1
  6
CONTINUOUS
 62
     7
 10
147.723753
 20
150.113531
 30
0.0
  0
VERTEX
  8
CSLAYER1
  6
CONTINUOUS
 62
     7
 10
147.708950
 20
149.957365
 30
0.0
  0
VERTEX
  8
CSLAYER1
  6
CONTINUOUS
 62
     7
 10
147.704003
 20
149.800000
 30
0.0
  0
VERTEX
  8
CSLAYER1
  6
CONTINUOUS
 62
     7
 10
147.708950
 20
149.642635
 30
0.0
  0
VERTEX
  8
CSLAYER1
  6
CONTINUOUS
 62
     7
 10
147.723753
 20
149.486469
 30
0.0
  0
VERTEX
  8
CSLAYER1
  6
CONTINUOUS
 62
     7
 10
147.748299
 20
149.332688
 30
0.0
  0
VERTEX
  8
CSLAYER1
  6
CONTINUOUS
 62
     7
 10
147.782403
 20
149.182464
 30
0.0
  0
VERTEX
  8
CSLAYER1
  6
CONTINUOUS
 62
     7
 10
147.825803
 20
149.036939
 30
0.0
  0
VERTEX
  8
CSLAYER1
  6
CONTINUOUS
 62
     7
 10
147.878170
 20
148.897222
 30
0.0
  0
VERTEX
  8
CSLAYER1
  6
CONTINUOUS
 62
     7
 10
147.939105
 20
148.764376
 30
0.0
  0
VERTEX
  8
CSLAYER1
  6
CONTINUOUS
 62
     7
 10
148.008145
 20
148.639411
 30
0.0
  0
VERTEX
  8
CSLAYER1
  6
CONTINUOUS
 62
     7
 10
148.084764
 20
148.523279
 30
0.0
  0
VERTEX
  8
CSLAYER1
  6
CONTINUOUS
 62
     7
 10
148.168379
 20
148.416864
 30
0.0
  0
VERTEX
  8
CSLAYER1
  6
CONTINUOUS
 62
     7
 10
148.258354
 20
148.320975
 30
0.0
  0
VERTEX
  8
CSLAYER1
  6
CONTINUOUS
 62
     7
 10
148.354003
 20
148.236343
 30
0.0
  0
VERTEX
  8
CSLAYER1
  6
CONTINUOUS
 62
     7
 10
148.454599
 20
148.163611
 30
0.0
  0
VERTEX
  8
CSLAYER1
  6
CONTINUOUS
 62
     7
 10
148.559377
 20
148.103333
 30
0.0
  0
VERTEX
  8
CSLAYER1
  6
CONTINUOUS
 62
     7
 10
148.667538
 20
148.055967
 30
0.0
  0
VERTEX
  8
CSLAYER1
  6
CONTINUOUS
 62
     7
 10
148.778260
 20
148.021875
 30
0.0
  0
VERTEX
  8
CSLAYER1
  6
CONTINUOUS
 62
     7
 10
148.890700
 20
148.001315
 30
0.0
  0
VERTEX
  8
CSLAYER1
  6
CONTINUOUS
 62
     7
 10
149.004003
 20
147.994444
 30
0.0
  0
SEQEND
  0
ARC
  8
CSLAYER1
  6
CONTINUOUS
 62
     3
 10
147.992892
 20
144.400000
 40
1.805556
 50
-70.999198
 51
70.999198
  0
LINE
  8
CSLAYER1
  6
CONTINUOUS
 62
     3
 10
148.027337
 20
143.208366
 11
149.381565
 21
145.553957
  0
POLYLINE
  8
CSLAYER1
  6
CONTINUOUS
 62
     7
 66
     1
 10
0.0
 20
0.0
 30
0.0
  0
VERTEX
  8
CSLAYER1
  6
CONTINUOUS
 62
     7
 10
149.004003
 20
142.594444
 30
0.0
  0
VERTEX
  8
CSLAYER1
  6
CONTINUOUS
 62
     7
 10
149.117305
 20
142.601315
 30
0.0
  0
VERTEX
  8
CSLAYER1
  6
CONTINUOUS
 62
     7
 10
149.229746
 20
142.621875
 30
0.0
  0
VERTEX
  8
CSLAYER1
  6
CONTINUOUS
 62
     7
 10
149.340468
 20
142.655967
 30
0.0
  0
VERTEX
  8
CSLAYER1
  6
CONTINUOUS
 62
     7
 10
149.448629
 20
142.703333
 30
0.0
  0
VERTEX
  8
CSLAYER1
  6
CONTINUOUS
 62
     7
 10
149.553407
 20
142.763611
 30
0.0
  0
VERTEX
  8
CSLAYER1
  6
CONTINUOUS
 62
     7
 10
149.654003
 20
142.836343
 30
0.0
  0
VERTEX
  8
CSLAYER1
  6
CONTINUOUS
 62
     7
 10
149.749652
 20
142.920975
 30
0.0
  0
VERTEX
  8
CSLAYER1
  6
CONTINUOUS
 62
     7
 10
149.839627
 20
143.016864
 30
0.0
  0
VERTEX
  8
CSLAYER1
  6
CONTINUOUS
 62
     7
 10
149.923242
 20
143.123279
 30
0.0
  0
VERTEX
  8
CSLAYER1
  6
CONTINUOUS
 62
     7
 10
149.999861
 20
143.239411
 30
0.0
  0
VERTEX
  8
CSLAYER1
  6
CONTINUOUS
 62
     7
 10
150.068901
 20
143.364376
 30
0.0
  0
VERTEX
  8
CSLAYER1
  6
CONTINUOUS
 62
     7
 10
150.129836
 20
143.497222
 30
0.0
  0
VERTEX
  8
CSLAYER1
  6
CONTINUOUS
 62
     7
 10
150.182203
 20
143.636939
 30
0.0
  0
VERTEX
  8
CSLAYER1
  6
CONTINUOUS
 62
     7
 10
150.225603
 20
143.782464
 30
0.0
  0
VERTEX
  8
CSLAYER1
  6
CONTINUOUS
 62
     7
 10
150.259706
 20
143.932688
 30
0.0
  0
VERTEX
  8
CSLAYER1
  6
CONTINUOUS
 62
     7
 10
150.284253
 20
144.086469
 30
0.0
  0
VERTEX
  8
CSLAYER1
  6
CONTINUOUS
 62
     7
 10
150.299056
 20
144.242635
 30
0.0
  0
VERTEX
  8
CSLAYER1
  6
CONTINUOUS
 62
     7
 10
150.304003
 20
144.400000
 30
0.0
  0
VERTEX
  8
CSLAYER1
  6
CONTINUOUS
 62
     7
 10
150.299056
 20
144.557365
 30
0.0
  0
VERTEX
  8
CSLAYER1
  6
CONTINUOUS
 62
     7
 10
150.284253
 20
144.713531
 30
0.0
  0
VERTEX
  8
CSLAYER1
  6
CONTINUOUS
 62
     7
 10
150.259706
 20
144.867312
 30
0.0
  0
VERTEX
  8
CSLAYER1
  6
CONTINUOUS
 62
     7
 10
150.225603
 20
145.017536
 30
0.0
  0
VERTEX
  8
CSLAYER1
  6
CONTINUOUS
 62
     7
 10
150.182203
 20
145.163061
 30
0.0
  0
VERTEX
  8
CSLAYER1
  6
CONTINUOUS
 62
     7
 10
150.129836
 20
145.302778
 30
0.0
  0
VERTEX
  8
CSLAYER1
  6
CONTINUOUS
 62
     7
 10
150.068901
 20
145.435624
 30
0.0
  0
VERTEX
  8
CSLAYER1
  6
CONTINUOUS
 62
     7
 10
149.999861
 20
145.560589
 30
0.0
  0
VERTEX
  8
CSLAYER1
  6
CONTINUOUS
 62
     7
 10
149.923242
 20
145.676721
 30
0.0
  0
VERTEX
  8
CSLAYER1
  6
CONTINUOUS
 62
     7
 10
149.839627
 20
145.783136
 30
0.0
  0
VERTEX
  8
CSLAYER1
  6
CONTINUOUS
 62
     7
 10
149.749652
 20
145.879025
 30
0.0
  0
VERTEX
  8
CSLAYER1
  6
CONTINUOUS
 62
     7
 10
149.654003
 20
145.963657
 30
0.0
  0
VERTEX
  8
CSLAYER1
  6
CONTINUOUS
 62
     7
 10
149.553407
 20
146.036389
 30
0.0
  0
VERTEX
  8
CSLAYER1
  6
CONTINUOUS
 62
     7
 10
149.448629
 20
146.096667
 30
0.0
  0
VERTEX
  8
CSLAYER1
  6
CONTINUOUS
 62
     7
 10
149.340468
 20
146.144033
 30
0.0
  0
VERTEX
  8
CSLAYER1
  6
CONTINUOUS
 62
     7
 10
149.229746
 20
146.178125
 30
0.0
  0
VERTEX
  8
CSLAYER1
  6
CONTINUOUS
 62
     7
 10
149.117305
 20
146.198685
 30
0.0
  0
VERTEX
  8
CSLAYER1
  6
CONTINUOUS
 62
     7
 10
149.004003
 20
146.205556
 30
0.0
  0
VERTEX
  8
CSLAYER1
  6
CONTINUOUS
 62
     7
 10
148.890700
 20
146.198685
 30
0.0
  0
VERTEX
  8
CSLAYER1
  6
CONTINUOUS
 62
     7
 10
148.778260
 20
146.178125
 30
0.0
  0
VERTEX
  8
CSLAYER1
  6
CONTINUOUS
 62
     7
 10
148.667538
 20
146.144033
 30
0.0
  0
VERTEX
  8
CSLAYER1
  6
CONTINUOUS
 62
     7
 10
148.559377
 20
146.096667
 30
0.0
  0
VERTEX
  8
CSLAYER1
  6
CONTINUOUS
 62
     7
 10
148.454599
 20
146.036389
 30
0.0
  0
VERTEX
  8
CSLAYER1
  6
CONTINUOUS
 62
     7
 10
148.354003
 20
145.963657
 30
0.0
  0
VERTEX
  8
CSLAYER1
  6
CONTINUOUS
 62
     7
 10
148.258354
 20
145.879025
 30
0.0
  0
VERTEX
  8
CSLAYER1
  6
CONTINUOUS
 62
     7
 10
148.168379
 20
145.783136
 30
0.0
  0
VERTEX
  8
CSLAYER1
  6
CONTINUOUS
 62
     7
 10
148.084764
 20
145.676721
 30
0.0
  0
VERTEX
  8
CSLAYER1
  6
CONTINUOUS
 62
     7
 10
148.008145
 20
145.560589
 30
0.0
  0
VERTEX
  8
CSLAYER1
  6
CONTINUOUS
 62
     7
 10
147.939105
 20
145.435624
 30
0.0
  0
VERTEX
  8
CSLAYER1
  6
CONTINUOUS
 62
     7
 10
147.878170
 20
145.302778
 30
0.0
  0
VERTEX
  8
CSLAYER1
  6
CONTINUOUS
 62
     7
 10
147.825803
 20
145.163061
 30
0.0
  0
VERTEX
  8
CSLAYER1
  6
CONTINUOUS
 62
     7
 10
147.782403
 20
145.017536
 30
0.0
  0
VERTEX
  8
CSLAYER1
  6
CONTINUOUS
 62
     7
 10
147.748299
 20
144.867312
 30
0.0
  0
VERTEX
  8
CSLAYER1
  6
CONTINUOUS
 62
     7
 10
147.723753
 20
144.713531
 30
0.0
  0
VERTEX
  8
CSLAYER1
  6
CONTINUOUS
 62
     7
 10
147.708950
 20
144.557365
 30
0.0
  0
VERTEX
  8
CSLAYER1
  6
CONTINUOUS
 62
     7
 10
147.704003
 20
144.400000
 30
0.0
  0
VERTEX
  8
CSLAYER1
  6
CONTINUOUS
 62
     7
 10
147.708950
 20
144.242635
 30
0.0
  0
VERTEX
  8
CSLAYER1
  6
CONTINUOUS
 62
     7
 10
147.723753
 20
144.086469
 30
0.0
  0
VERTEX
  8
CSLAYER1
  6
CONTINUOUS
 62
     7
 10
147.748299
 20
143.932688
 30
0.0
  0
VERTEX
  8
CSLAYER1
  6
CONTINUOUS
 62
     7
 10
147.782403
 20
143.782464
 30
0.0
  0
VERTEX
  8
CSLAYER1
  6
CONTINUOUS
 62
     7
 10
147.825803
 20
143.636939
 30
0.0
  0
VERTEX
  8
CSLAYER1
  6
CONTINUOUS
 62
     7
 10
147.878170
 20
143.497222
 30
0.0
  0
VERTEX
  8
CSLAYER1
  6
CONTINUOUS
 62
     7
 10
147.939105
 20
143.364376
 30
0.0
  0
VERTEX
  8
CSLAYER1
  6
CONTINUOUS
 62
     7
 10
148.008145
 20
143.239411
 30
0.0
  0
VERTEX
  8
CSLAYER1
  6
CONTINUOUS
 62
     7
 10
148.084764
 20
143.123279
 30
0.0
  0
VERTEX
  8
CSLAYER1
  6
CONTINUOUS
 62
     7
 10
148.168379
 20
143.016864
 30
0.0
  0
VERTEX
  8
CSLAYER1
  6
CONTINUOUS
 62
     7
 10
148.258354
 20
142.920975
 30
0.0
  0
VERTEX
  8
CSLAYER1
  6
CONTINUOUS
 62
     7
 10
148.354003
 20
142.836343
 30
0.0
  0
VERTEX
  8
CSLAYER1
  6
CONTINUOUS
 62
     7
 10
148.454599
 20
142.763611
 30
0.0
  0
VERTEX
  8
CSLAYER1
  6
CONTINUOUS
 62
     7
 10
148.559377
 20
142.703333
 30
0.0
  0
VERTEX
  8
CSLAYER1
  6
CONTINUOUS
 62
     7
 10
148.667538
 20
142.655967
 30
0.0
  0
VERTEX
  8
CSLAYER1
  6
CONTINUOUS
 62
     7
 10
148.778260
 20
142.621875
 30
0.0
  0
VERTEX
  8
CSLAYER1
  6
CONTINUOUS
 62
     7
 10
148.890700
 20
142.601315
 30
0.0
  0
VERTEX
  8
CSLAYER1
  6
CONTINUOUS
 62
     7
 10
149.004003
 20
142.594444
 30
0.0
  0
SEQEND
  0
ARC
  8
CSLAYER1
  6
CONTINUOUS
 62
     3
 10
147.992892
 20
139.000000
 40
1.805556
 50
-70.999198
 51
70.999198
  0
LINE
  8
CSLAYER1
  6
CONTINUOUS
 62
     3
 10
148.027337
 20
137.808366
 11
149.381565
 21
140.153957
  0
POLYLINE
  8
CSLAYER1
  6
CONTINUOUS
 62
     7
 66
     1
 10
0.0
 20
0.0
 30
0.0
  0
VERTEX
  8
CSLAYER1
  6
CONTINUOUS
 62
     7
 10
149.004003
 20
137.194444
 30
0.0
  0
VERTEX
  8
CSLAYER1
  6
CONTINUOUS
 62
     7
 10
149.117305
 20
137.201315
 30
0.0
  0
VERTEX
  8
CSLAYER1
  6
CONTINUOUS
 62
     7
 10
149.229746
 20
137.221875
 30
0.0
  0
VERTEX
  8
CSLAYER1
  6
CONTINUOUS
 62
     7
 10
149.340468
 20
137.255967
 30
0.0
  0
VERTEX
  8
CSLAYER1
  6
CONTINUOUS
 62
     7
 10
149.448629
 20
137.303333
 30
0.0
  0
VERTEX
  8
CSLAYER1
  6
CONTINUOUS
 62
     7
 10
149.553407
 20
137.363611
 30
0.0
  0
VERTEX
  8
CSLAYER1
  6
CONTINUOUS
 62
     7
 10
149.654003
 20
137.436343
 30
0.0
  0
VERTEX
  8
CSLAYER1
  6
CONTINUOUS
 62
     7
 10
149.749652
 20
137.520975
 30
0.0
  0
VERTEX
  8
CSLAYER1
  6
CONTINUOUS
 62
     7
 10
149.839627
 20
137.616864
 30
0.0
  0
VERTEX
  8
CSLAYER1
  6
CONTINUOUS
 62
     7
 10
149.923242
 20
137.723279
 30
0.0
  0
VERTEX
  8
CSLAYER1
  6
CONTINUOUS
 62
     7
 10
149.999861
 20
137.839411
 30
0.0
  0
VERTEX
  8
CSLAYER1
  6
CONTINUOUS
 62
     7
 10
150.068901
 20
137.964376
 30
0.0
  0
VERTEX
  8
CSLAYER1
  6
CONTINUOUS
 62
     7
 10
150.129836
 20
138.097222
 30
0.0
  0
VERTEX
  8
CSLAYER1
  6
CONTINUOUS
 62
     7
 10
150.182203
 20
138.236939
 30
0.0
  0
VERTEX
  8
CSLAYER1
  6
CONTINUOUS
 62
     7
 10
150.225603
 20
138.382464
 30
0.0
  0
VERTEX
  8
CSLAYER1
  6
CONTINUOUS
 62
     7
 10
150.259706
 20
138.532688
 30
0.0
  0
VERTEX
  8
CSLAYER1
  6
CONTINUOUS
 62
     7
 10
150.284253
 20
138.686469
 30
0.0
  0
VERTEX
  8
CSLAYER1
  6
CONTINUOUS
 62
     7
 10
150.299056
 20
138.842635
 30
0.0
  0
VERTEX
  8
CSLAYER1
  6
CONTINUOUS
 62
     7
 10
150.304003
 20
139.000000
 30
0.0
  0
VERTEX
  8
CSLAYER1
  6
CONTINUOUS
 62
     7
 10
150.299056
 20
139.157365
 30
0.0
  0
VERTEX
  8
CSLAYER1
  6
CONTINUOUS
 62
     7
 10
150.284253
 20
139.313531
 30
0.0
  0
VERTEX
  8
CSLAYER1
  6
CONTINUOUS
 62
     7
 10
150.259706
 20
139.467312
 30
0.0
  0
VERTEX
  8
CSLAYER1
  6
CONTINUOUS
 62
     7
 10
150.225603
 20
139.617536
 30
0.0
  0
VERTEX
  8
CSLAYER1
  6
CONTINUOUS
 62
     7
 10
150.182203
 20
139.763061
 30
0.0
  0
VERTEX
  8
CSLAYER1
  6
CONTINUOUS
 62
     7
 10
150.129836
 20
139.902778
 30
0.0
  0
VERTEX
  8
CSLAYER1
  6
CONTINUOUS
 62
     7
 10
150.068901
 20
140.035624
 30
0.0
  0
VERTEX
  8
CSLAYER1
  6
CONTINUOUS
 62
     7
 10
149.999861
 20
140.160589
 30
0.0
  0
VERTEX
  8
CSLAYER1
  6
CONTINUOUS
 62
     7
 10
149.923242
 20
140.276721
 30
0.0
  0
VERTEX
  8
CSLAYER1
  6
CONTINUOUS
 62
     7
 10
149.839627
 20
140.383136
 30
0.0
  0
VERTEX
  8
CSLAYER1
  6
CONTINUOUS
 62
     7
 10
149.749652
 20
140.479025
 30
0.0
  0
VERTEX
  8
CSLAYER1
  6
CONTINUOUS
 62
     7
 10
149.654003
 20
140.563657
 30
0.0
  0
VERTEX
  8
CSLAYER1
  6
CONTINUOUS
 62
     7
 10
149.553407
 20
140.636389
 30
0.0
  0
VERTEX
  8
CSLAYER1
  6
CONTINUOUS
 62
     7
 10
149.448629
 20
140.696667
 30
0.0
  0
VERTEX
  8
CSLAYER1
  6
CONTINUOUS
 62
     7
 10
149.340468
 20
140.744033
 30
0.0
  0
VERTEX
  8
CSLAYER1
  6
CONTINUOUS
 62
     7
 10
149.229746
 20
140.778125
 30
0.0
  0
VERTEX
  8
CSLAYER1
  6
CONTINUOUS
 62
     7
 10
149.117305
 20
140.798685
 30
0.0
  0
VERTEX
  8
CSLAYER1
  6
CONTINUOUS
 62
     7
 10
149.004003
 20
140.805556
 30
0.0
  0
VERTEX
  8
CSLAYER1
  6
CONTINUOUS
 62
     7
 10
148.890700
 20
140.798685
 30
0.0
  0
VERTEX
  8
CSLAYER1
  6
CONTINUOUS
 62
     7
 10
148.778260
 20
140.778125
 30
0.0
  0
VERTEX
  8
CSLAYER1
  6
CONTINUOUS
 62
     7
 10
148.667538
 20
140.744033
 30
0.0
  0
VERTEX
  8
CSLAYER1
  6
CONTINUOUS
 62
     7
 10
148.559377
 20
140.696667
 30
0.0
  0
VERTEX
  8
CSLAYER1
  6
CONTINUOUS
 62
     7
 10
148.454599
 20
140.636389
 30
0.0
  0
VERTEX
  8
CSLAYER1
  6
CONTINUOUS
 62
     7
 10
148.354003
 20
140.563657
 30
0.0
  0
VERTEX
  8
CSLAYER1
  6
CONTINUOUS
 62
     7
 10
148.258354
 20
140.479025
 30
0.0
  0
VERTEX
  8
CSLAYER1
  6
CONTINUOUS
 62
     7
 10
148.168379
 20
140.383136
 30
0.0
  0
VERTEX
  8
CSLAYER1
  6
CONTINUOUS
 62
     7
 10
148.084764
 20
140.276721
 30
0.0
  0
VERTEX
  8
CSLAYER1
  6
CONTINUOUS
 62
     7
 10
148.008145
 20
140.160589
 30
0.0
  0
VERTEX
  8
CSLAYER1
  6
CONTINUOUS
 62
     7
 10
147.939105
 20
140.035624
 30
0.0
  0
VERTEX
  8
CSLAYER1
  6
CONTINUOUS
 62
     7
 10
147.878170
 20
139.902778
 30
0.0
  0
VERTEX
  8
CSLAYER1
  6
CONTINUOUS
 62
     7
 10
147.825803
 20
139.763061
 30
0.0
  0
VERTEX
  8
CSLAYER1
  6
CONTINUOUS
 62
     7
 10
147.782403
 20
139.617536
 30
0.0
  0
VERTEX
  8
CSLAYER1
  6
CONTINUOUS
 62
     7
 10
147.748299
 20
139.467312
 30
0.0
  0
VERTEX
  8
CSLAYER1
  6
CONTINUOUS
 62
     7
 10
147.723753
 20
139.313531
 30
0.0
  0
VERTEX
  8
CSLAYER1
  6
CONTINUOUS
 62
     7
 10
147.708950
 20
139.157365
 30
0.0
  0
VERTEX
  8
CSLAYER1
  6
CONTINUOUS
 62
     7
 10
147.704003
 20
139.000000
 30
0.0
  0
VERTEX
  8
CSLAYER1
  6
CONTINUOUS
 62
     7
 10
147.708950
 20
138.842635
 30
0.0
  0
VERTEX
  8
CSLAYER1
  6
CONTINUOUS
 62
     7
 10
147.723753
 20
138.686469
 30
0.0
  0
VERTEX
  8
CSLAYER1
  6
CONTINUOUS
 62
     7
 10
147.748299
 20
138.532688
 30
0.0
  0
VERTEX
  8
CSLAYER1
  6
CONTINUOUS
 62
     7
 10
147.782403
 20
138.382464
 30
0.0
  0
VERTEX
  8
CSLAYER1
  6
CONTINUOUS
 62
     7
 10
147.825803
 20
138.236939
 30
0.0
  0
VERTEX
  8
CSLAYER1
  6
CONTINUOUS
 62
     7
 10
147.878170
 20
138.097222
 30
0.0
  0
VERTEX
  8
CSLAYER1
  6
CONTINUOUS
 62
     7
 10
147.939105
 20
137.964376
 30
0.0
  0
VERTEX
  8
CSLAYER1
  6
CONTINUOUS
 62
     7
 10
148.008145
 20
137.839411
 30
0.0
  0
VERTEX
  8
CSLAYER1
  6
CONTINUOUS
 62
     7
 10
148.084764
 20
137.723279
 30
0.0
  0
VERTEX
  8
CSLAYER1
  6
CONTINUOUS
 62
     7
 10
148.168379
 20
137.616864
 30
0.0
  0
VERTEX
  8
CSLAYER1
  6
CONTINUOUS
 62
     7
 10
148.258354
 20
137.520975
 30
0.0
  0
VERTEX
  8
CSLAYER1
  6
CONTINUOUS
 62
     7
 10
148.354003
 20
137.436343
 30
0.0
  0
VERTEX
  8
CSLAYER1
  6
CONTINUOUS
 62
     7
 10
148.454599
 20
137.363611
 30
0.0
  0
VERTEX
  8
CSLAYER1
  6
CONTINUOUS
 62
     7
 10
148.559377
 20
137.303333
 30
0.0
  0
VERTEX
  8
CSLAYER1
  6
CONTINUOUS
 62
     7
 10
148.667538
 20
137.255967
 30
0.0
  0
VERTEX
  8
CSLAYER1
  6
CONTINUOUS
 62
     7
 10
148.778260
 20
137.221875
 30
0.0
  0
VERTEX
  8
CSLAYER1
  6
CONTINUOUS
 62
     7
 10
148.890700
 20
137.201315
 30
0.0
  0
VERTEX
  8
CSLAYER1
  6
CONTINUOUS
 62
     7
 10
149.004003
 20
137.194444
 30
0.0
  0
SEQEND
  0
ARC
  8
CSLAYER1
  6
CONTINUOUS
 62
     3
 10
147.992892
 20
133.600000
 40
1.805556
 50
-70.999198
 51
70.999198
  0
LINE
  8
CSLAYER1
  6
CONTINUOUS
 62
     3
 10
148.027337
 20
132.408366
 11
149.381565
 21
134.753957
  0
POLYLINE
  8
CSLAYER1
  6
CONTINUOUS
 62
     7
 66
     1
 10
0.0
 20
0.0
 30
0.0
  0
VERTEX
  8
CSLAYER1
  6
CONTINUOUS
 62
     7
 10
149.004003
 20
131.794444
 30
0.0
  0
VERTEX
  8
CSLAYER1
  6
CONTINUOUS
 62
     7
 10
149.117305
 20
131.801315
 30
0.0
  0
VERTEX
  8
CSLAYER1
  6
CONTINUOUS
 62
     7
 10
149.229746
 20
131.821875
 30
0.0
  0
VERTEX
  8
CSLAYER1
  6
CONTINUOUS
 62
     7
 10
149.340468
 20
131.855967
 30
0.0
  0
VERTEX
  8
CSLAYER1
  6
CONTINUOUS
 62
     7
 10
149.448629
 20
131.903333
 30
0.0
  0
VERTEX
  8
CSLAYER1
  6
CONTINUOUS
 62
     7
 10
149.553407
 20
131.963611
 30
0.0
  0
VERTEX
  8
CSLAYER1
  6
CONTINUOUS
 62
     7
 10
149.654003
 20
132.036343
 30
0.0
  0
VERTEX
  8
CSLAYER1
  6
CONTINUOUS
 62
     7
 10
149.749652
 20
132.120975
 30
0.0
  0
VERTEX
  8
CSLAYER1
  6
CONTINUOUS
 62
     7
 10
149.839627
 20
132.216864
 30
0.0
  0
VERTEX
  8
CSLAYER1
  6
CONTINUOUS
 62
     7
 10
149.923242
 20
132.323279
 30
0.0
  0
VERTEX
  8
CSLAYER1
  6
CONTINUOUS
 62
     7
 10
149.999861
 20
132.439411
 30
0.0
  0
VERTEX
  8
CSLAYER1
  6
CONTINUOUS
 62
     7
 10
150.068901
 20
132.564376
 30
0.0
  0
VERTEX
  8
CSLAYER1
  6
CONTINUOUS
 62
     7
 10
150.129836
 20
132.697222
 30
0.0
  0
VERTEX
  8
CSLAYER1
  6
CONTINUOUS
 62
     7
 10
150.182203
 20
132.836939
 30
0.0
  0
VERTEX
  8
CSLAYER1
  6
CONTINUOUS
 62
     7
 10
150.225603
 20
132.982464
 30
0.0
  0
VERTEX
  8
CSLAYER1
  6
CONTINUOUS
 62
     7
 10
150.259706
 20
133.132688
 30
0.0
  0
VERTEX
  8
CSLAYER1
  6
CONTINUOUS
 62
     7
 10
150.284253
 20
133.286469
 30
0.0
  0
VERTEX
  8
CSLAYER1
  6
CONTINUOUS
 62
     7
 10
150.299056
 20
133.442635
 30
0.0
  0
VERTEX
  8
CSLAYER1
  6
CONTINUOUS
 62
     7
 10
150.304003
 20
133.600000
 30
0.0
  0
VERTEX
  8
CSLAYER1
  6
CONTINUOUS
 62
     7
 10
150.299056
 20
133.757365
 30
0.0
  0
VERTEX
  8
CSLAYER1
  6
CONTINUOUS
 62
     7
 10
150.284253
 20
133.913531
 30
0.0
  0
VERTEX
  8
CSLAYER1
  6
CONTINUOUS
 62
     7
 10
150.259706
 20
134.067312
 30
0.0
  0
VERTEX
  8
CSLAYER1
  6
CONTINUOUS
 62
     7
 10
150.225603
 20
134.217536
 30
0.0
  0
VERTEX
  8
CSLAYER1
  6
CONTINUOUS
 62
     7
 10
150.182203
 20
134.363061
 30
0.0
  0
VERTEX
  8
CSLAYER1
  6
CONTINUOUS
 62
     7
 10
150.129836
 20
134.502778
 30
0.0
  0
VERTEX
  8
CSLAYER1
  6
CONTINUOUS
 62
     7
 10
150.068901
 20
134.635624
 30
0.0
  0
VERTEX
  8
CSLAYER1
  6
CONTINUOUS
 62
     7
 10
149.999861
 20
134.760589
 30
0.0
  0
VERTEX
  8
CSLAYER1
  6
CONTINUOUS
 62
     7
 10
149.923242
 20
134.876721
 30
0.0
  0
VERTEX
  8
CSLAYER1
  6
CONTINUOUS
 62
     7
 10
149.839627
 20
134.983136
 30
0.0
  0
VERTEX
  8
CSLAYER1
  6
CONTINUOUS
 62
     7
 10
149.749652
 20
135.079025
 30
0.0
  0
VERTEX
  8
CSLAYER1
  6
CONTINUOUS
 62
     7
 10
149.654003
 20
135.163657
 30
0.0
  0
VERTEX
  8
CSLAYER1
  6
CONTINUOUS
 62
     7
 10
149.553407
 20
135.236389
 30
0.0
  0
VERTEX
  8
CSLAYER1
  6
CONTINUOUS
 62
     7
 10
149.448629
 20
135.296667
 30
0.0
  0
VERTEX
  8
CSLAYER1
  6
CONTINUOUS
 62
     7
 10
149.340468
 20
135.344033
 30
0.0
  0
VERTEX
  8
CSLAYER1
  6
CONTINUOUS
 62
     7
 10
149.229746
 20
135.378125
 30
0.0
  0
VERTEX
  8
CSLAYER1
  6
CONTINUOUS
 62
     7
 10
149.117305
 20
135.398685
 30
0.0
  0
VERTEX
  8
CSLAYER1
  6
CONTINUOUS
 62
     7
 10
149.004003
 20
135.405556
 30
0.0
  0
VERTEX
  8
CSLAYER1
  6
CONTINUOUS
 62
     7
 10
148.890700
 20
135.398685
 30
0.0
  0
VERTEX
  8
CSLAYER1
  6
CONTINUOUS
 62
     7
 10
148.778260
 20
135.378125
 30
0.0
  0
VERTEX
  8
CSLAYER1
  6
CONTINUOUS
 62
     7
 10
148.667538
 20
135.344033
 30
0.0
  0
VERTEX
  8
CSLAYER1
  6
CONTINUOUS
 62
     7
 10
148.559377
 20
135.296667
 30
0.0
  0
VERTEX
  8
CSLAYER1
  6
CONTINUOUS
 62
     7
 10
148.454599
 20
135.236389
 30
0.0
  0
VERTEX
  8
CSLAYER1
  6
CONTINUOUS
 62
     7
 10
148.354003
 20
135.163657
 30
0.0
  0
VERTEX
  8
CSLAYER1
  6
CONTINUOUS
 62
     7
 10
148.258354
 20
135.079025
 30
0.0
  0
VERTEX
  8
CSLAYER1
  6
CONTINUOUS
 62
     7
 10
148.168379
 20
134.983136
 30
0.0
  0
VERTEX
  8
CSLAYER1
  6
CONTINUOUS
 62
     7
 10
148.084764
 20
134.876721
 30
0.0
  0
VERTEX
  8
CSLAYER1
  6
CONTINUOUS
 62
     7
 10
148.008145
 20
134.760589
 30
0.0
  0
VERTEX
  8
CSLAYER1
  6
CONTINUOUS
 62
     7
 10
147.939105
 20
134.635624
 30
0.0
  0
VERTEX
  8
CSLAYER1
  6
CONTINUOUS
 62
     7
 10
147.878170
 20
134.502778
 30
0.0
  0
VERTEX
  8
CSLAYER1
  6
CONTINUOUS
 62
     7
 10
147.825803
 20
134.363061
 30
0.0
  0
VERTEX
  8
CSLAYER1
  6
CONTINUOUS
 62
     7
 10
147.782403
 20
134.217536
 30
0.0
  0
VERTEX
  8
CSLAYER1
  6
CONTINUOUS
 62
     7
 10
147.748299
 20
134.067312
 30
0.0
  0
VERTEX
  8
CSLAYER1
  6
CONTINUOUS
 62
     7
 10
147.723753
 20
133.913531
 30
0.0
  0
VERTEX
  8
CSLAYER1
  6
CONTINUOUS
 62
     7
 10
147.708950
 20
133.757365
 30
0.0
  0
VERTEX
  8
CSLAYER1
  6
CONTINUOUS
 62
     7
 10
147.704003
 20
133.600000
 30
0.0
  0
VERTEX
  8
CSLAYER1
  6
CONTINUOUS
 62
     7
 10
147.708950
 20
133.442635
 30
0.0
  0
VERTEX
  8
CSLAYER1
  6
CONTINUOUS
 62
     7
 10
147.723753
 20
133.286469
 30
0.0
  0
VERTEX
  8
CSLAYER1
  6
CONTINUOUS
 62
     7
 10
147.748299
 20
133.132688
 30
0.0
  0
VERTEX
  8
CSLAYER1
  6
CONTINUOUS
 62
     7
 10
147.782403
 20
132.982464
 30
0.0
  0
VERTEX
  8
CSLAYER1
  6
CONTINUOUS
 62
     7
 10
147.825803
 20
132.836939
 30
0.0
  0
VERTEX
  8
CSLAYER1
  6
CONTINUOUS
 62
     7
 10
147.878170
 20
132.697222
 30
0.0
  0
VERTEX
  8
CSLAYER1
  6
CONTINUOUS
 62
     7
 10
147.939105
 20
132.564376
 30
0.0
  0
VERTEX
  8
CSLAYER1
  6
CONTINUOUS
 62
     7
 10
148.008145
 20
132.439411
 30
0.0
  0
VERTEX
  8
CSLAYER1
  6
CONTINUOUS
 62
     7
 10
148.084764
 20
132.323279
 30
0.0
  0
VERTEX
  8
CSLAYER1
  6
CONTINUOUS
 62
     7
 10
148.168379
 20
132.216864
 30
0.0
  0
VERTEX
  8
CSLAYER1
  6
CONTINUOUS
 62
     7
 10
148.258354
 20
132.120975
 30
0.0
  0
VERTEX
  8
CSLAYER1
  6
CONTINUOUS
 62
     7
 10
148.354003
 20
132.036343
 30
0.0
  0
VERTEX
  8
CSLAYER1
  6
CONTINUOUS
 62
     7
 10
148.454599
 20
131.963611
 30
0.0
  0
VERTEX
  8
CSLAYER1
  6
CONTINUOUS
 62
     7
 10
148.559377
 20
131.903333
 30
0.0
  0
VERTEX
  8
CSLAYER1
  6
CONTINUOUS
 62
     7
 10
148.667538
 20
131.855967
 30
0.0
  0
VERTEX
  8
CSLAYER1
  6
CONTINUOUS
 62
     7
 10
148.778260
 20
131.821875
 30
0.0
  0
VERTEX
  8
CSLAYER1
  6
CONTINUOUS
 62
     7
 10
148.890700
 20
131.801315
 30
0.0
  0
VERTEX
  8
CSLAYER1
  6
CONTINUOUS
 62
     7
 10
149.004003
 20
131.794444
 30
0.0
  0
SEQEND
  0
ARC
  8
CSLAYER1
  6
CONTINUOUS
 62
     3
 10
147.992892
 20
128.200000
 40
1.805556
 50
-70.999198
 51
70.999198
  0
LINE
  8
CSLAYER1
  6
CONTINUOUS
 62
     3
 10
148.027337
 20
127.008366
 11
149.381565
 21
129.353957
  0
POLYLINE
  8
CSLAYER1
  6
CONTINUOUS
 62
     7
 66
     1
 10
0.0
 20
0.0
 30
0.0
  0
VERTEX
  8
CSLAYER1
  6
CONTINUOUS
 62
     7
 10
149.004003
 20
126.394444
 30
0.0
  0
VERTEX
  8
CSLAYER1
  6
CONTINUOUS
 62
     7
 10
149.117305
 20
126.401315
 30
0.0
  0
VERTEX
  8
CSLAYER1
  6
CONTINUOUS
 62
     7
 10
149.229746
 20
126.421875
 30
0.0
  0
VERTEX
  8
CSLAYER1
  6
CONTINUOUS
 62
     7
 10
149.340468
 20
126.455967
 30
0.0
  0
VERTEX
  8
CSLAYER1
  6
CONTINUOUS
 62
     7
 10
149.448629
 20
126.503333
 30
0.0
  0
VERTEX
  8
CSLAYER1
  6
CONTINUOUS
 62
     7
 10
149.553407
 20
126.563611
 30
0.0
  0
VERTEX
  8
CSLAYER1
  6
CONTINUOUS
 62
     7
 10
149.654003
 20
126.636343
 30
0.0
  0
VERTEX
  8
CSLAYER1
  6
CONTINUOUS
 62
     7
 10
149.749652
 20
126.720975
 30
0.0
  0
VERTEX
  8
CSLAYER1
  6
CONTINUOUS
 62
     7
 10
149.839627
 20
126.816864
 30
0.0
  0
VERTEX
  8
CSLAYER1
  6
CONTINUOUS
 62
     7
 10
149.923242
 20
126.923279
 30
0.0
  0
VERTEX
  8
CSLAYER1
  6
CONTINUOUS
 62
     7
 10
149.999861
 20
127.039411
 30
0.0
  0
VERTEX
  8
CSLAYER1
  6
CONTINUOUS
 62
     7
 10
150.068901
 20
127.164376
 30
0.0
  0
VERTEX
  8
CSLAYER1
  6
CONTINUOUS
 62
     7
 10
150.129836
 20
127.297222
 30
0.0
  0
VERTEX
  8
CSLAYER1
  6
CONTINUOUS
 62
     7
 10
150.182203
 20
127.436939
 30
0.0
  0
VERTEX
  8
CSLAYER1
  6
CONTINUOUS
 62
     7
 10
150.225603
 20
127.582464
 30
0.0
  0
VERTEX
  8
CSLAYER1
  6
CONTINUOUS
 62
     7
 10
150.259706
 20
127.732688
 30
0.0
  0
VERTEX
  8
CSLAYER1
  6
CONTINUOUS
 62
     7
 10
150.284253
 20
127.886469
 30
0.0
  0
VERTEX
  8
CSLAYER1
  6
CONTINUOUS
 62
     7
 10
150.299056
 20
128.042635
 30
0.0
  0
VERTEX
  8
CSLAYER1
  6
CONTINUOUS
 62
     7
 10
150.304003
 20
128.200000
 30
0.0
  0
VERTEX
  8
CSLAYER1
  6
CONTINUOUS
 62
     7
 10
150.299056
 20
128.357365
 30
0.0
  0
VERTEX
  8
CSLAYER1
  6
CONTINUOUS
 62
     7
 10
150.284253
 20
128.513531
 30
0.0
  0
VERTEX
  8
CSLAYER1
  6
CONTINUOUS
 62
     7
 10
150.259706
 20
128.667312
 30
0.0
  0
VERTEX
  8
CSLAYER1
  6
CONTINUOUS
 62
     7
 10
150.225603
 20
128.817536
 30
0.0
  0
VERTEX
  8
CSLAYER1
  6
CONTINUOUS
 62
     7
 10
150.182203
 20
128.963061
 30
0.0
  0
VERTEX
  8
CSLAYER1
  6
CONTINUOUS
 62
     7
 10
150.129836
 20
129.102778
 30
0.0
  0
VERTEX
  8
CSLAYER1
  6
CONTINUOUS
 62
     7
 10
150.068901
 20
129.235624
 30
0.0
  0
VERTEX
  8
CSLAYER1
  6
CONTINUOUS
 62
     7
 10
149.999861
 20
129.360589
 30
0.0
  0
VERTEX
  8
CSLAYER1
  6
CONTINUOUS
 62
     7
 10
149.923242
 20
129.476721
 30
0.0
  0
VERTEX
  8
CSLAYER1
  6
CONTINUOUS
 62
     7
 10
149.839627
 20
129.583136
 30
0.0
  0
VERTEX
  8
CSLAYER1
  6
CONTINUOUS
 62
     7
 10
149.749652
 20
129.679025
 30
0.0
  0
VERTEX
  8
CSLAYER1
  6
CONTINUOUS
 62
     7
 10
149.654003
 20
129.763657
 30
0.0
  0
VERTEX
  8
CSLAYER1
  6
CONTINUOUS
 62
     7
 10
149.553407
 20
129.836389
 30
0.0
  0
VERTEX
  8
CSLAYER1
  6
CONTINUOUS
 62
     7
 10
149.448629
 20
129.896667
 30
0.0
  0
VERTEX
  8
CSLAYER1
  6
CONTINUOUS
 62
     7
 10
149.340468
 20
129.944033
 30
0.0
  0
VERTEX
  8
CSLAYER1
  6
CONTINUOUS
 62
     7
 10
149.229746
 20
129.978125
 30
0.0
  0
VERTEX
  8
CSLAYER1
  6
CONTINUOUS
 62
     7
 10
149.117305
 20
129.998685
 30
0.0
  0
VERTEX
  8
CSLAYER1
  6
CONTINUOUS
 62
     7
 10
149.004003
 20
130.005556
 30
0.0
  0
VERTEX
  8
CSLAYER1
  6
CONTINUOUS
 62
     7
 10
148.890700
 20
129.998685
 30
0.0
  0
VERTEX
  8
CSLAYER1
  6
CONTINUOUS
 62
     7
 10
148.778260
 20
129.978125
 30
0.0
  0
VERTEX
  8
CSLAYER1
  6
CONTINUOUS
 62
     7
 10
148.667538
 20
129.944033
 30
0.0
  0
VERTEX
  8
CSLAYER1
  6
CONTINUOUS
 62
     7
 10
148.559377
 20
129.896667
 30
0.0
  0
VERTEX
  8
CSLAYER1
  6
CONTINUOUS
 62
     7
 10
148.454599
 20
129.836389
 30
0.0
  0
VERTEX
  8
CSLAYER1
  6
CONTINUOUS
 62
     7
 10
148.354003
 20
129.763657
 30
0.0
  0
VERTEX
  8
CSLAYER1
  6
CONTINUOUS
 62
     7
 10
148.258354
 20
129.679025
 30
0.0
  0
VERTEX
  8
CSLAYER1
  6
CONTINUOUS
 62
     7
 10
148.168379
 20
129.583136
 30
0.0
  0
VERTEX
  8
CSLAYER1
  6
CONTINUOUS
 62
     7
 10
148.084764
 20
129.476721
 30
0.0
  0
VERTEX
  8
CSLAYER1
  6
CONTINUOUS
 62
     7
 10
148.008145
 20
129.360589
 30
0.0
  0
VERTEX
  8
CSLAYER1
  6
CONTINUOUS
 62
     7
 10
147.939105
 20
129.235624
 30
0.0
  0
VERTEX
  8
CSLAYER1
  6
CONTINUOUS
 62
     7
 10
147.878170
 20
129.102778
 30
0.0
  0
VERTEX
  8
CSLAYER1
  6
CONTINUOUS
 62
     7
 10
147.825803
 20
128.963061
 30
0.0
  0
VERTEX
  8
CSLAYER1
  6
CONTINUOUS
 62
     7
 10
147.782403
 20
128.817536
 30
0.0
  0
VERTEX
  8
CSLAYER1
  6
CONTINUOUS
 62
     7
 10
147.748299
 20
128.667312
 30
0.0
  0
VERTEX
  8
CSLAYER1
  6
CONTINUOUS
 62
     7
 10
147.723753
 20
128.513531
 30
0.0
  0
VERTEX
  8
CSLAYER1
  6
CONTINUOUS
 62
     7
 10
147.708950
 20
128.357365
 30
0.0
  0
VERTEX
  8
CSLAYER1
  6
CONTINUOUS
 62
     7
 10
147.704003
 20
128.200000
 30
0.0
  0
VERTEX
  8
CSLAYER1
  6
CONTINUOUS
 62
     7
 10
147.708950
 20
128.042635
 30
0.0
  0
VERTEX
  8
CSLAYER1
  6
CONTINUOUS
 62
     7
 10
147.723753
 20
127.886469
 30
0.0
  0
VERTEX
  8
CSLAYER1
  6
CONTINUOUS
 62
     7
 10
147.748299
 20
127.732688
 30
0.0
  0
VERTEX
  8
CSLAYER1
  6
CONTINUOUS
 62
     7
 10
147.782403
 20
127.582464
 30
0.0
  0
VERTEX
  8
CSLAYER1
  6
CONTINUOUS
 62
     7
 10
147.825803
 20
127.436939
 30
0.0
  0
VERTEX
  8
CSLAYER1
  6
CONTINUOUS
 62
     7
 10
147.878170
 20
127.297222
 30
0.0
  0
VERTEX
  8
CSLAYER1
  6
CONTINUOUS
 62
     7
 10
147.939105
 20
127.164376
 30
0.0
  0
VERTEX
  8
CSLAYER1
  6
CONTINUOUS
 62
     7
 10
148.008145
 20
127.039411
 30
0.0
  0
VERTEX
  8
CSLAYER1
  6
CONTINUOUS
 62
     7
 10
148.084764
 20
126.923279
 30
0.0
  0
VERTEX
  8
CSLAYER1
  6
CONTINUOUS
 62
     7
 10
148.168379
 20
126.816864
 30
0.0
  0
VERTEX
  8
CSLAYER1
  6
CONTINUOUS
 62
     7
 10
148.258354
 20
126.720975
 30
0.0
  0
VERTEX
  8
CSLAYER1
  6
CONTINUOUS
 62
     7
 10
148.354003
 20
126.636343
 30
0.0
  0
VERTEX
  8
CSLAYER1
  6
CONTINUOUS
 62
     7
 10
148.454599
 20
126.563611
 30
0.0
  0
VERTEX
  8
CSLAYER1
  6
CONTINUOUS
 62
     7
 10
148.559377
 20
126.503333
 30
0.0
  0
VERTEX
  8
CSLAYER1
  6
CONTINUOUS
 62
     7
 10
148.667538
 20
126.455967
 30
0.0
  0
VERTEX
  8
CSLAYER1
  6
CONTINUOUS
 62
     7
 10
148.778260
 20
126.421875
 30
0.0
  0
VERTEX
  8
CSLAYER1
  6
CONTINUOUS
 62
     7
 10
148.890700
 20
126.401315
 30
0.0
  0
VERTEX
  8
CSLAYER1
  6
CONTINUOUS
 62
     7
 10
149.004003
 20
126.394444
 30
0.0
  0
SEQEND
  0
LINE
  8
CSLAYER1
  6
PHANTOM
 62
     3
 10
221.500000
 20
223.500000
 11
221.500000
 21
278.500000
  0
LINE
  8
CSLAYER1
  6
PHANTOM
 62
     3
 10
223.084000
 20
223.500000
 11
223.084000
 21
278.500000
  0
LINE
  8
CSLAYER1
  6
PHANTOM
 62
     3
 10
223.084000
 20
278.500000
 11
221.500000
 21
278.500000
  0
LINE
  8
CSLAYER1
  6
CONTINUOUS
 62
     6
 10
222.292000
 20
278.500000
 11
233.500000
 21
278.500000
  0
LINE
  8
CSLAYER1
  6
CONTINUOUS
 62
     6
 10
222.292000
 20
223.500000
 11
222.292000
 21
278.500000
  0
LINE
  8
CSLAYER1
  6
CONTINUOUS
 62
     6
 10
222.292000
 20
277.100000
 11
233.500000
 21
277.100000
  0
LINE
  8
CSLAYER1
  6
CONTINUOUS
 62
     6
 10
222.292000
 20
267.780000
 11
233.500000
 21
267.780000
  0
LINE
  8
CSLAYER1
  6
CONTINUOUS
 62
     6
 10
222.292000
 20
266.380000
 11
233.500000
 21
266.380000
  0
LINE
  8
CSLAYER1
  6
CONTINUOUS
 62
     3
 10
228.628000
 20
277.100000
 11
228.628000
 21
267.780000
  0
LINE
  8
CSLAYER1
  6
CONTINUOUS
 62
     3
 10
227.836000
 20
277.100000
 11
227.836000
 21
267.780000
  0
LINE
  8
CSLAYER1
  6
CONTINUOUS
 62
     3
 10
226.991200
 20
269.060697
 11
226.991200
 21
275.819303
  0
ARC
  8
CSLAYER1
  6
CONTINUOUS
 62
     6
 10
233.025696
 20
272.440000
 40
8.448294
 50
163.742994
 51
196.257016
  0
LINE
  8
CSLAYER1
  6
CONTINUOUS
 62
     6
 10
226.728738
 20
275.736008
 11
225.968607
 21
275.669508
  0
ARC
  8
CSLAYER1
  6
CONTINUOUS
 62
     6
 10
226.073798
 20
274.467195
 40
1.206899
 50
95.000111
 51
163.742611
  0
ARC
  8
CSLAYER1
  6
CONTINUOUS
 62
     3
 10
226.749806
 20
275.495553
 40
0.241380
 50
0.000000
 51
95.000152
  0
LINE
  8
CSLAYER1
  6
CONTINUOUS
 62
     3
 10
227.111861
 20
275.940000
 11
227.715310
 21
275.940000
  0
ARC
  8
CSLAYER1
  6
CONTINUOUS
 62
     3
 10
227.111861
 20
275.819303
 40
0.120690
 50
90.000003
 51
180.000005
  0
ARC
  8
CSLAYER1
  6
CONTINUOUS
 62
     3
 10
227.715310
 20
275.819303
 40
0.120690
 50
0.000000
 51
90.000003
  0
LINE
  8
CSLAYER1
  6
CONTINUOUS
 62
     6
 10
226.728738
 20
269.143992
 11
225.968607
 21
269.210492
  0
ARC
  8
CSLAYER1
  6
CONTINUOUS
 62
     6
 10
226.073798
 20
270.412805
 40
1.206899
 50
196.257399
 51
264.999892
  0
ARC
  8
CSLAYER1
  6
CONTINUOUS
 62
     3
 10
226.749806
 20
269.384447
 40
0.241380
 50
264.999865
 51
359.942691
  0
ARC
  8
CSLAYER1
  6
CONTINUOUS
 62
     3
 10
227.111861
 20
269.060697
 40
0.120690
 50
180.000005
 51
270.000001
  0
LINE
  8
CSLAYER1
  6
CONTINUOUS
 62
     3
 10
227.111861
 20
268.940000
 11
227.715310
 21
268.940000
  0
ARC
  8
CSLAYER1
  6
CONTINUOUS
 62
     3
 10
227.715310
 20
269.060697
 40
0.120690
 50
270.000001
 51
359.942691
  0
LINE
  8
CSLAYER1
  6
CONTINUOUS
 62
     3
 10
226.991200
 20
271.720770
 11
227.836007
 21
272.256468
  0
LINE
  8
CSLAYER1
  6
CONTINUOUS
 62
     3
 10
226.991200
 20
272.324220
 11
227.836007
 21
272.859917
  0
LINE
  8
CSLAYER1
  6
PHANTOM
 62
     3
 10
223.084000
 20
223.500000
 11
221.500000
 21
223.500000
  0
LINE
  8
CSLAYER1
  6
CONTINUOUS
 62
     6
 10
221.500000
 20
125.500000
 11
221.500000
 21
179.500000
  0
LINE
  8
CSLAYER1
  6
CONTINUOUS
 62
     6
 10
221.500000
 20
179.500000
 11
233.500000
 21
179.500000
  0
LINE
  8
CSLAYER1
  6
CONTINUOUS
 62
     6
 10
221.500000
 20
125.500000
 11
233.500000
 21
125.500000
  0
LINE
  8
CSLAYER1
  6
CONTINUOUS
 62
     3
 10
221.500000
 20
174.100000
 11
233.500000
 21
174.100000
  0
LINE
  8
CSLAYER1
  6
CONTINUOUS
 62
     3
 10
221.500000
 20
168.700000
 11
233.500000
 21
168.700000
  0
LINE
  8
CSLAYER1
  6
CONTINUOUS
 62
     3
 10
221.500000
 20
163.300000
 11
233.500000
 21
163.300000
  0
LINE
  8
CSLAYER1
  6
CONTINUOUS
 62
     3
 10
221.500000
 20
147.100000
 11
233.500000
 21
147.100000
  0
LINE
  8
CSLAYER1
  6
CONTINUOUS
 62
     3
 10
221.500000
 20
152.500000
 11
233.500000
 21
152.500000
  0
LINE
  8
CSLAYER1
  6
CONTINUOUS
 62
     3
 10
221.500000
 20
157.900000
 11
233.500000
 21
157.900000
  0
LINE
  8
CSLAYER1
  6
CONTINUOUS
 62
     3
 10
221.500000
 20
141.700000
 11
233.500000
 21
141.700000
  0
LINE
  8
CSLAYER1
  6
CONTINUOUS
 62
     3
 10
221.500000
 20
136.300000
 11
233.500000
 21
136.300000
  0
LINE
  8
CSLAYER1
  6
CONTINUOUS
 62
     3
 10
221.500000
 20
130.900000
 11
233.500000
 21
130.900000
  0
LINE
  8
CSLAYER1
  6
CONTINUOUS
 62
     3
 10
231.000000
 20
179.500000
 11
231.000000
 21
125.500000
  0
LINE
  8
CSLAYER1
  6
CONTINUOUS
 62
     3
 10
226.669873
 20
125.500000
 11
226.669873
 21
179.500000
  0
ARC
  8
CSLAYER1
  6
CONTINUOUS
 62
     3
 10
225.096048
 20
176.800000
 40
1.805556
 50
109.000802
 51
250.999198
  0
LINE
  8
CSLAYER1
  6
CONTINUOUS
 62
     3
 10
225.061602
 20
177.991634
 11
223.707374
 21
175.646043
  0
POLYLINE
  8
CSLAYER1
  6
CONTINUOUS
 62
     7
 66
     1
 10
0.0
 20
0.0
 30
0.0
  0
VERTEX
  8
CSLAYER1
  6
CONTINUOUS
 62
     7
 10
224.084936
 20
178.605556
 30
0.0
  0
VERTEX
  8
CSLAYER1
  6
CONTINUOUS
 62
     7
 10
223.971634
 20
178.598685
 30
0.0
  0
VERTEX
  8
CSLAYER1
  6
CONTINUOUS
 62
     7
 10
223.859194
 20
178.578125
 30
0.0
  0
VERTEX
  8
CSLAYER1
  6
CONTINUOUS
 62
     7
 10
223.748472
 20
178.544033
 30
0.0
  0
VERTEX
  8
CSLAYER1
  6
CONTINUOUS
 62
     7
 10
223.640310
 20
178.496667
 30
0.0
  0
VERTEX
  8
CSLAYER1
  6
CONTINUOUS
 62
     7
 10
223.535533
 20
178.436389
 30
0.0
  0
VERTEX
  8
CSLAYER1
  6
CONTINUOUS
 62
     7
 10
223.434936
 20
178.363657
 30
0.0
  0
VERTEX
  8
CSLAYER1
  6
CONTINUOUS
 62
     7
 10
223.339287
 20
178.279025
 30
0.0
  0
VERTEX
  8
CSLAYER1
  6
CONTINUOUS
 62
     7
 10
223.249313
 20
178.183136
 30
0.0
  0
VERTEX
  8
CSLAYER1
  6
CONTINUOUS
 62
     7
 10
223.165698
 20
178.076721
 30
0.0
  0
VERTEX
  8
CSLAYER1
  6
CONTINUOUS
 62
     7
 10
223.089079
 20
177.960589
 30
0.0
  0
VERTEX
  8
CSLAYER1
  6
CONTINUOUS
 62
     7
 10
223.020039
 20
177.835624
 30
0.0
  0
VERTEX
  8
CSLAYER1
  6
CONTINUOUS
 62
     7
 10
222.959103
 20
177.702778
 30
0.0
  0
VERTEX
  8
CSLAYER1
  6
CONTINUOUS
 62
     7
 10
222.906736
 20
177.563061
 30
0.0
  0
VERTEX
  8
CSLAYER1
  6
CONTINUOUS
 62
     7
 10
222.863336
 20
177.417536
 30
0.0
  0
VERTEX
  8
CSLAYER1
  6
CONTINUOUS
 62
     7
 10
222.829233
 20
177.267312
 30
0.0
  0
VERTEX
  8
CSLAYER1
  6
CONTINUOUS
 62
     7
 10
222.804686
 20
177.113531
 30
0.0
  0
VERTEX
  8
CSLAYER1
  6
CONTINUOUS
 62
     7
 10
222.789883
 20
176.957365
 30
0.0
  0
VERTEX
  8
CSLAYER1
  6
CONTINUOUS
 62
     7
 10
222.784936
 20
176.800000
 30
0.0
  0
VERTEX
  8
CSLAYER1
  6
CONTINUOUS
 62
     7
 10
222.789883
 20
176.642635
 30
0.0
  0
VERTEX
  8
CSLAYER1
  6
CONTINUOUS
 62
     7
 10
222.804686
 20
176.486469
 30
0.0
  0
VERTEX
  8
CSLAYER1
  6
CONTINUOUS
 62
     7
 10
222.829233
 20
176.332688
 30
0.0
  0
VERTEX
  8
CSLAYER1
  6
CONTINUOUS
 62
     7
 10
222.863336
 20
176.182464
 30
0.0
  0
VERTEX
  8
CSLAYER1
  6
CONTINUOUS
 62
     7
 10
222.906736
 20
176.036939
 30
0.0
  0
VERTEX
  8
CSLAYER1
  6
CONTINUOUS
 62
     7
 10
222.959103
 20
175.897222
 30
0.0
  0
VERTEX
  8
CSLAYER1
  6
CONTINUOUS
 62
     7
 10
223.020039
 20
175.764376
 30
0.0
  0
VERTEX
  8
CSLAYER1
  6
CONTINUOUS
 62
     7
 10
223.089079
 20
175.639411
 30
0.0
  0
VERTEX
  8
CSLAYER1
  6
CONTINUOUS
 62
     7
 10
223.165698
 20
175.523279
 30
0.0
  0
VERTEX
  8
CSLAYER1
  6
CONTINUOUS
 62
     7
 10
223.249313
 20
175.416864
 30
0.0
  0
VERTEX
  8
CSLAYER1
  6
CONTINUOUS
 62
     7
 10
223.339287
 20
175.320975
 30
0.0
  0
VERTEX
  8
CSLAYER1
  6
CONTINUOUS
 62
     7
 10
223.434936
 20
175.236343
 30
0.0
  0
VERTEX
  8
CSLAYER1
  6
CONTINUOUS
 62
     7
 10
223.535533
 20
175.163611
 30
0.0
  0
VERTEX
  8
CSLAYER1
  6
CONTINUOUS
 62
     7
 10
223.640310
 20
175.103333
 30
0.0
  0
VERTEX
  8
CSLAYER1
  6
CONTINUOUS
 62
     7
 10
223.748472
 20
175.055967
 30
0.0
  0
VERTEX
  8
CSLAYER1
  6
CONTINUOUS
 62
     7
 10
223.859194
 20
175.021875
 30
0.0
  0
VERTEX
  8
CSLAYER1
  6
CONTINUOUS
 62
     7
 10
223.971634
 20
175.001315
 30
0.0
  0
VERTEX
  8
CSLAYER1
  6
CONTINUOUS
 62
     7
 10
224.084936
 20
174.994444
 30
0.0
  0
VERTEX
  8
CSLAYER1
  6
CONTINUOUS
 62
     7
 10
224.198239
 20
175.001315
 30
0.0
  0
VERTEX
  8
CSLAYER1
  6
CONTINUOUS
 62
     7
 10
224.310679
 20
175.021875
 30
0.0
  0
VERTEX
  8
CSLAYER1
  6
CONTINUOUS
 62
     7
 10
224.421401
 20
175.055967
 30
0.0
  0
VERTEX
  8
CSLAYER1
  6
CONTINUOUS
 62
     7
 10
224.529563
 20
175.103333
 30
0.0
  0
VERTEX
  8
CSLAYER1
  6
CONTINUOUS
 62
     7
 10
224.634340
 20
175.163611
 30
0.0
  0
VERTEX
  8
CSLAYER1
  6
CONTINUOUS
 62
     7
 10
224.734936
 20
175.236343
 30
0.0
  0
VERTEX
  8
CSLAYER1
  6
CONTINUOUS
 62
     7
 10
224.830586
 20
175.320975
 30
0.0
  0
VERTEX
  8
CSLAYER1
  6
CONTINUOUS
 62
     7
 10
224.920560
 20
175.416864
 30
0.0
  0
VERTEX
  8
CSLAYER1
  6
CONTINUOUS
 62
     7
 10
225.004175
 20
175.523279
 30
0.0
  0
VERTEX
  8
CSLAYER1
  6
CONTINUOUS
 62
     7
 10
225.080794
 20
175.639411
 30
0.0
  0
VERTEX
  8
CSLAYER1
  6
CONTINUOUS
 62
     7
 10
225.149834
 20
175.764376
 30
0.0
  0
VERTEX
  8
CSLAYER1
  6
CONTINUOUS
 62
     7
 10
225.210770
 20
175.897222
 30
0.0
  0
VERTEX
  8
CSLAYER1
  6
CONTINUOUS
 62
     7
 10
225.263137
 20
176.036939
 30
0.0
  0
VERTEX
  8
CSLAYER1
  6
CONTINUOUS
 62
     7
 10
225.306537
 20
176.182464
 30
0.0
  0
VERTEX
  8
CSLAYER1
  6
CONTINUOUS
 62
     7
 10
225.340640
 20
176.332688
 30
0.0
  0
VERTEX
  8
CSLAYER1
  6
CONTINUOUS
 62
     7
 10
225.365187
 20
176.486469
 30
0.0
  0
VERTEX
  8
CSLAYER1
  6
CONTINUOUS
 62
     7
 10
225.379990
 20
176.642635
 30
0.0
  0
VERTEX
  8
CSLAYER1
  6
CONTINUOUS
 62
     7
 10
225.384936
 20
176.800000
 30
0.0
  0
VERTEX
  8
CSLAYER1
  6
CONTINUOUS
 62
     7
 10
225.379990
 20
176.957365
 30
0.0
  0
VERTEX
  8
CSLAYER1
  6
CONTINUOUS
 62
     7
 10
225.365187
 20
177.113531
 30
0.0
  0
VERTEX
  8
CSLAYER1
  6
CONTINUOUS
 62
     7
 10
225.340640
 20
177.267312
 30
0.0
  0
VERTEX
  8
CSLAYER1
  6
CONTINUOUS
 62
     7
 10
225.306537
 20
177.417536
 30
0.0
  0
VERTEX
  8
CSLAYER1
  6
CONTINUOUS
 62
     7
 10
225.263137
 20
177.563061
 30
0.0
  0
VERTEX
  8
CSLAYER1
  6
CONTINUOUS
 62
     7
 10
225.210770
 20
177.702778
 30
0.0
  0
VERTEX
  8
CSLAYER1
  6
CONTINUOUS
 62
     7
 10
225.149834
 20
177.835624
 30
0.0
  0
VERTEX
  8
CSLAYER1
  6
CONTINUOUS
 62
     7
 10
225.080794
 20
177.960589
 30
0.0
  0
VERTEX
  8
CSLAYER1
  6
CONTINUOUS
 62
     7
 10
225.004175
 20
178.076721
 30
0.0
  0
VERTEX
  8
CSLAYER1
  6
CONTINUOUS
 62
     7
 10
224.920560
 20
178.183136
 30
0.0
  0
VERTEX
  8
CSLAYER1
  6
CONTINUOUS
 62
     7
 10
224.830586
 20
178.279025
 30
0.0
  0
VERTEX
  8
CSLAYER1
  6
CONTINUOUS
 62
     7
 10
224.734936
 20
178.363657
 30
0.0
  0
VERTEX
  8
CSLAYER1
  6
CONTINUOUS
 62
     7
 10
224.634340
 20
178.436389
 30
0.0
  0
VERTEX
  8
CSLAYER1
  6
CONTINUOUS
 62
     7
 10
224.529563
 20
178.496667
 30
0.0
  0
VERTEX
  8
CSLAYER1
  6
CONTINUOUS
 62
     7
 10
224.421401
 20
178.544033
 30
0.0
  0
VERTEX
  8
CSLAYER1
  6
CONTINUOUS
 62
     7
 10
224.310679
 20
178.578125
 30
0.0
  0
VERTEX
  8
CSLAYER1
  6
CONTINUOUS
 62
     7
 10
224.198239
 20
178.598685
 30
0.0
  0
VERTEX
  8
CSLAYER1
  6
CONTINUOUS
 62
     7
 10
224.084936
 20
178.605556
 30
0.0
  0
SEQEND
  0
ARC
  8
CSLAYER1
  6
CONTINUOUS
 62
     3
 10
225.011111
 20
171.600000
 40
1.805556
 50
109.000802
 51
250.999198
  0
POLYLINE
  8
CSLAYER1
  6
CONTINUOUS
 62
     7
 66
     1
 10
0.0
 20
0.0
 30
0.0
  0
VERTEX
  8
CSLAYER1
  6
CONTINUOUS
 62
     7
 10
224.000000
 20
173.405556
 30
0.0
  0
VERTEX
  8
CSLAYER1
  6
CONTINUOUS
 62
     7
 10
223.886698
 20
173.398685
 30
0.0
  0
VERTEX
  8
CSLAYER1
  6
CONTINUOUS
 62
     7
 10
223.774257
 20
173.378125
 30
0.0
  0
VERTEX
  8
CSLAYER1
  6
CONTINUOUS
 62
     7
 10
223.663535
 20
173.344033
 30
0.0
  0
VERTEX
  8
CSLAYER1
  6
CONTINUOUS
 62
     7
 10
223.555374
 20
173.296667
 30
0.0
  0
VERTEX
  8
CSLAYER1
  6
CONTINUOUS
 62
     7
 10
223.450596
 20
173.236389
 30
0.0
  0
VERTEX
  8
CSLAYER1
  6
CONTINUOUS
 62
     7
 10
223.350000
 20
173.163657
 30
0.0
  0
VERTEX
  8
CSLAYER1
  6
CONTINUOUS
 62
     7
 10
223.254351
 20
173.079025
 30
0.0
  0
VERTEX
  8
CSLAYER1
  6
CONTINUOUS
 62
     7
 10
223.164376
 20
172.983136
 30
0.0
  0
VERTEX
  8
CSLAYER1
  6
CONTINUOUS
 62
     7
 10
223.080761
 20
172.876721
 30
0.0
  0
VERTEX
  8
CSLAYER1
  6
CONTINUOUS
 62
     7
 10
223.004142
 20
172.760589
 30
0.0
  0
VERTEX
  8
CSLAYER1
  6
CONTINUOUS
 62
     7
 10
222.935102
 20
172.635624
 30
0.0
  0
VERTEX
  8
CSLAYER1
  6
CONTINUOUS
 62
     7
 10
222.874167
 20
172.502778
 30
0.0
  0
VERTEX
  8
CSLAYER1
  6
CONTINUOUS
 62
     7
 10
222.821800
 20
172.363061
 30
0.0
  0
VERTEX
  8
CSLAYER1
  6
CONTINUOUS
 62
     7
 10
222.778400
 20
172.217536
 30
0.0
  0
VERTEX
  8
CSLAYER1
  6
CONTINUOUS
 62
     7
 10
222.744296
 20
172.067312
 30
0.0
  0
VERTEX
  8
CSLAYER1
  6
CONTINUOUS
 62
     7
 10
222.719750
 20
171.913531
 30
0.0
  0
VERTEX
  8
CSLAYER1
  6
CONTINUOUS
 62
     7
 10
222.704947
 20
171.757365
 30
0.0
  0
VERTEX
  8
CSLAYER1
  6
CONTINUOUS
 62
     7
 10
222.700000
 20
171.600000
 30
0.0
  0
VERTEX
  8
CSLAYER1
  6
CONTINUOUS
 62
     7
 10
222.704947
 20
171.442635
 30
0.0
  0
VERTEX
  8
CSLAYER1
  6
CONTINUOUS
 62
     7
 10
222.719750
 20
171.286469
 30
0.0
  0
VERTEX
  8
CSLAYER1
  6
CONTINUOUS
 62
     7
 10
222.744296
 20
171.132688
 30
0.0
  0
VERTEX
  8
CSLAYER1
  6
CONTINUOUS
 62
     7
 10
222.778400
 20
170.982464
 30
0.0
  0
VERTEX
  8
CSLAYER1
  6
CONTINUOUS
 62
     7
 10
222.821800
 20
170.836939
 30
0.0
  0
VERTEX
  8
CSLAYER1
  6
CONTINUOUS
 62
     7
 10
222.874167
 20
170.697222
 30
0.0
  0
VERTEX
  8
CSLAYER1
  6
CONTINUOUS
 62
     7
 10
222.935102
 20
170.564376
 30
0.0
  0
VERTEX
  8
CSLAYER1
  6
CONTINUOUS
 62
     7
 10
223.004142
 20
170.439411
 30
0.0
  0
VERTEX
  8
CSLAYER1
  6
CONTINUOUS
 62
     7
 10
223.080761
 20
170.323279
 30
0.0
  0
VERTEX
  8
CSLAYER1
  6
CONTINUOUS
 62
     7
 10
223.164376
 20
170.216864
 30
0.0
  0
VERTEX
  8
CSLAYER1
  6
CONTINUOUS
 62
     7
 10
223.254351
 20
170.120975
 30
0.0
  0
VERTEX
  8
CSLAYER1
  6
CONTINUOUS
 62
     7
 10
223.350000
 20
170.036343
 30
0.0
  0
VERTEX
  8
CSLAYER1
  6
CONTINUOUS
 62
     7
 10
223.450596
 20
169.963611
 30
0.0
  0
VERTEX
  8
CSLAYER1
  6
CONTINUOUS
 62
     7
 10
223.555374
 20
169.903333
 30
0.0
  0
VERTEX
  8
CSLAYER1
  6
CONTINUOUS
 62
     7
 10
223.663535
 20
169.855967
 30
0.0
  0
VERTEX
  8
CSLAYER1
  6
CONTINUOUS
 62
     7
 10
223.774257
 20
169.821875
 30
0.0
  0
VERTEX
  8
CSLAYER1
  6
CONTINUOUS
 62
     7
 10
223.886698
 20
169.801315
 30
0.0
  0
VERTEX
  8
CSLAYER1
  6
CONTINUOUS
 62
     7
 10
224.000000
 20
169.794444
 30
0.0
  0
VERTEX
  8
CSLAYER1
  6
CONTINUOUS
 62
     7
 10
224.113302
 20
169.801315
 30
0.0
  0
VERTEX
  8
CSLAYER1
  6
CONTINUOUS
 62
     7
 10
224.225743
 20
169.821875
 30
0.0
  0
VERTEX
  8
CSLAYER1
  6
CONTINUOUS
 62
     7
 10
224.336465
 20
169.855967
 30
0.0
  0
VERTEX
  8
CSLAYER1
  6
CONTINUOUS
 62
     7
 10
224.444626
 20
169.903333
 30
0.0
  0
VERTEX
  8
CSLAYER1
  6
CONTINUOUS
 62
     7
 10
224.549404
 20
169.963611
 30
0.0
  0
VERTEX
  8
CSLAYER1
  6
CONTINUOUS
 62
     7
 10
224.650000
 20
170.036343
 30
0.0
  0
VERTEX
  8
CSLAYER1
  6
CONTINUOUS
 62
     7
 10
224.745649
 20
170.120975
 30
0.0
  0
VERTEX
  8
CSLAYER1
  6
CONTINUOUS
 62
     7
 10
224.835624
 20
170.216864
 30
0.0
  0
VERTEX
  8
CSLAYER1
  6
CONTINUOUS
 62
     7
 10
224.919239
 20
170.323279
 30
0.0
  0
VERTEX
  8
CSLAYER1
  6
CONTINUOUS
 62
     7
 10
224.995858
 20
170.439411
 30
0.0
  0
VERTEX
  8
CSLAYER1
  6
CONTINUOUS
 62
     7
 10
225.064898
 20
170.564376
 30
0.0
  0
VERTEX
  8
CSLAYER1
  6
CONTINUOUS
 62
     7
 10
225.125833
 20
170.697222
 30
0.0
  0
VERTEX
  8
CSLAYER1
  6
CONTINUOUS
 62
     7
 10
225.178200
 20
170.836939
 30
0.0
  0
VERTEX
  8
CSLAYER1
  6
CONTINUOUS
 62
     7
 10
225.221600
 20
170.982464
 30
0.0
  0
VERTEX
  8
CSLAYER1
  6
CONTINUOUS
 62
     7
 10
225.255704
 20
171.132688
 30
0.0
  0
VERTEX
  8
CSLAYER1
  6
CONTINUOUS
 62
     7
 10
225.280250
 20
171.286469
 30
0.0
  0
VERTEX
  8
CSLAYER1
  6
CONTINUOUS
 62
     7
 10
225.295053
 20
171.442635
 30
0.0
  0
VERTEX
  8
CSLAYER1
  6
CONTINUOUS
 62
     7
 10
225.300000
 20
171.600000
 30
0.0
  0
VERTEX
  8
CSLAYER1
  6
CONTINUOUS
 62
     7
 10
225.295053
 20
171.757365
 30
0.0
  0
VERTEX
  8
CSLAYER1
  6
CONTINUOUS
 62
     7
 10
225.280250
 20
171.913531
 30
0.0
  0
VERTEX
  8
CSLAYER1
  6
CONTINUOUS
 62
     7
 10
225.255704
 20
172.067312
 30
0.0
  0
VERTEX
  8
CSLAYER1
  6
CONTINUOUS
 62
     7
 10
225.221600
 20
172.217536
 30
0.0
  0
VERTEX
  8
CSLAYER1
  6
CONTINUOUS
 62
     7
 10
225.178200
 20
172.363061
 30
0.0
  0
VERTEX
  8
CSLAYER1
  6
CONTINUOUS
 62
     7
 10
225.125833
 20
172.502778
 30
0.0
  0
VERTEX
  8
CSLAYER1
  6
CONTINUOUS
 62
     7
 10
225.064898
 20
172.635624
 30
0.0
  0
VERTEX
  8
CSLAYER1
  6
CONTINUOUS
 62
     7
 10
224.995858
 20
172.760589
 30
0.0
  0
VERTEX
  8
CSLAYER1
  6
CONTINUOUS
 62
     7
 10
224.919239
 20
172.876721
 30
0.0
  0
VERTEX
  8
CSLAYER1
  6
CONTINUOUS
 62
     7
 10
224.835624
 20
172.983136
 30
0.0
  0
VERTEX
  8
CSLAYER1
  6
CONTINUOUS
 62
     7
 10
224.745649
 20
173.079025
 30
0.0
  0
VERTEX
  8
CSLAYER1
  6
CONTINUOUS
 62
     7
 10
224.650000
 20
173.163657
 30
0.0
  0
VERTEX
  8
CSLAYER1
  6
CONTINUOUS
 62
     7
 10
224.549404
 20
173.236389
 30
0.0
  0
VERTEX
  8
CSLAYER1
  6
CONTINUOUS
 62
     7
 10
224.444626
 20
173.296667
 30
0.0
  0
VERTEX
  8
CSLAYER1
  6
CONTINUOUS
 62
     7
 10
224.336465
 20
173.344033
 30
0.0
  0
VERTEX
  8
CSLAYER1
  6
CONTINUOUS
 62
     7
 10
224.225743
 20
173.378125
 30
0.0
  0
VERTEX
  8
CSLAYER1
  6
CONTINUOUS
 62
     7
 10
224.113302
 20
173.398685
 30
0.0
  0
VERTEX
  8
CSLAYER1
  6
CONTINUOUS
 62
     7
 10
224.000000
 20
173.405556
 30
0.0
  0
SEQEND
  0
ARC
  8
CSLAYER1
  6
CONTINUOUS
 62
     3
 10
225.011111
 20
166.200000
 40
1.805556
 50
109.000802
 51
250.999198
  0
POLYLINE
  8
CSLAYER1
  6
CONTINUOUS
 62
     7
 66
     1
 10
0.0
 20
0.0
 30
0.0
  0
VERTEX
  8
CSLAYER1
  6
CONTINUOUS
 62
     7
 10
224.000000
 20
168.005556
 30
0.0
  0
VERTEX
  8
CSLAYER1
  6
CONTINUOUS
 62
     7
 10
223.886698
 20
167.998685
 30
0.0
  0
VERTEX
  8
CSLAYER1
  6
CONTINUOUS
 62
     7
 10
223.774257
 20
167.978125
 30
0.0
  0
VERTEX
  8
CSLAYER1
  6
CONTINUOUS
 62
     7
 10
223.663535
 20
167.944033
 30
0.0
  0
VERTEX
  8
CSLAYER1
  6
CONTINUOUS
 62
     7
 10
223.555374
 20
167.896667
 30
0.0
  0
VERTEX
  8
CSLAYER1
  6
CONTINUOUS
 62
     7
 10
223.450596
 20
167.836389
 30
0.0
  0
VERTEX
  8
CSLAYER1
  6
CONTINUOUS
 62
     7
 10
223.350000
 20
167.763657
 30
0.0
  0
VERTEX
  8
CSLAYER1
  6
CONTINUOUS
 62
     7
 10
223.254351
 20
167.679025
 30
0.0
  0
VERTEX
  8
CSLAYER1
  6
CONTINUOUS
 62
     7
 10
223.164376
 20
167.583136
 30
0.0
  0
VERTEX
  8
CSLAYER1
  6
CONTINUOUS
 62
     7
 10
223.080761
 20
167.476721
 30
0.0
  0
VERTEX
  8
CSLAYER1
  6
CONTINUOUS
 62
     7
 10
223.004142
 20
167.360589
 30
0.0
  0
VERTEX
  8
CSLAYER1
  6
CONTINUOUS
 62
     7
 10
222.935102
 20
167.235624
 30
0.0
  0
VERTEX
  8
CSLAYER1
  6
CONTINUOUS
 62
     7
 10
222.874167
 20
167.102778
 30
0.0
  0
VERTEX
  8
CSLAYER1
  6
CONTINUOUS
 62
     7
 10
222.821800
 20
166.963061
 30
0.0
  0
VERTEX
  8
CSLAYER1
  6
CONTINUOUS
 62
     7
 10
222.778400
 20
166.817536
 30
0.0
  0
VERTEX
  8
CSLAYER1
  6
CONTINUOUS
 62
     7
 10
222.744296
 20
166.667312
 30
0.0
  0
VERTEX
  8
CSLAYER1
  6
CONTINUOUS
 62
     7
 10
222.719750
 20
166.513531
 30
0.0
  0
VERTEX
  8
CSLAYER1
  6
CONTINUOUS
 62
     7
 10
222.704947
 20
166.357365
 30
0.0
  0
VERTEX
  8
CSLAYER1
  6
CONTINUOUS
 62
     7
 10
222.700000
 20
166.200000
 30
0.0
  0
VERTEX
  8
CSLAYER1
  6
CONTINUOUS
 62
     7
 10
222.704947
 20
166.042635
 30
0.0
  0
VERTEX
  8
CSLAYER1
  6
CONTINUOUS
 62
     7
 10
222.719750
 20
165.886469
 30
0.0
  0
VERTEX
  8
CSLAYER1
  6
CONTINUOUS
 62
     7
 10
222.744296
 20
165.732688
 30
0.0
  0
VERTEX
  8
CSLAYER1
  6
CONTINUOUS
 62
     7
 10
222.778400
 20
165.582464
 30
0.0
  0
VERTEX
  8
CSLAYER1
  6
CONTINUOUS
 62
     7
 10
222.821800
 20
165.436939
 30
0.0
  0
VERTEX
  8
CSLAYER1
  6
CONTINUOUS
 62
     7
 10
222.874167
 20
165.297222
 30
0.0
  0
VERTEX
  8
CSLAYER1
  6
CONTINUOUS
 62
     7
 10
222.935102
 20
165.164376
 30
0.0
  0
VERTEX
  8
CSLAYER1
  6
CONTINUOUS
 62
     7
 10
223.004142
 20
165.039411
 30
0.0
  0
VERTEX
  8
CSLAYER1
  6
CONTINUOUS
 62
     7
 10
223.080761
 20
164.923279
 30
0.0
  0
VERTEX
  8
CSLAYER1
  6
CONTINUOUS
 62
     7
 10
223.164376
 20
164.816864
 30
0.0
  0
VERTEX
  8
CSLAYER1
  6
CONTINUOUS
 62
     7
 10
223.254351
 20
164.720975
 30
0.0
  0
VERTEX
  8
CSLAYER1
  6
CONTINUOUS
 62
     7
 10
223.350000
 20
164.636343
 30
0.0
  0
VERTEX
  8
CSLAYER1
  6
CONTINUOUS
 62
     7
 10
223.450596
 20
164.563611
 30
0.0
  0
VERTEX
  8
CSLAYER1
  6
CONTINUOUS
 62
     7
 10
223.555374
 20
164.503333
 30
0.0
  0
VERTEX
  8
CSLAYER1
  6
CONTINUOUS
 62
     7
 10
223.663535
 20
164.455967
 30
0.0
  0
VERTEX
  8
CSLAYER1
  6
CONTINUOUS
 62
     7
 10
223.774257
 20
164.421875
 30
0.0
  0
VERTEX
  8
CSLAYER1
  6
CONTINUOUS
 62
     7
 10
223.886698
 20
164.401315
 30
0.0
  0
VERTEX
  8
CSLAYER1
  6
CONTINUOUS
 62
     7
 10
224.000000
 20
164.394444
 30
0.0
  0
VERTEX
  8
CSLAYER1
  6
CONTINUOUS
 62
     7
 10
224.113302
 20
164.401315
 30
0.0
  0
VERTEX
  8
CSLAYER1
  6
CONTINUOUS
 62
     7
 10
224.225743
 20
164.421875
 30
0.0
  0
VERTEX
  8
CSLAYER1
  6
CONTINUOUS
 62
     7
 10
224.336465
 20
164.455967
 30
0.0
  0
VERTEX
  8
CSLAYER1
  6
CONTINUOUS
 62
     7
 10
224.444626
 20
164.503333
 30
0.0
  0
VERTEX
  8
CSLAYER1
  6
CONTINUOUS
 62
     7
 10
224.549404
 20
164.563611
 30
0.0
  0
VERTEX
  8
CSLAYER1
  6
CONTINUOUS
 62
     7
 10
224.650000
 20
164.636343
 30
0.0
  0
VERTEX
  8
CSLAYER1
  6
CONTINUOUS
 62
     7
 10
224.745649
 20
164.720975
 30
0.0
  0
VERTEX
  8
CSLAYER1
  6
CONTINUOUS
 62
     7
 10
224.835624
 20
164.816864
 30
0.0
  0
VERTEX
  8
CSLAYER1
  6
CONTINUOUS
 62
     7
 10
224.919239
 20
164.923279
 30
0.0
  0
VERTEX
  8
CSLAYER1
  6
CONTINUOUS
 62
     7
 10
224.995858
 20
165.039411
 30
0.0
  0
VERTEX
  8
CSLAYER1
  6
CONTINUOUS
 62
     7
 10
225.064898
 20
165.164376
 30
0.0
  0
VERTEX
  8
CSLAYER1
  6
CONTINUOUS
 62
     7
 10
225.125833
 20
165.297222
 30
0.0
  0
VERTEX
  8
CSLAYER1
  6
CONTINUOUS
 62
     7
 10
225.178200
 20
165.436939
 30
0.0
  0
VERTEX
  8
CSLAYER1
  6
CONTINUOUS
 62
     7
 10
225.221600
 20
165.582464
 30
0.0
  0
VERTEX
  8
CSLAYER1
  6
CONTINUOUS
 62
     7
 10
225.255704
 20
165.732688
 30
0.0
  0
VERTEX
  8
CSLAYER1
  6
CONTINUOUS
 62
     7
 10
225.280250
 20
165.886469
 30
0.0
  0
VERTEX
  8
CSLAYER1
  6
CONTINUOUS
 62
     7
 10
225.295053
 20
166.042635
 30
0.0
  0
VERTEX
  8
CSLAYER1
  6
CONTINUOUS
 62
     7
 10
225.300000
 20
166.200000
 30
0.0
  0
VERTEX
  8
CSLAYER1
  6
CONTINUOUS
 62
     7
 10
225.295053
 20
166.357365
 30
0.0
  0
VERTEX
  8
CSLAYER1
  6
CONTINUOUS
 62
     7
 10
225.280250
 20
166.513531
 30
0.0
  0
VERTEX
  8
CSLAYER1
  6
CONTINUOUS
 62
     7
 10
225.255704
 20
166.667312
 30
0.0
  0
VERTEX
  8
CSLAYER1
  6
CONTINUOUS
 62
     7
 10
225.221600
 20
166.817536
 30
0.0
  0
VERTEX
  8
CSLAYER1
  6
CONTINUOUS
 62
     7
 10
225.178200
 20
166.963061
 30
0.0
  0
VERTEX
  8
CSLAYER1
  6
CONTINUOUS
 62
     7
 10
225.125833
 20
167.102778
 30
0.0
  0
VERTEX
  8
CSLAYER1
  6
CONTINUOUS
 62
     7
 10
225.064898
 20
167.235624
 30
0.0
  0
VERTEX
  8
CSLAYER1
  6
CONTINUOUS
 62
     7
 10
224.995858
 20
167.360589
 30
0.0
  0
VERTEX
  8
CSLAYER1
  6
CONTINUOUS
 62
     7
 10
224.919239
 20
167.476721
 30
0.0
  0
VERTEX
  8
CSLAYER1
  6
CONTINUOUS
 62
     7
 10
224.835624
 20
167.583136
 30
0.0
  0
VERTEX
  8
CSLAYER1
  6
CONTINUOUS
 62
     7
 10
224.745649
 20
167.679025
 30
0.0
  0
VERTEX
  8
CSLAYER1
  6
CONTINUOUS
 62
     7
 10
224.650000
 20
167.763657
 30
0.0
  0
VERTEX
  8
CSLAYER1
  6
CONTINUOUS
 62
     7
 10
224.549404
 20
167.836389
 30
0.0
  0
VERTEX
  8
CSLAYER1
  6
CONTINUOUS
 62
     7
 10
224.444626
 20
167.896667
 30
0.0
  0
VERTEX
  8
CSLAYER1
  6
CONTINUOUS
 62
     7
 10
224.336465
 20
167.944033
 30
0.0
  0
VERTEX
  8
CSLAYER1
  6
CONTINUOUS
 62
     7
 10
224.225743
 20
167.978125
 30
0.0
  0
VERTEX
  8
CSLAYER1
  6
CONTINUOUS
 62
     7
 10
224.113302
 20
167.998685
 30
0.0
  0
VERTEX
  8
CSLAYER1
  6
CONTINUOUS
 62
     7
 10
224.000000
 20
168.005556
 30
0.0
  0
SEQEND
  0
ARC
  8
CSLAYER1
  6
CONTINUOUS
 62
     3
 10
225.011111
 20
160.800000
 40
1.805556
 50
109.000802
 51
250.999198
  0
POLYLINE
  8
CSLAYER1
  6
CONTINUOUS
 62
     7
 66
     1
 10
0.0
 20
0.0
 30
0.0
  0
VERTEX
  8
CSLAYER1
  6
CONTINUOUS
 62
     7
 10
224.000000
 20
162.605556
 30
0.0
  0
VERTEX
  8
CSLAYER1
  6
CONTINUOUS
 62
     7
 10
223.886698
 20
162.598685
 30
0.0
  0
VERTEX
  8
CSLAYER1
  6
CONTINUOUS
 62
     7
 10
223.774257
 20
162.578125
 30
0.0
  0
VERTEX
  8
CSLAYER1
  6
CONTINUOUS
 62
     7
 10
223.663535
 20
162.544033
 30
0.0
  0
VERTEX
  8
CSLAYER1
  6
CONTINUOUS
 62
     7
 10
223.555374
 20
162.496667
 30
0.0
  0
VERTEX
  8
CSLAYER1
  6
CONTINUOUS
 62
     7
 10
223.450596
 20
162.436389
 30
0.0
  0
VERTEX
  8
CSLAYER1
  6
CONTINUOUS
 62
     7
 10
223.350000
 20
162.363657
 30
0.0
  0
VERTEX
  8
CSLAYER1
  6
CONTINUOUS
 62
     7
 10
223.254351
 20
162.279025
 30
0.0
  0
VERTEX
  8
CSLAYER1
  6
CONTINUOUS
 62
     7
 10
223.164376
 20
162.183136
 30
0.0
  0
VERTEX
  8
CSLAYER1
  6
CONTINUOUS
 62
     7
 10
223.080761
 20
162.076721
 30
0.0
  0
VERTEX
  8
CSLAYER1
  6
CONTINUOUS
 62
     7
 10
223.004142
 20
161.960589
 30
0.0
  0
VERTEX
  8
CSLAYER1
  6
CONTINUOUS
 62
     7
 10
222.935102
 20
161.835624
 30
0.0
  0
VERTEX
  8
CSLAYER1
  6
CONTINUOUS
 62
     7
 10
222.874167
 20
161.702778
 30
0.0
  0
VERTEX
  8
CSLAYER1
  6
CONTINUOUS
 62
     7
 10
222.821800
 20
161.563061
 30
0.0
  0
VERTEX
  8
CSLAYER1
  6
CONTINUOUS
 62
     7
 10
222.778400
 20
161.417536
 30
0.0
  0
VERTEX
  8
CSLAYER1
  6
CONTINUOUS
 62
     7
 10
222.744296
 20
161.267312
 30
0.0
  0
VERTEX
  8
CSLAYER1
  6
CONTINUOUS
 62
     7
 10
222.719750
 20
161.113531
 30
0.0
  0
VERTEX
  8
CSLAYER1
  6
CONTINUOUS
 62
     7
 10
222.704947
 20
160.957365
 30
0.0
  0
VERTEX
  8
CSLAYER1
  6
CONTINUOUS
 62
     7
 10
222.700000
 20
160.800000
 30
0.0
  0
VERTEX
  8
CSLAYER1
  6
CONTINUOUS
 62
     7
 10
222.704947
 20
160.642635
 30
0.0
  0
VERTEX
  8
CSLAYER1
  6
CONTINUOUS
 62
     7
 10
222.719750
 20
160.486469
 30
0.0
  0
VERTEX
  8
CSLAYER1
  6
CONTINUOUS
 62
     7
 10
222.744296
 20
160.332688
 30
0.0
  0
VERTEX
  8
CSLAYER1
  6
CONTINUOUS
 62
     7
 10
222.778400
 20
160.182464
 30
0.0
  0
VERTEX
  8
CSLAYER1
  6
CONTINUOUS
 62
     7
 10
222.821800
 20
160.036939
 30
0.0
  0
VERTEX
  8
CSLAYER1
  6
CONTINUOUS
 62
     7
 10
222.874167
 20
159.897222
 30
0.0
  0
VERTEX
  8
CSLAYER1
  6
CONTINUOUS
 62
     7
 10
222.935102
 20
159.764376
 30
0.0
  0
VERTEX
  8
CSLAYER1
  6
CONTINUOUS
 62
     7
 10
223.004142
 20
159.639411
 30
0.0
  0
VERTEX
  8
CSLAYER1
  6
CONTINUOUS
 62
     7
 10
223.080761
 20
159.523279
 30
0.0
  0
VERTEX
  8
CSLAYER1
  6
CONTINUOUS
 62
     7
 10
223.164376
 20
159.416864
 30
0.0
  0
VERTEX
  8
CSLAYER1
  6
CONTINUOUS
 62
     7
 10
223.254351
 20
159.320975
 30
0.0
  0
VERTEX
  8
CSLAYER1
  6
CONTINUOUS
 62
     7
 10
223.350000
 20
159.236343
 30
0.0
  0
VERTEX
  8
CSLAYER1
  6
CONTINUOUS
 62
     7
 10
223.450596
 20
159.163611
 30
0.0
  0
VERTEX
  8
CSLAYER1
  6
CONTINUOUS
 62
     7
 10
223.555374
 20
159.103333
 30
0.0
  0
VERTEX
  8
CSLAYER1
  6
CONTINUOUS
 62
     7
 10
223.663535
 20
159.055967
 30
0.0
  0
VERTEX
  8
CSLAYER1
  6
CONTINUOUS
 62
     7
 10
223.774257
 20
159.021875
 30
0.0
  0
VERTEX
  8
CSLAYER1
  6
CONTINUOUS
 62
     7
 10
223.886698
 20
159.001315
 30
0.0
  0
VERTEX
  8
CSLAYER1
  6
CONTINUOUS
 62
     7
 10
224.000000
 20
158.994444
 30
0.0
  0
VERTEX
  8
CSLAYER1
  6
CONTINUOUS
 62
     7
 10
224.113302
 20
159.001315
 30
0.0
  0
VERTEX
  8
CSLAYER1
  6
CONTINUOUS
 62
     7
 10
224.225743
 20
159.021875
 30
0.0
  0
VERTEX
  8
CSLAYER1
  6
CONTINUOUS
 62
     7
 10
224.336465
 20
159.055967
 30
0.0
  0
VERTEX
  8
CSLAYER1
  6
CONTINUOUS
 62
     7
 10
224.444626
 20
159.103333
 30
0.0
  0
VERTEX
  8
CSLAYER1
  6
CONTINUOUS
 62
     7
 10
224.549404
 20
159.163611
 30
0.0
  0
VERTEX
  8
CSLAYER1
  6
CONTINUOUS
 62
     7
 10
224.650000
 20
159.236343
 30
0.0
  0
VERTEX
  8
CSLAYER1
  6
CONTINUOUS
 62
     7
 10
224.745649
 20
159.320975
 30
0.0
  0
VERTEX
  8
CSLAYER1
  6
CONTINUOUS
 62
     7
 10
224.835624
 20
159.416864
 30
0.0
  0
VERTEX
  8
CSLAYER1
  6
CONTINUOUS
 62
     7
 10
224.919239
 20
159.523279
 30
0.0
  0
VERTEX
  8
CSLAYER1
  6
CONTINUOUS
 62
     7
 10
224.995858
 20
159.639411
 30
0.0
  0
VERTEX
  8
CSLAYER1
  6
CONTINUOUS
 62
     7
 10
225.064898
 20
159.764376
 30
0.0
  0
VERTEX
  8
CSLAYER1
  6
CONTINUOUS
 62
     7
 10
225.125833
 20
159.897222
 30
0.0
  0
VERTEX
  8
CSLAYER1
  6
CONTINUOUS
 62
     7
 10
225.178200
 20
160.036939
 30
0.0
  0
VERTEX
  8
CSLAYER1
  6
CONTINUOUS
 62
     7
 10
225.221600
 20
160.182464
 30
0.0
  0
VERTEX
  8
CSLAYER1
  6
CONTINUOUS
 62
     7
 10
225.255704
 20
160.332688
 30
0.0
  0
VERTEX
  8
CSLAYER1
  6
CONTINUOUS
 62
     7
 10
225.280250
 20
160.486469
 30
0.0
  0
VERTEX
  8
CSLAYER1
  6
CONTINUOUS
 62
     7
 10
225.295053
 20
160.642635
 30
0.0
  0
VERTEX
  8
CSLAYER1
  6
CONTINUOUS
 62
     7
 10
225.300000
 20
160.800000
 30
0.0
  0
VERTEX
  8
CSLAYER1
  6
CONTINUOUS
 62
     7
 10
225.295053
 20
160.957365
 30
0.0
  0
VERTEX
  8
CSLAYER1
  6
CONTINUOUS
 62
     7
 10
225.280250
 20
161.113531
 30
0.0
  0
VERTEX
  8
CSLAYER1
  6
CONTINUOUS
 62
     7
 10
225.255704
 20
161.267312
 30
0.0
  0
VERTEX
  8
CSLAYER1
  6
CONTINUOUS
 62
     7
 10
225.221600
 20
161.417536
 30
0.0
  0
VERTEX
  8
CSLAYER1
  6
CONTINUOUS
 62
     7
 10
225.178200
 20
161.563061
 30
0.0
  0
VERTEX
  8
CSLAYER1
  6
CONTINUOUS
 62
     7
 10
225.125833
 20
161.702778
 30
0.0
  0
VERTEX
  8
CSLAYER1
  6
CONTINUOUS
 62
     7
 10
225.064898
 20
161.835624
 30
0.0
  0
VERTEX
  8
CSLAYER1
  6
CONTINUOUS
 62
     7
 10
224.995858
 20
161.960589
 30
0.0
  0
VERTEX
  8
CSLAYER1
  6
CONTINUOUS
 62
     7
 10
224.919239
 20
162.076721
 30
0.0
  0
VERTEX
  8
CSLAYER1
  6
CONTINUOUS
 62
     7
 10
224.835624
 20
162.183136
 30
0.0
  0
VERTEX
  8
CSLAYER1
  6
CONTINUOUS
 62
     7
 10
224.745649
 20
162.279025
 30
0.0
  0
VERTEX
  8
CSLAYER1
  6
CONTINUOUS
 62
     7
 10
224.650000
 20
162.363657
 30
0.0
  0
VERTEX
  8
CSLAYER1
  6
CONTINUOUS
 62
     7
 10
224.549404
 20
162.436389
 30
0.0
  0
VERTEX
  8
CSLAYER1
  6
CONTINUOUS
 62
     7
 10
224.444626
 20
162.496667
 30
0.0
  0
VERTEX
  8
CSLAYER1
  6
CONTINUOUS
 62
     7
 10
224.336465
 20
162.544033
 30
0.0
  0
VERTEX
  8
CSLAYER1
  6
CONTINUOUS
 62
     7
 10
224.225743
 20
162.578125
 30
0.0
  0
VERTEX
  8
CSLAYER1
  6
CONTINUOUS
 62
     7
 10
224.113302
 20
162.598685
 30
0.0
  0
VERTEX
  8
CSLAYER1
  6
CONTINUOUS
 62
     7
 10
224.000000
 20
162.605556
 30
0.0
  0
SEQEND
  0
ARC
  8
CSLAYER1
  6
CONTINUOUS
 62
     3
 10
225.011111
 20
155.400000
 40
1.805556
 50
109.000802
 51
250.999198
  0
POLYLINE
  8
CSLAYER1
  6
CONTINUOUS
 62
     7
 66
     1
 10
0.0
 20
0.0
 30
0.0
  0
VERTEX
  8
CSLAYER1
  6
CONTINUOUS
 62
     7
 10
224.000000
 20
157.205556
 30
0.0
  0
VERTEX
  8
CSLAYER1
  6
CONTINUOUS
 62
     7
 10
223.886698
 20
157.198685
 30
0.0
  0
VERTEX
  8
CSLAYER1
  6
CONTINUOUS
 62
     7
 10
223.774257
 20
157.178125
 30
0.0
  0
VERTEX
  8
CSLAYER1
  6
CONTINUOUS
 62
     7
 10
223.663535
 20
157.144033
 30
0.0
  0
VERTEX
  8
CSLAYER1
  6
CONTINUOUS
 62
     7
 10
223.555374
 20
157.096667
 30
0.0
  0
VERTEX
  8
CSLAYER1
  6
CONTINUOUS
 62
     7
 10
223.450596
 20
157.036389
 30
0.0
  0
VERTEX
  8
CSLAYER1
  6
CONTINUOUS
 62
     7
 10
223.350000
 20
156.963657
 30
0.0
  0
VERTEX
  8
CSLAYER1
  6
CONTINUOUS
 62
     7
 10
223.254351
 20
156.879025
 30
0.0
  0
VERTEX
  8
CSLAYER1
  6
CONTINUOUS
 62
     7
 10
223.164376
 20
156.783136
 30
0.0
  0
VERTEX
  8
CSLAYER1
  6
CONTINUOUS
 62
     7
 10
223.080761
 20
156.676721
 30
0.0
  0
VERTEX
  8
CSLAYER1
  6
CONTINUOUS
 62
     7
 10
223.004142
 20
156.560589
 30
0.0
  0
VERTEX
  8
CSLAYER1
  6
CONTINUOUS
 62
     7
 10
222.935102
 20
156.435624
 30
0.0
  0
VERTEX
  8
CSLAYER1
  6
CONTINUOUS
 62
     7
 10
222.874167
 20
156.302778
 30
0.0
  0
VERTEX
  8
CSLAYER1
  6
CONTINUOUS
 62
     7
 10
222.821800
 20
156.163061
 30
0.0
  0
VERTEX
  8
CSLAYER1
  6
CONTINUOUS
 62
     7
 10
222.778400
 20
156.017536
 30
0.0
  0
VERTEX
  8
CSLAYER1
  6
CONTINUOUS
 62
     7
 10
222.744296
 20
155.867312
 30
0.0
  0
VERTEX
  8
CSLAYER1
  6
CONTINUOUS
 62
     7
 10
222.719750
 20
155.713531
 30
0.0
  0
VERTEX
  8
CSLAYER1
  6
CONTINUOUS
 62
     7
 10
222.704947
 20
155.557365
 30
0.0
  0
VERTEX
  8
CSLAYER1
  6
CONTINUOUS
 62
     7
 10
222.700000
 20
155.400000
 30
0.0
  0
VERTEX
  8
CSLAYER1
  6
CONTINUOUS
 62
     7
 10
222.704947
 20
155.242635
 30
0.0
  0
VERTEX
  8
CSLAYER1
  6
CONTINUOUS
 62
     7
 10
222.719750
 20
155.086469
 30
0.0
  0
VERTEX
  8
CSLAYER1
  6
CONTINUOUS
 62
     7
 10
222.744296
 20
154.932688
 30
0.0
  0
VERTEX
  8
CSLAYER1
  6
CONTINUOUS
 62
     7
 10
222.778400
 20
154.782464
 30
0.0
  0
VERTEX
  8
CSLAYER1
  6
CONTINUOUS
 62
     7
 10
222.821800
 20
154.636939
 30
0.0
  0
VERTEX
  8
CSLAYER1
  6
CONTINUOUS
 62
     7
 10
222.874167
 20
154.497222
 30
0.0
  0
VERTEX
  8
CSLAYER1
  6
CONTINUOUS
 62
     7
 10
222.935102
 20
154.364376
 30
0.0
  0
VERTEX
  8
CSLAYER1
  6
CONTINUOUS
 62
     7
 10
223.004142
 20
154.239411
 30
0.0
  0
VERTEX
  8
CSLAYER1
  6
CONTINUOUS
 62
     7
 10
223.080761
 20
154.123279
 30
0.0
  0
VERTEX
  8
CSLAYER1
  6
CONTINUOUS
 62
     7
 10
223.164376
 20
154.016864
 30
0.0
  0
VERTEX
  8
CSLAYER1
  6
CONTINUOUS
 62
     7
 10
223.254351
 20
153.920975
 30
0.0
  0
VERTEX
  8
CSLAYER1
  6
CONTINUOUS
 62
     7
 10
223.350000
 20
153.836343
 30
0.0
  0
VERTEX
  8
CSLAYER1
  6
CONTINUOUS
 62
     7
 10
223.450596
 20
153.763611
 30
0.0
  0
VERTEX
  8
CSLAYER1
  6
CONTINUOUS
 62
     7
 10
223.555374
 20
153.703333
 30
0.0
  0
VERTEX
  8
CSLAYER1
  6
CONTINUOUS
 62
     7
 10
223.663535
 20
153.655967
 30
0.0
  0
VERTEX
  8
CSLAYER1
  6
CONTINUOUS
 62
     7
 10
223.774257
 20
153.621875
 30
0.0
  0
VERTEX
  8
CSLAYER1
  6
CONTINUOUS
 62
     7
 10
223.886698
 20
153.601315
 30
0.0
  0
VERTEX
  8
CSLAYER1
  6
CONTINUOUS
 62
     7
 10
224.000000
 20
153.594444
 30
0.0
  0
VERTEX
  8
CSLAYER1
  6
CONTINUOUS
 62
     7
 10
224.113302
 20
153.601315
 30
0.0
  0
VERTEX
  8
CSLAYER1
  6
CONTINUOUS
 62
     7
 10
224.225743
 20
153.621875
 30
0.0
  0
VERTEX
  8
CSLAYER1
  6
CONTINUOUS
 62
     7
 10
224.336465
 20
153.655967
 30
0.0
  0
VERTEX
  8
CSLAYER1
  6
CONTINUOUS
 62
     7
 10
224.444626
 20
153.703333
 30
0.0
  0
VERTEX
  8
CSLAYER1
  6
CONTINUOUS
 62
     7
 10
224.549404
 20
153.763611
 30
0.0
  0
VERTEX
  8
CSLAYER1
  6
CONTINUOUS
 62
     7
 10
224.650000
 20
153.836343
 30
0.0
  0
VERTEX
  8
CSLAYER1
  6
CONTINUOUS
 62
     7
 10
224.745649
 20
153.920975
 30
0.0
  0
VERTEX
  8
CSLAYER1
  6
CONTINUOUS
 62
     7
 10
224.835624
 20
154.016864
 30
0.0
  0
VERTEX
  8
CSLAYER1
  6
CONTINUOUS
 62
     7
 10
224.919239
 20
154.123279
 30
0.0
  0
VERTEX
  8
CSLAYER1
  6
CONTINUOUS
 62
     7
 10
224.995858
 20
154.239411
 30
0.0
  0
VERTEX
  8
CSLAYER1
  6
CONTINUOUS
 62
     7
 10
225.064898
 20
154.364376
 30
0.0
  0
VERTEX
  8
CSLAYER1
  6
CONTINUOUS
 62
     7
 10
225.125833
 20
154.497222
 30
0.0
  0
VERTEX
  8
CSLAYER1
  6
CONTINUOUS
 62
     7
 10
225.178200
 20
154.636939
 30
0.0
  0
VERTEX
  8
CSLAYER1
  6
CONTINUOUS
 62
     7
 10
225.221600
 20
154.782464
 30
0.0
  0
VERTEX
  8
CSLAYER1
  6
CONTINUOUS
 62
     7
 10
225.255704
 20
154.932688
 30
0.0
  0
VERTEX
  8
CSLAYER1
  6
CONTINUOUS
 62
     7
 10
225.280250
 20
155.086469
 30
0.0
  0
VERTEX
  8
CSLAYER1
  6
CONTINUOUS
 62
     7
 10
225.295053
 20
155.242635
 30
0.0
  0
VERTEX
  8
CSLAYER1
  6
CONTINUOUS
 62
     7
 10
225.300000
 20
155.400000
 30
0.0
  0
VERTEX
  8
CSLAYER1
  6
CONTINUOUS
 62
     7
 10
225.295053
 20
155.557365
 30
0.0
  0
VERTEX
  8
CSLAYER1
  6
CONTINUOUS
 62
     7
 10
225.280250
 20
155.713531
 30
0.0
  0
VERTEX
  8
CSLAYER1
  6
CONTINUOUS
 62
     7
 10
225.255704
 20
155.867312
 30
0.0
  0
VERTEX
  8
CSLAYER1
  6
CONTINUOUS
 62
     7
 10
225.221600
 20
156.017536
 30
0.0
  0
VERTEX
  8
CSLAYER1
  6
CONTINUOUS
 62
     7
 10
225.178200
 20
156.163061
 30
0.0
  0
VERTEX
  8
CSLAYER1
  6
CONTINUOUS
 62
     7
 10
225.125833
 20
156.302778
 30
0.0
  0
VERTEX
  8
CSLAYER1
  6
CONTINUOUS
 62
     7
 10
225.064898
 20
156.435624
 30
0.0
  0
VERTEX
  8
CSLAYER1
  6
CONTINUOUS
 62
     7
 10
224.995858
 20
156.560589
 30
0.0
  0
VERTEX
  8
CSLAYER1
  6
CONTINUOUS
 62
     7
 10
224.919239
 20
156.676721
 30
0.0
  0
VERTEX
  8
CSLAYER1
  6
CONTINUOUS
 62
     7
 10
224.835624
 20
156.783136
 30
0.0
  0
VERTEX
  8
CSLAYER1
  6
CONTINUOUS
 62
     7
 10
224.745649
 20
156.879025
 30
0.0
  0
VERTEX
  8
CSLAYER1
  6
CONTINUOUS
 62
     7
 10
224.650000
 20
156.963657
 30
0.0
  0
VERTEX
  8
CSLAYER1
  6
CONTINUOUS
 62
     7
 10
224.549404
 20
157.036389
 30
0.0
  0
VERTEX
  8
CSLAYER1
  6
CONTINUOUS
 62
     7
 10
224.444626
 20
157.096667
 30
0.0
  0
VERTEX
  8
CSLAYER1
  6
CONTINUOUS
 62
     7
 10
224.336465
 20
157.144033
 30
0.0
  0
VERTEX
  8
CSLAYER1
  6
CONTINUOUS
 62
     7
 10
224.225743
 20
157.178125
 30
0.0
  0
VERTEX
  8
CSLAYER1
  6
CONTINUOUS
 62
     7
 10
224.113302
 20
157.198685
 30
0.0
  0
VERTEX
  8
CSLAYER1
  6
CONTINUOUS
 62
     7
 10
224.000000
 20
157.205556
 30
0.0
  0
SEQEND
  0
ARC
  8
CSLAYER1
  6
CONTINUOUS
 62
     3
 10
225.011111
 20
150.000000
 40
1.805556
 50
109.000802
 51
250.999198
  0
POLYLINE
  8
CSLAYER1
  6
CONTINUOUS
 62
     7
 66
     1
 10
0.0
 20
0.0
 30
0.0
  0
VERTEX
  8
CSLAYER1
  6
CONTINUOUS
 62
     7
 10
224.000000
 20
151.805556
 30
0.0
  0
VERTEX
  8
CSLAYER1
  6
CONTINUOUS
 62
     7
 10
223.886698
 20
151.798685
 30
0.0
  0
VERTEX
  8
CSLAYER1
  6
CONTINUOUS
 62
     7
 10
223.774257
 20
151.778125
 30
0.0
  0
VERTEX
  8
CSLAYER1
  6
CONTINUOUS
 62
     7
 10
223.663535
 20
151.744033
 30
0.0
  0
VERTEX
  8
CSLAYER1
  6
CONTINUOUS
 62
     7
 10
223.555374
 20
151.696667
 30
0.0
  0
VERTEX
  8
CSLAYER1
  6
CONTINUOUS
 62
     7
 10
223.450596
 20
151.636389
 30
0.0
  0
VERTEX
  8
CSLAYER1
  6
CONTINUOUS
 62
     7
 10
223.350000
 20
151.563657
 30
0.0
  0
VERTEX
  8
CSLAYER1
  6
CONTINUOUS
 62
     7
 10
223.254351
 20
151.479025
 30
0.0
  0
VERTEX
  8
CSLAYER1
  6
CONTINUOUS
 62
     7
 10
223.164376
 20
151.383136
 30
0.0
  0
VERTEX
  8
CSLAYER1
  6
CONTINUOUS
 62
     7
 10
223.080761
 20
151.276721
 30
0.0
  0
VERTEX
  8
CSLAYER1
  6
CONTINUOUS
 62
     7
 10
223.004142
 20
151.160589
 30
0.0
  0
VERTEX
  8
CSLAYER1
  6
CONTINUOUS
 62
     7
 10
222.935102
 20
151.035624
 30
0.0
  0
VERTEX
  8
CSLAYER1
  6
CONTINUOUS
 62
     7
 10
222.874167
 20
150.902778
 30
0.0
  0
VERTEX
  8
CSLAYER1
  6
CONTINUOUS
 62
     7
 10
222.821800
 20
150.763061
 30
0.0
  0
VERTEX
  8
CSLAYER1
  6
CONTINUOUS
 62
     7
 10
222.778400
 20
150.617536
 30
0.0
  0
VERTEX
  8
CSLAYER1
  6
CONTINUOUS
 62
     7
 10
222.744296
 20
150.467312
 30
0.0
  0
VERTEX
  8
CSLAYER1
  6
CONTINUOUS
 62
     7
 10
222.719750
 20
150.313531
 30
0.0
  0
VERTEX
  8
CSLAYER1
  6
CONTINUOUS
 62
     7
 10
222.704947
 20
150.157365
 30
0.0
  0
VERTEX
  8
CSLAYER1
  6
CONTINUOUS
 62
     7
 10
222.700000
 20
150.000000
 30
0.0
  0
VERTEX
  8
CSLAYER1
  6
CONTINUOUS
 62
     7
 10
222.704947
 20
149.842635
 30
0.0
  0
VERTEX
  8
CSLAYER1
  6
CONTINUOUS
 62
     7
 10
222.719750
 20
149.686469
 30
0.0
  0
VERTEX
  8
CSLAYER1
  6
CONTINUOUS
 62
     7
 10
222.744296
 20
149.532688
 30
0.0
  0
VERTEX
  8
CSLAYER1
  6
CONTINUOUS
 62
     7
 10
222.778400
 20
149.382464
 30
0.0
  0
VERTEX
  8
CSLAYER1
  6
CONTINUOUS
 62
     7
 10
222.821800
 20
149.236939
 30
0.0
  0
VERTEX
  8
CSLAYER1
  6
CONTINUOUS
 62
     7
 10
222.874167
 20
149.097222
 30
0.0
  0
VERTEX
  8
CSLAYER1
  6
CONTINUOUS
 62
     7
 10
222.935102
 20
148.964376
 30
0.0
  0
VERTEX
  8
CSLAYER1
  6
CONTINUOUS
 62
     7
 10
223.004142
 20
148.839411
 30
0.0
  0
VERTEX
  8
CSLAYER1
  6
CONTINUOUS
 62
     7
 10
223.080761
 20
148.723279
 30
0.0
  0
VERTEX
  8
CSLAYER1
  6
CONTINUOUS
 62
     7
 10
223.164376
 20
148.616864
 30
0.0
  0
VERTEX
  8
CSLAYER1
  6
CONTINUOUS
 62
     7
 10
223.254351
 20
148.520975
 30
0.0
  0
VERTEX
  8
CSLAYER1
  6
CONTINUOUS
 62
     7
 10
223.350000
 20
148.436343
 30
0.0
  0
VERTEX
  8
CSLAYER1
  6
CONTINUOUS
 62
     7
 10
223.450596
 20
148.363611
 30
0.0
  0
VERTEX
  8
CSLAYER1
  6
CONTINUOUS
 62
     7
 10
223.555374
 20
148.303333
 30
0.0
  0
VERTEX
  8
CSLAYER1
  6
CONTINUOUS
 62
     7
 10
223.663535
 20
148.255967
 30
0.0
  0
VERTEX
  8
CSLAYER1
  6
CONTINUOUS
 62
     7
 10
223.774257
 20
148.221875
 30
0.0
  0
VERTEX
  8
CSLAYER1
  6
CONTINUOUS
 62
     7
 10
223.886698
 20
148.201315
 30
0.0
  0
VERTEX
  8
CSLAYER1
  6
CONTINUOUS
 62
     7
 10
224.000000
 20
148.194444
 30
0.0
  0
VERTEX
  8
CSLAYER1
  6
CONTINUOUS
 62
     7
 10
224.113302
 20
148.201315
 30
0.0
  0
VERTEX
  8
CSLAYER1
  6
CONTINUOUS
 62
     7
 10
224.225743
 20
148.221875
 30
0.0
  0
VERTEX
  8
CSLAYER1
  6
CONTINUOUS
 62
     7
 10
224.336465
 20
148.255967
 30
0.0
  0
VERTEX
  8
CSLAYER1
  6
CONTINUOUS
 62
     7
 10
224.444626
 20
148.303333
 30
0.0
  0
VERTEX
  8
CSLAYER1
  6
CONTINUOUS
 62
     7
 10
224.549404
 20
148.363611
 30
0.0
  0
VERTEX
  8
CSLAYER1
  6
CONTINUOUS
 62
     7
 10
224.650000
 20
148.436343
 30
0.0
  0
VERTEX
  8
CSLAYER1
  6
CONTINUOUS
 62
     7
 10
224.745649
 20
148.520975
 30
0.0
  0
VERTEX
  8
CSLAYER1
  6
CONTINUOUS
 62
     7
 10
224.835624
 20
148.616864
 30
0.0
  0
VERTEX
  8
CSLAYER1
  6
CONTINUOUS
 62
     7
 10
224.919239
 20
148.723279
 30
0.0
  0
VERTEX
  8
CSLAYER1
  6
CONTINUOUS
 62
     7
 10
224.995858
 20
148.839411
 30
0.0
  0
VERTEX
  8
CSLAYER1
  6
CONTINUOUS
 62
     7
 10
225.064898
 20
148.964376
 30
0.0
  0
VERTEX
  8
CSLAYER1
  6
CONTINUOUS
 62
     7
 10
225.125833
 20
149.097222
 30
0.0
  0
VERTEX
  8
CSLAYER1
  6
CONTINUOUS
 62
     7
 10
225.178200
 20
149.236939
 30
0.0
  0
VERTEX
  8
CSLAYER1
  6
CONTINUOUS
 62
     7
 10
225.221600
 20
149.382464
 30
0.0
  0
VERTEX
  8
CSLAYER1
  6
CONTINUOUS
 62
     7
 10
225.255704
 20
149.532688
 30
0.0
  0
VERTEX
  8
CSLAYER1
  6
CONTINUOUS
 62
     7
 10
225.280250
 20
149.686469
 30
0.0
  0
VERTEX
  8
CSLAYER1
  6
CONTINUOUS
 62
     7
 10
225.295053
 20
149.842635
 30
0.0
  0
VERTEX
  8
CSLAYER1
  6
CONTINUOUS
 62
     7
 10
225.300000
 20
150.000000
 30
0.0
  0
VERTEX
  8
CSLAYER1
  6
CONTINUOUS
 62
     7
 10
225.295053
 20
150.157365
 30
0.0
  0
VERTEX
  8
CSLAYER1
  6
CONTINUOUS
 62
     7
 10
225.280250
 20
150.313531
 30
0.0
  0
VERTEX
  8
CSLAYER1
  6
CONTINUOUS
 62
     7
 10
225.255704
 20
150.467312
 30
0.0
  0
VERTEX
  8
CSLAYER1
  6
CONTINUOUS
 62
     7
 10
225.221600
 20
150.617536
 30
0.0
  0
VERTEX
  8
CSLAYER1
  6
CONTINUOUS
 62
     7
 10
225.178200
 20
150.763061
 30
0.0
  0
VERTEX
  8
CSLAYER1
  6
CONTINUOUS
 62
     7
 10
225.125833
 20
150.902778
 30
0.0
  0
VERTEX
  8
CSLAYER1
  6
CONTINUOUS
 62
     7
 10
225.064898
 20
151.035624
 30
0.0
  0
VERTEX
  8
CSLAYER1
  6
CONTINUOUS
 62
     7
 10
224.995858
 20
151.160589
 30
0.0
  0
VERTEX
  8
CSLAYER1
  6
CONTINUOUS
 62
     7
 10
224.919239
 20
151.276721
 30
0.0
  0
VERTEX
  8
CSLAYER1
  6
CONTINUOUS
 62
     7
 10
224.835624
 20
151.383136
 30
0.0
  0
VERTEX
  8
CSLAYER1
  6
CONTINUOUS
 62
     7
 10
224.745649
 20
151.479025
 30
0.0
  0
VERTEX
  8
CSLAYER1
  6
CONTINUOUS
 62
     7
 10
224.650000
 20
151.563657
 30
0.0
  0
VERTEX
  8
CSLAYER1
  6
CONTINUOUS
 62
     7
 10
224.549404
 20
151.636389
 30
0.0
  0
VERTEX
  8
CSLAYER1
  6
CONTINUOUS
 62
     7
 10
224.444626
 20
151.696667
 30
0.0
  0
VERTEX
  8
CSLAYER1
  6
CONTINUOUS
 62
     7
 10
224.336465
 20
151.744033
 30
0.0
  0
VERTEX
  8
CSLAYER1
  6
CONTINUOUS
 62
     7
 10
224.225743
 20
151.778125
 30
0.0
  0
VERTEX
  8
CSLAYER1
  6
CONTINUOUS
 62
     7
 10
224.113302
 20
151.798685
 30
0.0
  0
VERTEX
  8
CSLAYER1
  6
CONTINUOUS
 62
     7
 10
224.000000
 20
151.805556
 30
0.0
  0
SEQEND
  0
ARC
  8
CSLAYER1
  6
CONTINUOUS
 62
     3
 10
225.011111
 20
144.600000
 40
1.805556
 50
109.000802
 51
250.999198
  0
POLYLINE
  8
CSLAYER1
  6
CONTINUOUS
 62
     7
 66
     1
 10
0.0
 20
0.0
 30
0.0
  0
VERTEX
  8
CSLAYER1
  6
CONTINUOUS
 62
     7
 10
224.000000
 20
146.405556
 30
0.0
  0
VERTEX
  8
CSLAYER1
  6
CONTINUOUS
 62
     7
 10
223.886698
 20
146.398685
 30
0.0
  0
VERTEX
  8
CSLAYER1
  6
CONTINUOUS
 62
     7
 10
223.774257
 20
146.378125
 30
0.0
  0
VERTEX
  8
CSLAYER1
  6
CONTINUOUS
 62
     7
 10
223.663535
 20
146.344033
 30
0.0
  0
VERTEX
  8
CSLAYER1
  6
CONTINUOUS
 62
     7
 10
223.555374
 20
146.296667
 30
0.0
  0
VERTEX
  8
CSLAYER1
  6
CONTINUOUS
 62
     7
 10
223.450596
 20
146.236389
 30
0.0
  0
VERTEX
  8
CSLAYER1
  6
CONTINUOUS
 62
     7
 10
223.350000
 20
146.163657
 30
0.0
  0
VERTEX
  8
CSLAYER1
  6
CONTINUOUS
 62
     7
 10
223.254351
 20
146.079025
 30
0.0
  0
VERTEX
  8
CSLAYER1
  6
CONTINUOUS
 62
     7
 10
223.164376
 20
145.983136
 30
0.0
  0
VERTEX
  8
CSLAYER1
  6
CONTINUOUS
 62
     7
 10
223.080761
 20
145.876721
 30
0.0
  0
VERTEX
  8
CSLAYER1
  6
CONTINUOUS
 62
     7
 10
223.004142
 20
145.760589
 30
0.0
  0
VERTEX
  8
CSLAYER1
  6
CONTINUOUS
 62
     7
 10
222.935102
 20
145.635624
 30
0.0
  0
VERTEX
  8
CSLAYER1
  6
CONTINUOUS
 62
     7
 10
222.874167
 20
145.502778
 30
0.0
  0
VERTEX
  8
CSLAYER1
  6
CONTINUOUS
 62
     7
 10
222.821800
 20
145.363061
 30
0.0
  0
VERTEX
  8
CSLAYER1
  6
CONTINUOUS
 62
     7
 10
222.778400
 20
145.217536
 30
0.0
  0
VERTEX
  8
CSLAYER1
  6
CONTINUOUS
 62
     7
 10
222.744296
 20
145.067312
 30
0.0
  0
VERTEX
  8
CSLAYER1
  6
CONTINUOUS
 62
     7
 10
222.719750
 20
144.913531
 30
0.0
  0
VERTEX
  8
CSLAYER1
  6
CONTINUOUS
 62
     7
 10
222.704947
 20
144.757365
 30
0.0
  0
VERTEX
  8
CSLAYER1
  6
CONTINUOUS
 62
     7
 10
222.700000
 20
144.600000
 30
0.0
  0
VERTEX
  8
CSLAYER1
  6
CONTINUOUS
 62
     7
 10
222.704947
 20
144.442635
 30
0.0
  0
VERTEX
  8
CSLAYER1
  6
CONTINUOUS
 62
     7
 10
222.719750
 20
144.286469
 30
0.0
  0
VERTEX
  8
CSLAYER1
  6
CONTINUOUS
 62
     7
 10
222.744296
 20
144.132688
 30
0.0
  0
VERTEX
  8
CSLAYER1
  6
CONTINUOUS
 62
     7
 10
222.778400
 20
143.982464
 30
0.0
  0
VERTEX
  8
CSLAYER1
  6
CONTINUOUS
 62
     7
 10
222.821800
 20
143.836939
 30
0.0
  0
VERTEX
  8
CSLAYER1
  6
CONTINUOUS
 62
     7
 10
222.874167
 20
143.697222
 30
0.0
  0
VERTEX
  8
CSLAYER1
  6
CONTINUOUS
 62
     7
 10
222.935102
 20
143.564376
 30
0.0
  0
VERTEX
  8
CSLAYER1
  6
CONTINUOUS
 62
     7
 10
223.004142
 20
143.439411
 30
0.0
  0
VERTEX
  8
CSLAYER1
  6
CONTINUOUS
 62
     7
 10
223.080761
 20
143.323279
 30
0.0
  0
VERTEX
  8
CSLAYER1
  6
CONTINUOUS
 62
     7
 10
223.164376
 20
143.216864
 30
0.0
  0
VERTEX
  8
CSLAYER1
  6
CONTINUOUS
 62
     7
 10
223.254351
 20
143.120975
 30
0.0
  0
VERTEX
  8
CSLAYER1
  6
CONTINUOUS
 62
     7
 10
223.350000
 20
143.036343
 30
0.0
  0
VERTEX
  8
CSLAYER1
  6
CONTINUOUS
 62
     7
 10
223.450596
 20
142.963611
 30
0.0
  0
VERTEX
  8
CSLAYER1
  6
CONTINUOUS
 62
     7
 10
223.555374
 20
142.903333
 30
0.0
  0
VERTEX
  8
CSLAYER1
  6
CONTINUOUS
 62
     7
 10
223.663535
 20
142.855967
 30
0.0
  0
VERTEX
  8
CSLAYER1
  6
CONTINUOUS
 62
     7
 10
223.774257
 20
142.821875
 30
0.0
  0
VERTEX
  8
CSLAYER1
  6
CONTINUOUS
 62
     7
 10
223.886698
 20
142.801315
 30
0.0
  0
VERTEX
  8
CSLAYER1
  6
CONTINUOUS
 62
     7
 10
224.000000
 20
142.794444
 30
0.0
  0
VERTEX
  8
CSLAYER1
  6
CONTINUOUS
 62
     7
 10
224.113302
 20
142.801315
 30
0.0
  0
VERTEX
  8
CSLAYER1
  6
CONTINUOUS
 62
     7
 10
224.225743
 20
142.821875
 30
0.0
  0
VERTEX
  8
CSLAYER1
  6
CONTINUOUS
 62
     7
 10
224.336465
 20
142.855967
 30
0.0
  0
VERTEX
  8
CSLAYER1
  6
CONTINUOUS
 62
     7
 10
224.444626
 20
142.903333
 30
0.0
  0
VERTEX
  8
CSLAYER1
  6
CONTINUOUS
 62
     7
 10
224.549404
 20
142.963611
 30
0.0
  0
VERTEX
  8
CSLAYER1
  6
CONTINUOUS
 62
     7
 10
224.650000
 20
143.036343
 30
0.0
  0
VERTEX
  8
CSLAYER1
  6
CONTINUOUS
 62
     7
 10
224.745649
 20
143.120975
 30
0.0
  0
VERTEX
  8
CSLAYER1
  6
CONTINUOUS
 62
     7
 10
224.835624
 20
143.216864
 30
0.0
  0
VERTEX
  8
CSLAYER1
  6
CONTINUOUS
 62
     7
 10
224.919239
 20
143.323279
 30
0.0
  0
VERTEX
  8
CSLAYER1
  6
CONTINUOUS
 62
     7
 10
224.995858
 20
143.439411
 30
0.0
  0
VERTEX
  8
CSLAYER1
  6
CONTINUOUS
 62
     7
 10
225.064898
 20
143.564376
 30
0.0
  0
VERTEX
  8
CSLAYER1
  6
CONTINUOUS
 62
     7
 10
225.125833
 20
143.697222
 30
0.0
  0
VERTEX
  8
CSLAYER1
  6
CONTINUOUS
 62
     7
 10
225.178200
 20
143.836939
 30
0.0
  0
VERTEX
  8
CSLAYER1
  6
CONTINUOUS
 62
     7
 10
225.221600
 20
143.982464
 30
0.0
  0
VERTEX
  8
CSLAYER1
  6
CONTINUOUS
 62
     7
 10
225.255704
 20
144.132688
 30
0.0
  0
VERTEX
  8
CSLAYER1
  6
CONTINUOUS
 62
     7
 10
225.280250
 20
144.286469
 30
0.0
  0
VERTEX
  8
CSLAYER1
  6
CONTINUOUS
 62
     7
 10
225.295053
 20
144.442635
 30
0.0
  0
VERTEX
  8
CSLAYER1
  6
CONTINUOUS
 62
     7
 10
225.300000
 20
144.600000
 30
0.0
  0
VERTEX
  8
CSLAYER1
  6
CONTINUOUS
 62
     7
 10
225.295053
 20
144.757365
 30
0.0
  0
VERTEX
  8
CSLAYER1
  6
CONTINUOUS
 62
     7
 10
225.280250
 20
144.913531
 30
0.0
  0
VERTEX
  8
CSLAYER1
  6
CONTINUOUS
 62
     7
 10
225.255704
 20
145.067312
 30
0.0
  0
VERTEX
  8
CSLAYER1
  6
CONTINUOUS
 62
     7
 10
225.221600
 20
145.217536
 30
0.0
  0
VERTEX
  8
CSLAYER1
  6
CONTINUOUS
 62
     7
 10
225.178200
 20
145.363061
 30
0.0
  0
VERTEX
  8
CSLAYER1
  6
CONTINUOUS
 62
     7
 10
225.125833
 20
145.502778
 30
0.0
  0
VERTEX
  8
CSLAYER1
  6
CONTINUOUS
 62
     7
 10
225.064898
 20
145.635624
 30
0.0
  0
VERTEX
  8
CSLAYER1
  6
CONTINUOUS
 62
     7
 10
224.995858
 20
145.760589
 30
0.0
  0
VERTEX
  8
CSLAYER1
  6
CONTINUOUS
 62
     7
 10
224.919239
 20
145.876721
 30
0.0
  0
VERTEX
  8
CSLAYER1
  6
CONTINUOUS
 62
     7
 10
224.835624
 20
145.983136
 30
0.0
  0
VERTEX
  8
CSLAYER1
  6
CONTINUOUS
 62
     7
 10
224.745649
 20
146.079025
 30
0.0
  0
VERTEX
  8
CSLAYER1
  6
CONTINUOUS
 62
     7
 10
224.650000
 20
146.163657
 30
0.0
  0
VERTEX
  8
CSLAYER1
  6
CONTINUOUS
 62
     7
 10
224.549404
 20
146.236389
 30
0.0
  0
VERTEX
  8
CSLAYER1
  6
CONTINUOUS
 62
     7
 10
224.444626
 20
146.296667
 30
0.0
  0
VERTEX
  8
CSLAYER1
  6
CONTINUOUS
 62
     7
 10
224.336465
 20
146.344033
 30
0.0
  0
VERTEX
  8
CSLAYER1
  6
CONTINUOUS
 62
     7
 10
224.225743
 20
146.378125
 30
0.0
  0
VERTEX
  8
CSLAYER1
  6
CONTINUOUS
 62
     7
 10
224.113302
 20
146.398685
 30
0.0
  0
VERTEX
  8
CSLAYER1
  6
CONTINUOUS
 62
     7
 10
224.000000
 20
146.405556
 30
0.0
  0
SEQEND
  0
ARC
  8
CSLAYER1
  6
CONTINUOUS
 62
     3
 10
225.011111
 20
139.200000
 40
1.805556
 50
109.000802
 51
250.999198
  0
POLYLINE
  8
CSLAYER1
  6
CONTINUOUS
 62
     7
 66
     1
 10
0.0
 20
0.0
 30
0.0
  0
VERTEX
  8
CSLAYER1
  6
CONTINUOUS
 62
     7
 10
224.000000
 20
141.005556
 30
0.0
  0
VERTEX
  8
CSLAYER1
  6
CONTINUOUS
 62
     7
 10
223.886698
 20
140.998685
 30
0.0
  0
VERTEX
  8
CSLAYER1
  6
CONTINUOUS
 62
     7
 10
223.774257
 20
140.978125
 30
0.0
  0
VERTEX
  8
CSLAYER1
  6
CONTINUOUS
 62
     7
 10
223.663535
 20
140.944033
 30
0.0
  0
VERTEX
  8
CSLAYER1
  6
CONTINUOUS
 62
     7
 10
223.555374
 20
140.896667
 30
0.0
  0
VERTEX
  8
CSLAYER1
  6
CONTINUOUS
 62
     7
 10
223.450596
 20
140.836389
 30
0.0
  0
VERTEX
  8
CSLAYER1
  6
CONTINUOUS
 62
     7
 10
223.350000
 20
140.763657
 30
0.0
  0
VERTEX
  8
CSLAYER1
  6
CONTINUOUS
 62
     7
 10
223.254351
 20
140.679025
 30
0.0
  0
VERTEX
  8
CSLAYER1
  6
CONTINUOUS
 62
     7
 10
223.164376
 20
140.583136
 30
0.0
  0
VERTEX
  8
CSLAYER1
  6
CONTINUOUS
 62
     7
 10
223.080761
 20
140.476721
 30
0.0
  0
VERTEX
  8
CSLAYER1
  6
CONTINUOUS
 62
     7
 10
223.004142
 20
140.360589
 30
0.0
  0
VERTEX
  8
CSLAYER1
  6
CONTINUOUS
 62
     7
 10
222.935102
 20
140.235624
 30
0.0
  0
VERTEX
  8
CSLAYER1
  6
CONTINUOUS
 62
     7
 10
222.874167
 20
140.102778
 30
0.0
  0
VERTEX
  8
CSLAYER1
  6
CONTINUOUS
 62
     7
 10
222.821800
 20
139.963061
 30
0.0
  0
VERTEX
  8
CSLAYER1
  6
CONTINUOUS
 62
     7
 10
222.778400
 20
139.817536
 30
0.0
  0
VERTEX
  8
CSLAYER1
  6
CONTINUOUS
 62
     7
 10
222.744296
 20
139.667312
 30
0.0
  0
VERTEX
  8
CSLAYER1
  6
CONTINUOUS
 62
     7
 10
222.719750
 20
139.513531
 30
0.0
  0
VERTEX
  8
CSLAYER1
  6
CONTINUOUS
 62
     7
 10
222.704947
 20
139.357365
 30
0.0
  0
VERTEX
  8
CSLAYER1
  6
CONTINUOUS
 62
     7
 10
222.700000
 20
139.200000
 30
0.0
  0
VERTEX
  8
CSLAYER1
  6
CONTINUOUS
 62
     7
 10
222.704947
 20
139.042635
 30
0.0
  0
VERTEX
  8
CSLAYER1
  6
CONTINUOUS
 62
     7
 10
222.719750
 20
138.886469
 30
0.0
  0
VERTEX
  8
CSLAYER1
  6
CONTINUOUS
 62
     7
 10
222.744296
 20
138.732688
 30
0.0
  0
VERTEX
  8
CSLAYER1
  6
CONTINUOUS
 62
     7
 10
222.778400
 20
138.582464
 30
0.0
  0
VERTEX
  8
CSLAYER1
  6
CONTINUOUS
 62
     7
 10
222.821800
 20
138.436939
 30
0.0
  0
VERTEX
  8
CSLAYER1
  6
CONTINUOUS
 62
     7
 10
222.874167
 20
138.297222
 30
0.0
  0
VERTEX
  8
CSLAYER1
  6
CONTINUOUS
 62
     7
 10
222.935102
 20
138.164376
 30
0.0
  0
VERTEX
  8
CSLAYER1
  6
CONTINUOUS
 62
     7
 10
223.004142
 20
138.039411
 30
0.0
  0
VERTEX
  8
CSLAYER1
  6
CONTINUOUS
 62
     7
 10
223.080761
 20
137.923279
 30
0.0
  0
VERTEX
  8
CSLAYER1
  6
CONTINUOUS
 62
     7
 10
223.164376
 20
137.816864
 30
0.0
  0
VERTEX
  8
CSLAYER1
  6
CONTINUOUS
 62
     7
 10
223.254351
 20
137.720975
 30
0.0
  0
VERTEX
  8
CSLAYER1
  6
CONTINUOUS
 62
     7
 10
223.350000
 20
137.636343
 30
0.0
  0
VERTEX
  8
CSLAYER1
  6
CONTINUOUS
 62
     7
 10
223.450596
 20
137.563611
 30
0.0
  0
VERTEX
  8
CSLAYER1
  6
CONTINUOUS
 62
     7
 10
223.555374
 20
137.503333
 30
0.0
  0
VERTEX
  8
CSLAYER1
  6
CONTINUOUS
 62
     7
 10
223.663535
 20
137.455967
 30
0.0
  0
VERTEX
  8
CSLAYER1
  6
CONTINUOUS
 62
     7
 10
223.774257
 20
137.421875
 30
0.0
  0
VERTEX
  8
CSLAYER1
  6
CONTINUOUS
 62
     7
 10
223.886698
 20
137.401315
 30
0.0
  0
VERTEX
  8
CSLAYER1
  6
CONTINUOUS
 62
     7
 10
224.000000
 20
137.394444
 30
0.0
  0
VERTEX
  8
CSLAYER1
  6
CONTINUOUS
 62
     7
 10
224.113302
 20
137.401315
 30
0.0
  0
VERTEX
  8
CSLAYER1
  6
CONTINUOUS
 62
     7
 10
224.225743
 20
137.421875
 30
0.0
  0
VERTEX
  8
CSLAYER1
  6
CONTINUOUS
 62
     7
 10
224.336465
 20
137.455967
 30
0.0
  0
VERTEX
  8
CSLAYER1
  6
CONTINUOUS
 62
     7
 10
224.444626
 20
137.503333
 30
0.0
  0
VERTEX
  8
CSLAYER1
  6
CONTINUOUS
 62
     7
 10
224.549404
 20
137.563611
 30
0.0
  0
VERTEX
  8
CSLAYER1
  6
CONTINUOUS
 62
     7
 10
224.650000
 20
137.636343
 30
0.0
  0
VERTEX
  8
CSLAYER1
  6
CONTINUOUS
 62
     7
 10
224.745649
 20
137.720975
 30
0.0
  0
VERTEX
  8
CSLAYER1
  6
CONTINUOUS
 62
     7
 10
224.835624
 20
137.816864
 30
0.0
  0
VERTEX
  8
CSLAYER1
  6
CONTINUOUS
 62
     7
 10
224.919239
 20
137.923279
 30
0.0
  0
VERTEX
  8
CSLAYER1
  6
CONTINUOUS
 62
     7
 10
224.995858
 20
138.039411
 30
0.0
  0
VERTEX
  8
CSLAYER1
  6
CONTINUOUS
 62
     7
 10
225.064898
 20
138.164376
 30
0.0
  0
VERTEX
  8
CSLAYER1
  6
CONTINUOUS
 62
     7
 10
225.125833
 20
138.297222
 30
0.0
  0
VERTEX
  8
CSLAYER1
  6
CONTINUOUS
 62
     7
 10
225.178200
 20
138.436939
 30
0.0
  0
VERTEX
  8
CSLAYER1
  6
CONTINUOUS
 62
     7
 10
225.221600
 20
138.582464
 30
0.0
  0
VERTEX
  8
CSLAYER1
  6
CONTINUOUS
 62
     7
 10
225.255704
 20
138.732688
 30
0.0
  0
VERTEX
  8
CSLAYER1
  6
CONTINUOUS
 62
     7
 10
225.280250
 20
138.886469
 30
0.0
  0
VERTEX
  8
CSLAYER1
  6
CONTINUOUS
 62
     7
 10
225.295053
 20
139.042635
 30
0.0
  0
VERTEX
  8
CSLAYER1
  6
CONTINUOUS
 62
     7
 10
225.300000
 20
139.200000
 30
0.0
  0
VERTEX
  8
CSLAYER1
  6
CONTINUOUS
 62
     7
 10
225.295053
 20
139.357365
 30
0.0
  0
VERTEX
  8
CSLAYER1
  6
CONTINUOUS
 62
     7
 10
225.280250
 20
139.513531
 30
0.0
  0
VERTEX
  8
CSLAYER1
  6
CONTINUOUS
 62
     7
 10
225.255704
 20
139.667312
 30
0.0
  0
VERTEX
  8
CSLAYER1
  6
CONTINUOUS
 62
     7
 10
225.221600
 20
139.817536
 30
0.0
  0
VERTEX
  8
CSLAYER1
  6
CONTINUOUS
 62
     7
 10
225.178200
 20
139.963061
 30
0.0
  0
VERTEX
  8
CSLAYER1
  6
CONTINUOUS
 62
     7
 10
225.125833
 20
140.102778
 30
0.0
  0
VERTEX
  8
CSLAYER1
  6
CONTINUOUS
 62
     7
 10
225.064898
 20
140.235624
 30
0.0
  0
VERTEX
  8
CSLAYER1
  6
CONTINUOUS
 62
     7
 10
224.995858
 20
140.360589
 30
0.0
  0
VERTEX
  8
CSLAYER1
  6
CONTINUOUS
 62
     7
 10
224.919239
 20
140.476721
 30
0.0
  0
VERTEX
  8
CSLAYER1
  6
CONTINUOUS
 62
     7
 10
224.835624
 20
140.583136
 30
0.0
  0
VERTEX
  8
CSLAYER1
  6
CONTINUOUS
 62
     7
 10
224.745649
 20
140.679025
 30
0.0
  0
VERTEX
  8
CSLAYER1
  6
CONTINUOUS
 62
     7
 10
224.650000
 20
140.763657
 30
0.0
  0
VERTEX
  8
CSLAYER1
  6
CONTINUOUS
 62
     7
 10
224.549404
 20
140.836389
 30
0.0
  0
VERTEX
  8
CSLAYER1
  6
CONTINUOUS
 62
     7
 10
224.444626
 20
140.896667
 30
0.0
  0
VERTEX
  8
CSLAYER1
  6
CONTINUOUS
 62
     7
 10
224.336465
 20
140.944033
 30
0.0
  0
VERTEX
  8
CSLAYER1
  6
CONTINUOUS
 62
     7
 10
224.225743
 20
140.978125
 30
0.0
  0
VERTEX
  8
CSLAYER1
  6
CONTINUOUS
 62
     7
 10
224.113302
 20
140.998685
 30
0.0
  0
VERTEX
  8
CSLAYER1
  6
CONTINUOUS
 62
     7
 10
224.000000
 20
141.005556
 30
0.0
  0
SEQEND
  0
ARC
  8
CSLAYER1
  6
CONTINUOUS
 62
     3
 10
225.011111
 20
133.800000
 40
1.805556
 50
109.000802
 51
250.999198
  0
POLYLINE
  8
CSLAYER1
  6
CONTINUOUS
 62
     7
 66
     1
 10
0.0
 20
0.0
 30
0.0
  0
VERTEX
  8
CSLAYER1
  6
CONTINUOUS
 62
     7
 10
224.000000
 20
135.605556
 30
0.0
  0
VERTEX
  8
CSLAYER1
  6
CONTINUOUS
 62
     7
 10
223.886698
 20
135.598685
 30
0.0
  0
VERTEX
  8
CSLAYER1
  6
CONTINUOUS
 62
     7
 10
223.774257
 20
135.578125
 30
0.0
  0
VERTEX
  8
CSLAYER1
  6
CONTINUOUS
 62
     7
 10
223.663535
 20
135.544033
 30
0.0
  0
VERTEX
  8
CSLAYER1
  6
CONTINUOUS
 62
     7
 10
223.555374
 20
135.496667
 30
0.0
  0
VERTEX
  8
CSLAYER1
  6
CONTINUOUS
 62
     7
 10
223.450596
 20
135.436389
 30
0.0
  0
VERTEX
  8
CSLAYER1
  6
CONTINUOUS
 62
     7
 10
223.350000
 20
135.363657
 30
0.0
  0
VERTEX
  8
CSLAYER1
  6
CONTINUOUS
 62
     7
 10
223.254351
 20
135.279025
 30
0.0
  0
VERTEX
  8
CSLAYER1
  6
CONTINUOUS
 62
     7
 10
223.164376
 20
135.183136
 30
0.0
  0
VERTEX
  8
CSLAYER1
  6
CONTINUOUS
 62
     7
 10
223.080761
 20
135.076721
 30
0.0
  0
VERTEX
  8
CSLAYER1
  6
CONTINUOUS
 62
     7
 10
223.004142
 20
134.960589
 30
0.0
  0
VERTEX
  8
CSLAYER1
  6
CONTINUOUS
 62
     7
 10
222.935102
 20
134.835624
 30
0.0
  0
VERTEX
  8
CSLAYER1
  6
CONTINUOUS
 62
     7
 10
222.874167
 20
134.702778
 30
0.0
  0
VERTEX
  8
CSLAYER1
  6
CONTINUOUS
 62
     7
 10
222.821800
 20
134.563061
 30
0.0
  0
VERTEX
  8
CSLAYER1
  6
CONTINUOUS
 62
     7
 10
222.778400
 20
134.417536
 30
0.0
  0
VERTEX
  8
CSLAYER1
  6
CONTINUOUS
 62
     7
 10
222.744296
 20
134.267312
 30
0.0
  0
VERTEX
  8
CSLAYER1
  6
CONTINUOUS
 62
     7
 10
222.719750
 20
134.113531
 30
0.0
  0
VERTEX
  8
CSLAYER1
  6
CONTINUOUS
 62
     7
 10
222.704947
 20
133.957365
 30
0.0
  0
VERTEX
  8
CSLAYER1
  6
CONTINUOUS
 62
     7
 10
222.700000
 20
133.800000
 30
0.0
  0
VERTEX
  8
CSLAYER1
  6
CONTINUOUS
 62
     7
 10
222.704947
 20
133.642635
 30
0.0
  0
VERTEX
  8
CSLAYER1
  6
CONTINUOUS
 62
     7
 10
222.719750
 20
133.486469
 30
0.0
  0
VERTEX
  8
CSLAYER1
  6
CONTINUOUS
 62
     7
 10
222.744296
 20
133.332688
 30
0.0
  0
VERTEX
  8
CSLAYER1
  6
CONTINUOUS
 62
     7
 10
222.778400
 20
133.182464
 30
0.0
  0
VERTEX
  8
CSLAYER1
  6
CONTINUOUS
 62
     7
 10
222.821800
 20
133.036939
 30
0.0
  0
VERTEX
  8
CSLAYER1
  6
CONTINUOUS
 62
     7
 10
222.874167
 20
132.897222
 30
0.0
  0
VERTEX
  8
CSLAYER1
  6
CONTINUOUS
 62
     7
 10
222.935102
 20
132.764376
 30
0.0
  0
VERTEX
  8
CSLAYER1
  6
CONTINUOUS
 62
     7
 10
223.004142
 20
132.639411
 30
0.0
  0
VERTEX
  8
CSLAYER1
  6
CONTINUOUS
 62
     7
 10
223.080761
 20
132.523279
 30
0.0
  0
VERTEX
  8
CSLAYER1
  6
CONTINUOUS
 62
     7
 10
223.164376
 20
132.416864
 30
0.0
  0
VERTEX
  8
CSLAYER1
  6
CONTINUOUS
 62
     7
 10
223.254351
 20
132.320975
 30
0.0
  0
VERTEX
  8
CSLAYER1
  6
CONTINUOUS
 62
     7
 10
223.350000
 20
132.236343
 30
0.0
  0
VERTEX
  8
CSLAYER1
  6
CONTINUOUS
 62
     7
 10
223.450596
 20
132.163611
 30
0.0
  0
VERTEX
  8
CSLAYER1
  6
CONTINUOUS
 62
     7
 10
223.555374
 20
132.103333
 30
0.0
  0
VERTEX
  8
CSLAYER1
  6
CONTINUOUS
 62
     7
 10
223.663535
 20
132.055967
 30
0.0
  0
VERTEX
  8
CSLAYER1
  6
CONTINUOUS
 62
     7
 10
223.774257
 20
132.021875
 30
0.0
  0
VERTEX
  8
CSLAYER1
  6
CONTINUOUS
 62
     7
 10
223.886698
 20
132.001315
 30
0.0
  0
VERTEX
  8
CSLAYER1
  6
CONTINUOUS
 62
     7
 10
224.000000
 20
131.994444
 30
0.0
  0
VERTEX
  8
CSLAYER1
  6
CONTINUOUS
 62
     7
 10
224.113302
 20
132.001315
 30
0.0
  0
VERTEX
  8
CSLAYER1
  6
CONTINUOUS
 62
     7
 10
224.225743
 20
132.021875
 30
0.0
  0
VERTEX
  8
CSLAYER1
  6
CONTINUOUS
 62
     7
 10
224.336465
 20
132.055967
 30
0.0
  0
VERTEX
  8
CSLAYER1
  6
CONTINUOUS
 62
     7
 10
224.444626
 20
132.103333
 30
0.0
  0
VERTEX
  8
CSLAYER1
  6
CONTINUOUS
 62
     7
 10
224.549404
 20
132.163611
 30
0.0
  0
VERTEX
  8
CSLAYER1
  6
CONTINUOUS
 62
     7
 10
224.650000
 20
132.236343
 30
0.0
  0
VERTEX
  8
CSLAYER1
  6
CONTINUOUS
 62
     7
 10
224.745649
 20
132.320975
 30
0.0
  0
VERTEX
  8
CSLAYER1
  6
CONTINUOUS
 62
     7
 10
224.835624
 20
132.416864
 30
0.0
  0
VERTEX
  8
CSLAYER1
  6
CONTINUOUS
 62
     7
 10
224.919239
 20
132.523279
 30
0.0
  0
VERTEX
  8
CSLAYER1
  6
CONTINUOUS
 62
     7
 10
224.995858
 20
132.639411
 30
0.0
  0
VERTEX
  8
CSLAYER1
  6
CONTINUOUS
 62
     7
 10
225.064898
 20
132.764376
 30
0.0
  0
VERTEX
  8
CSLAYER1
  6
CONTINUOUS
 62
     7
 10
225.125833
 20
132.897222
 30
0.0
  0
VERTEX
  8
CSLAYER1
  6
CONTINUOUS
 62
     7
 10
225.178200
 20
133.036939
 30
0.0
  0
VERTEX
  8
CSLAYER1
  6
CONTINUOUS
 62
     7
 10
225.221600
 20
133.182464
 30
0.0
  0
VERTEX
  8
CSLAYER1
  6
CONTINUOUS
 62
     7
 10
225.255704
 20
133.332688
 30
0.0
  0
VERTEX
  8
CSLAYER1
  6
CONTINUOUS
 62
     7
 10
225.280250
 20
133.486469
 30
0.0
  0
VERTEX
  8
CSLAYER1
  6
CONTINUOUS
 62
     7
 10
225.295053
 20
133.642635
 30
0.0
  0
VERTEX
  8
CSLAYER1
  6
CONTINUOUS
 62
     7
 10
225.300000
 20
133.800000
 30
0.0
  0
VERTEX
  8
CSLAYER1
  6
CONTINUOUS
 62
     7
 10
225.295053
 20
133.957365
 30
0.0
  0
VERTEX
  8
CSLAYER1
  6
CONTINUOUS
 62
     7
 10
225.280250
 20
134.113531
 30
0.0
  0
VERTEX
  8
CSLAYER1
  6
CONTINUOUS
 62
     7
 10
225.255704
 20
134.267312
 30
0.0
  0
VERTEX
  8
CSLAYER1
  6
CONTINUOUS
 62
     7
 10
225.221600
 20
134.417536
 30
0.0
  0
VERTEX
  8
CSLAYER1
  6
CONTINUOUS
 62
     7
 10
225.178200
 20
134.563061
 30
0.0
  0
VERTEX
  8
CSLAYER1
  6
CONTINUOUS
 62
     7
 10
225.125833
 20
134.702778
 30
0.0
  0
VERTEX
  8
CSLAYER1
  6
CONTINUOUS
 62
     7
 10
225.064898
 20
134.835624
 30
0.0
  0
VERTEX
  8
CSLAYER1
  6
CONTINUOUS
 62
     7
 10
224.995858
 20
134.960589
 30
0.0
  0
VERTEX
  8
CSLAYER1
  6
CONTINUOUS
 62
     7
 10
224.919239
 20
135.076721
 30
0.0
  0
VERTEX
  8
CSLAYER1
  6
CONTINUOUS
 62
     7
 10
224.835624
 20
135.183136
 30
0.0
  0
VERTEX
  8
CSLAYER1
  6
CONTINUOUS
 62
     7
 10
224.745649
 20
135.279025
 30
0.0
  0
VERTEX
  8
CSLAYER1
  6
CONTINUOUS
 62
     7
 10
224.650000
 20
135.363657
 30
0.0
  0
VERTEX
  8
CSLAYER1
  6
CONTINUOUS
 62
     7
 10
224.549404
 20
135.436389
 30
0.0
  0
VERTEX
  8
CSLAYER1
  6
CONTINUOUS
 62
     7
 10
224.444626
 20
135.496667
 30
0.0
  0
VERTEX
  8
CSLAYER1
  6
CONTINUOUS
 62
     7
 10
224.336465
 20
135.544033
 30
0.0
  0
VERTEX
  8
CSLAYER1
  6
CONTINUOUS
 62
     7
 10
224.225743
 20
135.578125
 30
0.0
  0
VERTEX
  8
CSLAYER1
  6
CONTINUOUS
 62
     7
 10
224.113302
 20
135.598685
 30
0.0
  0
VERTEX
  8
CSLAYER1
  6
CONTINUOUS
 62
     7
 10
224.000000
 20
135.605556
 30
0.0
  0
SEQEND
  0
ARC
  8
CSLAYER1
  6
CONTINUOUS
 62
     3
 10
225.011111
 20
128.400000
 40
1.805556
 50
109.000802
 51
250.999198
  0
POLYLINE
  8
CSLAYER1
  6
CONTINUOUS
 62
     7
 66
     1
 10
0.0
 20
0.0
 30
0.0
  0
VERTEX
  8
CSLAYER1
  6
CONTINUOUS
 62
     7
 10
224.000000
 20
130.205556
 30
0.0
  0
VERTEX
  8
CSLAYER1
  6
CONTINUOUS
 62
     7
 10
223.886698
 20
130.198685
 30
0.0
  0
VERTEX
  8
CSLAYER1
  6
CONTINUOUS
 62
     7
 10
223.774257
 20
130.178125
 30
0.0
  0
VERTEX
  8
CSLAYER1
  6
CONTINUOUS
 62
     7
 10
223.663535
 20
130.144033
 30
0.0
  0
VERTEX
  8
CSLAYER1
  6
CONTINUOUS
 62
     7
 10
223.555374
 20
130.096667
 30
0.0
  0
VERTEX
  8
CSLAYER1
  6
CONTINUOUS
 62
     7
 10
223.450596
 20
130.036389
 30
0.0
  0
VERTEX
  8
CSLAYER1
  6
CONTINUOUS
 62
     7
 10
223.350000
 20
129.963657
 30
0.0
  0
VERTEX
  8
CSLAYER1
  6
CONTINUOUS
 62
     7
 10
223.254351
 20
129.879025
 30
0.0
  0
VERTEX
  8
CSLAYER1
  6
CONTINUOUS
 62
     7
 10
223.164376
 20
129.783136
 30
0.0
  0
VERTEX
  8
CSLAYER1
  6
CONTINUOUS
 62
     7
 10
223.080761
 20
129.676721
 30
0.0
  0
VERTEX
  8
CSLAYER1
  6
CONTINUOUS
 62
     7
 10
223.004142
 20
129.560589
 30
0.0
  0
VERTEX
  8
CSLAYER1
  6
CONTINUOUS
 62
     7
 10
222.935102
 20
129.435624
 30
0.0
  0
VERTEX
  8
CSLAYER1
  6
CONTINUOUS
 62
     7
 10
222.874167
 20
129.302778
 30
0.0
  0
VERTEX
  8
CSLAYER1
  6
CONTINUOUS
 62
     7
 10
222.821800
 20
129.163061
 30
0.0
  0
VERTEX
  8
CSLAYER1
  6
CONTINUOUS
 62
     7
 10
222.778400
 20
129.017536
 30
0.0
  0
VERTEX
  8
CSLAYER1
  6
CONTINUOUS
 62
     7
 10
222.744296
 20
128.867312
 30
0.0
  0
VERTEX
  8
CSLAYER1
  6
CONTINUOUS
 62
     7
 10
222.719750
 20
128.713531
 30
0.0
  0
VERTEX
  8
CSLAYER1
  6
CONTINUOUS
 62
     7
 10
222.704947
 20
128.557365
 30
0.0
  0
VERTEX
  8
CSLAYER1
  6
CONTINUOUS
 62
     7
 10
222.700000
 20
128.400000
 30
0.0
  0
VERTEX
  8
CSLAYER1
  6
CONTINUOUS
 62
     7
 10
222.704947
 20
128.242635
 30
0.0
  0
VERTEX
  8
CSLAYER1
  6
CONTINUOUS
 62
     7
 10
222.719750
 20
128.086469
 30
0.0
  0
VERTEX
  8
CSLAYER1
  6
CONTINUOUS
 62
     7
 10
222.744296
 20
127.932688
 30
0.0
  0
VERTEX
  8
CSLAYER1
  6
CONTINUOUS
 62
     7
 10
222.778400
 20
127.782464
 30
0.0
  0
VERTEX
  8
CSLAYER1
  6
CONTINUOUS
 62
     7
 10
222.821800
 20
127.636939
 30
0.0
  0
VERTEX
  8
CSLAYER1
  6
CONTINUOUS
 62
     7
 10
222.874167
 20
127.497222
 30
0.0
  0
VERTEX
  8
CSLAYER1
  6
CONTINUOUS
 62
     7
 10
222.935102
 20
127.364376
 30
0.0
  0
VERTEX
  8
CSLAYER1
  6
CONTINUOUS
 62
     7
 10
223.004142
 20
127.239411
 30
0.0
  0
VERTEX
  8
CSLAYER1
  6
CONTINUOUS
 62
     7
 10
223.080761
 20
127.123279
 30
0.0
  0
VERTEX
  8
CSLAYER1
  6
CONTINUOUS
 62
     7
 10
223.164376
 20
127.016864
 30
0.0
  0
VERTEX
  8
CSLAYER1
  6
CONTINUOUS
 62
     7
 10
223.254351
 20
126.920975
 30
0.0
  0
VERTEX
  8
CSLAYER1
  6
CONTINUOUS
 62
     7
 10
223.350000
 20
126.836343
 30
0.0
  0
VERTEX
  8
CSLAYER1
  6
CONTINUOUS
 62
     7
 10
223.450596
 20
126.763611
 30
0.0
  0
VERTEX
  8
CSLAYER1
  6
CONTINUOUS
 62
     7
 10
223.555374
 20
126.703333
 30
0.0
  0
VERTEX
  8
CSLAYER1
  6
CONTINUOUS
 62
     7
 10
223.663535
 20
126.655967
 30
0.0
  0
VERTEX
  8
CSLAYER1
  6
CONTINUOUS
 62
     7
 10
223.774257
 20
126.621875
 30
0.0
  0
VERTEX
  8
CSLAYER1
  6
CONTINUOUS
 62
     7
 10
223.886698
 20
126.601315
 30
0.0
  0
VERTEX
  8
CSLAYER1
  6
CONTINUOUS
 62
     7
 10
224.000000
 20
126.594444
 30
0.0
  0
VERTEX
  8
CSLAYER1
  6
CONTINUOUS
 62
     7
 10
224.113302
 20
126.601315
 30
0.0
  0
VERTEX
  8
CSLAYER1
  6
CONTINUOUS
 62
     7
 10
224.225743
 20
126.621875
 30
0.0
  0
VERTEX
  8
CSLAYER1
  6
CONTINUOUS
 62
     7
 10
224.336465
 20
126.655967
 30
0.0
  0
VERTEX
  8
CSLAYER1
  6
CONTINUOUS
 62
     7
 10
224.444626
 20
126.703333
 30
0.0
  0
VERTEX
  8
CSLAYER1
  6
CONTINUOUS
 62
     7
 10
224.549404
 20
126.763611
 30
0.0
  0
VERTEX
  8
CSLAYER1
  6
CONTINUOUS
 62
     7
 10
224.650000
 20
126.836343
 30
0.0
  0
VERTEX
  8
CSLAYER1
  6
CONTINUOUS
 62
     7
 10
224.745649
 20
126.920975
 30
0.0
  0
VERTEX
  8
CSLAYER1
  6
CONTINUOUS
 62
     7
 10
224.835624
 20
127.016864
 30
0.0
  0
VERTEX
  8
CSLAYER1
  6
CONTINUOUS
 62
     7
 10
224.919239
 20
127.123279
 30
0.0
  0
VERTEX
  8
CSLAYER1
  6
CONTINUOUS
 62
     7
 10
224.995858
 20
127.239411
 30
0.0
  0
VERTEX
  8
CSLAYER1
  6
CONTINUOUS
 62
     7
 10
225.064898
 20
127.364376
 30
0.0
  0
VERTEX
  8
CSLAYER1
  6
CONTINUOUS
 62
     7
 10
225.125833
 20
127.497222
 30
0.0
  0
VERTEX
  8
CSLAYER1
  6
CONTINUOUS
 62
     7
 10
225.178200
 20
127.636939
 30
0.0
  0
VERTEX
  8
CSLAYER1
  6
CONTINUOUS
 62
     7
 10
225.221600
 20
127.782464
 30
0.0
  0
VERTEX
  8
CSLAYER1
  6
CONTINUOUS
 62
     7
 10
225.255704
 20
127.932688
 30
0.0
  0
VERTEX
  8
CSLAYER1
  6
CONTINUOUS
 62
     7
 10
225.280250
 20
128.086469
 30
0.0
  0
VERTEX
  8
CSLAYER1
  6
CONTINUOUS
 62
     7
 10
225.295053
 20
128.242635
 30
0.0
  0
VERTEX
  8
CSLAYER1
  6
CONTINUOUS
 62
     7
 10
225.300000
 20
128.400000
 30
0.0
  0
VERTEX
  8
CSLAYER1
  6
CONTINUOUS
 62
     7
 10
225.295053
 20
128.557365
 30
0.0
  0
VERTEX
  8
CSLAYER1
  6
CONTINUOUS
 62
     7
 10
225.280250
 20
128.713531
 30
0.0
  0
VERTEX
  8
CSLAYER1
  6
CONTINUOUS
 62
     7
 10
225.255704
 20
128.867312
 30
0.0
  0
VERTEX
  8
CSLAYER1
  6
CONTINUOUS
 62
     7
 10
225.221600
 20
129.017536
 30
0.0
  0
VERTEX
  8
CSLAYER1
  6
CONTINUOUS
 62
     7
 10
225.178200
 20
129.163061
 30
0.0
  0
VERTEX
  8
CSLAYER1
  6
CONTINUOUS
 62
     7
 10
225.125833
 20
129.302778
 30
0.0
  0
VERTEX
  8
CSLAYER1
  6
CONTINUOUS
 62
     7
 10
225.064898
 20
129.435624
 30
0.0
  0
VERTEX
  8
CSLAYER1
  6
CONTINUOUS
 62
     7
 10
224.995858
 20
129.560589
 30
0.0
  0
VERTEX
  8
CSLAYER1
  6
CONTINUOUS
 62
     7
 10
224.919239
 20
129.676721
 30
0.0
  0
VERTEX
  8
CSLAYER1
  6
CONTINUOUS
 62
     7
 10
224.835624
 20
129.783136
 30
0.0
  0
VERTEX
  8
CSLAYER1
  6
CONTINUOUS
 62
     7
 10
224.745649
 20
129.879025
 30
0.0
  0
VERTEX
  8
CSLAYER1
  6
CONTINUOUS
 62
     7
 10
224.650000
 20
129.963657
 30
0.0
  0
VERTEX
  8
CSLAYER1
  6
CONTINUOUS
 62
     7
 10
224.549404
 20
130.036389
 30
0.0
  0
VERTEX
  8
CSLAYER1
  6
CONTINUOUS
 62
     7
 10
224.444626
 20
130.096667
 30
0.0
  0
VERTEX
  8
CSLAYER1
  6
CONTINUOUS
 62
     7
 10
224.336465
 20
130.144033
 30
0.0
  0
VERTEX
  8
CSLAYER1
  6
CONTINUOUS
 62
     7
 10
224.225743
 20
130.178125
 30
0.0
  0
VERTEX
  8
CSLAYER1
  6
CONTINUOUS
 62
     7
 10
224.113302
 20
130.198685
 30
0.0
  0
VERTEX
  8
CSLAYER1
  6
CONTINUOUS
 62
     7
 10
224.000000
 20
130.205556
 30
0.0
  0
SEQEND
  0
LINE
  8
CSLAYER1
  6
CONTINUOUS
 62
     3
 10
224.976666
 20
172.791634
 11
223.622438
 21
170.446043
  0
LINE
  8
CSLAYER1
  6
CONTINUOUS
 62
     3
 10
224.976666
 20
167.391634
 11
223.622438
 21
165.046043
  0
LINE
  8
CSLAYER1
  6
CONTINUOUS
 62
     3
 10
224.976666
 20
161.991634
 11
223.622438
 21
159.646043
  0
LINE
  8
CSLAYER1
  6
CONTINUOUS
 62
     3
 10
224.976666
 20
156.591634
 11
223.622438
 21
154.246043
  0
LINE
  8
CSLAYER1
  6
CONTINUOUS
 62
     3
 10
224.976666
 20
151.191634
 11
223.622438
 21
148.846043
  0
LINE
  8
CSLAYER1
  6
CONTINUOUS
 62
     3
 10
224.976666
 20
145.791634
 11
223.622438
 21
143.446043
  0
LINE
  8
CSLAYER1
  6
CONTINUOUS
 62
     3
 10
224.976666
 20
140.391634
 11
223.622438
 21
138.046043
  0
LINE
  8
CSLAYER1
  6
CONTINUOUS
 62
     3
 10
224.976666
 20
134.991634
 11
223.622438
 21
132.646043
  0
LINE
  8
CSLAYER1
  6
CONTINUOUS
 62
     3
 10
224.976666
 20
129.591634
 11
223.622438
 21
127.246043
  0
LINE
  8
CSLAYER1
  6
PHANTOM
 62
     3
 10
223.480000
 20
58.990000
 11
221.500000
 21
58.990000
  0
LINE
  8
CSLAYER1
  6
PHANTOM
 62
     3
 10
223.480000
 20
58.357664
 11
223.480000
 21
58.990000
  0
LINE
  8
CSLAYER1
  6
CONTINUOUS
 62
     6
 10
223.273503
 20
58.000000
 11
222.490000
 21
58.000000
  0
LINE
  8
CSLAYER1
  6
CONTINUOUS
 62
     6
 10
222.490000
 20
56.642934
 11
222.490000
 21
58.000000
  0
LINE
  8
CSLAYER1
  6
CONTINUOUS
 62
     6
 10
150.000000
 20
255.660000
 11
135.000000
 21
255.660000
  0
LINE
  8
CSLAYER1
  6
CONTINUOUS
 62
     6
 10
150.000000
 20
257.060000
 11
135.000000
 21
257.060000
  0
CIRCLE
  8
CSLAYER1
  6
CONTINUOUS
 62
     6
 10
142.500000
 20
261.720000
 40
3.500000
  0
ARC
  8
CSLAYER1
  6
CONTINUOUS
 62
     6
 10
142.499987
 20
261.720001
 40
1.944444
 50
163.398416
 51
196.601577
  0
ARC
  8
CSLAYER1
  6
CONTINUOUS
 62
     6
 10
142.499987
 20
261.720001
 40
1.944444
 50
253.398422
 51
286.601583
  0
ARC
  8
CSLAYER1
  6
CONTINUOUS
 62
     6
 10
142.499987
 20
261.720001
 40
1.944444
 50
-16.601562
 51
16.601572
  0
ARC
  8
CSLAYER1
  6
CONTINUOUS
 62
     6
 10
142.499987
 20
261.720001
 40
1.944444
 50
73.398406
 51
106.601595
  0
LINE
  8
CSLAYER1
  6
CONTINUOUS
 62
     6
 10
143.611112
 20
261.164438
 11
144.363369
 21
261.164438
  0
LINE
  8
CSLAYER1
  6
CONTINUOUS
 62
     6
 10
141.388862
 20
261.164438
 11
140.636606
 21
261.164438
  0
LINE
  8
CSLAYER1
  6
CONTINUOUS
 62
     6
 10
143.611112
 20
262.275563
 11
144.363369
 21
262.275563
  0
LINE
  8
CSLAYER1
  6
CONTINUOUS
 62
     6
 10
141.388862
 20
262.275563
 11
140.636606
 21
262.275563
  0
LINE
  8
CSLAYER1
  6
CONTINUOUS
 62
     6
 10
141.944425
 20
260.608905
 11
141.944425
 21
259.856590
  0
LINE
  8
CSLAYER1
  6
CONTINUOUS
 62
     6
 10
141.944425
 20
262.831097
 11
141.944425
 21
263.583411
  0
LINE
  8
CSLAYER1
  6
CONTINUOUS
 62
     6
 10
143.055550
 20
260.608905
 11
143.055550
 21
259.856590
  0
LINE
  8
CSLAYER1
  6
CONTINUOUS
 62
     6
 10
143.055550
 20
262.831097
 11
143.055550
 21
263.583411
  0
ARC
  8
CSLAYER1
  6
CONTINUOUS
 62
     6
 10
143.611112
 20
260.608905
 40
0.555556
 50
90.000001
 51
179.942691
  0
ARC
  8
CSLAYER1
  6
CONTINUOUS
 62
     6
 10
143.611112
 20
262.831097
 40
0.555556
 50
180.000010
 51
270.000016
  0
ARC
  8
CSLAYER1
  6
CONTINUOUS
 62
     6
 10
141.388862
 20
262.831097
 40
0.555556
 50
-89.999984
 51
0.000005
  0
ARC
  8
CSLAYER1
  6
CONTINUOUS
 62
     6
 10
141.388862
 20
260.608905
 40
0.555556
 50
0.000005
 51
89.942654
  0
LINE
  8
CSLAYER1
  6
CONTINUOUS
 62
     6
 10
150.000000
 20
244.940000
 11
135.000000
 21
244.940000
  0
LINE
  8
CSLAYER1
  6
CONTINUOUS
 62
     6
 10
150.000000
 20
246.340000
 11
135.000000
 21
246.340000
  0
CIRCLE
  8
CSLAYER1
  6
CONTINUOUS
 62
     6
 10
142.500000
 20
251.000000
 40
3.500000
  0
ARC
  8
CSLAYER1
  6
CONTINUOUS
 62
     6
 10
142.499987
 20
251.000001
 40
1.944444
 50
163.398416
 51
196.601577
  0
ARC
  8
CSLAYER1
  6
CONTINUOUS
 62
     6
 10
142.499987
 20
251.000001
 40
1.944444
 50
253.398422
 51
286.601583
  0
ARC
  8
CSLAYER1
  6
CONTINUOUS
 62
     6
 10
142.499987
 20
251.000001
 40
1.944444
 50
-16.601562
 51
16.601572
  0
ARC
  8
CSLAYER1
  6
CONTINUOUS
 62
     6
 10
142.499987
 20
251.000001
 40
1.944444
 50
73.398406
 51
106.601595
  0
LINE
  8
CSLAYER1
  6
CONTINUOUS
 62
     6
 10
143.611112
 20
250.444438
 11
144.363369
 21
250.444438
  0
LINE
  8
CSLAYER1
  6
CONTINUOUS
 62
     6
 10
141.388862
 20
250.444438
 11
140.636606
 21
250.444438
  0
LINE
  8
CSLAYER1
  6
CONTINUOUS
 62
     6
 10
143.611112
 20
251.555563
 11
144.363369
 21
251.555563
  0
LINE
  8
CSLAYER1
  6
CONTINUOUS
 62
     6
 10
141.388862
 20
251.555563
 11
140.636606
 21
251.555563
  0
LINE
  8
CSLAYER1
  6
CONTINUOUS
 62
     6
 10
141.944425
 20
249.888905
 11
141.944425
 21
249.136590
  0
LINE
  8
CSLAYER1
  6
CONTINUOUS
 62
     6
 10
141.944425
 20
252.111097
 11
141.944425
 21
252.863411
  0
LINE
  8
CSLAYER1
  6
CONTINUOUS
 62
     6
 10
143.055550
 20
249.888905
 11
143.055550
 21
249.136590
  0
LINE
  8
CSLAYER1
  6
CONTINUOUS
 62
     6
 10
143.055550
 20
252.111097
 11
143.055550
 21
252.863411
  0
ARC
  8
CSLAYER1
  6
CONTINUOUS
 62
     6
 10
143.611112
 20
249.888905
 40
0.555556
 50
90.000001
 51
179.942691
  0
ARC
  8
CSLAYER1
  6
CONTINUOUS
 62
     6
 10
143.611112
 20
252.111097
 40
0.555556
 50
180.000010
 51
270.000016
  0
ARC
  8
CSLAYER1
  6
CONTINUOUS
 62
     6
 10
141.388862
 20
252.111097
 40
0.555556
 50
-89.999984
 51
0.000005
  0
ARC
  8
CSLAYER1
  6
CONTINUOUS
 62
     6
 10
141.388862
 20
249.888905
 40
0.555556
 50
0.000005
 51
89.942654
  0
LINE
  8
CSLAYER1
  6
CONTINUOUS
 62
     6
 10
150.000000
 20
234.220000
 11
135.000000
 21
234.220000
  0
LINE
  8
CSLAYER1
  6
CONTINUOUS
 62
     6
 10
150.000000
 20
235.620000
 11
135.000000
 21
235.620000
  0
CIRCLE
  8
CSLAYER1
  6
CONTINUOUS
 62
     6
 10
142.500000
 20
240.280000
 40
3.500000
  0
ARC
  8
CSLAYER1
  6
CONTINUOUS
 62
     6
 10
142.499987
 20
240.280001
 40
1.944444
 50
163.398416
 51
196.601577
  0
ARC
  8
CSLAYER1
  6
CONTINUOUS
 62
     6
 10
142.499987
 20
240.280001
 40
1.944444
 50
253.398422
 51
286.601583
  0
ARC
  8
CSLAYER1
  6
CONTINUOUS
 62
     6
 10
142.499987
 20
240.280001
 40
1.944444
 50
-16.601562
 51
16.601572
  0
ARC
  8
CSLAYER1
  6
CONTINUOUS
 62
     6
 10
142.499987
 20
240.280001
 40
1.944444
 50
73.398406
 51
106.601595
  0
LINE
  8
CSLAYER1
  6
CONTINUOUS
 62
     6
 10
143.611112
 20
239.724438
 11
144.363369
 21
239.724438
  0
LINE
  8
CSLAYER1
  6
CONTINUOUS
 62
     6
 10
141.388862
 20
239.724438
 11
140.636606
 21
239.724438
  0
LINE
  8
CSLAYER1
  6
CONTINUOUS
 62
     6
 10
143.611112
 20
240.835563
 11
144.363369
 21
240.835563
  0
LINE
  8
CSLAYER1
  6
CONTINUOUS
 62
     6
 10
141.388862
 20
240.835563
 11
140.636606
 21
240.835563
  0
LINE
  8
CSLAYER1
  6
CONTINUOUS
 62
     6
 10
141.944425
 20
239.168905
 11
141.944425
 21
238.416590
  0
LINE
  8
CSLAYER1
  6
CONTINUOUS
 62
     6
 10
141.944425
 20
241.391097
 11
141.944425
 21
242.143411
  0
LINE
  8
CSLAYER1
  6
CONTINUOUS
 62
     6
 10
143.055550
 20
239.168905
 11
143.055550
 21
238.416590
  0
LINE
  8
CSLAYER1
  6
CONTINUOUS
 62
     6
 10
143.055550
 20
241.391097
 11
143.055550
 21
242.143411
  0
ARC
  8
CSLAYER1
  6
CONTINUOUS
 62
     6
 10
143.611112
 20
239.168905
 40
0.555556
 50
90.000001
 51
179.942691
  0
ARC
  8
CSLAYER1
  6
CONTINUOUS
 62
     6
 10
143.611112
 20
241.391097
 40
0.555556
 50
180.000010
 51
270.000016
  0
ARC
  8
CSLAYER1
  6
CONTINUOUS
 62
     6
 10
141.388862
 20
241.391097
 40
0.555556
 50
-89.999984
 51
0.000005
  0
ARC
  8
CSLAYER1
  6
CONTINUOUS
 62
     6
 10
141.388862
 20
239.168905
 40
0.555556
 50
0.000005
 51
89.942654
  0
LINE
  8
CSLAYER1
  6
CONTINUOUS
 62
     6
 10
150.000000
 20
223.500000
 11
135.000000
 21
223.500000
  0
LINE
  8
CSLAYER1
  6
CONTINUOUS
 62
     6
 10
150.000000
 20
224.900000
 11
135.000000
 21
224.900000
  0
CIRCLE
  8
CSLAYER1
  6
CONTINUOUS
 62
     6
 10
142.500000
 20
229.560000
 40
3.500000
  0
ARC
  8
CSLAYER1
  6
CONTINUOUS
 62
     6
 10
142.499987
 20
229.560001
 40
1.944444
 50
163.398416
 51
196.601577
  0
ARC
  8
CSLAYER1
  6
CONTINUOUS
 62
     6
 10
142.499987
 20
229.560001
 40
1.944444
 50
253.398422
 51
286.601583
  0
ARC
  8
CSLAYER1
  6
CONTINUOUS
 62
     6
 10
142.499987
 20
229.560001
 40
1.944444
 50
-16.601562
 51
16.601572
  0
ARC
  8
CSLAYER1
  6
CONTINUOUS
 62
     6
 10
142.499987
 20
229.560001
 40
1.944444
 50
73.398406
 51
106.601595
  0
LINE
  8
CSLAYER1
  6
CONTINUOUS
 62
     6
 10
143.611112
 20
229.004438
 11
144.363369
 21
229.004438
  0
LINE
  8
CSLAYER1
  6
CONTINUOUS
 62
     6
 10
141.388862
 20
229.004438
 11
140.636606
 21
229.004438
  0
LINE
  8
CSLAYER1
  6
CONTINUOUS
 62
     6
 10
143.611112
 20
230.115563
 11
144.363369
 21
230.115563
  0
LINE
  8
CSLAYER1
  6
CONTINUOUS
 62
     6
 10
141.388862
 20
230.115563
 11
140.636606
 21
230.115563
  0
LINE
  8
CSLAYER1
  6
CONTINUOUS
 62
     6
 10
141.944425
 20
228.448905
 11
141.944425
 21
227.696590
  0
LINE
  8
CSLAYER1
  6
CONTINUOUS
 62
     6
 10
141.944425
 20
230.671097
 11
141.944425
 21
231.423411
  0
LINE
  8
CSLAYER1
  6
CONTINUOUS
 62
     6
 10
143.055550
 20
228.448905
 11
143.055550
 21
227.696590
  0
LINE
  8
CSLAYER1
  6
CONTINUOUS
 62
     6
 10
143.055550
 20
230.671097
 11
143.055550
 21
231.423411
  0
ARC
  8
CSLAYER1
  6
CONTINUOUS
 62
     6
 10
143.611112
 20
228.448905
 40
0.555556
 50
90.000001
 51
179.942691
  0
ARC
  8
CSLAYER1
  6
CONTINUOUS
 62
     6
 10
143.611112
 20
230.671097
 40
0.555556
 50
180.000010
 51
270.000016
  0
ARC
  8
CSLAYER1
  6
CONTINUOUS
 62
     6
 10
141.388862
 20
230.671097
 40
0.555556
 50
-89.999984
 51
0.000005
  0
ARC
  8
CSLAYER1
  6
CONTINUOUS
 62
     6
 10
141.388862
 20
228.448905
 40
0.555556
 50
0.000005
 51
89.942654
  0
LINE
  8
CSLAYER1
  6
CONTINUOUS
 62
     6
 10
222.292000
 20
257.060000
 11
233.500000
 21
257.060000
  0
LINE
  8
CSLAYER1
  6
CONTINUOUS
 62
     6
 10
222.292000
 20
255.660000
 11
233.500000
 21
255.660000
  0
LINE
  8
CSLAYER1
  6
CONTINUOUS
 62
     3
 10
228.628000
 20
266.380000
 11
228.628000
 21
257.060000
  0
LINE
  8
CSLAYER1
  6
CONTINUOUS
 62
     3
 10
227.836000
 20
266.380000
 11
227.836000
 21
257.060000
  0
LINE
  8
CSLAYER1
  6
CONTINUOUS
 62
     3
 10
226.991200
 20
258.340697
 11
226.991200
 21
265.099303
  0
ARC
  8
CSLAYER1
  6
CONTINUOUS
 62
     6
 10
233.025696
 20
261.720000
 40
8.448294
 50
163.742994
 51
196.257016
  0
LINE
  8
CSLAYER1
  6
CONTINUOUS
 62
     6
 10
226.728738
 20
265.016008
 11
225.968607
 21
264.949508
  0
ARC
  8
CSLAYER1
  6
CONTINUOUS
 62
     6
 10
226.073798
 20
263.747195
 40
1.206899
 50
95.000111
 51
163.742611
  0
ARC
  8
CSLAYER1
  6
CONTINUOUS
 62
     3
 10
226.749806
 20
264.775553
 40
0.241380
 50
0.000000
 51
95.000152
  0
LINE
  8
CSLAYER1
  6
CONTINUOUS
 62
     3
 10
227.111861
 20
265.220000
 11
227.715310
 21
265.220000
  0
ARC
  8
CSLAYER1
  6
CONTINUOUS
 62
     3
 10
227.111861
 20
265.099303
 40
0.120690
 50
90.000003
 51
180.000005
  0
ARC
  8
CSLAYER1
  6
CONTINUOUS
 62
     3
 10
227.715310
 20
265.099303
 40
0.120690
 50
0.000000
 51
90.000003
  0
LINE
  8
CSLAYER1
  6
CONTINUOUS
 62
     6
 10
226.728738
 20
258.423992
 11
225.968607
 21
258.490492
  0
ARC
  8
CSLAYER1
  6
CONTINUOUS
 62
     6
 10
226.073798
 20
259.692805
 40
1.206899
 50
196.257399
 51
264.999892
  0
ARC
  8
CSLAYER1
  6
CONTINUOUS
 62
     3
 10
226.749806
 20
258.664447
 40
0.241380
 50
264.999865
 51
359.942691
  0
ARC
  8
CSLAYER1
  6
CONTINUOUS
 62
     3
 10
227.111861
 20
258.340697
 40
0.120690
 50
180.000005
 51
270.000001
  0
LINE
  8
CSLAYER1
  6
CONTINUOUS
 62
     3
 10
227.111861
 20
258.220000
 11
227.715310
 21
258.220000
  0
ARC
  8
CSLAYER1
  6
CONTINUOUS
 62
     3
 10
227.715310
 20
258.340697
 40
0.120690
 50
270.000001
 51
359.942691
  0
LINE
  8
CSLAYER1
  6
CONTINUOUS
 62
     3
 10
226.991200
 20
261.000770
 11
227.836007
 21
261.536468
  0
LINE
  8
CSLAYER1
  6
CONTINUOUS
 62
     3
 10
226.991200
 20
261.604220
 11
227.836007
 21
262.139917
  0
LINE
  8
CSLAYER1
  6
CONTINUOUS
 62
     6
 10
222.292000
 20
246.340000
 11
233.500000
 21
246.340000
  0
LINE
  8
CSLAYER1
  6
CONTINUOUS
 62
     6
 10
222.292000
 20
244.940000
 11
233.500000
 21
244.940000
  0
LINE
  8
CSLAYER1
  6
CONTINUOUS
 62
     3
 10
228.628000
 20
255.660000
 11
228.628000
 21
246.340000
  0
LINE
  8
CSLAYER1
  6
CONTINUOUS
 62
     3
 10
227.836000
 20
255.660000
 11
227.836000
 21
246.340000
  0
LINE
  8
CSLAYER1
  6
CONTINUOUS
 62
     3
 10
226.991200
 20
247.620697
 11
226.991200
 21
254.379303
  0
ARC
  8
CSLAYER1
  6
CONTINUOUS
 62
     6
 10
233.025696
 20
251.000000
 40
8.448294
 50
163.742994
 51
196.257016
  0
LINE
  8
CSLAYER1
  6
CONTINUOUS
 62
     6
 10
226.728738
 20
254.296008
 11
225.968607
 21
254.229508
  0
ARC
  8
CSLAYER1
  6
CONTINUOUS
 62
     6
 10
226.073798
 20
253.027195
 40
1.206899
 50
95.000111
 51
163.742611
  0
ARC
  8
CSLAYER1
  6
CONTINUOUS
 62
     3
 10
226.749806
 20
254.055553
 40
0.241380
 50
0.000000
 51
95.000152
  0
LINE
  8
CSLAYER1
  6
CONTINUOUS
 62
     3
 10
227.111861
 20
254.500000
 11
227.715310
 21
254.500000
  0
ARC
  8
CSLAYER1
  6
CONTINUOUS
 62
     3
 10
227.111861
 20
254.379303
 40
0.120690
 50
90.000003
 51
180.000005
  0
ARC
  8
CSLAYER1
  6
CONTINUOUS
 62
     3
 10
227.715310
 20
254.379303
 40
0.120690
 50
0.000000
 51
90.000003
  0
LINE
  8
CSLAYER1
  6
CONTINUOUS
 62
     6
 10
226.728738
 20
247.703992
 11
225.968607
 21
247.770492
  0
ARC
  8
CSLAYER1
  6
CONTINUOUS
 62
     6
 10
226.073798
 20
248.972805
 40
1.206899
 50
196.257399
 51
264.999892
  0
ARC
  8
CSLAYER1
  6
CONTINUOUS
 62
     3
 10
226.749806
 20
247.944447
 40
0.241380
 50
264.999865
 51
359.942691
  0
ARC
  8
CSLAYER1
  6
CONTINUOUS
 62
     3
 10
227.111861
 20
247.620697
 40
0.120690
 50
180.000005
 51
270.000001
  0
LINE
  8
CSLAYER1
  6
CONTINUOUS
 62
     3
 10
227.111861
 20
247.500000
 11
227.715310
 21
247.500000
  0
ARC
  8
CSLAYER1
  6
CONTINUOUS
 62
     3
 10
227.715310
 20
247.620697
 40
0.120690
 50
270.000001
 51
359.942691
  0
LINE
  8
CSLAYER1
  6
CONTINUOUS
 62
     3
 10
226.991200
 20
250.280770
 11
227.836007
 21
250.816468
  0
LINE
  8
CSLAYER1
  6
CONTINUOUS
 62
     3
 10
226.991200
 20
250.884220
 11
227.836007
 21
251.419917
  0
LINE
  8
CSLAYER1
  6
CONTINUOUS
 62
     6
 10
222.292000
 20
235.620000
 11
233.500000
 21
235.620000
  0
LINE
  8
CSLAYER1
  6
CONTINUOUS
 62
     6
 10
222.292000
 20
234.220000
 11
233.500000
 21
234.220000
  0
LINE
  8
CSLAYER1
  6
CONTINUOUS
 62
     3
 10
228.628000
 20
244.940000
 11
228.628000
 21
235.620000
  0
LINE
  8
CSLAYER1
  6
CONTINUOUS
 62
     3
 10
227.836000
 20
244.940000
 11
227.836000
 21
235.620000
  0
LINE
  8
CSLAYER1
  6
CONTINUOUS
 62
     3
 10
226.991200
 20
236.900697
 11
226.991200
 21
243.659303
  0
ARC
  8
CSLAYER1
  6
CONTINUOUS
 62
     6
 10
233.025696
 20
240.280000
 40
8.448294
 50
163.742994
 51
196.257016
  0
LINE
  8
CSLAYER1
  6
CONTINUOUS
 62
     6
 10
226.728738
 20
243.576008
 11
225.968607
 21
243.509508
  0
ARC
  8
CSLAYER1
  6
CONTINUOUS
 62
     6
 10
226.073798
 20
242.307195
 40
1.206899
 50
95.000111
 51
163.742611
  0
ARC
  8
CSLAYER1
  6
CONTINUOUS
 62
     3
 10
226.749806
 20
243.335553
 40
0.241380
 50
0.000000
 51
95.000152
  0
LINE
  8
CSLAYER1
  6
CONTINUOUS
 62
     3
 10
227.111861
 20
243.780000
 11
227.715310
 21
243.780000
  0
ARC
  8
CSLAYER1
  6
CONTINUOUS
 62
     3
 10
227.111861
 20
243.659303
 40
0.120690
 50
90.000003
 51
180.000005
  0
ARC
  8
CSLAYER1
  6
CONTINUOUS
 62
     3
 10
227.715310
 20
243.659303
 40
0.120690
 50
0.000000
 51
90.000003
  0
LINE
  8
CSLAYER1
  6
CONTINUOUS
 62
     6
 10
226.728738
 20
236.983992
 11
225.968607
 21
237.050492
  0
ARC
  8
CSLAYER1
  6
CONTINUOUS
 62
     6
 10
226.073798
 20
238.252805
 40
1.206899
 50
196.257399
 51
264.999892
  0
ARC
  8
CSLAYER1
  6
CONTINUOUS
 62
     3
 10
226.749806
 20
237.224447
 40
0.241380
 50
264.999865
 51
359.942691
  0
ARC
  8
CSLAYER1
  6
CONTINUOUS
 62
     3
 10
227.111861
 20
236.900697
 40
0.120690
 50
180.000005
 51
270.000001
  0
LINE
  8
CSLAYER1
  6
CONTINUOUS
 62
     3
 10
227.111861
 20
236.780000
 11
227.715310
 21
236.780000
  0
ARC
  8
CSLAYER1
  6
CONTINUOUS
 62
     3
 10
227.715310
 20
236.900697
 40
0.120690
 50
270.000001
 51
359.942691
  0
LINE
  8
CSLAYER1
  6
CONTINUOUS
 62
     3
 10
226.991200
 20
239.560770
 11
227.836007
 21
240.096468
  0
LINE
  8
CSLAYER1
  6
CONTINUOUS
 62
     3
 10
226.991200
 20
240.164220
 11
227.836007
 21
240.699917
  0
LINE
  8
CSLAYER1
  6
CONTINUOUS
 62
     6
 10
222.292000
 20
224.900000
 11
233.500000
 21
224.900000
  0
LINE
  8
CSLAYER1
  6
CONTINUOUS
 62
     6
 10
222.292000
 20
223.500000
 11
233.500000
 21
223.500000
  0
LINE
  8
CSLAYER1
  6
CONTINUOUS
 62
     3
 10
228.628000
 20
234.220000
 11
228.628000
 21
224.900000
  0
LINE
  8
CSLAYER1
  6
CONTINUOUS
 62
     3
 10
227.836000
 20
234.220000
 11
227.836000
 21
224.900000
  0
LINE
  8
CSLAYER1
  6
CONTINUOUS
 62
     3
 10
226.991200
 20
226.180697
 11
226.991200
 21
232.939303
  0
ARC
  8
CSLAYER1
  6
CONTINUOUS
 62
     6
 10
233.025696
 20
229.560000
 40
8.448294
 50
163.742994
 51
196.257016
  0
LINE
  8
CSLAYER1
  6
CONTINUOUS
 62
     6
 10
226.728738
 20
232.856008
 11
225.968607
 21
232.789508
  0
ARC
  8
CSLAYER1
  6
CONTINUOUS
 62
     6
 10
226.073798
 20
231.587195
 40
1.206899
 50
95.000111
 51
163.742611
  0
ARC
  8
CSLAYER1
  6
CONTINUOUS
 62
     3
 10
226.749806
 20
232.615553
 40
0.241380
 50
0.000000
 51
95.000152
  0
LINE
  8
CSLAYER1
  6
CONTINUOUS
 62
     3
 10
227.111861
 20
233.060000
 11
227.715310
 21
233.060000
  0
ARC
  8
CSLAYER1
  6
CONTINUOUS
 62
     3
 10
227.111861
 20
232.939303
 40
0.120690
 50
90.000003
 51
180.000005
  0
ARC
  8
CSLAYER1
  6
CONTINUOUS
 62
     3
 10
227.715310
 20
232.939303
 40
0.120690
 50
0.000000
 51
90.000003
  0
LINE
  8
CSLAYER1
  6
CONTINUOUS
 62
     6
 10
226.728738
 20
226.263992
 11
225.968607
 21
226.330492
  0
ARC
  8
CSLAYER1
  6
CONTINUOUS
 62
     6
 10
226.073798
 20
227.532805
 40
1.206899
 50
196.257399
 51
264.999892
  0
ARC
  8
CSLAYER1
  6
CONTINUOUS
 62
     3
 10
226.749806
 20
226.504447
 40
0.241380
 50
264.999865
 51
359.942691
  0
ARC
  8
CSLAYER1
  6
CONTINUOUS
 62
     3
 10
227.111861
 20
226.180697
 40
0.120690
 50
180.000005
 51
270.000001
  0
LINE
  8
CSLAYER1
  6
CONTINUOUS
 62
     3
 10
227.111861
 20
226.060000
 11
227.715310
 21
226.060000
  0
ARC
  8
CSLAYER1
  6
CONTINUOUS
 62
     3
 10
227.715310
 20
226.180697
 40
0.120690
 50
270.000001
 51
359.942691
  0
LINE
  8
CSLAYER1
  6
CONTINUOUS
 62
     3
 10
226.991200
 20
228.840770
 11
227.836007
 21
229.376468
  0
LINE
  8
CSLAYER1
  6
CONTINUOUS
 62
     3
 10
226.991200
 20
229.444220
 11
227.836007
 21
229.979917
  0
CIRCLE
  8
CSLAYER1
  6
CONTINUOUS
 62
     7
 10
262.500000
 20
118.500000
 40
1.500000
  0
CIRCLE
  8
CSLAYER1
  6
CONTINUOUS
 62
     7
 10
342.500000
 20
372.500000
 40
1.500000
  0
CIRCLE
  8
CSLAYER1
  6
CONTINUOUS
 62
     7
 10
342.500000
 20
118.500000
 40
1.500000
  0
LINE
  8
CSLAYER1
  6
DOT
 62
     3
 10
262.500000
 20
377.000000
 11
262.500000
 21
368.000000
  0
LINE
  8
CSLAYER1
  6
DOT
 62
     3
 10
258.000000
 20
372.500000
 11
267.000000
 21
372.500000
  0
LINE
  8
CSLAYER1
  6
DOT
 62
     3
 10
252.500000
 20
183.383775
 11
252.500000
 21
260.646758
  0
LINE
  8
CSLAYER1
  6
DOT
 62
     3
 10
292.500000
 20
147.256825
 11
292.500000
 21
161.295870
  0
LINE
  8
CSLAYER1
  6
DOT
 62
     3
 10
282.500000
 20
147.256825
 11
282.500000
 21
161.295870
  0
LINE
  8
CSLAYER1
  6
DOT
 62
     3
 10
272.500000
 20
147.256825
 11
272.500000
 21
161.295870
  0
LINE
  8
CSLAYER1
  6
DOT
 62
     3
 10
299.523584
 20
154.000000
 11
267.535885
 21
154.000000
  0
LINE
  8
CSLAYER1
  6
DOT
 62
     3
 10
256.500000
 20
131.256825
 11
256.500000
 21
145.295870
  0
LINE
  8
CSLAYER1
  6
DOT
 62
     3
 10
260.776776
 20
137.500000
 11
251.535885
 21
137.500000
  0
LINE
  8
CSLAYER1
  6
DOT
 62
     3
 10
280.500000
 20
124.865435
 11
280.500000
 21
138.549062
  0
LINE
  8
CSLAYER1
  6
DOT
 62
     3
 10
286.550795
 20
131.500000
 11
274.466554
 21
131.500000
  0
LINE
  8
CSLAYER1
  6
DOT
 62
     3
 10
293.500000
 20
129.308171
 11
293.500000
 21
142.458670
  0
LINE
  8
CSLAYER1
  6
DOT
 62
     3
 10
302.500000
 20
129.308171
 11
302.500000
 21
142.458670
  0
LINE
  8
CSLAYER1
  6
DOT
 62
     3
 10
309.830732
 20
135.500000
 11
286.373086
 21
135.500000
  0
LINE
  8
CSLAYER1
  6
DOT
 62
     3
 10
258.500000
 20
183.383775
 11
258.500000
 21
260.646758
  0
LINE
  8
CSLAYER1
  6
DOT
 62
     3
 10
455.000000
 20
118.500000
 11
464.000000
 21
118.500000
  0
LINE
  8
CSLAYER1
  6
DOT
 62
     3
 10
459.500000
 20
123.000000
 11
459.500000
 21
114.000000
  0
LINE
  8
CSLAYER1
  6
DOT
 62
     3
 10
258.000000
 20
118.500000
 11
267.000000
 21
118.500000
  0
LINE
  8
CSLAYER1
  6
DOT
 62
     3
 10
262.500000
 20
123.000000
 11
262.500000
 21
114.000000
  0
LINE
  8
CSLAYER1
  6
DOT
 62
     3
 10
342.500000
 20
377.000000
 11
342.500000
 21
368.000000
  0
LINE
  8
CSLAYER1
  6
DOT
 62
     3
 10
338.000000
 20
372.500000
 11
347.000000
 21
372.500000
  0
LINE
  8
CSLAYER1
  6
DOT
 62
     3
 10
338.000000
 20
118.500000
 11
347.000000
 21
118.500000
  0
LINE
  8
CSLAYER1
  6
DOT
 62
     3
 10
342.500000
 20
123.000000
 11
342.500000
 21
114.000000
  0
ENDSEC
  0
EOF
